  0
SECTION
  2
HEADER
  9
$ACADVER
  1
AC1018
  9
$ACADMAINTVER
 70
     0
  9
$DWGCODEPAGE
  3
ANSI_1252
  9
$INSBASE
 10
0.0
 20
0.0
 30
0.0
  9
$EXTMIN
 10
367.1860486373711
 20
876.0000001450527
 30
0.0
  9
$EXTMAX
 10
1654.169190263671
 20
2420.23073684151
 30
0.0
  9
$LIMMIN
 10
0.0
 20
0.0
  9
$LIMMAX
 10
12.0
 20
9.0
  9
$ORTHOMODE
 70
     0
  9
$REGENMODE
 70
     1
  9
$FILLMODE
 70
     1
  9
$QTEXTMODE
 70
     0
  9
$MIRRTEXT
 70
     1
  9
$LTSCALE
 40
1.0
  9
$ATTMODE
 70
     1
  9
$TEXTSIZE
 40
0.2
  9
$TRACEWID
 40
0.05
  9
$TEXTSTYLE
  7
Standard
  9
$CLAYER
  8
Predefinito
  9
$CELTYPE
  6
ByLayer
  9
$CECOLOR
 62
   256
  9
$CELTSCALE
 40
1.0
  9
$DISPSILH
 70
     0
  9
$DIMSCALE
 40
1.0
  9
$DIMASZ
 40
0.18
  9
$DIMEXO
 40
0.0625
  9
$DIMDLI
 40
0.38
  9
$DIMRND
 40
0.0
  9
$DIMDLE
 40
0.0
  9
$DIMEXE
 40
0.18
  9
$DIMTP
 40
0.0
  9
$DIMTM
 40
0.0
  9
$DIMTXT
 40
0.18
  9
$DIMCEN
 40
0.09
  9
$DIMTSZ
 40
0.0
  9
$DIMTOL
 70
     0
  9
$DIMLIM
 70
     0
  9
$DIMTIH
 70
     1
  9
$DIMTOH
 70
     1
  9
$DIMSE1
 70
     0
  9
$DIMSE2
 70
     0
  9
$DIMTAD
 70
     0
  9
$DIMZIN
 70
     0
  9
$DIMBLK
  1

  9
$DIMASO
 70
     1
  9
$DIMSHO
 70
     1
  9
$DIMPOST
  1

  9
$DIMAPOST
  1

  9
$DIMALT
 70
     0
  9
$DIMALTD
 70
     2
  9
$DIMALTF
 40
25.4
  9
$DIMLFAC
 40
1.0
  9
$DIMTOFL
 70
     0
  9
$DIMTVP
 40
0.0
  9
$DIMTIX
 70
     0
  9
$DIMSOXD
 70
     0
  9
$DIMSAH
 70
     0
  9
$DIMBLK1
  1

  9
$DIMBLK2
  1

  9
$DIMSTYLE
  2
Standard
  9
$DIMCLRD
 70
     0
  9
$DIMCLRE
 70
     0
  9
$DIMCLRT
 70
     0
  9
$DIMTFAC
 40
1.0
  9
$DIMGAP
 40
0.09
  9
$DIMJUST
 70
     0
  9
$DIMSD1
 70
     0
  9
$DIMSD2
 70
     0
  9
$DIMTOLJ
 70
     1
  9
$DIMTZIN
 70
     0
  9
$DIMALTZ
 70
     0
  9
$DIMALTTZ
 70
     0
  9
$DIMUPT
 70
     0
  9
$DIMDEC
 70
     4
  9
$DIMTDEC
 70
     4
  9
$DIMALTU
 70
     2
  9
$DIMALTTD
 70
     2
  9
$DIMTXSTY
  7
Standard
  9
$DIMAUNIT
 70
     0
  9
$DIMADEC
 70
     0
  9
$DIMALTRND
 40
0.0
  9
$DIMAZIN
 70
     0
  9
$DIMDSEP
 70
    46
  9
$DIMATFIT
 70
     3
  9
$DIMFRAC
 70
     0
  9
$DIMLDRBLK
  1

  9
$DIMLUNIT
 70
     2
  9
$DIMLWD
 70
    -2
  9
$DIMLWE
 70
    -2
  9
$DIMTMOVE
 70
     2
  9
$LUNITS
 70
     2
  9
$LUPREC
 70
     3
  9
$SKETCHINC
 40
0.1
  9
$FILLETRAD
 40
0.5
  9
$AUNITS
 70
     0
  9
$AUPREC
 70
     0
  9
$MENU
  1
.
  9
$ELEVATION
 40
0.0
  9
$PELEVATION
 40
0.0
  9
$THICKNESS
 40
0.0
  9
$LIMCHECK
 70
     0
  9
$CHAMFERA
 40
0.5
  9
$CHAMFERB
 40
0.5
  9
$CHAMFERC
 40
1.0
  9
$CHAMFERD
 40
0.0
  9
$SKPOLY
 70
     0
  9
$TDCREATE
 40
2458261.599942083
  9
$TDUCREATE
 40
2458261.51660875
  9
$TDUPDATE
 40
2458261.599942095
  9
$TDUUPDATE
 40
2458261.516608762
  9
$TDINDWG
 40
0.0000000116
  9
$TDUSRTIMER
 40
0.0000000116
  9
$USRTIMER
 70
     1
  9
$ANGBASE
 50
0.0
  9
$ANGDIR
 70
     0
  9
$PDMODE
 70
     0
  9
$PDSIZE
 40
0.0
  9
$PLINEWID
 40
0.0
  9
$SPLFRAME
 70
     0
  9
$SPLINETYPE
 70
     6
  9
$SPLINESEGS
 70
     8
  9
$HANDSEED
  5
239
  9
$SURFTAB1
 70
     6
  9
$SURFTAB2
 70
     6
  9
$SURFTYPE
 70
     6
  9
$SURFU
 70
     6
  9
$SURFV
 70
     6
  9
$UCSBASE
  2

  9
$UCSNAME
  2

  9
$UCSORG
 10
0.0
 20
0.0
 30
0.0
  9
$UCSXDIR
 10
1.0
 20
0.0
 30
0.0
  9
$UCSYDIR
 10
0.0
 20
1.0
 30
0.0
  9
$UCSORTHOREF
  2

  9
$UCSORTHOVIEW
 70
     0
  9
$UCSORGTOP
 10
0.0
 20
0.0
 30
0.0
  9
$UCSORGBOTTOM
 10
0.0
 20
0.0
 30
0.0
  9
$UCSORGLEFT
 10
0.0
 20
0.0
 30
0.0
  9
$UCSORGRIGHT
 10
0.0
 20
0.0
 30
0.0
  9
$UCSORGFRONT
 10
0.0
 20
0.0
 30
0.0
  9
$UCSORGBACK
 10
0.0
 20
0.0
 30
0.0
  9
$PUCSBASE
  2

  9
$PUCSNAME
  2

  9
$PUCSORG
 10
0.0
 20
0.0
 30
0.0
  9
$PUCSXDIR
 10
1.0
 20
0.0
 30
0.0
  9
$PUCSYDIR
 10
0.0
 20
1.0
 30
0.0
  9
$PUCSORTHOREF
  2

  9
$PUCSORTHOVIEW
 70
     0
  9
$PUCSORGTOP
 10
0.0
 20
0.0
 30
0.0
  9
$PUCSORGBOTTOM
 10
0.0
 20
0.0
 30
0.0
  9
$PUCSORGLEFT
 10
0.0
 20
0.0
 30
0.0
  9
$PUCSORGRIGHT
 10
0.0
 20
0.0
 30
0.0
  9
$PUCSORGFRONT
 10
0.0
 20
0.0
 30
0.0
  9
$PUCSORGBACK
 10
0.0
 20
0.0
 30
0.0
  9
$USERI1
 70
     0
  9
$USERI2
 70
     0
  9
$USERI3
 70
     0
  9
$USERI4
 70
     0
  9
$USERI5
 70
     0
  9
$USERR1
 40
0.0
  9
$USERR2
 40
0.0
  9
$USERR3
 40
0.0
  9
$USERR4
 40
0.0
  9
$USERR5
 40
0.0
  9
$WORLDVIEW
 70
     1
  9
$SHADEDGE
 70
     3
  9
$SHADEDIF
 70
    70
  9
$TILEMODE
 70
     0
  9
$MAXACTVP
 70
    64
  9
$PINSBASE
 10
0.0
 20
0.0
 30
0.0
  9
$PLIMCHECK
 70
     0
  9
$PEXTMIN
 10
0.0
 20
0.0
 30
0.0
  9
$PEXTMAX
 10
0.0
 20
0.0
 30
0.0
  9
$PLIMMIN
 10
0.0
 20
0.0
  9
$PLIMMAX
 10
12.0
 20
9.0
  9
$UNITMODE
 70
     0
  9
$VISRETAIN
 70
     1
  9
$PLINEGEN
 70
     0
  9
$PSLTSCALE
 70
     1
  9
$TREEDEPTH
 70
  3020
  9
$CMLSTYLE
  2
Standard
  9
$CMLJUST
 70
     0
  9
$CMLSCALE
 40
1.0
  9
$PROXYGRAPHICS
 70
     1
  9
$MEASUREMENT
 70
     0
  9
$CELWEIGHT
370
    -1
  9
$ENDCAPS
280
     0
  9
$JOINSTYLE
280
     0
  9
$LWDISPLAY
290
     0
  9
$INSUNITS
 70
     4
  9
$HYPERLINKBASE
  1

  9
$STYLESHEET
  1

  9
$XEDIT
290
     1
  9
$CEPSNTYPE
380
     0
  9
$PSTYLEMODE
290
     1
  9
$FINGERPRINTGUID
  2
{BFD51863-9B87-46AE-A8C8-FDA8DF92741F}
  9
$VERSIONGUID
  2
{FAEB1C32-E019-11D5-929B-00C0DF256EC4}
  9
$EXTNAMES
290
     1
  9
$PSVPSCALE
 40
0.0
  9
$OLESTARTUP
290
     0
  9
$SORTENTS
280
   127
  9
$INDEXCTL
280
     0
  9
$HIDETEXT
280
     1
  9
$XCLIPFRAME
290
     0
  9
$HALOGAP
280
     0
  9
$OBSCOLOR
 70
   257
  9
$OBSLTYPE
280
     0
  9
$INTERSECTIONDISPLAY
280
     0
  9
$INTERSECTIONCOLOR
 70
   257
  9
$DIMASSOC
280
     2
  9
$PROJECTNAME
  1

  0
ENDSEC
  0
SECTION
  2
CLASSES
  0
CLASS
  1
ACDBDICTIONARYWDFLT
  2
AcDbDictionaryWithDefault
  3
ObjectDBX Classes
 90
        0
 91
        4
280
     0
281
     0
  0
CLASS
  1
VISUALSTYLE
  2
AcDbVisualStyle
  3
ObjectDBX Classes
 90
     4095
 91
        4
280
     0
281
     0
  0
CLASS
  1
SCALE
  2
AcDbScale
  3
ObjectDBX Classes
 90
     1153
 91
        4
280
     0
281
     0
  0
CLASS
  1
DICTIONARYVAR
  2
AcDbDictionaryVar
  3
ObjectDBX Classes
 90
        0
 91
        4
280
     0
281
     0
  0
ENDSEC
  0
SECTION
  2
TABLES
  0
TABLE
  2
VPORT
  5
8
330
0
100
AcDbSymbolTable
 70
     1
  0
VPORT
  5
29
330
8
100
AcDbSymbolTableRecord
100
AcDbViewportTableRecord
  2
*Active
 70
     0
 10
0.0
 20
0.0
 11
1.0
 21
1.0
 12
1010.677619450521
 22
1648.115368493281
 13
0.0
 23
0.0
 14
0.5
 24
0.5
 15
0.5
 25
0.5
 16
0.0
 26
0.0
 36
1.0
 17
0.0
 27
0.0
 37
0.0
 40
1575.115351430387
 41
0.8334137580887149
 42
50.0
 43
0.0
 44
0.0
 50
0.0
 51
0.0
 71
     0
 72
   100
 73
     1
 74
     3
 75
     0
 76
     0
 77
     0
 78
     0
281
     0
 65
     1
110
0.0
120
0.0
130
0.0
111
1.0
121
0.0
131
0.0
112
0.0
122
1.0
132
0.0
 79
     0
146
0.0
  0
ENDTAB
  0
TABLE
  2
LTYPE
  5
5
330
0
100
AcDbSymbolTable
 70
     1
  0
LTYPE
  5
14
330
5
100
AcDbSymbolTableRecord
100
AcDbLinetypeTableRecord
  2
ByBlock
 70
     0
  3

 72
    65
 73
     0
 40
0.0
  0
LTYPE
  5
15
330
5
100
AcDbSymbolTableRecord
100
AcDbLinetypeTableRecord
  2
ByLayer
 70
     0
  3

 72
    65
 73
     0
 40
0.0
  0
LTYPE
  5
16
330
5
100
AcDbSymbolTableRecord
100
AcDbLinetypeTableRecord
  2
Continuous
 70
     0
  3
Solid line
 72
    65
 73
     0
 40
0.0
  0
ENDTAB
  0
TABLE
  2
LAYER
  5
2
330
0
100
AcDbSymbolTable
 70
     2
  0
LAYER
  5
10
330
2
100
AcDbSymbolTableRecord
100
AcDbLayerTableRecord
  2
0
 70
     0
 62
     7
  6
Continuous
370
    -3
390
F
  0
LAYER
  5
3B
330
2
100
AcDbSymbolTableRecord
100
AcDbLayerTableRecord
  2
Predefinito
 70
     0
 62
     7
  6
Continuous
370
    -3
390
F
  0
ENDTAB
  0
TABLE
  2
STYLE
  5
3
330
0
100
AcDbSymbolTable
 70
     1
  0
STYLE
  5
11
330
3
100
AcDbSymbolTableRecord
100
AcDbTextStyleTableRecord
  2
Standard
 70
     0
 40
0.0
 41
1.0
 50
0.0
 71
     0
 42
0.2
  3
txt
  4

  0
ENDTAB
  0
TABLE
  2
VIEW
  5
6
330
0
100
AcDbSymbolTable
 70
     0
  0
ENDTAB
  0
TABLE
  2
UCS
  5
7
330
0
100
AcDbSymbolTable
 70
     0
  0
ENDTAB
  0
TABLE
  2
APPID
  5
9
330
0
100
AcDbSymbolTable
 70
     1
  0
APPID
  5
12
330
9
100
AcDbSymbolTableRecord
100
AcDbRegAppTableRecord
  2
ACAD
 70
     0
  0
ENDTAB
  0
TABLE
  2
DIMSTYLE
  5
A
330
0
100
AcDbSymbolTable
 70
     1
100
AcDbDimStyleTable
  0
DIMSTYLE
105
27
330
A
100
AcDbSymbolTableRecord
100
AcDbDimStyleTableRecord
  2
Standard
 70
     0
340
11
  0
ENDTAB
  0
TABLE
  2
BLOCK_RECORD
  5
1
330
0
100
AcDbSymbolTable
 70
     3
  0
BLOCK_RECORD
  5
1F
330
1
100
AcDbSymbolTableRecord
100
AcDbBlockTableRecord
  2
*Model_Space
340
22
  0
BLOCK_RECORD
  5
20E
330
1
100
AcDbSymbolTableRecord
100
AcDbBlockTableRecord
  2
*Paper_Space
340
20F
  0
BLOCK_RECORD
  5
23
330
1
100
AcDbSymbolTableRecord
100
AcDbBlockTableRecord
  2
*Paper_Space0
340
26
  0
BLOCK_RECORD
  5
1B
330
1
100
AcDbSymbolTableRecord
100
AcDbBlockTableRecord
  2
*Paper_Space1
340
1E
  0
BLOCK_RECORD
  5
209
330
1
100
AcDbSymbolTableRecord
100
AcDbBlockTableRecord
  2
*Paper_Space2
340
20A
  0
ENDTAB
  0
ENDSEC
  0
SECTION
  2
BLOCKS
  0
BLOCK
  5
20
330
1F
100
AcDbEntity
  8
0
100
AcDbBlockBegin
  2
*Model_Space
 70
     0
 10
0.0
 20
0.0
 30
0.0
  3
*Model_Space
  1

  0
ENDBLK
  5
21
330
1F
100
AcDbEntity
  8
0
100
AcDbBlockEnd
  0
BLOCK
  5
210
330
20E
100
AcDbEntity
 67
     1
  8
0
100
AcDbBlockBegin
  2
*Paper_Space
 70
     0
 10
0.0
 20
0.0
 30
0.0
  3
*Paper_Space
  1

  0
ENDBLK
  5
211
330
20E
100
AcDbEntity
 67
     1
  8
0
100
AcDbBlockEnd
  0
BLOCK
  5
24
330
23
100
AcDbEntity
  8
0
100
AcDbBlockBegin
  2
*Paper_Space0
 70
     0
 10
0.0
 20
0.0
 30
0.0
  3
*Paper_Space0
  1

  0
ENDBLK
  5
25
330
23
100
AcDbEntity
  8
0
100
AcDbBlockEnd
  0
BLOCK
  5
1C
330
1B
100
AcDbEntity
  8
0
100
AcDbBlockBegin
  2
*Paper_Space1
 70
     0
 10
0.0
 20
0.0
 30
0.0
  3
*Paper_Space1
  1

  0
ENDBLK
  5
1D
330
1B
100
AcDbEntity
  8
0
100
AcDbBlockEnd
  0
BLOCK
  5
20B
330
209
100
AcDbEntity
  8
0
100
AcDbBlockBegin
  2
*Paper_Space2
 70
     0
 10
0.0
 20
0.0
 30
0.0
  3
*Paper_Space2
  1

  0
VIEWPORT
  5
20D
330
209
100
AcDbEntity
  8
0
100
AcDbViewport
 10
6.0
 20
4.5
 30
0.0
 40
12.696
 41
9.522
 68
     1
 69
     1
 12
6.0
 22
4.5
 13
0.0
 23
0.0
 14
0.5
 24
0.5
 15
0.5
 25
0.5
 16
0.0
 26
0.0
 36
1.0
 17
0.0
 27
0.0
 37
0.0
 42
50.0
 43
0.0
 44
0.0
 45
9.522
 50
0.0
 51
0.0
 72
   100
 90
   557152
  1

281
     0
 71
     1
 74
     0
110
0.0
120
0.0
130
0.0
111
1.0
121
0.0
131
0.0
112
0.0
122
1.0
132
0.0
 79
     0
146
0.0
170
     0
  0
ENDBLK
  5
20C
330
209
100
AcDbEntity
  8
0
100
AcDbBlockEnd
  0
ENDSEC
  0
SECTION
  2
ENTITIES
  0
SPLINE
  5
3C
330
1F
100
AcDbEntity
  8
Predefinito
100
AcDbSpline
210
0.0
220
0.0
230
1.0
 70
    12
 71
     2
 72
    12
 73
     9
 74
     0
 42
0.0000000001
 43
0.0000000001
 40
0.0
 40
0.0
 40
0.0
 40
127.8394079302947
 40
127.8394079302947
 40
255.6788158605895
 40
255.6788158605895
 40
383.5182237908842
 40
383.5182237908842
 40
511.357631721179
 40
511.357631721179
 40
511.357631721179
 10
1537.169190263672
 20
1271.520238487203
 30
0.0
 41
1.0
 10
1465.075863114811
 20
1276.117357464255
 30
0.0
 41
0.8358656024633384
 10
1440.648752013473
 20
1344.101896629602
 30
0.0
 41
1.0
 10
1416.221640912136
 20
1412.086435794951
 30
0.0
 41
0.8358656024633384
 10
1468.9031038642
 20
1461.515625384829
 30
0.0
 41
1.0
 10
1521.584566816264
 20
1510.944814974708
 30
0.0
 41
0.8358656024633384
 10
1587.876857973955
 20
1482.240922288423
 30
0.0
 41
1.0
 10
1654.169149131646
 20
1453.537029602139
 30
0.0
 41
0.8358656024633384
 10
1654.169190263671
 20
1381.297280694213
 30
0.0
 41
1.0
  0
SPLINE
  5
3D
330
1F
100
AcDbEntity
  8
Predefinito
100
AcDbSpline
210
0.0
220
0.0
230
1.0
 70
    12
 71
     2
 72
     6
 73
     3
 74
     0
 42
0.0000000001
 43
0.0000000001
 40
0.0
 40
0.0
 40
0.0
 40
165.7828240800107
 40
165.7828240800107
 40
165.7828240800107
 10
1654.169190263671
 20
1381.297280694213
 30
0.0
 41
1.0
 10
1654.169075825101
 20
1278.088197868522
 30
0.0
 41
0.7292594586110587
 10
1551.169190263672
 20
1271.520218569991
 30
0.0
 41
1.0
  0
SPLINE
  5
3E
330
1F
100
AcDbEntity
  8
Predefinito
100
AcDbSpline
210
0.0
220
0.0
230
1.0
 70
    24
 71
     2
 72
     6
 73
     3
 74
     0
 42
0.0000000001
 43
0.0000000001
 40
0.0
 40
0.0
 40
0.0
 40
41.99999988804325
 40
41.99999988804325
 40
41.99999988804325
 10
1565.17616619725
 20
1377.397280694213
 30
0.0
 10
1544.176166253229
 20
1377.397280694213
 30
0.0
 10
1523.176166309207
 20
1377.397280694213
 30
0.0
  0
SPLINE
  5
3F
330
1F
100
AcDbEntity
  8
Predefinito
100
AcDbSpline
210
0.0
220
0.0
230
1.0
 70
    24
 71
     2
 72
     6
 73
     3
 74
     0
 42
0.0000000001
 43
0.0000000001
 40
0.0
 40
0.0
 40
0.0
 40
41.99985947264963
 40
41.99985947264963
 40
41.99985947264963
 10
1523.176166241089
 20
1385.397280694213
 30
0.0
 10
1544.176095977414
 20
1385.397280694213
 30
0.0
 10
1565.176025713739
 20
1385.397280694213
 30
0.0
  0
SPLINE
  5
40
330
1F
100
AcDbEntity
  8
Predefinito
100
AcDbSpline
210
0.0
220
0.0
230
1.0
 70
    15
 71
     2
 72
    12
 73
     9
 74
     0
 42
0.0000000001
 43
0.0000000001
 40
0.0
 40
0.0
 40
0.0
 40
107.2810746385805
 40
107.2810746385805
 40
214.562149277161
 40
214.562149277161
 40
321.8432239157415
 40
321.8432239157415
 40
429.124298554322
 40
429.124298554322
 40
429.124298554322
 10
1612.466549357297
 20
944.2972806942125
 30
0.0
 41
1.0
 10
1612.4665765907
 20
876.0000273784553
 30
0.0
 41
0.7071067811865476
 10
1544.169323274943
 20
876.0000001450527
 30
0.0
 41
1.0
 10
1475.872069959185
 20
875.9999729116499
 30
0.0
 41
0.7071067811865476
 10
1475.872042725783
 20
944.2972262274071
 30
0.0
 41
1.0
 10
1475.87201549238
 20
1012.594479543164
 30
0.0
 41
0.7071067811865476
 10
1544.169268808137
 20
1012.594506776567
 30
0.0
 41
1.0
 10
1612.466522123894
 20
1012.59453400997
 30
0.0
 41
0.7071067811865476
 10
1612.466549357297
 20
944.2972806942125
 30
0.0
 41
1.0
  0
SPLINE
  5
41
330
1F
100
AcDbEntity
  8
Predefinito
100
AcDbSpline
210
0.0
220
0.0
230
1.0
 70
    24
 71
     2
 72
     6
 73
     3
 74
     0
 42
0.0000000001
 43
0.0000000001
 40
0.0
 40
0.0
 40
0.0
 40
0.262820531622066
 40
0.262820531622066
 40
0.262820531622066
 10
1537.369190263672
 20
1452.397280694213
 30
0.0
 10
1537.276269173599
 20
1452.490201784285
 30
0.0
 10
1537.183348083527
 20
1452.583122874358
 30
0.0
  0
SPLINE
  5
42
330
1F
100
AcDbEntity
  8
Predefinito
100
AcDbSpline
210
0.0
220
0.0
230
1.0
 70
    24
 71
     2
 72
     6
 73
     3
 74
     0
 42
0.0000000001
 43
0.0000000001
 40
0.0
 40
0.0
 40
0.0
 40
0.262820531622066
 40
0.262820531622066
 40
0.262820531622066
 10
1551.155032443817
 20
1452.583122874358
 30
0.0
 10
1551.062111353745
 20
1452.490201784285
 30
0.0
 10
1550.969190263672
 20
1452.397280694213
 30
0.0
  0
SPLINE
  5
43
330
1F
100
AcDbEntity
  8
Predefinito
100
AcDbSpline
210
0.0
220
0.0
230
1.0
 70
    24
 71
     2
 72
     6
 73
     3
 74
     0
 42
0.0000000001
 43
0.0000000001
 40
0.0
 40
0.0
 40
0.0
 40
0.6870846003339302
 40
0.6870846003339302
 40
0.6870846003339302
 10
1537.183348083527
 20
1455.411438514068
 30
0.0
 10
1537.4262691736
 20
1455.65435960414
 30
0.0
 10
1537.669190263672
 20
1455.897280694213
 30
0.0
  0
SPLINE
  5
44
330
1F
100
AcDbEntity
  8
Predefinito
100
AcDbSpline
210
0.0
220
0.0
230
1.0
 70
    24
 71
     2
 72
     6
 73
     3
 74
     0
 42
0.0000000001
 43
0.0000000001
 40
0.0
 40
0.0
 40
0.0
 40
0.6870846003340106
 40
0.6870846003340106
 40
0.6870846003340106
 10
1550.669190263672
 20
1455.897280694213
 30
0.0
 10
1550.912111353745
 20
1455.65435960414
 30
0.0
 10
1551.155032443817
 20
1455.411438514068
 30
0.0
  0
SPLINE
  5
45
330
1F
100
AcDbEntity
  8
Predefinito
100
AcDbSpline
210
0.0
220
0.0
230
1.0
 70
    24
 71
     2
 72
     6
 73
     3
 74
     0
 42
0.0000000001
 43
0.0000000001
 40
0.0
 40
0.0
 40
0.0
 40
2.800000000000068
 40
2.800000000000068
 40
2.800000000000068
 10
1551.169190263672
 20
1455.397280694213
 30
0.0
 10
1551.169190263672
 20
1453.997280694213
 30
0.0
 10
1551.169190263672
 20
1452.597280694213
 30
0.0
  0
SPLINE
  5
46
330
1F
100
AcDbEntity
  8
Predefinito
100
AcDbSpline
210
0.0
220
0.0
230
1.0
 70
    24
 71
     2
 72
     6
 73
     3
 74
     0
 42
0.0000000001
 43
0.0000000001
 40
0.0
 40
0.0
 40
0.0
 40
2.800000000000068
 40
2.800000000000068
 40
2.800000000000068
 10
1537.169190263672
 20
1452.597280694213
 30
0.0
 10
1537.169190263672
 20
1453.997280694213
 30
0.0
 10
1537.169190263672
 20
1455.397280694213
 30
0.0
  0
SPLINE
  5
47
330
1F
100
AcDbEntity
  8
Predefinito
100
AcDbSpline
210
0.0
220
0.0
230
1.0
 70
    24
 71
     2
 72
     6
 73
     3
 74
     0
 42
0.0000000001
 43
0.0000000001
 40
0.0
 40
0.0
 40
0.0
 40
0.2628205316221464
 40
0.2628205316221464
 40
0.2628205316221464
 10
1537.183348083527
 20
1452.211438514068
 30
0.0
 10
1537.276269173599
 20
1452.30435960414
 30
0.0
 10
1537.369190263672
 20
1452.397280694213
 30
0.0
  0
SPLINE
  5
48
330
1F
100
AcDbEntity
  8
Predefinito
100
AcDbSpline
210
0.0
220
0.0
230
1.0
 70
    24
 71
     2
 72
     6
 73
     3
 74
     0
 42
0.0000000001
 43
0.0000000001
 40
0.0
 40
0.0
 40
0.0
 40
0.2628205316221464
 40
0.2628205316221464
 40
0.2628205316221464
 10
1550.969190263672
 20
1452.397280694213
 30
0.0
 10
1551.062111353745
 20
1452.30435960414
 30
0.0
 10
1551.155032443817
 20
1452.211438514068
 30
0.0
  0
SPLINE
  5
49
330
1F
100
AcDbEntity
  8
Predefinito
100
AcDbSpline
210
0.0
220
0.0
230
1.0
 70
    24
 71
     2
 72
     6
 73
     3
 74
     0
 42
0.0000000001
 43
0.0000000001
 40
0.0
 40
0.0
 40
0.0
 40
365.1639799751358
 40
365.1639799751358
 40
365.1639799751358
 10
1551.169190263672
 20
1377.397280694213
 30
0.0
 10
1551.169190263672
 20
1194.815290706645
 30
0.0
 10
1551.169190263672
 20
1012.233300719077
 30
0.0
  0
SPLINE
  5
4A
330
1F
100
AcDbEntity
  8
Predefinito
100
AcDbSpline
210
0.0
220
0.0
230
1.0
 70
    24
 71
     2
 72
     6
 73
     3
 74
     0
 42
0.0000000001
 43
0.0000000001
 40
0.0
 40
0.0
 40
0.0
 40
50.57701665379267
 40
50.57701665379267
 40
50.57701665379267
 10
1551.169190263672
 20
1435.974297348005
 30
0.0
 10
1551.169190263672
 20
1410.685789021109
 30
0.0
 10
1551.169190263672
 20
1385.397280694213
 30
0.0
  0
SPLINE
  5
4B
330
1F
100
AcDbEntity
  8
Predefinito
100
AcDbSpline
210
0.0
220
0.0
230
1.0
 70
    24
 71
     2
 72
     6
 73
     3
 74
     0
 42
0.0000000001
 43
0.0000000001
 40
0.0
 40
0.0
 40
0.0
 40
8.477016653792703
 40
8.477016653792703
 40
8.477016653792703
 10
1551.169190263672
 20
1452.197280694213
 30
0.0
 10
1551.169190263672
 20
1447.958772367316
 30
0.0
 10
1551.169190263672
 20
1443.72026404042
 30
0.0
  0
SPLINE
  5
4C
330
1F
100
AcDbEntity
  8
Predefinito
100
AcDbSpline
210
0.0
220
0.0
230
1.0
 70
    24
 71
     2
 72
     6
 73
     3
 74
     0
 42
0.0000000001
 43
0.0000000001
 40
0.0
 40
0.0
 40
0.0
 40
8.39369245785474
 40
8.39369245785474
 40
8.39369245785474
 10
1537.169190263672
 20
1443.803588236358
 30
0.0
 10
1537.169190263672
 20
1448.000434465285
 30
0.0
 10
1537.169190263672
 20
1452.197280694213
 30
0.0
  0
SPLINE
  5
4D
330
1F
100
AcDbEntity
  8
Predefinito
100
AcDbSpline
210
0.0
220
0.0
230
1.0
 70
    24
 71
     2
 72
     6
 73
     3
 74
     0
 42
0.0000000001
 43
0.0000000001
 40
0.0
 40
0.0
 40
0.0
 40
50.57701665379255
 40
50.57701665379255
 40
50.57701665379255
 10
1537.169190263672
 20
1385.397280694213
 30
0.0
 10
1537.169190263672
 20
1410.685789021109
 30
0.0
 10
1537.169190263672
 20
1435.974297348005
 30
0.0
  0
SPLINE
  5
4E
330
1F
100
AcDbEntity
  8
Predefinito
100
AcDbSpline
210
0.0
220
0.0
230
1.0
 70
    24
 71
     2
 72
     6
 73
     3
 74
     0
 42
0.0000000001
 43
0.0000000001
 40
0.0
 40
0.0
 40
0.0
 40
365.1653973334286
 40
365.1653973334286
 40
365.1653973334286
 10
1537.169190263672
 20
1012.231883360784
 30
0.0
 10
1537.169190263672
 20
1194.814582027499
 30
0.0
 10
1537.169190263672
 20
1377.397280694213
 30
0.0
  0
SPLINE
  5
4F
330
1F
100
AcDbEntity
  8
Predefinito
100
AcDbSpline
210
0.0
220
0.0
230
1.0
 70
    12
 71
     2
 72
     6
 73
     3
 74
     0
 42
0.0000000001
 43
0.0000000001
 40
0.0
 40
0.0
 40
0.0
 40
96.65936702761188
 40
96.65936702761188
 40
96.65936702761188
 10
1537.169190263669
 20
1315.669542656094
 30
0.0
 41
1.0
 10
1478.169190263672
 20
1321.962613426874
 30
0.0
 41
0.7436600722308021
 10
1478.169190263672
 20
1381.297280694213
 30
0.0
 41
1.0
  0
SPLINE
  5
50
330
1F
100
AcDbEntity
  8
Predefinito
100
AcDbSpline
210
0.0
220
0.0
230
1.0
 70
    12
 71
     2
 72
     6
 73
     3
 74
     0
 42
0.0000000001
 43
0.0000000001
 40
0.0
 40
0.0
 40
0.0
 40
96.6593670276107
 40
96.6593670276107
 40
96.6593670276107
 10
1610.169190263671
 20
1381.297280694213
 30
0.0
 41
1.0
 10
1610.169190263672
 20
1321.962613426875
 30
0.0
 41
0.743660072230807
 10
1551.169190263675
 20
1315.669542656094
 30
0.0
 41
1.0
  0
SPLINE
  5
51
330
1F
100
AcDbEntity
  8
Predefinito
100
AcDbSpline
210
0.0
220
0.0
230
1.0
 70
    12
 71
     2
 72
     6
 73
     3
 74
     0
 42
0.0000000001
 43
0.0000000001
 40
0.0
 40
0.0
 40
0.0
 40
96.65936702761125
 40
96.65936702761125
 40
96.65936702761125
 10
1551.169190263675
 20
1446.925018732332
 30
0.0
 41
1.0
 10
1610.169190263672
 20
1440.631947961551
 30
0.0
 41
0.7436600722308002
 10
1610.169190263672
 20
1381.297280694213
 30
0.0
 41
1.0
  0
SPLINE
  5
52
330
1F
100
AcDbEntity
  8
Predefinito
100
AcDbSpline
210
0.0
220
0.0
230
1.0
 70
    12
 71
     2
 72
     6
 73
     3
 74
     0
 42
0.0000000001
 43
0.0000000001
 40
0.0
 40
0.0
 40
0.0
 40
96.65936702761171
 40
96.65936702761171
 40
96.65936702761171
 10
1478.169190263671
 20
1381.297280694213
 30
0.0
 41
1.0
 10
1478.169190263672
 20
1440.631947961551
 30
0.0
 41
0.7436600722308019
 10
1537.169190263669
 20
1446.925018732331
 30
0.0
 41
1.0
  0
SPLINE
  5
53
330
1F
100
AcDbEntity
  8
Predefinito
100
AcDbSpline
210
0.0
220
0.0
230
1.0
 70
    12
 71
     2
 72
     6
 73
     3
 74
     0
 42
0.0000000001
 43
0.0000000001
 40
0.0
 40
0.0
 40
0.0
 40
6.28318530717957
 40
6.28318530717957
 40
6.28318530717957
 10
1519.176166238381
 20
1381.397280694213
 30
0.0
 41
1.0
 10
1519.176166238381
 20
1385.397280694213
 30
0.0
 41
0.7071067811865174
 10
1523.176166238381
 20
1385.397280694212
 30
0.0
 41
1.0
  0
SPLINE
  5
54
330
1F
100
AcDbEntity
  8
Predefinito
100
AcDbSpline
210
0.0
220
0.0
230
1.0
 70
    12
 71
     2
 72
     6
 73
     3
 74
     0
 42
0.0000000001
 43
0.0000000001
 40
0.0
 40
0.0
 40
0.0
 40
6.283185307179643
 40
6.283185307179643
 40
6.283185307179643
 10
1519.176166238381
 20
1381.397280694213
 30
0.0
 41
1.0
 10
1519.176166238381
 20
1377.397280694213
 30
0.0
 41
0.7071067811865426
 10
1523.176166238381
 20
1377.397280694213
 30
0.0
 41
1.0
  0
SPLINE
  5
55
330
1F
100
AcDbEntity
  8
Predefinito
100
AcDbSpline
210
0.0
220
0.0
230
1.0
 70
    12
 71
     2
 72
     8
 73
     5
 74
     0
 42
0.0000000001
 43
0.0000000001
 40
0.0
 40
0.0
 40
0.0
 40
1.570937006941886
 40
1.570937006941886
 40
6.283325987326597
 40
6.283325987326597
 40
6.283325987326597
 10
1565.176025558234
 20
1385.397280691739
 30
0.0
 41
1.0
 10
1565.971748150674
 20
1385.397308677331
 30
0.0
 41
0.9807818495847198
 10
1566.706899967841
 20
1385.092798824258
 30
0.0
 41
1.0
 10
1569.176166238381
 20
1384.06999524589
 30
0.0
 41
0.8314696123025589
 10
1569.176166238381
 20
1381.397280694213
 30
0.0
 41
1.0
  0
SPLINE
  5
56
330
1F
100
AcDbEntity
  8
Predefinito
100
AcDbSpline
210
0.0
220
0.0
230
1.0
 70
    12
 71
     2
 72
     6
 73
     3
 74
     0
 42
0.0000000001
 43
0.0000000001
 40
0.0
 40
0.0
 40
0.0
 40
6.283185307179643
 40
6.283185307179643
 40
6.283185307179643
 10
1569.176166238381
 20
1381.397280694213
 30
0.0
 41
1.0
 10
1569.176166238381
 20
1377.397280694213
 30
0.0
 41
0.7071067811865426
 10
1565.176166238381
 20
1377.397280694213
 30
0.0
 41
1.0
  0
SPLINE
  5
57
330
1F
100
AcDbEntity
  8
Predefinito
100
AcDbSpline
210
0.0
220
0.0
230
1.0
 70
    15
 71
     2
 72
    12
 73
     9
 74
     0
 42
0.0000000001
 43
0.0000000001
 40
0.0
 40
0.0
 40
0.0
 40
106.8100431602578
 40
106.8100431602578
 40
213.6200863205156
 40
213.6200863205156
 40
320.4301294807734
 40
320.4301294807734
 40
427.2401726410312
 40
427.2401726410312
 40
427.2401726410312
 10
1612.166560779819
 20
944.2972806942126
 30
0.0
 41
1.0
 10
1612.166578543525
 20
876.2998953309601
 30
0.0
 41
0.7071067811865476
 10
1544.169193180273
 20
876.2998775672539
 30
0.0
 41
1.0
 10
1476.17180781702
 20
876.2998598035477
 30
0.0
 41
0.7071067811865476
 10
1476.171790053314
 20
944.2972451668003
 30
0.0
 41
1.0
 10
1476.171772289608
 20
1012.294630530053
 30
0.0
 41
0.7071067811865476
 10
1544.16915765286
 20
1012.294648293759
 30
0.0
 41
1.0
 10
1612.166543016113
 20
1012.294666057465
 30
0.0
 41
0.7071067811865476
 10
1612.166560779819
 20
944.2972806942126
 30
0.0
 41
1.0
  0
SPLINE
  5
58
330
1F
100
AcDbEntity
  8
Predefinito
100
AcDbSpline
210
0.0
220
0.0
230
1.0
 70
    12
 71
     2
 72
     8
 73
     5
 74
     0
 42
0.0000000001
 43
0.0000000001
 40
0.0
 40
0.0
 40
0.0
 40
12.56637061435906
 40
12.56637061435906
 40
25.1327412287183
 40
25.1327412287183
 40
25.1327412287183
 10
1552.169190263672
 20
1439.847280694213
 30
0.0
 41
1.0
 10
1552.169190263672
 20
1431.847280694213
 30
0.0
 41
0.7071067811865526
 10
1544.169190263672
 20
1431.847280694213
 30
0.0
 41
1.0
 10
1536.169190263672
 20
1431.847280694213
 30
0.0
 41
0.7071067811865526
 10
1536.169190263672
 20
1439.847280694213
 30
0.0
 41
1.0
  0
SPLINE
  5
59
330
1F
100
AcDbEntity
  8
Predefinito
100
AcDbSpline
210
0.0
220
0.0
230
1.0
 70
    12
 71
     2
 72
     8
 73
     5
 74
     0
 42
0.0000000001
 43
0.0000000001
 40
0.0
 40
0.0
 40
0.0
 40
12.56637061435917
 40
12.56637061435917
 40
25.13274122871828
 40
25.13274122871828
 40
25.13274122871828
 10
1536.169190263672
 20
1439.847280694213
 30
0.0
 41
1.0
 10
1536.169190263672
 20
1447.847280694213
 30
0.0
 41
0.7071067811865476
 10
1544.169190263672
 20
1447.847280694213
 30
0.0
 41
1.0
 10
1552.169190263672
 20
1447.847280694213
 30
0.0
 41
0.7071067811865426
 10
1552.169190263672
 20
1439.847280694213
 30
0.0
 41
1.0
  0
SPLINE
  5
5A
330
1F
100
AcDbEntity
  8
Predefinito
100
AcDbSpline
210
0.0
220
0.0
230
1.0
 70
    24
 71
     2
 72
     6
 73
     3
 74
     0
 42
0.0000000001
 43
0.0000000001
 40
0.0
 40
0.0
 40
0.0
 40
6.971684360290283
 40
6.971684360290283
 40
6.971684360290283
 10
1544.169190263672
 20
1455.397280694213
 30
0.0
 10
1540.683348083527
 20
1455.397280694213
 30
0.0
 10
1537.197505903382
 20
1455.397280694213
 30
0.0
  0
SPLINE
  5
5B
330
1F
100
AcDbEntity
  8
Predefinito
100
AcDbSpline
210
0.0
220
0.0
230
1.0
 70
    12
 71
     2
 72
     8
 73
     5
 74
     0
 42
0.0000000001
 43
0.0000000001
 40
0.0
 40
0.0
 40
0.0
 40
0.0283156397099447
 40
0.0283156397099447
 40
11.02388992727422
 40
11.02388992727422
 40
11.02388992727422
 10
1551.140874623962
 20
1455.397280693054
 30
0.0
 41
1.0
 10
1551.155032443817
 20
1455.397280693054
 30
0.0
 41
1.0
 10
1551.169190263672
 20
1455.397280693055
 30
0.0
 41
1.0
 10
1551.169190263672
 20
1455.397280694213
 30
0.0
 41
0.7071067811865476
 10
1544.169190263672
 20
1455.397280694213
 30
0.0
 41
1.0
  0
SPLINE
  5
5C
330
1F
100
AcDbEntity
  8
Predefinito
100
AcDbSpline
210
0.0
220
0.0
230
1.0
 70
    24
 71
     2
 72
     6
 73
     3
 74
     0
 42
0.0000000001
 43
0.0000000001
 40
0.0
 40
0.0
 40
0.0
 40
6.971684360290055
 40
6.971684360290055
 40
6.971684360290055
 10
1544.169190263672
 20
1452.597280694213
 30
0.0
 10
1547.655032443817
 20
1452.597280694213
 30
0.0
 10
1551.140874623962
 20
1452.597280694213
 30
0.0
  0
SPLINE
  5
5D
330
1F
100
AcDbEntity
  8
Predefinito
100
AcDbSpline
210
0.0
220
0.0
230
1.0
 70
    28
 71
     2
 72
     8
 73
     5
 74
     0
 42
0.0000000001
 43
0.0000000001
 40
10.30835089459151
 40
10.30835089459151
 40
10.30835089459151
 40
10.99557428756428
 40
10.99557428756428
 40
21.99114857512855
 40
21.99114857512855
 40
21.99114857512855
 10
1537.197505903382
 20
1452.597280694213
 30
0.0
 41
0.9656765759202985
 10
1537.169190263672
 20
1452.597280694213
 30
0.0
 41
0.9816941738241592
 10
1537.169190263672
 20
1452.597280694213
 30
0.0
 41
1.0
 10
1537.169190263672
 20
1452.597280694212
 30
0.0
 41
0.7071067811865476
 10
1544.169190263672
 20
1452.597280694213
 30
0.0
 41
1.0
  0
SPLINE
  5
5E
330
1F
100
AcDbEntity
  8
Predefinito
100
AcDbSpline
210
0.0
220
0.0
230
1.0
 70
    24
 71
     2
 72
     6
 73
     3
 74
     0
 42
0.0000000001
 43
0.0000000001
 40
0.0
 40
0.0
 40
0.0
 40
6.473706905983818
 40
6.473706905983818
 40
6.473706905983818
 10
1544.169190263672
 20
1455.897280694213
 30
0.0
 10
1540.93233681068
 20
1455.897280694213
 30
0.0
 10
1537.695483357688
 20
1455.897280694213
 30
0.0
  0
SPLINE
  5
5F
330
1F
100
AcDbEntity
  8
Predefinito
100
AcDbSpline
210
0.0
220
0.0
230
1.0
 70
    28
 71
     2
 72
     8
 73
     5
 74
     0
 42
0.0000000001
 43
0.0000000001
 40
-10.84831213192725
 40
-10.84831213192725
 40
-10.84831213192725
 40
-10.21017612416683
 40
-10.21017612416683
 40
0.0
 40
0.0
 40
0.0
 10
1550.642897169656
 20
1455.897280694212
 30
0.0
 41
0.9656765759202985
 10
1550.669190263672
 20
1455.897280694213
 30
0.0
 41
0.9816941738241592
 10
1550.669190263672
 20
1455.897280694213
 30
0.0
 41
1.0
 10
1550.669190263672
 20
1455.897280694213
 30
0.0
 41
0.7071067811865476
 10
1544.169190263672
 20
1455.897280694213
 30
0.0
 41
1.0
  0
SPLINE
  5
60
330
1F
100
AcDbEntity
  8
Predefinito
100
AcDbSpline
210
0.0
220
0.0
230
1.0
 70
    12
 71
     2
 72
     8
 73
     5
 74
     0
 42
0.0000000001
 43
0.0000000001
 40
0.0
 40
0.0
 40
0.0
 40
0.0283156397097173
 40
0.0283156397097173
 40
11.02388992727399
 40
11.02388992727399
 40
11.02388992727399
 10
1551.140874623962
 20
1452.197280883789
 30
0.0
 41
1.0
 10
1551.155032443817
 20
1452.197280883789
 30
0.0
 41
1.0
 10
1551.169190263672
 20
1452.197280883789
 30
0.0
 41
1.0
 10
1551.169190263672
 20
1452.197280694213
 30
0.0
 41
0.7071067811865476
 10
1544.169190263672
 20
1452.197280694213
 30
0.0
 41
1.0
  0
SPLINE
  5
61
330
1F
100
AcDbEntity
  8
Predefinito
100
AcDbSpline
210
0.0
220
0.0
230
1.0
 70
    24
 71
     2
 72
     6
 73
     3
 74
     0
 42
0.0000000001
 43
0.0000000001
 40
0.0
 40
0.0
 40
0.0
 40
6.772493378567788
 40
6.772493378567788
 40
6.772493378567788
 10
1544.169190263672
 20
1452.397280694213
 30
0.0
 10
1547.555436952956
 20
1452.397280694213
 30
0.0
 10
1550.94168364224
 20
1452.397280694213
 30
0.0
  0
SPLINE
  5
62
330
1F
100
AcDbEntity
  8
Predefinito
100
AcDbSpline
210
0.0
220
0.0
230
1.0
 70
    28
 71
     2
 72
     8
 73
     5
 74
     0
 42
0.0000000001
 43
0.0000000001
 40
10.01382658331747
 40
10.01382658331747
 40
10.01382658331747
 40
10.6814150222053
 40
10.6814150222053
 40
21.36283004441059
 40
21.36283004441059
 40
21.36283004441059
 10
1537.396696885104
 20
1452.397280694212
 30
0.0
 41
0.9656765759202985
 10
1537.369190263672
 20
1452.397280694213
 30
0.0
 41
0.9816941738241592
 10
1537.369190263672
 20
1452.397280694213
 30
0.0
 41
1.0
 10
1537.369190263672
 20
1452.397280694213
 30
0.0
 41
0.7071067811865476
 10
1544.169190263672
 20
1452.397280694213
 30
0.0
 41
1.0
  0
SPLINE
  5
63
330
1F
100
AcDbEntity
  8
Predefinito
100
AcDbSpline
210
0.0
220
0.0
230
1.0
 70
    24
 71
     2
 72
     6
 73
     3
 74
     0
 42
0.0000000001
 43
0.0000000001
 40
0.0
 40
0.0
 40
0.0
 40
6.971684360290283
 40
6.971684360290283
 40
6.971684360290283
 10
1544.169190263672
 20
1452.197280694213
 30
0.0
 10
1540.683348083527
 20
1452.197280694213
 30
0.0
 10
1537.197505903382
 20
1452.197280694213
 30
0.0
  0
SPLINE
  5
64
330
1F
100
AcDbEntity
  8
Predefinito
100
AcDbSpline
210
0.0
220
0.0
230
1.0
 70
    12
 71
     2
 72
     6
 73
     3
 74
     0
 42
0.0000000001
 43
0.0000000001
 40
0.0
 40
0.0
 40
0.0
 40
4.12752317159835
 40
4.12752317159835
 40
4.12752317159835
 10
1553.517603289782
 20
1377.397280695651
 30
0.0
 41
1.0
 10
1552.696761472313
 20
1375.471007439658
 30
0.0
 41
0.9785668808426892
 10
1551.169190262914
 20
1374.038933368154
 30
0.0
 41
1.0
  0
SPLINE
  5
65
330
1F
100
AcDbEntity
  8
Predefinito
100
AcDbSpline
210
0.0
220
0.0
230
1.0
 70
    12
 71
     2
 72
     6
 73
     3
 74
     0
 42
0.0000000001
 43
0.0000000001
 40
0.0
 40
0.0
 40
0.0
 40
3.91040942146218
 40
3.91040942146218
 40
3.91040942146218
 10
1551.169190262914
 20
1388.556837242599
 30
0.0
 41
1.0
 10
1552.614243534564
 20
1387.202122444665
 30
0.0
 41
0.9807553331923841
 10
1553.430317916879
 20
1385.397280694213
 30
0.0
 41
1.0
  0
SPLINE
  5
66
330
1F
100
AcDbEntity
  8
Predefinito
100
AcDbSpline
210
0.0
220
0.0
230
1.0
 70
    12
 71
     2
 72
     6
 73
     3
 74
     0
 42
0.0000000001
 43
0.0000000001
 40
0.0
 40
0.0
 40
0.0
 40
3.361796189490962
 40
3.361796189490962
 40
3.361796189490962
 10
1535.297755224751
 20
1385.397280694213
 30
0.0
 41
1.0
 10
1535.996948543392
 20
1386.943626616186
 30
0.0
 41
0.9857644742519601
 10
1537.169190266223
 20
1388.170780376109
 30
0.0
 41
1.0
  0
SPLINE
  5
67
330
1F
100
AcDbEntity
  8
Predefinito
100
AcDbSpline
210
0.0
220
0.0
230
1.0
 70
    12
 71
     2
 72
     6
 73
     3
 74
     0
 42
0.0000000001
 43
0.0000000001
 40
0.0
 40
0.0
 40
0.0
 40
3.578909938064151
 40
3.578909938064151
 40
3.578909938064151
 10
1537.169190266223
 20
1374.424990234645
 30
0.0
 41
1.0
 10
1535.919635314334
 20
1375.733078854572
 30
0.0
 41
0.9838714805485399
 10
1535.210469852461
 20
1377.397280694213
 30
0.0
 41
1.0
  0
SPLINE
  5
68
330
1F
100
AcDbEntity
  8
Predefinito
100
AcDbSpline
210
0.0
220
0.0
230
1.0
 70
    12
 71
     2
 72
     6
 73
     3
 74
     0
 42
0.0000000001
 43
0.0000000001
 40
0.0
 40
0.0
 40
0.0
 40
2.425670651984399
 40
2.425670651984399
 40
2.425670651984399
 10
1535.849492693073
 20
1385.397280694213
 30
0.0
 41
1.0
 10
1536.378526684315
 20
1386.496097154686
 30
0.0
 41
0.991775417739724
 10
1537.169190267641
 20
1387.424604384435
 30
0.0
 41
1.0
  0
SPLINE
  5
69
330
1F
100
AcDbEntity
  8
Predefinito
100
AcDbSpline
210
0.0
220
0.0
230
1.0
 70
    12
 71
     2
 72
     6
 73
     3
 74
     0
 42
0.0000000001
 43
0.0000000001
 40
0.0
 40
0.0
 40
0.0
 40
2.645094988229644
 40
2.645094988229644
 40
2.645094988229644
 10
1537.169190267641
 20
1375.171166226318
 30
0.0
 41
1.0
 10
1536.306100602137
 20
1376.18472624254
 30
0.0
 41
0.9902226769906782
 10
1535.756610494027
 20
1377.397280694213
 30
0.0
 41
1.0
  0
SPLINE
  5
6A
330
1F
100
AcDbEntity
  8
Predefinito
100
AcDbSpline
210
0.0
220
0.0
230
1.0
 70
    12
 71
     2
 72
     6
 73
     3
 74
     0
 42
0.0000000001
 43
0.0000000001
 40
0.0
 40
0.0
 40
0.0
 40
3.225599550446927
 40
3.225599550446927
 40
3.225599550446927
 10
1552.971462647603
 20
1377.397280694212
 30
0.0
 41
1.0
 10
1552.299220017539
 20
1375.913849451944
 30
0.0
 41
0.9854717637061526
 10
1551.169190259662
 20
1374.741027576923
 30
0.0
 41
1.0
  0
SPLINE
  5
6B
330
1F
100
AcDbEntity
  8
Predefinito
100
AcDbSpline
210
0.0
220
0.0
230
1.0
 70
    12
 71
     2
 72
     6
 73
     3
 74
     0
 42
0.0000000001
 43
0.0000000001
 40
0.0
 40
0.0
 40
0.0
 40
3.006175214202659
 40
3.006175214202659
 40
3.006175214202659
 10
1551.169190259662
 20
1387.85474303383
 30
0.0
 41
1.0
 10
1552.220988499403
 20
1386.763115158478
 30
0.0
 41
0.9873770989563495
 10
1552.878580448557
 20
1385.397280694213
 30
0.0
 41
1.0
  0
SPLINE
  5
6C
330
1F
100
AcDbEntity
  8
Predefinito
100
AcDbSpline
210
0.0
220
0.0
230
1.0
 70
    12
 71
     2
 72
     6
 73
     3
 74
     0
 42
0.0000000001
 43
0.0000000001
 40
0.0
 40
0.0
 40
0.0
 40
94.33378996418695
 40
94.33378996418695
 40
94.33378996418695
 10
1551.169190263671
 20
1317.263316701136
 30
0.0
 41
1.0
 10
1608.759192391068
 20
1323.383586177315
 30
0.0
 41
0.7435314510898837
 10
1608.759192391068
 20
1381.297885305377
 30
0.0
 41
1.0
  0
SPLINE
  5
6D
330
1F
100
AcDbEntity
  8
Predefinito
100
AcDbSpline
210
0.0
220
0.0
230
1.0
 70
    12
 71
     2
 72
    10
 73
     7
 74
     0
 42
0.0000000001
 43
0.0000000001
 40
0.0
 40
0.0
 40
0.0
 40
43.3659365963281
 40
43.3659365963281
 40
119.229692265707
 40
119.229692265707
 40
187.8835474184934
 40
187.8835474184934
 40
187.8835474184934
 10
1537.169190263674
 20
1445.289840110112
 30
0.0
 41
1.0
 10
1514.768948703866
 20
1442.771300150559
 30
0.0
 41
0.943844294847075
 10
1498.829785214749
 20
1426.832136661442
 30
0.0
 41
1.0
 10
1468.404771164979
 20
1396.407122611671
 30
0.0
 41
0.8314696123025415
 10
1484.870670115608
 20
1356.654926048398
 30
0.0
 41
1.0
 10
1499.411106182503
 20
1321.551208092882
 30
0.0
 41
0.8612525832715389
 10
1537.169190263672
 20
1317.305930500642
 30
0.0
 41
1.0
  0
SPLINE
  5
6E
330
1F
100
AcDbEntity
  8
Predefinito
100
AcDbSpline
210
0.0
220
0.0
230
1.0
 70
    12
 71
     2
 72
     8
 73
     5
 74
     0
 42
0.0000000001
 43
0.0000000001
 40
0.0
 40
0.0
 40
0.0
 40
75.86375566937845
 40
75.86375566937845
 40
94.3337899642336
 40
94.3337899642336
 40
94.3337899642336
 10
1608.759192391068
 20
1381.297885305377
 30
0.0
 41
1.0
 10
1608.759192391067
 20
1424.325352809954
 30
0.0
 41
0.8314696123025525
 10
1569.006995827794
 20
1440.791251760583
 30
0.0
 41
1.0
 10
1560.415974673955
 20
1444.349769237138
 30
0.0
 41
0.9897341585871684
 10
1551.169190263625
 20
1445.332453909623
 30
0.0
 41
1.0
  0
SPLINE
  5
6F
330
1F
100
AcDbEntity
  8
Predefinito
100
AcDbSpline
210
0.0
220
0.0
230
1.0
 70
    12
 71
     2
 72
     6
 73
     3
 74
     0
 42
0.0000000001
 43
0.0000000001
 40
0.0
 40
0.0
 40
0.0
 40
4.414624644127665
 40
4.414624644127665
 40
4.414624644127665
 10
1551.169190263291
 20
1388.942585300648
 30
0.0
 41
1.0
 10
1552.843945618027
 20
1387.451752750865
 30
0.0
 41
0.9768338899294234
 10
1553.742016750038
 20
1385.397280694213
 30
0.0
 41
1.0
  0
SPLINE
  5
70
330
1F
100
AcDbEntity
  8
Predefinito
100
AcDbSpline
210
0.0
220
0.0
230
1.0
 70
    12
 71
     2
 72
     6
 73
     3
 74
     0
 42
0.0000000001
 43
0.0000000001
 40
0.0
 40
0.0
 40
0.0
 40
4.630598361089777
 40
4.630598361089777
 40
4.630598361089777
 10
1553.826427308006
 20
1377.397280694213
 30
0.0
 41
1.0
 10
1552.928674375287
 20
1375.219441645738
 30
0.0
 41
0.9745216731519131
 10
1551.169190263291
 20
1373.653185310106
 30
0.0
 41
1.0
  0
SPLINE
  5
71
330
1F
100
AcDbEntity
  8
Predefinito
100
AcDbSpline
210
0.0
220
0.0
230
1.0
 70
    12
 71
     2
 72
     6
 73
     3
 74
     0
 42
0.0000000001
 43
0.0000000001
 40
0.0
 40
0.0
 40
0.0
 40
4.096214394330057
 40
4.096214394330057
 40
4.096214394330057
 10
1534.901645833624
 20
1377.397280694213
 30
0.0
 41
1.0
 10
1535.692791075564
 20
1375.478058892625
 30
0.0
 41
0.980044383716039
 10
1537.169190267143
 20
1374.018754762348
 30
0.0
 41
1.0
  0
SPLINE
  5
72
330
1F
100
AcDbEntity
  8
Predefinito
100
AcDbSpline
210
0.0
220
0.0
230
1.0
 70
    12
 71
     2
 72
     6
 73
     3
 74
     0
 42
0.0000000001
 43
0.0000000001
 40
0.0
 40
0.0
 40
0.0
 40
3.880240677368878
 40
3.880240677368878
 40
3.880240677368878
 10
1537.169190267143
 20
1388.577015848405
 30
0.0
 41
1.0
 10
1535.772584365095
 20
1387.196581090073
 30
0.0
 41
0.9820870957229217
 10
1534.986056391592
 20
1385.397280694213
 30
0.0
 41
1.0
  0
SPLINE
  5
73
330
1F
100
AcDbEntity
  8
Predefinito
100
AcDbSpline
210
0.0
220
0.0
230
1.0
 70
    24
 71
     2
 72
     6
 73
     3
 74
     0
 42
0.0000000001
 43
0.0000000001
 40
0.0
 40
0.0
 40
0.0
 40
4.0
 40
4.0
 40
4.0
 10
1560.934666403038
 20
2060.006707900284
 30
0.0
 10
1562.934666403038
 20
2060.006707900284
 30
0.0
 10
1564.934666403038
 20
2060.006707900284
 30
0.0
  0
SPLINE
  5
74
330
1F
100
AcDbEntity
  8
Predefinito
100
AcDbSpline
210
0.0
220
0.0
230
1.0
 70
    24
 71
     2
 72
     6
 73
     3
 74
     0
 42
0.0000000001
 43
0.0000000001
 40
-3.999999999999773
 40
-3.999999999999773
 40
-3.999999999999773
 40
0.0
 40
0.0
 40
0.0
 10
1564.934666403038
 20
2060.006707900284
 30
0.0
 10
1566.934666403038
 20
2060.006707900284
 30
0.0
 10
1568.934666403038
 20
2060.006707900284
 30
0.0
  0
SPLINE
  5
75
330
1F
100
AcDbEntity
  8
Predefinito
100
AcDbSpline
210
0.0
220
0.0
230
1.0
 70
     8
 71
     3
 72
    11
 73
     7
 74
     0
 42
0.0000000001
 43
0.0000000001
 40
0.9947630849083848
 40
0.9947630849083848
 40
0.9947630849083848
 40
0.9947630849083848
 40
9.86325631196451
 40
17.92884477747626
 40
24.11368278306665
 40
28.40163760527438
 40
28.40163760527438
 40
28.40163760527438
 40
28.40163760527438
 10
1540.529424671334
 20
2021.951475592901
 30
0.0
 10
1540.534777668715
 20
2024.907638152633
 30
0.0
 10
1540.566203835468
 20
2030.552287686028
 30
0.0
 10
1540.697725711187
 20
2038.257691812308
 30
0.0
 10
1540.918073942427
 20
2044.433590574269
 30
0.0
 10
1541.155860932179
 20
2047.917256543498
 30
0.0
 10
1541.314937125729
 20
2049.337962451602
 30
0.0
  0
POLYLINE
  5
76
330
1F
100
AcDbEntity
  8
Predefinito
100
AcDb2dPolyline
 66
     1
 10
0.0
 20
0.0
 30
0.0
  0
VERTEX
  5
77
330
76
100
AcDbEntity
  8
Predefinito
100
AcDbVertex
100
AcDb2dVertex
 10
1540.529415380191
 20
2021.951475609725
 30
0.0
  0
VERTEX
  5
78
330
76
100
AcDbEntity
  8
Predefinito
100
AcDbVertex
100
AcDb2dVertex
 10
1541.629064185574
 20
2021.965819188116
 30
0.0
  0
SEQEND
  5
79
330
76
100
AcDbEntity
  8
Predefinito
  0
POLYLINE
  5
7A
330
1F
100
AcDbEntity
  8
Predefinito
100
AcDb2dPolyline
 66
     1
 10
0.0
 20
0.0
 30
0.0
  0
VERTEX
  5
7B
330
7A
100
AcDbEntity
  8
Predefinito
100
AcDbVertex
100
AcDb2dVertex
 10
1540.712620664612
 20
2193.955859256968
 30
0.0
  0
VERTEX
  5
7C
330
7A
100
AcDbEntity
  8
Predefinito
100
AcDbVertex
100
AcDb2dVertex
 10
1540.712621566368
 20
2192.938545109812
 30
0.0
  0
SEQEND
  5
7D
330
7A
100
AcDbEntity
  8
Predefinito
  0
SPLINE
  5
7E
330
1F
100
AcDbEntity
  8
Predefinito
100
AcDbSpline
210
0.0
220
0.0
230
1.0
 70
    12
 71
     2
 72
     6
 73
     3
 74
     0
 42
0.0000000001
 43
0.0000000001
 40
0.0
 40
0.0
 40
0.0
 40
0.7119851697655979
 40
0.7119851697655979
 40
0.7119851697655979
 10
1540.712622175045
 20
2192.226559940047
 30
0.0
 41
1.0
 10
1540.712622108194
 20
2192.58255252493
 30
0.0
 41
0.9999999999997773
 10
1540.712621566368
 20
2192.938545109812
 30
0.0
 41
1.0
  0
SPLINE
  5
7F
330
1F
100
AcDbEntity
  8
Predefinito
100
AcDbSpline
210
0.0
220
0.0
230
1.0
 70
    12
 71
     2
 72
     6
 73
     3
 74
     0
 42
0.0000000001
 43
0.0000000001
 40
0.0
 40
0.0
 40
0.0
 40
98.75345763586367
 40
98.75345763586367
 40
98.75345763586367
 10
1540.712620664612
 20
2193.955859256968
 30
0.0
 41
1.0
 10
1540.794756521998
 20
2244.349837996396
 30
0.0
 41
0.999999875737784
 10
1540.827662515525
 20
2293.726559940046
 30
0.0
 41
1.0
  0
SPLINE
  5
80
330
1F
100
AcDbEntity
  8
Predefinito
100
AcDbSpline
210
0.0
220
0.0
230
1.0
 70
    24
 71
     2
 72
     6
 73
     3
 74
     0
 42
0.0000000001
 43
0.0000000001
 40
0.0
 40
0.0
 40
0.0
 40
0.7820383260363997
 40
0.7820383260363997
 40
0.7820383260363997
 10
1547.027690427978
 20
2392.226479310148
 30
0.0
 10
1547.027690427723
 20
2391.83546014713
 30
0.0
 10
1547.027690427467
 20
2391.444440984112
 30
0.0
  0
SPLINE
  5
81
330
1F
100
AcDbEntity
  8
Predefinito
100
AcDbSpline
210
0.0
220
0.0
230
1.0
 70
    24
 71
     2
 72
     6
 73
     3
 74
     0
 42
0.0000000001
 43
0.0000000001
 40
0.0
 40
0.0
 40
0.0
 40
0.6118949536603395
 40
0.6118949536603395
 40
0.6118949536603395
 10
1540.827690427822
 20
2391.444442996344
 30
0.0
 10
1540.827690427761
 20
2391.750390473174
 30
0.0
 10
1540.827690427699
 20
2392.056337950005
 30
0.0
  0
SPLINE
  5
82
330
1F
100
AcDbEntity
  8
Predefinito
100
AcDbSpline
210
0.0
220
0.0
230
1.0
 70
    24
 71
     2
 72
     6
 73
     3
 74
     0
 42
0.0000000001
 43
0.0000000001
 40
0.0
 40
0.0
 40
0.0
 40
2.302963505895832
 40
2.302963505895832
 40
2.302963505895832
 10
1547.027690427726
 20
2350.921844625198
 30
0.0
 10
1547.027690427101
 20
2349.77036287225
 30
0.0
 10
1547.027690426475
 20
2348.618881119302
 30
0.0
  0
SPLINE
  5
83
330
1F
100
AcDbEntity
  8
Predefinito
100
AcDbSpline
210
0.0
220
0.0
230
1.0
 70
    24
 71
     2
 72
     6
 73
     3
 74
     0
 42
0.0000000001
 43
0.0000000001
 40
0.0
 40
0.0
 40
0.0
 40
42.80767941753675
 40
42.80767941753675
 40
42.80767941753675
 10
1540.827690426407
 20
2348.618880521924
 30
0.0
 10
1540.827690427117
 20
2370.022720230692
 30
0.0
 10
1540.827690427827
 20
2391.426559939461
 30
0.0
  0
SPLINE
  5
84
330
1F
100
AcDbEntity
  8
Predefinito
100
AcDbSpline
210
0.0
220
0.0
230
1.0
 70
    24
 71
     2
 72
     6
 73
     3
 74
     0
 42
0.0000000001
 43
0.0000000001
 40
0.0
 40
0.0
 40
0.0
 40
0.1701954876707532
 40
0.1701954876707532
 40
0.1701954876707532
 10
1540.827690427326
 20
2392.056337951863
 30
0.0
 10
1540.827690427317
 20
2392.141435695698
 30
0.0
 10
1540.827690427308
 20
2392.226533439533
 30
0.0
  0
SPLINE
  5
85
330
1F
100
AcDbEntity
  8
Predefinito
100
AcDbSpline
210
0.0
220
0.0
230
1.0
 70
    24
 71
     2
 72
     6
 73
     3
 74
     0
 42
0.0000000001
 43
0.0000000001
 40
0.0
 40
0.0
 40
0.0
 40
40.50471531429275
 40
40.50471531429275
 40
40.50471531429275
 10
1547.027690427453
 20
2391.426559939552
 30
0.0
 10
1547.027690427547
 20
2371.174202282406
 30
0.0
 10
1547.02769042764
 20
2350.921844625259
 30
0.0
  0
SPLINE
  5
86
330
1F
100
AcDbEntity
  8
Predefinito
100
AcDbSpline
210
0.0
220
0.0
230
1.0
 70
    24
 71
     2
 72
     6
 73
     3
 74
     0
 42
0.0000000001
 43
0.0000000001
 40
0.0
 40
0.0
 40
0.0
 40
1.88860374768683
 40
1.88860374768683
 40
1.88860374768683
 10
1547.027690426475
 20
2348.615163687733
 30
0.0
 10
1547.027690427495
 20
2347.67086181389
 30
0.0
 10
1547.027690428514
 20
2346.726559940046
 30
0.0
  0
SPLINE
  5
87
330
1F
100
AcDbEntity
  8
Predefinito
100
AcDbSpline
210
0.0
220
0.0
230
1.0
 70
    24
 71
     2
 72
     6
 73
     3
 74
     0
 42
0.0000000001
 43
0.0000000001
 40
0.0
 40
0.0
 40
0.0
 40
1.88772635745454
 40
1.88772635745454
 40
1.88772635745454
 10
1540.82769042852
 20
2346.726559940046
 30
0.0
 10
1540.827690427462
 20
2347.670423118774
 30
0.0
 10
1540.827690426406
 20
2348.614286297501
 30
0.0
  0
SPLINE
  5
88
330
1F
100
AcDbEntity
  8
Predefinito
100
AcDbSpline
210
0.0
220
0.0
230
1.0
 70
    24
 71
     2
 72
     6
 73
     3
 74
     0
 42
0.0000000001
 43
0.0000000001
 40
0.0
 40
0.0
 40
0.0
 40
2.666687388892342
 40
2.666687388892342
 40
2.666687388892342
 10
1547.027690428032
 20
2343.726559940046
 30
0.0
 10
1547.027690427557
 20
2342.3932162456
 30
0.0
 10
1547.027690427083
 20
2341.059872551154
 30
0.0
  0
SPLINE
  5
89
330
1F
100
AcDbEntity
  8
Predefinito
100
AcDbSpline
210
0.0
220
0.0
230
1.0
 70
    24
 71
     2
 72
     6
 73
     3
 74
     0
 42
0.0000000001
 43
0.0000000001
 40
0.0
 40
0.0
 40
0.0
 40
2.666689398832887
 40
2.666689398832887
 40
2.666689398832887
 10
1540.827690426997
 20
2341.059870541213
 30
0.0
 10
1540.82769042752
 20
2342.39321524063
 30
0.0
 10
1540.827690428042
 20
2343.726559940046
 30
0.0
  0
SPLINE
  5
8A
330
1F
100
AcDbEntity
  8
Predefinito
100
AcDbSpline
210
0.0
220
0.0
230
1.0
 70
    24
 71
     2
 72
     6
 73
     3
 74
     0
 42
0.0000000001
 43
0.0000000001
 40
0.0
 40
0.0
 40
0.0
 40
10.19085581008858
 40
10.19085581008858
 40
10.19085581008858
 10
1547.027690415753
 20
2311.180503384629
 30
0.0
 10
1547.027690424864
 20
2306.085075479585
 30
0.0
 10
1547.027690433972
 20
2300.989647574541
 30
0.0
  0
SPLINE
  5
8B
330
1F
100
AcDbEntity
  8
Predefinito
100
AcDbSpline
210
0.0
220
0.0
230
1.0
 70
    28
 71
     2
 72
     6
 73
     3
 74
     0
 42
0.0000000001
 43
0.0000000001
 40
0.0
 40
0.0
 40
0.0
 40
20.37139048860035
 40
20.37139048860035
 40
20.37139048860035
 10
1540.827690284005
 20
2300.989649232029
 30
0.0
 41
1.0
 10
1540.827690251646
 20
2311.175344476329
 30
0.0
 41
1.0
 10
1540.827690219286
 20
2321.361039720629
 30
0.0
 41
1.0
  0
SPLINE
  5
8C
330
1F
100
AcDbEntity
  8
Predefinito
100
AcDbSpline
210
0.0
220
0.0
230
1.0
 70
    12
 71
     2
 72
     6
 73
     3
 74
     0
 42
0.0000000001
 43
0.0000000001
 40
0.0
 40
0.0
 40
0.0
 40
98.75311677528708
 40
98.75311677528708
 40
98.75311677528708
 10
1547.027661851888
 20
2293.726559940046
 30
0.0
 41
1.0
 10
1546.994760131536
 20
2244.350008422551
 30
0.0
 41
0.9999998756971308
 10
1546.91261976387
 20
2194.973514265483
 30
0.0
 41
1.0
  0
SPLINE
  5
8D
330
1F
100
AcDbEntity
  8
Predefinito
100
AcDbSpline
210
0.0
220
0.0
230
1.0
 70
    24
 71
     2
 72
     6
 73
     3
 74
     0
 42
0.0000000001
 43
0.0000000001
 40
0.0
 40
0.0
 40
0.0
 40
2.880904406355626
 40
2.880904406355626
 40
2.880904406355626
 10
1537.946786020068
 20
2391.426559940046
 30
0.0
 10
1539.387238223245
 20
2391.426559940046
 30
0.0
 10
1540.827690426423
 20
2391.426559940046
 30
0.0
  0
SPLINE
  5
8E
330
1F
100
AcDbEntity
  8
Predefinito
100
AcDbSpline
210
0.0
220
0.0
230
1.0
 70
    24
 71
     2
 72
     6
 73
     3
 74
     0
 42
0.0000000001
 43
0.0000000001
 40
0.0
 40
0.0
 40
0.0
 40
2.880904406355626
 40
2.880904406355626
 40
2.880904406355626
 10
1547.065881613712
 20
2391.426559940046
 30
0.0
 10
1548.50633381689
 20
2391.426559940046
 30
0.0
 10
1549.946786020068
 20
2391.426559940046
 30
0.0
  0
SPLINE
  5
8F
330
1F
100
AcDbEntity
  8
Predefinito
100
AcDbSpline
210
0.0
220
0.0
230
1.0
 70
    24
 71
     2
 72
     6
 73
     3
 74
     0
 42
0.0000000001
 43
0.0000000001
 40
0.0
 40
0.0
 40
0.0
 40
0.2000000000000455
 40
0.2000000000000455
 40
0.2000000000000455
 10
1538.246786020067
 20
2391.426559940046
 30
0.0
 10
1538.246786020067
 20
2391.326559940046
 30
0.0
 10
1538.246786020067
 20
2391.226559940046
 30
0.0
  0
SPLINE
  5
90
330
1F
100
AcDbEntity
  8
Predefinito
100
AcDbSpline
210
0.0
220
0.0
230
1.0
 70
    24
 71
     2
 72
     6
 73
     3
 74
     0
 42
0.0000000001
 43
0.0000000001
 40
0.0
 40
0.0
 40
0.0
 40
2.900000001406511
 40
2.900000001406511
 40
2.900000001406511
 10
1549.946786020068
 20
2391.226559940046
 30
0.0
 10
1548.496786019364
 20
2391.226559940046
 30
0.0
 10
1547.046786018661
 20
2391.226559940046
 30
0.0
  0
SPLINE
  5
91
330
1F
100
AcDbEntity
  8
Predefinito
100
AcDbSpline
210
0.0
220
0.0
230
1.0
 70
    24
 71
     2
 72
     6
 73
     3
 74
     0
 42
0.0000000001
 43
0.0000000001
 40
0.0
 40
0.0
 40
0.0
 40
2.900000001367857
 40
2.900000001367857
 40
2.900000001367857
 10
1540.846786021435
 20
2391.226559940047
 30
0.0
 10
1539.396786020751
 20
2391.226559940046
 30
0.0
 10
1537.946786020068
 20
2391.226559940046
 30
0.0
  0
SPLINE
  5
92
330
1F
100
AcDbEntity
  8
Predefinito
100
AcDbSpline
210
0.0
220
0.0
230
1.0
 70
    24
 71
     2
 72
     6
 73
     3
 74
     0
 42
0.0000000001
 43
0.0000000001
 40
0.0
 40
0.0
 40
0.0
 40
2.0
 40
2.0
 40
2.0
 10
1537.946786020068
 20
2391.226559940046
 30
0.0
 10
1537.946786020068
 20
2390.226559940046
 30
0.0
 10
1537.946786020068
 20
2389.226559940046
 30
0.0
  0
SPLINE
  5
93
330
1F
100
AcDbEntity
  8
Predefinito
100
AcDbSpline
210
0.0
220
0.0
230
1.0
 70
    24
 71
     2
 72
     6
 73
     3
 74
     0
 42
0.0000000001
 43
0.0000000001
 40
0.0
 40
0.0
 40
0.0
 40
2.900000001385024
 40
2.900000001385024
 40
2.900000001385024
 10
1547.046786018682
 20
2389.226559940046
 30
0.0
 10
1548.496786019375
 20
2389.226559940046
 30
0.0
 10
1549.946786020068
 20
2389.226559940046
 30
0.0
  0
SPLINE
  5
94
330
1F
100
AcDbEntity
  8
Predefinito
100
AcDbSpline
210
0.0
220
0.0
230
1.0
 70
    24
 71
     2
 72
     6
 73
     3
 74
     0
 42
0.0000000001
 43
0.0000000001
 40
0.0
 40
0.0
 40
0.0
 40
0.5376593899609361
 40
0.5376593899609361
 40
0.5376593899609361
 10
1541.579783065244
 20
2346.726559940046
 30
0.0
 10
1541.310953370264
 20
2346.726559940046
 30
0.0
 10
1541.042123675284
 20
2346.726559940046
 30
0.0
  0
SPLINE
  5
95
330
1F
100
AcDbEntity
  8
Predefinito
100
AcDbSpline
210
0.0
220
0.0
230
1.0
 70
    24
 71
     2
 72
     6
 73
     3
 74
     0
 42
0.0000000001
 43
0.0000000001
 40
0.0
 40
0.0
 40
0.0
 40
0.3623652739485124
 40
0.3623652739485124
 40
0.3623652739485124
 10
1541.042123675284
 20
2346.726559940046
 30
0.0
 10
1540.86094103831
 20
2346.726559940046
 30
0.0
 10
1540.679758401336
 20
2346.726559940046
 30
0.0
  0
SPLINE
  5
96
330
1F
100
AcDbEntity
  8
Predefinito
100
AcDbSpline
210
0.0
220
0.0
230
1.0
 70
    24
 71
     2
 72
     6
 73
     3
 74
     0
 42
0.0000000001
 43
0.0000000001
 40
0.0
 40
0.0
 40
0.0
 40
0.6919524775851187
 40
0.6919524775851187
 40
0.6919524775851187
 10
1540.679758401336
 20
2346.726559940046
 30
0.0
 10
1540.333782162543
 20
2346.726559940046
 30
0.0
 10
1539.987805923751
 20
2346.726559940046
 30
0.0
  0
SPLINE
  5
97
330
1F
100
AcDbEntity
  8
Predefinito
100
AcDbSpline
210
0.0
220
0.0
230
1.0
 70
    28
 71
     2
 72
     6
 73
     3
 74
     0
 42
0.0000000001
 43
0.0000000001
 40
-3.401075980659051
 40
-3.401075980659051
 40
-3.401075980659051
 40
-0.0205613128057056
 40
-0.0205613128057056
 40
-0.0205613128057056
 10
1547.909928546825
 20
2346.726559940046
 30
0.0
 41
1.0
 10
1548.279910697153
 20
2346.726559940046
 30
0.0
 41
0.9136605926337794
 10
1547.225577788798
 20
2346.726559940046
 30
0.0
 41
0.9989560647439742
  0
SPLINE
  5
98
330
1F
100
AcDbEntity
  8
Predefinito
100
AcDbSpline
210
0.0
220
0.0
230
1.0
 70
    24
 71
     2
 72
     6
 73
     3
 74
     0
 42
0.0000000001
 43
0.0000000001
 40
0.0
 40
0.0
 40
0.0
 40
0.3623652739483987
 40
0.3623652739483987
 40
0.3623652739483987
 10
1547.213813638799
 20
2346.726559940046
 30
0.0
 10
1547.032631001825
 20
2346.726559940046
 30
0.0
 10
1546.851448364851
 20
2346.726559940046
 30
0.0
  0
SPLINE
  5
99
330
1F
100
AcDbEntity
  8
Predefinito
100
AcDbSpline
210
0.0
220
0.0
230
1.0
 70
    24
 71
     2
 72
     6
 73
     3
 74
     0
 42
0.0000000001
 43
0.0000000001
 40
0.0
 40
0.0
 40
0.0
 40
0.5376593899609361
 40
0.5376593899609361
 40
0.5376593899609361
 10
1546.851448364851
 20
2346.726559940046
 30
0.0
 10
1546.582618669869
 20
2346.726559940046
 30
0.0
 10
1546.313788974889
 20
2346.726559940046
 30
0.0
  0
SPLINE
  5
9A
330
1F
100
AcDbEntity
  8
Predefinito
100
AcDbSpline
210
0.0
220
0.0
230
1.0
 70
    24
 71
     2
 72
     6
 73
     3
 74
     0
 42
0.0000000001
 43
0.0000000001
 40
0.0
 40
0.0
 40
0.0
 40
0.5376593899609361
 40
0.5376593899609361
 40
0.5376593899609361
 10
1541.579783065244
 20
2343.726559940046
 30
0.0
 10
1541.310953370264
 20
2343.726559940046
 30
0.0
 10
1541.042123675284
 20
2343.726559940046
 30
0.0
  0
SPLINE
  5
9B
330
1F
100
AcDbEntity
  8
Predefinito
100
AcDbSpline
210
0.0
220
0.0
230
1.0
 70
    24
 71
     2
 72
     6
 73
     3
 74
     0
 42
0.0000000001
 43
0.0000000001
 40
0.0
 40
0.0
 40
0.0
 40
0.3623652739485124
 40
0.3623652739485124
 40
0.3623652739485124
 10
1541.042123675284
 20
2343.726559940046
 30
0.0
 10
1540.86094103831
 20
2343.726559940046
 30
0.0
 10
1540.679758401336
 20
2343.726559940046
 30
0.0
  0
SPLINE
  5
9C
330
1F
100
AcDbEntity
  8
Predefinito
100
AcDbSpline
210
0.0
220
0.0
230
1.0
 70
    24
 71
     2
 72
     6
 73
     3
 74
     0
 42
0.0000000001
 43
0.0000000001
 40
0.0
 40
0.0
 40
0.0
 40
0.6919524775851187
 40
0.6919524775851187
 40
0.6919524775851187
 10
1540.679758401336
 20
2343.726559940046
 30
0.0
 10
1540.333782162543
 20
2343.726559940046
 30
0.0
 10
1539.987805923751
 20
2343.726559940046
 30
0.0
  0
SPLINE
  5
9D
330
1F
100
AcDbEntity
  8
Predefinito
100
AcDbSpline
210
0.0
220
0.0
230
1.0
 70
    28
 71
     2
 72
     6
 73
     3
 74
     0
 42
0.0000000001
 43
0.0000000001
 40
-3.401075980659051
 40
-3.401075980659051
 40
-3.401075980659051
 40
-0.0205613128056995
 40
-0.0205613128056995
 40
-0.0205613128056995
 10
1547.909928546825
 20
2343.726559940046
 30
0.0
 41
1.0
 10
1548.279910697152
 20
2343.726559940045
 30
0.0
 41
0.9136605926337792
 10
1547.225577788798
 20
2343.726559940048
 30
0.0
 41
0.9989560647439746
  0
SPLINE
  5
9E
330
1F
100
AcDbEntity
  8
Predefinito
100
AcDbSpline
210
0.0
220
0.0
230
1.0
 70
    24
 71
     2
 72
     6
 73
     3
 74
     0
 42
0.0000000001
 43
0.0000000001
 40
0.0
 40
0.0
 40
0.0
 40
0.3623652739483987
 40
0.3623652739483987
 40
0.3623652739483987
 10
1547.213813638799
 20
2343.726559940046
 30
0.0
 10
1547.032631001825
 20
2343.726559940046
 30
0.0
 10
1546.851448364851
 20
2343.726559940046
 30
0.0
  0
SPLINE
  5
9F
330
1F
100
AcDbEntity
  8
Predefinito
100
AcDbSpline
210
0.0
220
0.0
230
1.0
 70
    24
 71
     2
 72
     6
 73
     3
 74
     0
 42
0.0000000001
 43
0.0000000001
 40
0.0
 40
0.0
 40
0.0
 40
0.5376593899609361
 40
0.5376593899609361
 40
0.5376593899609361
 10
1546.851448364851
 20
2343.726559940046
 30
0.0
 10
1546.582618669869
 20
2343.726559940046
 30
0.0
 10
1546.313788974889
 20
2343.726559940046
 30
0.0
  0
SPLINE
  5
A0
330
1F
100
AcDbEntity
  8
Predefinito
100
AcDbSpline
210
0.0
220
0.0
230
1.0
 70
    24
 71
     2
 72
     6
 73
     3
 74
     0
 42
0.0000000001
 43
0.0000000001
 40
0.0
 40
0.0
 40
0.0
 40
3.0
 40
3.0
 40
3.0
 10
1546.851448364851
 20
2346.726559940046
 30
0.0
 10
1546.851448364851
 20
2345.226559940046
 30
0.0
 10
1546.851448364851
 20
2343.726559940046
 30
0.0
  0
SPLINE
  5
A1
330
1F
100
AcDbEntity
  8
Predefinito
100
AcDbSpline
210
0.0
220
0.0
230
1.0
 70
    24
 71
     2
 72
     6
 73
     3
 74
     0
 42
0.0000000001
 43
0.0000000001
 40
0.0
 40
0.0
 40
0.0
 40
3.0
 40
3.0
 40
3.0
 10
1547.213813638799
 20
2343.726559940046
 30
0.0
 10
1547.213813638799
 20
2345.226559940046
 30
0.0
 10
1547.213813638799
 20
2346.726559940046
 30
0.0
  0
SPLINE
  5
A2
330
1F
100
AcDbEntity
  8
Predefinito
100
AcDbSpline
210
0.0
220
0.0
230
1.0
 70
    24
 71
     2
 72
     6
 73
     3
 74
     0
 42
0.0000000001
 43
0.0000000001
 40
0.0
 40
0.0
 40
0.0
 40
3.0
 40
3.0
 40
3.0
 10
1546.313788974889
 20
2343.726559940046
 30
0.0
 10
1546.313788974889
 20
2345.226559940046
 30
0.0
 10
1546.313788974889
 20
2346.726559940046
 30
0.0
  0
SPLINE
  5
A3
330
1F
100
AcDbEntity
  8
Predefinito
100
AcDbSpline
210
0.0
220
0.0
230
1.0
 70
    24
 71
     2
 72
     6
 73
     3
 74
     0
 42
0.0000000001
 43
0.0000000001
 40
0.0
 40
0.0
 40
0.0
 40
3.0
 40
3.0
 40
3.0
 10
1540.679758401336
 20
2346.726559940046
 30
0.0
 10
1540.679758401336
 20
2345.226559940046
 30
0.0
 10
1540.679758401336
 20
2343.726559940046
 30
0.0
  0
SPLINE
  5
A4
330
1F
100
AcDbEntity
  8
Predefinito
100
AcDbSpline
210
0.0
220
0.0
230
1.0
 70
    24
 71
     2
 72
     6
 73
     3
 74
     0
 42
0.0000000001
 43
0.0000000001
 40
0.0
 40
0.0
 40
0.0
 40
3.0
 40
3.0
 40
3.0
 10
1541.042123675284
 20
2343.726559940046
 30
0.0
 10
1541.042123675284
 20
2345.226559940046
 30
0.0
 10
1541.042123675284
 20
2346.726559940046
 30
0.0
  0
SPLINE
  5
A5
330
1F
100
AcDbEntity
  8
Predefinito
100
AcDbSpline
210
0.0
220
0.0
230
1.0
 70
    24
 71
     2
 72
     6
 73
     3
 74
     0
 42
0.0000000001
 43
0.0000000001
 40
0.0
 40
0.0
 40
0.0
 40
3.0
 40
3.0
 40
3.0
 10
1541.579783065244
 20
2346.726559940046
 30
0.0
 10
1541.579783065244
 20
2345.226559940046
 30
0.0
 10
1541.579783065244
 20
2343.726559940046
 30
0.0
  0
SPLINE
  5
A6
330
1F
100
AcDbEntity
  8
Predefinito
100
AcDbSpline
210
0.0
220
0.0
230
1.0
 70
    24
 71
     2
 72
     6
 73
     3
 74
     0
 42
0.0000000001
 43
0.0000000001
 40
0.0
 40
0.0
 40
0.0
 40
0.5376593899609361
 40
0.5376593899609361
 40
0.5376593899609361
 10
1541.579783065244
 20
2296.726559940046
 30
0.0
 10
1541.310953370264
 20
2296.726559940046
 30
0.0
 10
1541.042123675284
 20
2296.726559940046
 30
0.0
  0
SPLINE
  5
A7
330
1F
100
AcDbEntity
  8
Predefinito
100
AcDbSpline
210
0.0
220
0.0
230
1.0
 70
    24
 71
     2
 72
     6
 73
     3
 74
     0
 42
0.0000000001
 43
0.0000000001
 40
0.0
 40
0.0
 40
0.0
 40
0.3623652739485124
 40
0.3623652739485124
 40
0.3623652739485124
 10
1541.042123675284
 20
2296.726559940046
 30
0.0
 10
1540.86094103831
 20
2296.726559940046
 30
0.0
 10
1540.679758401336
 20
2296.726559940046
 30
0.0
  0
SPLINE
  5
A8
330
1F
100
AcDbEntity
  8
Predefinito
100
AcDbSpline
210
0.0
220
0.0
230
1.0
 70
    24
 71
     2
 72
     6
 73
     3
 74
     0
 42
0.0000000001
 43
0.0000000001
 40
0.0
 40
0.0
 40
0.0
 40
0.6919524775851187
 40
0.6919524775851187
 40
0.6919524775851187
 10
1540.679758401336
 20
2296.726559940046
 30
0.0
 10
1540.333782162543
 20
2296.726559940046
 30
0.0
 10
1539.987805923751
 20
2296.726559940046
 30
0.0
  0
SPLINE
  5
A9
330
1F
100
AcDbEntity
  8
Predefinito
100
AcDbSpline
210
0.0
220
0.0
230
1.0
 70
    28
 71
     2
 72
     6
 73
     3
 74
     0
 42
0.0000000001
 43
0.0000000001
 40
-3.401075980659051
 40
-3.401075980659051
 40
-3.401075980659051
 40
-0.0205613128057056
 40
-0.0205613128057056
 40
-0.0205613128057056
 10
1547.909928546825
 20
2296.726559940046
 30
0.0
 41
1.0
 10
1548.279910697153
 20
2296.726559940046
 30
0.0
 41
0.9136605926337794
 10
1547.225577788798
 20
2296.726559940046
 30
0.0
 41
0.9989560647439742
  0
SPLINE
  5
AA
330
1F
100
AcDbEntity
  8
Predefinito
100
AcDbSpline
210
0.0
220
0.0
230
1.0
 70
    24
 71
     2
 72
     6
 73
     3
 74
     0
 42
0.0000000001
 43
0.0000000001
 40
0.0
 40
0.0
 40
0.0
 40
0.3623652739483987
 40
0.3623652739483987
 40
0.3623652739483987
 10
1547.213813638799
 20
2296.726559940046
 30
0.0
 10
1547.032631001825
 20
2296.726559940046
 30
0.0
 10
1546.851448364851
 20
2296.726559940046
 30
0.0
  0
SPLINE
  5
AB
330
1F
100
AcDbEntity
  8
Predefinito
100
AcDbSpline
210
0.0
220
0.0
230
1.0
 70
    24
 71
     2
 72
     6
 73
     3
 74
     0
 42
0.0000000001
 43
0.0000000001
 40
0.0
 40
0.0
 40
0.0
 40
0.5376593899609361
 40
0.5376593899609361
 40
0.5376593899609361
 10
1546.851448364851
 20
2296.726559940046
 30
0.0
 10
1546.582618669869
 20
2296.726559940046
 30
0.0
 10
1546.313788974889
 20
2296.726559940046
 30
0.0
  0
SPLINE
  5
AC
330
1F
100
AcDbEntity
  8
Predefinito
100
AcDbSpline
210
0.0
220
0.0
230
1.0
 70
    24
 71
     2
 72
     6
 73
     3
 74
     0
 42
0.0000000001
 43
0.0000000001
 40
0.0
 40
0.0
 40
0.0
 40
0.5376593899609361
 40
0.5376593899609361
 40
0.5376593899609361
 10
1541.579783065244
 20
2293.726559940046
 30
0.0
 10
1541.310953370264
 20
2293.726559940046
 30
0.0
 10
1541.042123675284
 20
2293.726559940046
 30
0.0
  0
SPLINE
  5
AD
330
1F
100
AcDbEntity
  8
Predefinito
100
AcDbSpline
210
0.0
220
0.0
230
1.0
 70
    24
 71
     2
 72
     6
 73
     3
 74
     0
 42
0.0000000001
 43
0.0000000001
 40
0.0
 40
0.0
 40
0.0
 40
0.3623652739485124
 40
0.3623652739485124
 40
0.3623652739485124
 10
1541.042123675284
 20
2293.726559940046
 30
0.0
 10
1540.86094103831
 20
2293.726559940046
 30
0.0
 10
1540.679758401336
 20
2293.726559940046
 30
0.0
  0
SPLINE
  5
AE
330
1F
100
AcDbEntity
  8
Predefinito
100
AcDbSpline
210
0.0
220
0.0
230
1.0
 70
    24
 71
     2
 72
     6
 73
     3
 74
     0
 42
0.0000000001
 43
0.0000000001
 40
0.0
 40
0.0
 40
0.0
 40
0.6919524775851187
 40
0.6919524775851187
 40
0.6919524775851187
 10
1540.679758401336
 20
2293.726559940046
 30
0.0
 10
1540.333782162543
 20
2293.726559940046
 30
0.0
 10
1539.987805923751
 20
2293.726559940046
 30
0.0
  0
SPLINE
  5
AF
330
1F
100
AcDbEntity
  8
Predefinito
100
AcDbSpline
210
0.0
220
0.0
230
1.0
 70
    28
 71
     2
 72
     6
 73
     3
 74
     0
 42
0.0000000001
 43
0.0000000001
 40
-3.401075980659051
 40
-3.401075980659051
 40
-3.401075980659051
 40
-0.0205613128056995
 40
-0.0205613128056995
 40
-0.0205613128056995
 10
1547.909928546825
 20
2293.726559940046
 30
0.0
 41
1.0
 10
1548.279910697152
 20
2293.726559940046
 30
0.0
 41
0.9136605926337792
 10
1547.225577788798
 20
2293.726559940047
 30
0.0
 41
0.9989560647439746
  0
SPLINE
  5
B0
330
1F
100
AcDbEntity
  8
Predefinito
100
AcDbSpline
210
0.0
220
0.0
230
1.0
 70
    24
 71
     2
 72
     6
 73
     3
 74
     0
 42
0.0000000001
 43
0.0000000001
 40
0.0
 40
0.0
 40
0.0
 40
0.3623652739483987
 40
0.3623652739483987
 40
0.3623652739483987
 10
1547.213813638799
 20
2293.726559940046
 30
0.0
 10
1547.032631001825
 20
2293.726559940046
 30
0.0
 10
1546.851448364851
 20
2293.726559940046
 30
0.0
  0
SPLINE
  5
B1
330
1F
100
AcDbEntity
  8
Predefinito
100
AcDbSpline
210
0.0
220
0.0
230
1.0
 70
    24
 71
     2
 72
     6
 73
     3
 74
     0
 42
0.0000000001
 43
0.0000000001
 40
0.0
 40
0.0
 40
0.0
 40
0.5376593899609361
 40
0.5376593899609361
 40
0.5376593899609361
 10
1546.851448364851
 20
2293.726559940046
 30
0.0
 10
1546.582618669869
 20
2293.726559940046
 30
0.0
 10
1546.313788974889
 20
2293.726559940046
 30
0.0
  0
SPLINE
  5
B2
330
1F
100
AcDbEntity
  8
Predefinito
100
AcDbSpline
210
0.0
220
0.0
230
1.0
 70
    24
 71
     2
 72
     6
 73
     3
 74
     0
 42
0.0000000001
 43
0.0000000001
 40
0.0
 40
0.0
 40
0.0
 40
3.0
 40
3.0
 40
3.0
 10
1546.851448364851
 20
2296.726559940046
 30
0.0
 10
1546.851448364851
 20
2295.226559940046
 30
0.0
 10
1546.851448364851
 20
2293.726559940046
 30
0.0
  0
SPLINE
  5
B3
330
1F
100
AcDbEntity
  8
Predefinito
100
AcDbSpline
210
0.0
220
0.0
230
1.0
 70
    24
 71
     2
 72
     6
 73
     3
 74
     0
 42
0.0000000001
 43
0.0000000001
 40
0.0
 40
0.0
 40
0.0
 40
3.0
 40
3.0
 40
3.0
 10
1547.213813638799
 20
2293.726559940046
 30
0.0
 10
1547.213813638799
 20
2295.226559940046
 30
0.0
 10
1547.213813638799
 20
2296.726559940046
 30
0.0
  0
SPLINE
  5
B4
330
1F
100
AcDbEntity
  8
Predefinito
100
AcDbSpline
210
0.0
220
0.0
230
1.0
 70
    24
 71
     2
 72
     6
 73
     3
 74
     0
 42
0.0000000001
 43
0.0000000001
 40
0.0
 40
0.0
 40
0.0
 40
3.0
 40
3.0
 40
3.0
 10
1546.313788974889
 20
2293.726559940046
 30
0.0
 10
1546.313788974889
 20
2295.226559940046
 30
0.0
 10
1546.313788974889
 20
2296.726559940046
 30
0.0
  0
SPLINE
  5
B5
330
1F
100
AcDbEntity
  8
Predefinito
100
AcDbSpline
210
0.0
220
0.0
230
1.0
 70
    24
 71
     2
 72
     6
 73
     3
 74
     0
 42
0.0000000001
 43
0.0000000001
 40
0.0
 40
0.0
 40
0.0
 40
3.0
 40
3.0
 40
3.0
 10
1540.679758401336
 20
2296.726559940046
 30
0.0
 10
1540.679758401336
 20
2295.226559940046
 30
0.0
 10
1540.679758401336
 20
2293.726559940046
 30
0.0
  0
SPLINE
  5
B6
330
1F
100
AcDbEntity
  8
Predefinito
100
AcDbSpline
210
0.0
220
0.0
230
1.0
 70
    24
 71
     2
 72
     6
 73
     3
 74
     0
 42
0.0000000001
 43
0.0000000001
 40
0.0
 40
0.0
 40
0.0
 40
3.0
 40
3.0
 40
3.0
 10
1541.042123675284
 20
2293.726559940046
 30
0.0
 10
1541.042123675284
 20
2295.226559940046
 30
0.0
 10
1541.042123675284
 20
2296.726559940046
 30
0.0
  0
SPLINE
  5
B7
330
1F
100
AcDbEntity
  8
Predefinito
100
AcDbSpline
210
0.0
220
0.0
230
1.0
 70
    24
 71
     2
 72
     6
 73
     3
 74
     0
 42
0.0000000001
 43
0.0000000001
 40
0.0
 40
0.0
 40
0.0
 40
3.0
 40
3.0
 40
3.0
 10
1541.579783065244
 20
2296.726559940046
 30
0.0
 10
1541.579783065244
 20
2295.226559940046
 30
0.0
 10
1541.579783065244
 20
2293.726559940046
 30
0.0
  0
SPLINE
  5
B8
330
1F
100
AcDbEntity
  8
Predefinito
100
AcDbSpline
210
0.0
220
0.0
230
1.0
 70
    24
 71
     2
 72
     6
 73
     3
 74
     0
 42
0.0000000001
 43
0.0000000001
 40
0.0
 40
0.0
 40
0.0
 40
0.7999999999999545
 40
0.7999999999999545
 40
0.7999999999999545
 10
1549.946786020187
 20
2392.226559940046
 30
0.0
 10
1549.946786020187
 20
2391.826559940046
 30
0.0
 10
1549.946786020187
 20
2391.426559940046
 30
0.0
  0
SPLINE
  5
B9
330
1F
100
AcDbEntity
  8
Predefinito
100
AcDbSpline
210
0.0
220
0.0
230
1.0
 70
    24
 71
     2
 72
     6
 73
     3
 74
     0
 42
0.0000000001
 43
0.0000000001
 40
0.0
 40
0.0
 40
0.0
 40
0.7999999999999545
 40
0.7999999999999545
 40
0.7999999999999545
 10
1537.946786020011
 20
2391.426559940046
 30
0.0
 10
1537.946786020011
 20
2391.826559940046
 30
0.0
 10
1537.946786020011
 20
2392.226559940046
 30
0.0
  0
SPLINE
  5
BA
330
1F
100
AcDbEntity
  8
Predefinito
100
AcDbSpline
210
0.0
220
0.0
230
1.0
 70
    24
 71
     2
 72
     6
 73
     3
 74
     0
 42
0.0000000001
 43
0.0000000001
 40
0.0
 40
0.0
 40
0.0
 40
0.2000000000000455
 40
0.2000000000000455
 40
0.2000000000000455
 10
1549.646786020067
 20
2391.426559940046
 30
0.0
 10
1549.646786020067
 20
2391.326559940046
 30
0.0
 10
1549.646786020067
 20
2391.226559940046
 30
0.0
  0
SPLINE
  5
BB
330
1F
100
AcDbEntity
  8
Predefinito
100
AcDbSpline
210
0.0
220
0.0
230
1.0
 70
    24
 71
     2
 72
     6
 73
     3
 74
     0
 42
0.0000000001
 43
0.0000000001
 40
0.0
 40
0.0
 40
0.0
 40
2.0
 40
2.0
 40
2.0
 10
1549.946786020068
 20
2391.226559940046
 30
0.0
 10
1549.946786020068
 20
2390.226559940046
 30
0.0
 10
1549.946786020068
 20
2389.226559940046
 30
0.0
  0
SPLINE
  5
BC
330
1F
100
AcDbEntity
  8
Predefinito
100
AcDbSpline
210
0.0
220
0.0
230
1.0
 70
    24
 71
     2
 72
     6
 73
     3
 74
     0
 42
0.0000000001
 43
0.0000000001
 40
0.0
 40
0.0
 40
0.0
 40
3.0
 40
3.0
 40
3.0
 10
1547.996786020068
 20
2346.726559940046
 30
0.0
 10
1547.996786020068
 20
2345.226559940046
 30
0.0
 10
1547.996786020068
 20
2343.726559940046
 30
0.0
  0
SPLINE
  5
BD
330
1F
100
AcDbEntity
  8
Predefinito
100
AcDbSpline
210
0.0
220
0.0
230
1.0
 70
    24
 71
     2
 72
     6
 73
     3
 74
     0
 42
0.0000000001
 43
0.0000000001
 40
0.0
 40
0.0
 40
0.0
 40
3.0
 40
3.0
 40
3.0
 10
1547.996786020068
 20
2296.726559940046
 30
0.0
 10
1547.996786020068
 20
2295.226559940046
 30
0.0
 10
1547.996786020068
 20
2293.726559940046
 30
0.0
  0
SPLINE
  5
BE
330
1F
100
AcDbEntity
  8
Predefinito
100
AcDbSpline
210
0.0
220
0.0
230
1.0
 70
    24
 71
     2
 72
     6
 73
     3
 74
     0
 42
0.0000000001
 43
0.0000000001
 40
0.0
 40
0.0
 40
0.0
 40
3.0
 40
3.0
 40
3.0
 10
1539.896786020067
 20
2293.726559940046
 30
0.0
 10
1539.896786020067
 20
2295.226559940046
 30
0.0
 10
1539.896786020067
 20
2296.726559940046
 30
0.0
  0
SPLINE
  5
BF
330
1F
100
AcDbEntity
  8
Predefinito
100
AcDbSpline
210
0.0
220
0.0
230
1.0
 70
    24
 71
     2
 72
     6
 73
     3
 74
     0
 42
0.0000000001
 43
0.0000000001
 40
0.0
 40
0.0
 40
0.0
 40
2.880904407685899
 40
2.880904407685899
 40
2.880904407685899
 10
1537.946786020068
 20
2389.226559940046
 30
0.0
 10
1539.38723822391
 20
2389.226559940046
 30
0.0
 10
1540.827690427754
 20
2389.226559940046
 30
0.0
  0
POLYLINE
  5
C0
330
1F
100
AcDbEntity
  8
Predefinito
100
AcDb2dPolyline
 66
     1
 10
0.0
 20
0.0
 30
0.0
  0
VERTEX
  5
C1
330
C0
100
AcDbEntity
  8
Predefinito
100
AcDbVertex
100
AcDb2dVertex
 10
1539.987805923751
 20
2346.726559940046
 30
0.0
  0
VERTEX
  5
C2
330
C0
100
AcDbEntity
  8
Predefinito
100
AcDbVertex
100
AcDb2dVertex
 10
1539.987805923751
 20
2343.726559940046
 30
0.0
  0
SEQEND
  5
C3
330
C0
100
AcDbEntity
  8
Predefinito
  0
POLYLINE
  5
C4
330
1F
100
AcDbEntity
  8
Predefinito
100
AcDb2dPolyline
 66
     1
 10
0.0
 20
0.0
 30
0.0
  0
VERTEX
  5
C5
330
C4
100
AcDbEntity
  8
Predefinito
100
AcDbVertex
100
AcDb2dVertex
 10
1540.827690426997
 20
2341.059870541213
 30
0.0
  0
VERTEX
  5
C6
330
C4
100
AcDbEntity
  8
Predefinito
100
AcDbVertex
100
AcDb2dVertex
 10
1540.827690219286
 20
2321.361039720629
 30
0.0
  0
SEQEND
  5
C7
330
C4
100
AcDbEntity
  8
Predefinito
  0
POLYLINE
  5
C8
330
1F
100
AcDbEntity
  8
Predefinito
100
AcDb2dPolyline
 66
     1
 10
0.0
 20
0.0
 30
0.0
  0
VERTEX
  5
C9
330
C8
100
AcDbEntity
  8
Predefinito
100
AcDbVertex
100
AcDb2dVertex
 10
1547.027690427083
 20
2341.059872551154
 30
0.0
  0
VERTEX
  5
CA
330
C8
100
AcDbEntity
  8
Predefinito
100
AcDbVertex
100
AcDb2dVertex
 10
1547.027690415753
 20
2311.180503384629
 30
0.0
  0
SEQEND
  5
CB
330
C8
100
AcDbEntity
  8
Predefinito
  0
LINE
  5
CC
330
1F
100
AcDbEntity
  8
Predefinito
100
AcDbLine
 10
1547.027690433972
 20
2300.989633582397
 30
0.0
 11
1547.027690442676
 21
2296.726559940046
 31
0.0
  0
LINE
  5
CD
330
1F
100
AcDbEntity
  8
Predefinito
100
AcDbLine
 10
1540.827690439615
 20
2296.726559940046
 30
0.0
 11
1540.827690433977
 21
2300.989631931253
 31
0.0
  0
SPLINE
  5
CE
330
1F
100
AcDbEntity
  8
Predefinito
100
AcDbSpline
210
0.0
220
0.0
230
1.0
 70
    12
 71
     2
 72
     6
 73
     3
 74
     0
 42
0.0000000001
 43
0.0000000001
 40
0.0
 40
0.0
 40
0.0
 40
3.09687549754566
 40
3.09687549754566
 40
3.09687549754566
 10
1477.97018866853
 20
2000.458080374304
 30
0.0
 41
1.0
 10
1479.260328381585
 20
2001.404163681016
 30
0.0
 41
0.9524823890050764
 10
1480.86003230383
 20
2001.426105959776
 30
0.0
 41
1.0
  0
SPLINE
  5
CF
330
1F
100
AcDbEntity
  8
Predefinito
100
AcDbSpline
210
0.0
220
0.0
230
1.0
 70
    12
 71
     2
 72
     8
 73
     5
 74
     0
 42
0.0000000001
 43
0.0000000001
 40
0.0
 40
0.0
 40
0.0
 40
137.3943394519993
 40
137.3943394519993
 40
274.7886789039986
 40
274.7886789039986
 40
274.7886789039986
 10
1543.926267055632
 20
1802.426559949256
 30
0.0
 41
1.0
 10
1464.64327915956
 20
1802.42756587718
 30
0.0
 41
0.8112440030182642
 10
1439.572283640686
 20
1877.642174527582
 30
0.0
 41
1.0
 10
1414.501288121811
 20
1952.856783177984
 30
0.0
 41
0.8112440030182642
 10
1477.927690428328
 20
2000.426559940047
 30
0.0
 41
1.0
  0
SPLINE
  5
D0
330
1F
100
AcDbEntity
  8
Predefinito
100
AcDbSpline
210
0.0
220
0.0
230
1.0
 70
    24
 71
     2
 72
     6
 73
     3
 74
     0
 42
0.0000000001
 43
0.0000000001
 40
0.0
 40
0.0
 40
0.0
 40
0.6598872323781181
 40
0.6598872323781181
 40
0.6598872323781181
 10
1560.968055666205
 20
2077.540097163451
 30
0.0
 10
1561.201361034621
 20
2077.773402531867
 30
0.0
 10
1561.434666403038
 20
2078.006707900284
 30
0.0
  0
SPLINE
  5
D1
330
1F
100
AcDbEntity
  8
Predefinito
100
AcDbSpline
210
0.0
220
0.0
230
1.0
 70
    24
 71
     2
 72
     6
 73
     3
 74
     0
 42
0.0000000001
 43
0.0000000001
 40
0.0
 40
0.0
 40
0.0
 40
0.6598872323781181
 40
0.6598872323781181
 40
0.6598872323781181
 10
1568.434666403038
 20
2078.006707900284
 30
0.0
 10
1568.667971771454
 20
2077.773402531867
 30
0.0
 10
1568.901277139871
 20
2077.540097163451
 30
0.0
  0
SPLINE
  5
D2
330
1F
100
AcDbEntity
  8
Predefinito
100
AcDbSpline
210
0.0
220
0.0
230
1.0
 70
    24
 71
     2
 72
     6
 73
     3
 74
     0
 42
0.0000000001
 43
0.0000000001
 40
0.0
 40
0.0
 40
0.0
 40
0.6598872323781181
 40
0.6598872323781181
 40
0.6598872323781181
 10
1561.434666403038
 20
2095.006707900284
 30
0.0
 10
1561.201361034621
 20
2095.2400132687
 30
0.0
 10
1560.968055666205
 20
2095.473318637117
 30
0.0
  0
SPLINE
  5
D3
330
1F
100
AcDbEntity
  8
Predefinito
100
AcDbSpline
210
0.0
220
0.0
230
1.0
 70
    24
 71
     2
 72
     6
 73
     3
 74
     0
 42
0.0000000001
 43
0.0000000001
 40
0.0
 40
0.0
 40
0.0
 40
0.6598872323781181
 40
0.6598872323781181
 40
0.6598872323781181
 10
1568.901277139871
 20
2095.473318637117
 30
0.0
 10
1568.667971771454
 20
2095.2400132687
 30
0.0
 10
1568.434666403038
 20
2095.006707900284
 30
0.0
  0
SPLINE
  5
D4
330
1F
100
AcDbEntity
  8
Predefinito
100
AcDbSpline
210
0.0
220
0.0
230
1.0
 70
    24
 71
     2
 72
     6
 73
     3
 74
     0
 42
0.0000000001
 43
0.0000000001
 40
0.0
 40
0.0
 40
0.0
 40
17.5
 40
17.5
 40
17.5
 10
1568.934666403038
 20
2077.506707900284
 30
0.0
 10
1568.934666403038
 20
2068.756707900284
 30
0.0
 10
1568.934666403038
 20
2060.006707900284
 30
0.0
  0
SPLINE
  5
D5
330
1F
100
AcDbEntity
  8
Predefinito
100
AcDbSpline
210
0.0
220
0.0
230
1.0
 70
    24
 71
     2
 72
     6
 73
     3
 74
     0
 42
0.0000000001
 43
0.0000000001
 40
0.0
 40
0.0
 40
0.0
 40
17.5
 40
17.5
 40
17.5
 10
1560.934666403038
 20
2060.006707900284
 30
0.0
 10
1560.934666403038
 20
2068.756707900284
 30
0.0
 10
1560.934666403038
 20
2077.506707900284
 30
0.0
  0
SPLINE
  5
D6
330
1F
100
AcDbEntity
  8
Predefinito
100
AcDbSpline
210
0.0
220
0.0
230
1.0
 70
    12
 71
     2
 72
     6
 73
     3
 74
     0
 42
0.0000000001
 43
0.0000000001
 40
0.0
 40
0.0
 40
0.0
 40
16.7268126733163
 40
16.7268126733163
 40
16.7268126733163
 10
1553.348429841769
 20
2045.851223294832
 30
0.0
 41
1.0
 10
1560.934754119619
 20
2050.896102801082
 30
0.0
 41
0.8813991784325751
 10
1560.934666403038
 20
2060.006707900284
 30
0.0
 41
1.0
  0
SPLINE
  5
D7
330
1F
100
AcDbEntity
  8
Predefinito
100
AcDbSpline
210
0.0
220
0.0
230
1.0
 70
    12
 71
     2
 72
     6
 73
     3
 74
     0
 42
0.0000000001
 43
0.0000000001
 40
0.0
 40
0.0
 40
0.0
 40
17.36421207996841
 40
17.36421207996841
 40
17.36421207996841
 10
1526.934666403038
 20
2060.006707900284
 30
0.0
 41
1.0
 10
1526.934681137564
 20
2050.481706842737
 30
0.0
 41
0.8723962807900614
 10
1535.058117754703
 20
2045.5082349494
 30
0.0
 41
1.0
  0
SPLINE
  5
D8
330
1F
100
AcDbEntity
  8
Predefinito
100
AcDbSpline
210
0.0
220
0.0
230
1.0
 70
    24
 71
     2
 72
     6
 73
     3
 74
     0
 42
0.0000000001
 43
0.0000000001
 40
0.0
 40
0.0
 40
0.0
 40
120.0
 40
120.0
 40
120.0
 10
1526.934666403038
 20
2180.006707900284
 30
0.0
 10
1526.934666403038
 20
2120.006707900284
 30
0.0
 10
1526.934666403038
 20
2060.006707900284
 30
0.0
  0
SPLINE
  5
D9
330
1F
100
AcDbEntity
  8
Predefinito
100
AcDbSpline
210
0.0
220
0.0
230
1.0
 70
    24
 71
     2
 72
     6
 73
     3
 74
     0
 42
0.0000000001
 43
0.0000000001
 40
0.0
 40
0.0
 40
0.0
 40
120.0
 40
120.0
 40
120.0
 10
1518.934666403038
 20
2060.006707900284
 30
0.0
 10
1518.934666403038
 20
2120.006707900284
 30
0.0
 10
1518.934666403038
 20
2180.006707900284
 30
0.0
  0
SPLINE
  5
DA
330
1F
100
AcDbEntity
  8
Predefinito
100
AcDbSpline
210
0.0
220
0.0
230
1.0
 70
    12
 71
     2
 72
     6
 73
     3
 74
     0
 42
0.0000000001
 43
0.0000000001
 40
0.0
 40
0.0
 40
0.0
 40
23.46162241418778
 40
23.46162241418778
 40
23.46162241418778
 10
1540.712747672388
 20
2196.698498298066
 30
0.0
 41
1.0
 10
1526.93547564663
 20
2194.03842886422
 30
0.0
 41
0.7712431681225005
 10
1526.934666403038
 20
2180.006707900284
 30
0.0
 41
1.0
  0
SPLINE
  5
DB
330
1F
100
AcDbEntity
  8
Predefinito
100
AcDbSpline
210
0.0
220
0.0
230
1.0
 70
    12
 71
     2
 72
     6
 73
     3
 74
     0
 42
0.0000000001
 43
0.0000000001
 40
0.0
 40
0.0
 40
0.0
 40
23.7098708772406
 40
23.7098708772406
 40
23.7098708772406
 10
1560.934666403038
 20
2180.006707900284
 30
0.0
 41
1.0
 10
1560.934339920212
 20
2194.248583901612
 30
0.0
 41
0.7665594769475206
 10
1546.912755832808
 20
2196.74382173069
 30
0.0
 41
1.0
  0
SPLINE
  5
DC
330
1F
100
AcDbEntity
  8
Predefinito
100
AcDbSpline
210
0.0
220
0.0
230
1.0
 70
    24
 71
     2
 72
     6
 73
     3
 74
     0
 42
0.0000000001
 43
0.0000000001
 40
0.0
 40
0.0
 40
0.0
 40
84.5
 40
84.5
 40
84.5
 10
1560.934666403038
 20
2095.506707900284
 30
0.0
 10
1560.934666403038
 20
2137.756707900284
 30
0.0
 10
1560.934666403038
 20
2180.006707900284
 30
0.0
  0
SPLINE
  5
DD
330
1F
100
AcDbEntity
  8
Predefinito
100
AcDbSpline
210
0.0
220
0.0
230
1.0
 70
    24
 71
     2
 72
     6
 73
     3
 74
     0
 42
0.0000000001
 43
0.0000000001
 40
0.0
 40
0.0
 40
0.0
 40
27.69843671094746
 40
27.69843671094746
 40
27.69843671094746
 10
1612.225049521478
 20
2419.923941979397
 30
0.0
 10
1612.104193825874
 20
2406.075250959722
 30
0.0
 10
1611.98333813027
 20
2392.226559940046
 30
0.0
  0
SPLINE
  5
DE
330
1F
100
AcDbEntity
  8
Predefinito
100
AcDbSpline
210
0.0
220
0.0
230
1.0
 70
    24
 71
     2
 72
     6
 73
     3
 74
     0
 42
0.0000000001
 43
0.0000000001
 40
0.0
 40
0.0
 40
0.0
 40
27.69843671094726
 40
27.69843671094726
 40
27.69843671094726
 10
1475.872042725783
 20
2392.226559940046
 30
0.0
 10
1475.751187030178
 20
2406.075250959722
 30
0.0
 10
1475.630331334573
 20
2419.923941979397
 30
0.0
  0
SPLINE
  5
DF
330
1F
100
AcDbEntity
  8
Predefinito
100
AcDbSpline
210
0.0
220
0.0
230
1.0
 70
    12
 71
     2
 72
     8
 73
     5
 74
     0
 42
0.0000000001
 43
0.0000000001
 40
0.0
 40
0.0
 40
0.0
 40
0.2498008242115415
 40
0.2498008242115415
 40
0.4996016484230829
 40
0.4996016484230829
 40
0.4996016484230829
 10
1475.630301359726
 20
2419.923941979397
 30
0.0
 41
1.0
 10
1475.605982425651
 20
2420.05724537982
 30
0.0
 41
0.8866542208751352
 10
1475.701378058381
 20
2420.153478847879
 30
0.0
 41
1.0
 10
1475.79677369111
 20
2420.249712315939
 30
0.0
 41
0.8866542208751352
 10
1475.93028464425
 20
2420.226559940028
 30
0.0
 41
1.0
  0
SPLINE
  5
E0
330
1F
100
AcDbEntity
  8
Predefinito
100
AcDbSpline
210
0.0
220
0.0
230
1.0
 70
    24
 71
     2
 72
     6
 73
     3
 74
     0
 42
0.0000000001
 43
0.0000000001
 40
0.0
 40
0.0
 40
0.0
 40
4.0
 40
4.0
 40
4.0
 10
1541.571725589419
 20
2192.226559940047
 30
0.0
 10
1541.571725589419
 20
2190.226559940047
 30
0.0
 10
1541.571725589419
 20
2188.226559940047
 30
0.0
  0
SPLINE
  5
E1
330
1F
100
AcDbEntity
  8
Predefinito
100
AcDbSpline
210
0.0
220
0.0
230
1.0
 70
    24
 71
     2
 72
     6
 73
     3
 74
     0
 42
0.0000000001
 43
0.0000000001
 40
0.0
 40
0.0
 40
0.0
 40
4.0
 40
4.0
 40
4.0
 10
1546.283655267239
 20
2188.226559940047
 30
0.0
 10
1546.283655267239
 20
2190.226559940047
 30
0.0
 10
1546.283655267239
 20
2192.226559940047
 30
0.0
  0
SPLINE
  5
E2
330
1F
100
AcDbEntity
  8
Predefinito
100
AcDbSpline
210
0.0
220
0.0
230
1.0
 70
    12
 71
     2
 72
     6
 73
     3
 74
     0
 42
0.0000000001
 43
0.0000000001
 40
0.0
 40
0.0
 40
0.0
 40
8.580320012116577
 40
8.580320012116577
 40
8.580320012116577
 10
1540.712680442714
 20
2196.218530466709
 30
0.0
 41
1.0
 10
1540.713316237014
 20
2200.508690679073
 30
0.0
 41
0.999999911396222
 10
1540.717564004767
 20
2204.798848835649
 30
0.0
 41
1.0
  0
SPLINE
  5
E3
330
1F
100
AcDbEntity
  8
Predefinito
100
AcDbSpline
210
0.0
220
0.0
230
1.0
 70
    12
 71
     2
 72
     6
 73
     3
 74
     0
 42
0.0000000001
 43
0.0000000001
 40
0.0
 40
0.0
 40
0.0
 40
2.034978430421658
 40
2.034978430421658
 40
2.034978430421658
 10
1546.912619764561
 20
2194.973514265483
 30
0.0
 41
1.0
 10
1546.912617399535
 20
2193.956025050272
 30
0.0
 41
0.9999999999948506
 10
1546.912621565095
 20
2192.938535835066
 30
0.0
 41
1.0
  0
SPLINE
  5
E4
330
1F
100
AcDbEntity
  8
Predefinito
100
AcDbSpline
210
0.0
220
0.0
230
1.0
 70
    12
 71
     2
 72
     6
 73
     3
 74
     0
 42
0.0000000001
 43
0.0000000001
 40
0.0
 40
0.0
 40
0.0
 40
13.37350043702124
 40
13.37350043702124
 40
13.37350043702124
 10
1551.995689921144
 20
2001.428654037213
 30
0.0
 41
1.0
 10
1552.1474953845
 20
1994.743409696324
 30
0.0
 41
0.9999512197053014
 10
1552.167215268174
 20
1988.056471090183
 30
0.0
 41
1.0
  0
SPLINE
  5
E5
330
1F
100
AcDbEntity
  8
Predefinito
100
AcDbSpline
210
0.0
220
0.0
230
1.0
 70
     8
 71
     3
 72
    13
 73
     9
 74
     0
 42
0.0000000001
 43
0.0000000001
 40
0.0
 40
0.0
 40
0.0
 40
0.0
 40
1.597866537209657
 40
3.937275594650823
 40
8.178827112903956
 40
14.33404060648782
 40
32.1466811931073
 40
52.43007693419406
 40
52.43007693419406
 40
52.43007693419406
 40
52.43007693419406
 10
1547.474534665273
 20
2053.519046076182
 30
0.0
 10
1547.845802460063
 20
2053.130735644877
 30
0.0
 10
1548.455408939232
 20
2051.947237338387
 30
0.0
 10
1549.022025860589
 20
2049.273649567645
 30
0.0
 10
1549.589282421598
 20
2045.066377356288
 30
0.0
 10
1550.481268298668
 20
2035.703889956177
 30
0.0
 10
1551.38074615976
 20
2020.979220552114
 30
0.0
 10
1551.84373738544
 20
2008.288301222081
 30
0.0
 10
1551.993441931495
 20
2001.528654037214
 30
0.0
  0
SPLINE
  5
E6
330
1F
100
AcDbEntity
  8
Predefinito
100
AcDbSpline
210
0.0
220
0.0
230
1.0
 70
    12
 71
     2
 72
     6
 73
     3
 74
     0
 42
0.0000000001
 43
0.0000000001
 40
0.0
 40
0.0
 40
0.0
 40
41.15524296728867
 40
41.15524296728867
 40
41.15524296728867
 10
1552.167883338218
 20
1987.767530676237
 30
0.0
 41
1.0
 10
1552.172960479573
 20
1967.189908908524
 30
0.0
 41
0.9999999336357183
 10
1552.163043970679
 20
1946.612288903887
 30
0.0
 41
1.0
  0
SPLINE
  5
E7
330
1F
100
AcDbEntity
  8
Predefinito
100
AcDbSpline
210
0.0
220
0.0
230
1.0
 70
     8
 71
     3
 72
    15
 73
    11
 74
     0
 42
0.0000000001
 43
0.0000000001
 40
0.0
 40
0.0
 40
0.0
 40
0.0
 40
47.19251949960618
 40
91.99595916387563
 40
170.618484786174
 40
231.4809835116802
 40
250.8372828451749
 40
257.0530591360742
 40
259.0995731968811
 40
260.3492103239427
 40
260.3492103239427
 40
260.3492103239427
 40
260.3492103239427
 10
1546.91456369979
 20
2175.451478294206
 30
0.0
 10
1546.920281424408
 20
2159.720554451471
 30
0.0
 10
1546.980574451104
 20
2129.055462135551
 30
0.0
 10
1547.256500548702
 20
2072.182965291006
 30
0.0
 10
1547.878347760862
 20
2010.756542721639
 30
0.0
 10
1548.900241579251
 20
1957.817982957383
 30
0.0
 10
1549.913751750167
 20
1929.023330314127
 30
0.0
 10
1550.453068446071
 20
1919.831907026853
 30
0.0
 10
1550.722478359615
 20
1916.672959090612
 30
0.0
 10
1550.85727456215
 20
1915.581667293597
 30
0.0
 10
1550.938476894547
 20
1915.17309756496
 30
0.0
  0
SPLINE
  5
E8
330
1F
100
AcDbEntity
  8
Predefinito
100
AcDbSpline
210
0.0
220
0.0
230
1.0
 70
     8
 71
     3
 72
    18
 73
    14
 74
     0
 42
0.0000000001
 43
0.0000000001
 40
0.0
 40
0.0
 40
0.0
 40
0.0
 40
2.282009889148026
 40
3.598852196730487
 40
5.934601978775182
 40
8.658174917171982
 40
11.38145760499073
 40
13.03981496976551
 40
16.31175844543105
 40
29.32205439742981
 40
70.27713537338295
 40
128.0149240939626
 40
273.8926407999309
 40
273.8926407999309
 40
273.8926407999309
 40
273.8926407999309
 10
1551.616200038533
 20
1916.656027831696
 30
0.0
 10
1551.564089079301
 20
1915.893718913657
 30
0.0
 10
1551.474088294789
 20
1914.706043825798
 30
0.0
 10
1551.114767529758
 20
1912.740422620598
 30
0.0
 10
1549.695377977931
 20
1910.990487183359
 30
0.0
 10
1546.811124602798
 20
1910.776113759191
 30
0.0
 10
1545.052654857941
 20
1912.658869722574
 30
0.0
 10
1544.632384532585
 20
1915.19845968522
 30
0.0
 10
1544.108029846481
 20
1921.151354702053
 30
0.0
 10
1543.238667362314
 20
1940.213568443748
 30
0.0
 10
1542.272501664773
 20
1977.435628744816
 30
0.0
 10
1541.019774949052
 20
2058.950717023452
 30
0.0
 10
1540.748826974093
 20
2126.823251943011
 30
0.0
 10
1540.714564189234
 20
2175.44899696823
 30
0.0
  0
SPLINE
  5
E9
330
1F
100
AcDbEntity
  8
Predefinito
100
AcDbSpline
210
0.0
220
0.0
230
1.0
 70
     8
 71
     3
 72
    11
 73
     7
 74
     0
 42
0.0000000001
 43
0.0000000001
 40
0.0
 40
0.0
 40
0.0
 40
0.0
 40
10.10431095620124
 40
18.5361105492111
 40
25.10138462903871
 40
29.65835398981635
 40
29.65835398981635
 40
29.65835398981635
 40
29.65835398981635
 10
1552.162282442758
 20
1946.306093988449
 30
0.0
 10
1552.153591066535
 20
1942.937998305143
 30
0.0
 10
1552.122394279875
 20
1936.759354544483
 30
0.0
 10
1552.019478612579
 20
1928.392770408586
 30
0.0
 10
1551.869006247849
 20
1921.876370805493
 30
0.0
 10
1551.715588862642
 20
1918.171847485371
 30
0.0
 10
1551.616200038533
 20
1916.656027831698
 30
0.0
  0
SPLINE
  5
EA
330
1F
100
AcDbEntity
  8
Predefinito
100
AcDbSpline
210
0.0
220
0.0
230
1.0
 70
    12
 71
     2
 72
     6
 73
     3
 74
     0
 42
0.0000000001
 43
0.0000000001
 40
0.0
 40
0.0
 40
0.0
 40
10.85484980080313
 40
10.85484980080313
 40
10.85484980080313
 10
1540.714562904287
 20
2175.451732446529
 30
0.0
 41
1.0
 10
1540.711950633193
 20
2180.879156883513
 30
0.0
 41
0.999999954332738
 10
1540.712618871632
 20
2186.306581908014
 30
0.0
 41
1.0
  0
SPLINE
  5
EB
330
1F
100
AcDbEntity
  8
Predefinito
100
AcDbSpline
210
0.0
220
0.0
230
1.0
 70
    12
 71
     2
 72
     6
 73
     3
 74
     0
 42
0.0000000001
 43
0.0000000001
 40
0.0
 40
0.0
 40
0.0
 40
10.85476132323767
 40
10.85476132323767
 40
10.85476132323767
 10
1546.912618875905
 20
2186.309431457429
 30
0.0
 41
1.0
 10
1546.912354866657
 20
2180.882050708455
 30
0.0
 41
0.9999999740823586
 10
1546.914562200336
 20
2175.454670401925
 30
0.0
 41
1.0
  0
SPLINE
  5
EC
330
1F
100
AcDbEntity
  8
Predefinito
100
AcDbSpline
210
0.0
220
0.0
230
1.0
 70
    12
 71
     2
 72
     6
 73
     3
 74
     0
 42
0.0000000001
 43
0.0000000001
 40
0.0
 40
0.0
 40
0.0
 40
1.919978039388932
 40
1.919978039388932
 40
1.919978039388932
 10
1540.712618871644
 20
2186.306581900659
 30
0.0
 41
1.0
 10
1540.712619879047
 20
2187.266570920353
 30
0.0
 41
0.9999999999999929
 10
1540.712621116067
 20
2188.226559940047
 30
0.0
 41
1.0
  0
SPLINE
  5
ED
330
1F
100
AcDbEntity
  8
Predefinito
100
AcDbSpline
210
0.0
220
0.0
230
1.0
 70
    12
 71
     2
 72
     6
 73
     3
 74
     0
 42
0.0000000001
 43
0.0000000001
 40
0.0
 40
0.0
 40
0.0
 40
1.917128477318958
 40
1.917128477318958
 40
1.917128477318958
 10
1546.912621114455
 20
2188.226559940047
 30
0.0
 41
1.0
 10
1546.912619880468
 20
2187.267995701388
 30
0.0
 41
0.9999999999999929
 10
1546.91261887631
 20
2186.309431462729
 30
0.0
 41
1.0
  0
SPLINE
  5
EE
330
1F
100
AcDbEntity
  8
Predefinito
100
AcDbSpline
210
0.0
220
0.0
230
1.0
 70
    12
 71
     2
 72
     6
 73
     3
 74
     0
 42
0.0000000001
 43
0.0000000001
 40
0.0
 40
0.0
 40
0.0
 40
0.7119445235706212
 40
0.7119445235706212
 40
0.7119445235706212
 10
1546.912621565099
 20
2192.938504463617
 30
0.0
 41
1.0
 10
1546.912622105585
 20
2192.582532201832
 30
0.0
 41
0.9999999999997784
 10
1546.912622172094
 20
2192.226559940046
 30
0.0
 41
1.0
  0
SPLINE
  5
EF
330
1F
100
AcDbEntity
  8
Predefinito
100
AcDbSpline
210
0.0
220
0.0
230
1.0
 70
    24
 71
     2
 72
     6
 73
     3
 74
     0
 42
0.0000000001
 43
0.0000000001
 40
0.0
 40
0.0
 40
0.0
 40
13.74176696457971
 40
13.74176696457971
 40
13.74176696457971
 10
1554.072536735472
 20
2035.681831788049
 30
0.0
 10
1554.072536735472
 20
2028.810948305759
 30
0.0
 10
1554.072536735472
 20
2021.940064823469
 30
0.0
  0
SPLINE
  5
F0
330
1F
100
AcDbEntity
  8
Predefinito
100
AcDbSpline
210
0.0
220
0.0
230
1.0
 70
    24
 71
     2
 72
     6
 73
     3
 74
     0
 42
0.0000000001
 43
0.0000000001
 40
0.0
 40
0.0
 40
0.0
 40
4.25311537986795
 40
4.25311537986795
 40
4.25311537986795
 10
1554.072536735472
 20
2051.428653247221
 30
0.0
 10
1554.072536735472
 20
2049.302095557287
 30
0.0
 10
1554.072536735472
 20
2047.175537867353
 30
0.0
  0
SPLINE
  5
F1
330
1F
100
AcDbEntity
  8
Predefinito
100
AcDbSpline
210
0.0
220
0.0
230
1.0
 70
    24
 71
     2
 72
     6
 73
     3
 74
     0
 42
0.0000000001
 43
0.0000000001
 40
0.0
 40
0.0
 40
0.0
 40
4.253115379728115
 40
4.253115379728115
 40
4.253115379728115
 10
1534.172536735472
 20
2047.175537867493
 30
0.0
 10
1534.172536735472
 20
2049.302095557357
 30
0.0
 10
1534.172536735472
 20
2051.428653247221
 30
0.0
  0
SPLINE
  5
F2
330
1F
100
AcDbEntity
  8
Predefinito
100
AcDbSpline
210
0.0
220
0.0
230
1.0
 70
    24
 71
     2
 72
     6
 73
     3
 74
     0
 42
0.0000000001
 43
0.0000000001
 40
0.0
 40
0.0
 40
0.0
 40
13.74176696457971
 40
13.74176696457971
 40
13.74176696457971
 10
1534.172536735472
 20
2021.940064823469
 30
0.0
 10
1534.172536735472
 20
2028.810948305759
 30
0.0
 10
1534.172536735472
 20
2035.681831788049
 30
0.0
  0
SPLINE
  5
F3
330
1F
100
AcDbEntity
  8
Predefinito
100
AcDbSpline
210
0.0
220
0.0
230
1.0
 70
    24
 71
     2
 72
     6
 73
     3
 74
     0
 42
0.0000000001
 43
0.0000000001
 40
0.0
 40
0.0
 40
0.0
 40
0.6786468337854821
 40
0.6786468337854821
 40
0.6786468337854821
 10
1553.572536735472
 20
2051.928654037214
 30
0.0
 10
1553.812474624572
 20
2051.688716148113
 30
0.0
 10
1554.052412513673
 20
2051.448778259013
 30
0.0
  0
SPLINE
  5
F4
330
1F
100
AcDbEntity
  8
Predefinito
100
AcDbSpline
210
0.0
220
0.0
230
1.0
 70
    24
 71
     2
 72
     6
 73
     3
 74
     0
 42
0.0000000001
 43
0.0000000001
 40
0.0
 40
0.0
 40
0.0
 40
0.6786468639013526
 40
0.6786468639013526
 40
0.6786468639013526
 10
1534.192660935976
 20
2051.448778237718
 30
0.0
 10
1534.432598835724
 20
2051.688716137466
 30
0.0
 10
1534.672536735472
 20
2051.928654037214
 30
0.0
  0
SPLINE
  5
F5
330
1F
100
AcDbEntity
  8
Predefinito
100
AcDbSpline
210
0.0
220
0.0
230
1.0
 70
    12
 71
     2
 72
     6
 73
     3
 74
     0
 42
0.0000000001
 43
0.0000000001
 40
0.0
 40
0.0
 40
0.0
 40
58.49005783554205
 40
58.49005783554205
 40
58.49005783554205
 10
1479.770186867394
 20
2001.640621056169
 30
0.0
 41
1.0
 10
1504.063524048531
 20
2019.164428510821
 30
0.0
 41
0.9648658777629691
 10
1533.887716033773
 20
2021.951475609725
 30
0.0
 41
1.0
  0
SPLINE
  5
F6
330
1F
100
AcDbEntity
  8
Predefinito
100
AcDbSpline
210
0.0
220
0.0
230
1.0
 70
    12
 71
     2
 72
     6
 73
     3
 74
     0
 42
0.0000000001
 43
0.0000000001
 40
0.0
 40
0.0
 40
0.0
 40
0.005843369882228
 40
0.005843369882228
 40
0.005843369882228
 10
1479.728515750943
 20
2001.610547162663
 30
0.0
 41
1.0
 10
1479.730884490946
 20
2001.612257517508
 30
0.0
 41
0.9999999996454532
 10
1479.733253322036
 20
2001.613967746196
 30
0.0
 41
1.0
  0
SPLINE
  5
F7
330
1F
100
AcDbEntity
  8
Predefinito
100
AcDbSpline
210
0.0
220
0.0
230
1.0
 70
    12
 71
     2
 72
     6
 73
     3
 74
     0
 42
0.0000000001
 43
0.0000000001
 40
0.0
 40
0.0
 40
0.0
 40
0.0281368867916628
 40
0.0281368867916628
 40
0.0281368867916628
 10
1533.928804115835
 20
2021.955145860131
 30
0.0
 41
1.0
 10
1533.942821809455
 20
2021.956340180625
 30
0.0
 41
0.9999960732108498
 10
1533.956845976847
 20
2021.957455915712
 30
0.0
 41
1.0
  0
SPLINE
  5
F8
330
1F
100
AcDbEntity
  8
Predefinito
100
AcDbSpline
210
0.0
220
0.0
230
1.0
 70
    12
 71
     2
 72
     6
 73
     3
 74
     0
 42
0.0000000001
 43
0.0000000001
 40
0.0
 40
0.0
 40
0.0
 40
0.1555377626167212
 40
0.1555377626167212
 40
0.1555377626167212
 10
1479.785921044476
 20
2001.428654037218
 30
0.0
 41
1.0
 10
1479.689493983065
 20
2001.432226942882
 30
0.0
 41
0.7328011595833046
 10
1479.685921965965
 20
2001.528654037214
 30
0.0
 41
1.0
  0
SPLINE
  5
F9
330
1F
100
AcDbEntity
  8
Predefinito
100
AcDbSpline
210
0.0
220
0.0
230
1.0
 70
    12
 71
     2
 72
     6
 73
     3
 74
     0
 42
0.0000000001
 43
0.0000000001
 40
0.0
 40
0.0
 40
0.0
 40
0.155537762666666
 40
0.155537762666666
 40
0.155537762666666
 10
1608.559151504979
 20
2001.528654037214
 30
0.0
 41
1.0
 10
1608.555579487995
 20
2001.432226942767
 30
0.0
 41
0.7328011587401764
 10
1608.459152426468
 20
2001.428654037218
 30
0.0
 41
1.0
  0
SPLINE
  5
FA
330
1F
100
AcDbEntity
  8
Predefinito
100
AcDbSpline
210
0.0
220
0.0
230
1.0
 70
    12
 71
     2
 72
     6
 73
     3
 74
     0
 42
0.0000000001
 43
0.0000000001
 40
0.0
 40
0.0
 40
0.0
 40
0.1408768275858943
 40
0.1408768275858943
 40
0.1408768275858943
 10
1481.335675645589
 20
2001.528654037214
 30
0.0
 41
1.0
 10
1481.393254367703
 20
2001.569228195055
 30
0.0
 41
0.99999979031778
 10
1481.450885591824
 20
2001.60972774482
 30
0.0
 41
1.0
  0
SPLINE
  5
FB
330
1F
100
AcDbEntity
  8
Predefinito
100
AcDbSpline
210
0.0
220
0.0
230
1.0
 70
    12
 71
     2
 72
     6
 73
     3
 74
     0
 42
0.0000000001
 43
0.0000000001
 40
0.0
 40
0.0
 40
0.0
 40
2.708671834374683
 40
2.708671834374683
 40
2.708671834374683
 10
1609.885196828128
 20
2000.458080235809
 30
0.0
 41
1.0
 10
1608.765676032687
 20
2001.279356001358
 30
0.0
 41
0.963539228929421
 10
1607.382984539218
 20
2001.405787517954
 30
0.0
 41
1.0
  0
SPLINE
  5
FC
330
1F
100
AcDbEntity
  8
Predefinito
100
AcDbSpline
210
0.0
220
0.0
230
1.0
 70
    24
 71
     2
 72
     6
 73
     3
 74
     0
 42
0.0000000001
 43
0.0000000001
 40
0.0
 40
0.0
 40
0.0
 40
64.01377291901395
 40
64.01377291901395
 40
64.01377291901395
 10
1541.941463347342
 20
2000.426559940047
 30
0.0
 10
1509.934576887835
 20
2000.426559940047
 30
0.0
 10
1477.927690428328
 20
2000.426559940047
 30
0.0
  0
SPLINE
  5
FD
330
1F
100
AcDbEntity
  8
Predefinito
100
AcDbSpline
210
0.0
220
0.0
230
1.0
 70
    24
 71
     2
 72
     6
 73
     3
 74
     0
 42
0.0000000001
 43
0.0000000001
 40
0.0
 40
0.0
 40
0.0
 40
57.91022377579225
 40
57.91022377579225
 40
57.91022377579225
 10
1609.927690428328
 20
2000.426559940047
 30
0.0
 10
1580.972578540432
 20
2000.426559940047
 30
0.0
 10
1552.017466652536
 20
2000.426559940047
 30
0.0
  0
SPLINE
  5
FE
330
1F
100
AcDbEntity
  8
Predefinito
100
AcDbSpline
210
0.0
220
0.0
230
1.0
 70
    12
 71
     2
 72
     8
 73
     5
 74
     0
 42
0.0000000001
 43
0.0000000001
 40
0.0
 40
0.0
 40
0.0
 40
137.3950349638086
 40
137.3950349638086
 40
274.7900699276173
 40
274.7900699276173
 40
274.7900699276173
 10
1543.927690428328
 20
1802.426559940047
 30
0.0
 41
1.0
 10
1623.211204634502
 20
1802.426559940046
 30
0.0
 41
0.8112421851755619
 10
1648.282853213886
 20
1877.641505678194
 30
0.0
 41
1.0
 10
1673.354501793268
 20
1952.856451416343
 30
0.0
 41
0.8112421851755596
 10
1609.927690428329
 20
2000.426559940047
 30
0.0
 41
1.0
  0
SPLINE
  5
FF
330
1F
100
AcDbEntity
  8
Predefinito
100
AcDbSpline
210
0.0
220
0.0
230
1.0
 70
    24
 71
     2
 72
     6
 73
     3
 74
     0
 42
0.0000000001
 43
0.0000000001
 40
0.0
 40
0.0
 40
0.0
 40
4.0
 40
4.0
 40
4.0
 10
1564.934666403038
 20
2095.506707900284
 30
0.0
 10
1562.934666403038
 20
2095.506707900284
 30
0.0
 10
1560.934666403038
 20
2095.506707900284
 30
0.0
  0
SPLINE
  5
100
330
1F
100
AcDbEntity
  8
Predefinito
100
AcDbSpline
210
0.0
220
0.0
230
1.0
 70
    24
 71
     2
 72
     6
 73
     3
 74
     0
 42
0.0000000001
 43
0.0000000001
 40
0.0
 40
0.0
 40
0.0
 40
3.5
 40
3.5
 40
3.5
 10
1564.934666403038
 20
2078.006707900284
 30
0.0
 10
1563.184666403038
 20
2078.006707900284
 30
0.0
 10
1561.434666403038
 20
2078.006707900284
 30
0.0
  0
SPLINE
  5
101
330
1F
100
AcDbEntity
  8
Predefinito
100
AcDbSpline
210
0.0
220
0.0
230
1.0
 70
    24
 71
     2
 72
     6
 73
     3
 74
     0
 42
0.0000000001
 43
0.0000000001
 40
0.0
 40
0.0
 40
0.0
 40
3.5
 40
3.5
 40
3.5
 10
1568.434666403038
 20
2078.006707900284
 30
0.0
 10
1566.684666403038
 20
2078.006707900284
 30
0.0
 10
1564.934666403038
 20
2078.006707900284
 30
0.0
  0
SPLINE
  5
102
330
1F
100
AcDbEntity
  8
Predefinito
100
AcDbSpline
210
0.0
220
0.0
230
1.0
 70
    24
 71
     2
 72
     6
 73
     3
 74
     0
 42
0.0000000001
 43
0.0000000001
 40
0.0
 40
0.0
 40
0.0
 40
7.0
 40
7.0
 40
7.0
 10
1568.434666403038
 20
2095.006707900284
 30
0.0
 10
1564.934666403038
 20
2095.006707900284
 30
0.0
 10
1561.434666403038
 20
2095.006707900284
 30
0.0
  0
SPLINE
  5
103
330
1F
100
AcDbEntity
  8
Predefinito
100
AcDbSpline
210
0.0
220
0.0
230
1.0
 70
    24
 71
     2
 72
     6
 73
     3
 74
     0
 42
0.0000000001
 43
0.0000000001
 40
0.0
 40
0.0
 40
0.0
 40
4.0
 40
4.0
 40
4.0
 10
1568.934666403038
 20
2077.506707900284
 30
0.0
 10
1566.934666403038
 20
2077.506707900284
 30
0.0
 10
1564.934666403038
 20
2077.506707900284
 30
0.0
  0
SPLINE
  5
104
330
1F
100
AcDbEntity
  8
Predefinito
100
AcDbSpline
210
0.0
220
0.0
230
1.0
 70
    24
 71
     2
 72
     6
 73
     3
 74
     0
 42
0.0000000001
 43
0.0000000001
 40
0.0
 40
0.0
 40
0.0
 40
4.0
 40
4.0
 40
4.0
 10
1564.934666403038
 20
2077.506707900284
 30
0.0
 10
1562.934666403038
 20
2077.506707900284
 30
0.0
 10
1560.934666403038
 20
2077.506707900284
 30
0.0
  0
SPLINE
  5
105
330
1F
100
AcDbEntity
  8
Predefinito
100
AcDbSpline
210
0.0
220
0.0
230
1.0
 70
    12
 71
     2
 72
     6
 73
     3
 74
     0
 42
0.0000000001
 43
0.0000000001
 40
0.0
 40
0.0
 40
0.0
 40
29.54847720344198
 40
29.54847720344198
 40
29.54847720344198
 10
1568.934666403038
 20
2060.006707900284
 30
0.0
 41
1.0
 10
1568.934666403037
 20
2043.232689061456
 30
0.0
 41
0.8304008721061749
 10
1553.412946822771
 20
2036.873134888643
 30
0.0
 41
1.0
  0
SPLINE
  5
106
330
1F
100
AcDbEntity
  8
Predefinito
100
AcDbSpline
210
0.0
220
0.0
230
1.0
 70
    12
 71
     2
 72
     6
 73
     3
 74
     0
 42
0.0000000001
 43
0.0000000001
 40
0.0
 40
0.0
 40
0.0
 40
29.88055663970543
 40
29.88055663970543
 40
29.88055663970543
 10
1534.76450047721
 20
2036.749277756504
 30
0.0
 41
1.0
 10
1518.934666403037
 20
2042.990818809882
 30
0.0
 41
0.8266821145497898
 10
1518.934666403038
 20
2060.006707900284
 30
0.0
 41
1.0
  0
SPLINE
  5
107
330
1F
100
AcDbEntity
  8
Predefinito
100
AcDbSpline
210
0.0
220
0.0
230
1.0
 70
    24
 71
     2
 72
     6
 73
     3
 74
     0
 42
0.0000000001
 43
0.0000000001
 40
0.0
 40
0.0
 40
0.0
 40
4.0
 40
4.0
 40
4.0
 10
1522.934666403038
 20
2060.006707900284
 30
0.0
 10
1520.934666403038
 20
2060.006707900284
 30
0.0
 10
1518.934666403038
 20
2060.006707900284
 30
0.0
  0
SPLINE
  5
108
330
1F
100
AcDbEntity
  8
Predefinito
100
AcDbSpline
210
0.0
220
0.0
230
1.0
 70
    24
 71
     2
 72
     6
 73
     3
 74
     0
 42
0.0000000001
 43
0.0000000001
 40
0.0
 40
0.0
 40
0.0
 40
4.0
 40
4.0
 40
4.0
 10
1526.934666403038
 20
2180.006707900284
 30
0.0
 10
1524.934666403038
 20
2180.006707900284
 30
0.0
 10
1522.934666403038
 20
2180.006707900284
 30
0.0
  0
SPLINE
  5
109
330
1F
100
AcDbEntity
  8
Predefinito
100
AcDbSpline
210
0.0
220
0.0
230
1.0
 70
    24
 71
     2
 72
     6
 73
     3
 74
     0
 42
0.0000000001
 43
0.0000000001
 40
0.0
 40
0.0
 40
0.0
 40
4.0
 40
4.0
 40
4.0
 10
1522.934666403038
 20
2060.006707900284
 30
0.0
 10
1524.934666403038
 20
2060.006707900284
 30
0.0
 10
1526.934666403038
 20
2060.006707900284
 30
0.0
  0
SPLINE
  5
10A
330
1F
100
AcDbEntity
  8
Predefinito
100
AcDbSpline
210
0.0
220
0.0
230
1.0
 70
    24
 71
     2
 72
     6
 73
     3
 74
     0
 42
0.0000000001
 43
0.0000000001
 40
0.0
 40
0.0
 40
0.0
 40
4.0
 40
4.0
 40
4.0
 10
1518.934666403038
 20
2180.006707900284
 30
0.0
 10
1520.934666403038
 20
2180.006707900284
 30
0.0
 10
1522.934666403038
 20
2180.006707900284
 30
0.0
  0
SPLINE
  5
10B
330
1F
100
AcDbEntity
  8
Predefinito
100
AcDbSpline
210
0.0
220
0.0
230
1.0
 70
    12
 71
     2
 72
     6
 73
     3
 74
     0
 42
0.0000000001
 43
0.0000000001
 40
0.0
 40
0.0
 40
0.0
 40
36.27985376711592
 40
36.27985376711592
 40
36.27985376711592
 10
1546.917597273863
 20
2204.828112441926
 30
0.0
 41
1.0
 10
1568.934666403038
 20
2202.182194678477
 30
0.0
 41
0.7481033467486257
 10
1568.934666403038
 20
2180.006707900284
 30
0.0
 41
1.0
  0
SPLINE
  5
10C
330
1F
100
AcDbEntity
  8
Predefinito
100
AcDbSpline
210
0.0
220
0.0
230
1.0
 70
    12
 71
     2
 72
     6
 73
     3
 74
     0
 42
0.0000000001
 43
0.0000000001
 40
0.0
 40
0.0
 40
0.0
 40
36.04385996109418
 40
36.04385996109418
 40
36.04385996109418
 10
1518.934666403038
 20
2180.006707900284
 30
0.0
 41
1.0
 10
1518.934666403038
 20
2201.972234857512
 30
0.0
 41
0.7512270282447587
 10
1540.717564004766
 20
2204.798848835649
 30
0.0
 41
1.0
  0
SPLINE
  5
10D
330
1F
100
AcDbEntity
  8
Predefinito
100
AcDbSpline
210
0.0
220
0.0
230
1.0
 70
    24
 71
     2
 72
     6
 73
     3
 74
     0
 42
0.0000000001
 43
0.0000000001
 40
0.0
 40
0.0
 40
0.0
 40
3.978094758534326
 40
3.978094758534326
 40
3.978094758534326
 10
1564.934666403038
 20
2180.006707900284
 30
0.0
 10
1562.945619023771
 20
2180.006707900284
 30
0.0
 10
1560.956571644504
 20
2180.006707900284
 30
0.0
  0
SPLINE
  5
10E
330
1F
100
AcDbEntity
  8
Predefinito
100
AcDbSpline
210
0.0
220
0.0
230
1.0
 70
    24
 71
     2
 72
     6
 73
     3
 74
     0
 42
0.0000000001
 43
0.0000000001
 40
0.0
 40
0.0
 40
0.0
 40
4.0
 40
4.0
 40
4.0
 10
1568.934666403038
 20
2180.006707900284
 30
0.0
 10
1566.934666403038
 20
2180.006707900284
 30
0.0
 10
1564.934666403038
 20
2180.006707900284
 30
0.0
  0
SPLINE
  5
10F
330
1F
100
AcDbEntity
  8
Predefinito
100
AcDbSpline
210
0.0
220
0.0
230
1.0
 70
    24
 71
     2
 72
     6
 73
     3
 74
     0
 42
0.0000000001
 43
0.0000000001
 40
0.0
 40
0.0
 40
0.0
 40
84.5
 40
84.5
 40
84.5
 10
1568.934666403038
 20
2180.006707900284
 30
0.0
 10
1568.934666403038
 20
2137.756707900284
 30
0.0
 10
1568.934666403038
 20
2095.506707900284
 30
0.0
  0
SPLINE
  5
110
330
1F
100
AcDbEntity
  8
Predefinito
100
AcDbSpline
210
0.0
220
0.0
230
1.0
 70
    24
 71
     2
 72
     6
 73
     3
 74
     0
 42
0.0000000001
 43
0.0000000001
 40
0.0
 40
0.0
 40
0.0
 40
4.0
 40
4.0
 40
4.0
 10
1564.934666403038
 20
2095.506707900284
 30
0.0
 10
1566.934666403038
 20
2095.506707900284
 30
0.0
 10
1568.934666403038
 20
2095.506707900284
 30
0.0
  0
SPLINE
  5
111
330
1F
100
AcDbEntity
  8
Predefinito
100
AcDbSpline
210
0.0
220
0.0
230
1.0
 70
    24
 71
     2
 72
     6
 73
     3
 74
     0
 42
0.0000000001
 43
0.0000000001
 40
0.0
 40
0.0
 40
0.0
 40
136.1112954037176
 40
136.1112954037176
 40
136.1112954037176
 10
1611.983338130188
 20
2392.226559940047
 30
0.0
 10
1543.927690428329
 20
2392.226559940047
 30
0.0
 10
1475.87204272647
 20
2392.226559940047
 30
0.0
  0
SPLINE
  5
112
330
1F
100
AcDbEntity
  8
Predefinito
100
AcDbSpline
210
0.0
220
0.0
230
1.0
 70
    12
 71
     2
 72
     8
 73
     5
 74
     0
 42
0.0000000001
 43
0.0000000001
 40
0.0
 40
0.0
 40
0.0
 40
0.250993884403193
 40
0.250993884403193
 40
0.5019877688063861
 40
0.5019877688063861
 40
0.5019877688063861
 10
1612.225049521395
 20
2419.923941979397
 30
0.0
 41
1.0
 10
1612.251393321086
 20
2420.057866425006
 30
0.0
 41
0.8834454091599262
 10
1612.155301750921
 20
2420.154800232612
 30
0.0
 41
1.0
 10
1612.059210180756
 20
2420.251734040217
 30
0.0
 41
0.8834454091599262
 10
1611.925060944476
 20
2420.226559940047
 30
0.0
 41
1.0
  0
SPLINE
  5
113
330
1F
100
AcDbEntity
  8
Predefinito
100
AcDbSpline
210
0.0
220
0.0
230
1.0
 70
    24
 71
     2
 72
     6
 73
     3
 74
     0
 42
0.0000000001
 43
0.0000000001
 40
0.0
 40
0.0
 40
0.0
 40
136.5947479327072
 40
136.5947479327072
 40
136.5947479327072
 10
1475.630301588688
 20
2419.923941979397
 30
0.0
 10
1543.927675555042
 20
2419.923941979397
 30
0.0
 10
1612.225049521395
 20
2419.923941979397
 30
0.0
  0
SPLINE
  5
114
330
1F
100
AcDbEntity
  8
Predefinito
100
AcDbSpline
210
0.0
220
0.0
230
1.0
 70
    24
 71
     2
 72
     6
 73
     3
 74
     0
 42
0.0000000001
 43
0.0000000001
 40
0.0
 40
0.0
 40
0.0
 40
135.994770725737
 40
135.994770725737
 40
135.994770725737
 10
1611.925060944476
 20
2420.226559940047
 30
0.0
 10
1543.927675581608
 20
2420.226559940046
 30
0.0
 10
1475.930290218739
 20
2420.226559940046
 30
0.0
  0
SPLINE
  5
115
330
1F
100
AcDbEntity
  8
Predefinito
100
AcDbSpline
210
0.0
220
0.0
230
1.0
 70
    12
 71
     2
 72
     8
 73
     5
 74
     0
 42
0.0000000001
 43
0.0000000001
 40
0.0
 40
0.0
 40
0.0
 40
7.2212665011838
 40
7.2212665011838
 40
14.44248904668355
 40
14.44248904668355
 40
14.44248904668355
 10
1547.527690428329
 20
2196.229892347968
 30
0.0
 41
1.0
 10
1550.931607399297
 20
2194.188675859721
 30
0.0
 41
0.8698960730687867
 10
1550.927687013598
 20
2190.219645735406
 30
0.0
 41
1.0
 10
1550.923766656586
 20
2186.250644654616
 30
0.0
 41
0.8698976216705216
 10
1547.515861645895
 20
2184.216150027783
 30
0.0
 41
1.0
  0
SPLINE
  5
116
330
1F
100
AcDbEntity
  8
Predefinito
100
AcDbSpline
210
0.0
220
0.0
230
1.0
 70
    12
 71
     2
 72
     8
 73
     5
 74
     0
 42
0.0000000001
 43
0.0000000001
 40
0.0
 40
0.0
 40
0.0
 40
7.214300653844453
 40
7.214300653844453
 40
14.42865294926292
 40
14.42865294926292
 40
14.42865294926292
 10
1540.327646139637
 20
2184.223254090812
 30
0.0
 41
1.0
 10
1536.927690428329
 20
2186.262129245218
 30
0.0
 41
0.8701413796739785
 10
1536.927690428329
 20
2190.226559940047
 30
0.0
 41
1.0
 10
1536.927690428329
 20
2194.191024737731
 30
0.0
 41
0.8701395618765921
 10
1540.327690428329
 20
2196.229892347968
 30
0.0
 41
1.0
  0
SPLINE
  5
117
330
1F
100
AcDbEntity
  8
Predefinito
100
AcDbSpline
210
0.0
220
0.0
230
1.0
 70
    12
 71
     2
 72
     8
 73
     5
 74
     0
 42
0.0000000001
 43
0.0000000001
 40
0.0
 40
0.0
 40
0.0
 40
6.394828723899371
 40
6.394828723899371
 40
12.78965744779862
 40
12.78965744779862
 40
12.78965744779862
 10
1540.327690428329
 20
2184.814536288953
 30
0.0
 41
1.0
 10
1537.427690428329
 20
2186.743574422016
 30
0.0
 41
0.8814324006542176
 10
1537.427690428329
 20
2190.226559940047
 30
0.0
 41
1.0
 10
1537.427690428329
 20
2193.709545458077
 30
0.0
 41
0.8814324006541909
 10
1540.327690428329
 20
2195.638583591141
 30
0.0
 41
1.0
  0
SPLINE
  5
118
330
1F
100
AcDbEntity
  8
Predefinito
100
AcDbSpline
210
0.0
220
0.0
230
1.0
 70
    12
 71
     2
 72
     8
 73
     5
 74
     0
 42
0.0000000001
 43
0.0000000001
 40
0.0
 40
0.0
 40
0.0
 40
6.39482872389923
 40
6.39482872389923
 40
12.7896574477986
 40
12.7896574477986
 40
12.7896574477986
 10
1547.527690428329
 20
2195.638583591141
 30
0.0
 41
1.0
 10
1550.427690428329
 20
2193.709545458077
 30
0.0
 41
0.8814324006542296
 10
1550.427690428329
 20
2190.226559940047
 30
0.0
 41
1.0
 10
1550.427690428329
 20
2186.743574422016
 30
0.0
 41
0.8814324006542599
 10
1547.527690428329
 20
2184.814536288953
 30
0.0
 41
1.0
  0
SPLINE
  5
119
330
1F
100
AcDbEntity
  8
Predefinito
100
AcDbSpline
210
0.0
220
0.0
230
1.0
 70
    12
 71
     2
 72
     6
 73
     3
 74
     0
 42
0.0000000001
 43
0.0000000001
 40
0.0
 40
0.0
 40
0.0
 40
0.4413304033812288
 40
0.4413304033812288
 40
0.4413304033812288
 10
1540.712763086926
 20
2184.008050383288
 30
0.0
 41
1.0
 10
1540.514394068724
 20
2184.105201004445
 30
0.0
 41
0.9985337119149952
 10
1540.327690428329
 20
2184.223227532125
 30
0.0
 41
1.0
  0
SPLINE
  5
11A
330
1F
100
AcDbEntity
  8
Predefinito
100
AcDbSpline
210
0.0
220
0.0
230
1.0
 70
    12
 71
     2
 72
     6
 73
     3
 74
     0
 42
0.0000000001
 43
0.0000000001
 40
0.0
 40
0.0
 40
0.0
 40
0.69756272193288
 40
0.69756272193288
 40
0.69756272193288
 10
1547.527690428329
 20
2184.223227532125
 30
0.0
 41
1.0
 10
1547.230974019506
 20
2184.038965521561
 30
0.0
 41
0.9978808075078736
 10
1546.912841698151
 20
2183.894795684525
 30
0.0
 41
1.0
  0
SPLINE
  5
11B
330
1F
100
AcDbEntity
  8
Predefinito
100
AcDbSpline
210
0.0
220
0.0
230
1.0
 70
    12
 71
     2
 72
     6
 73
     3
 74
     0
 42
0.0000000001
 43
0.0000000001
 40
0.0
 40
0.0
 40
0.0
 40
0.6840056717125407
 40
0.6840056717125407
 40
0.6840056717125407
 10
1546.912724467263
 20
2196.558381501723
 30
0.0
 41
1.0
 10
1547.223871511526
 20
2196.415485917383
 30
0.0
 41
0.9983001181336433
 10
1547.516276332054
 20
2196.237353797568
 30
0.0
 41
1.0
  0
SPLINE
  5
11C
330
1F
100
AcDbEntity
  8
Predefinito
100
AcDbSpline
210
0.0
220
0.0
230
1.0
 70
    12
 71
     2
 72
     6
 73
     3
 74
     0
 42
0.0000000001
 43
0.0000000001
 40
0.0
 40
0.0
 40
0.0
 40
0.4276015483347463
 40
0.4276015483347463
 40
0.4276015483347463
 10
1540.339106535937
 20
2196.23735202395
 30
0.0
 41
1.0
 10
1540.521060683791
 20
2196.349912300071
 30
0.0
 41
0.9989127912470239
 10
1540.712707227344
 20
2196.445037112953
 30
0.0
 41
1.0
  0
SPLINE
  5
11D
330
1F
100
AcDbEntity
  8
Predefinito
100
AcDbSpline
210
0.0
220
0.0
230
1.0
 70
    12
 71
     2
 72
     6
 73
     3
 74
     0
 42
0.0000000001
 43
0.0000000001
 40
0.0
 40
0.0
 40
0.0
 40
0.3459645070037379
 40
0.3459645070037379
 40
0.3459645070037379
 10
1540.327690536509
 20
2195.887684472213
 30
0.0
 41
1.0
 10
1540.32778829579
 20
2196.060729716463
 30
0.0
 41
0.9994538304756774
 10
1540.339316515123
 20
2196.233390558212
 30
0.0
 41
1.0
  0
SPLINE
  5
11E
330
1F
100
AcDbEntity
  8
Predefinito
100
AcDbSpline
210
0.0
220
0.0
230
1.0
 70
    12
 71
     2
 72
     6
 73
     3
 74
     0
 42
0.0000000001
 43
0.0000000001
 40
0.0
 40
0.0
 40
0.0
 40
0.3382500473179768
 40
0.3382500473179768
 40
0.3382500473179768
 10
1540.338805569518
 20
2184.227507022085
 30
0.0
 41
1.0
 10
1540.327780844264
 20
2184.396331434814
 30
0.0
 41
0.9994771653285247
 10
1540.327690520606
 20
2184.565515413788
 30
0.0
 41
1.0
  0
SPLINE
  5
11F
330
1F
100
AcDbEntity
  8
Predefinito
100
AcDbSpline
210
0.0
220
0.0
230
1.0
 70
    24
 71
     2
 72
     6
 73
     3
 74
     0
 42
0.0000000001
 43
0.0000000001
 40
0.0
 40
0.0
 40
0.0
 40
0.2480540291078341
 40
0.2480540291078341
 40
0.2480540291078341
 10
1547.527690428329
 20
2195.886637620248
 30
0.0
 10
1547.527690428329
 20
2195.762610605694
 30
0.0
 10
1547.527690428329
 20
2195.638583591141
 30
0.0
  0
SPLINE
  5
120
330
1F
100
AcDbEntity
  8
Predefinito
100
AcDbSpline
210
0.0
220
0.0
230
1.0
 70
    24
 71
     2
 72
     6
 73
     3
 74
     0
 42
0.0000000001
 43
0.0000000001
 40
0.0
 40
0.0
 40
0.0
 40
10.82206632191151
 40
10.82206632191151
 40
10.82206632191151
 10
1547.527690428329
 20
2184.815526779091
 30
0.0
 10
1547.527690428329
 20
2190.226559940046
 30
0.0
 10
1547.527690428329
 20
2195.637593101002
 30
0.0
  0
SPLINE
  5
121
330
1F
100
AcDbEntity
  8
Predefinito
100
AcDbSpline
210
0.0
220
0.0
230
1.0
 70
    24
 71
     2
 72
     6
 73
     3
 74
     0
 42
0.0000000001
 43
0.0000000001
 40
0.0
 40
0.0
 40
0.0
 40
0.2480540291076068
 40
0.2480540291076068
 40
0.2480540291076068
 10
1547.527690428329
 20
2184.814536288953
 30
0.0
 10
1547.527690428329
 20
2184.690509274399
 30
0.0
 10
1547.527690428329
 20
2184.566482259845
 30
0.0
  0
SPLINE
  5
122
330
1F
100
AcDbEntity
  8
Predefinito
100
AcDbSpline
210
0.0
220
0.0
230
1.0
 70
    24
 71
     2
 72
     6
 73
     3
 74
     0
 42
0.0000000001
 43
0.0000000001
 40
0.0
 40
0.0
 40
0.0
 40
0.2480540291076068
 40
0.2480540291076068
 40
0.2480540291076068
 10
1540.327690428329
 20
2184.566482259845
 30
0.0
 10
1540.327690428329
 20
2184.690509274399
 30
0.0
 10
1540.327690428329
 20
2184.814536288953
 30
0.0
  0
SPLINE
  5
123
330
1F
100
AcDbEntity
  8
Predefinito
100
AcDbSpline
210
0.0
220
0.0
230
1.0
 70
    24
 71
     2
 72
     6
 73
     3
 74
     0
 42
0.0000000001
 43
0.0000000001
 40
0.0
 40
0.0
 40
0.0
 40
10.82206632191151
 40
10.82206632191151
 40
10.82206632191151
 10
1540.327690428329
 20
2195.637593101002
 30
0.0
 10
1540.327690428329
 20
2190.226559940046
 30
0.0
 10
1540.327690428329
 20
2184.815526779091
 30
0.0
  0
SPLINE
  5
124
330
1F
100
AcDbEntity
  8
Predefinito
100
AcDbSpline
210
0.0
220
0.0
230
1.0
 70
    24
 71
     2
 72
     6
 73
     3
 74
     0
 42
0.0000000001
 43
0.0000000001
 40
0.0
 40
0.0
 40
0.0
 40
0.2480540291078341
 40
0.2480540291078341
 40
0.2480540291078341
 10
1540.327690428329
 20
2195.638583591141
 30
0.0
 10
1540.327690428329
 20
2195.762610605694
 30
0.0
 10
1540.327690428329
 20
2195.886637620248
 30
0.0
  0
SPLINE
  5
125
330
1F
100
AcDbEntity
  8
Predefinito
100
AcDbSpline
210
0.0
220
0.0
230
1.0
 70
    24
 71
     2
 72
     6
 73
     3
 74
     0
 42
0.0000000001
 43
0.0000000001
 40
0.0
 40
0.0
 40
0.0
 40
0.9617262105930422
 40
0.9617262105930422
 40
0.9617262105930422
 10
1541.301283163095
 20
2188.226559940047
 30
0.0
 10
1540.820420057799
 20
2188.226559940047
 30
0.0
 10
1540.339556952502
 20
2188.226559940047
 30
0.0
  0
SPLINE
  5
126
330
1F
100
AcDbEntity
  8
Predefinito
100
AcDbSpline
210
0.0
220
0.0
230
1.0
 70
    24
 71
     2
 72
     6
 73
     3
 74
     0
 42
0.0000000001
 43
0.0000000001
 40
0.0
 40
0.0
 40
0.0
 40
0.9617262105930422
 40
0.9617262105930422
 40
0.9617262105930422
 10
1540.339556952502
 20
2192.226559940047
 30
0.0
 10
1540.820420057799
 20
2192.226559940047
 30
0.0
 10
1541.301283163095
 20
2192.226559940047
 30
0.0
  0
SPLINE
  5
127
330
1F
100
AcDbEntity
  8
Predefinito
100
AcDbSpline
210
0.0
220
0.0
230
1.0
 70
    24
 71
     2
 72
     6
 73
     3
 74
     0
 42
0.0000000001
 43
0.0000000001
 40
0.0
 40
0.0
 40
0.0
 40
4.0
 40
4.0
 40
4.0
 10
1541.301283163095
 20
2192.226559940047
 30
0.0
 10
1541.301283163095
 20
2190.226559940047
 30
0.0
 10
1541.301283163095
 20
2188.226559940047
 30
0.0
  0
SPLINE
  5
128
330
1F
100
AcDbEntity
  8
Predefinito
100
AcDbSpline
210
0.0
220
0.0
230
1.0
 70
    24
 71
     2
 72
     6
 73
     3
 74
     0
 42
0.0000000001
 43
0.0000000001
 40
0.0
 40
0.0
 40
0.0
 40
0.2704424263235978
 40
0.2704424263235978
 40
0.2704424263235978
 10
1541.301283163095
 20
2192.226559940047
 30
0.0
 10
1541.436504376257
 20
2192.226559940046
 30
0.0
 10
1541.571725589419
 20
2192.226559940046
 30
0.0
  0
SPLINE
  5
129
330
1F
100
AcDbEntity
  8
Predefinito
100
AcDbSpline
210
0.0
220
0.0
230
1.0
 70
    24
 71
     2
 72
     6
 73
     3
 74
     0
 42
0.0000000001
 43
0.0000000001
 40
0.0
 40
0.0
 40
0.0
 40
0.2704424263235978
 40
0.2704424263235978
 40
0.2704424263235978
 10
1541.571725589419
 20
2188.226559940047
 30
0.0
 10
1541.436504376257
 20
2188.226559940047
 30
0.0
 10
1541.301283163095
 20
2188.226559940047
 30
0.0
  0
SPLINE
  5
12A
330
1F
100
AcDbEntity
  8
Predefinito
100
AcDbSpline
210
0.0
220
0.0
230
1.0
 70
    24
 71
     2
 72
     6
 73
     3
 74
     0
 42
0.0000000001
 43
0.0000000001
 40
0.0
 40
0.0
 40
0.0
 40
0.9617262105930422
 40
0.9617262105930422
 40
0.9617262105930422
 10
1547.515823904156
 20
2188.226559940047
 30
0.0
 10
1547.034960798859
 20
2188.226559940047
 30
0.0
 10
1546.554097693563
 20
2188.226559940047
 30
0.0
  0
SPLINE
  5
12B
330
1F
100
AcDbEntity
  8
Predefinito
100
AcDbSpline
210
0.0
220
0.0
230
1.0
 70
    12
 71
     2
 72
     6
 73
     3
 74
     0
 42
0.0000000001
 43
0.0000000001
 40
0.0
 40
0.0
 40
0.0
 40
0.3459682209460465
 40
0.3459682209460465
 40
0.3459682209460465
 10
1547.527690320916
 20
2184.565439121823
 30
0.0
 41
1.0
 10
1547.527592686052
 20
2184.392392018456
 30
0.0
 41
0.9994538183677936
 10
1547.516064341535
 20
2184.219729321881
 30
0.0
 41
1.0
  0
SPLINE
  5
12C
330
1F
100
AcDbEntity
  8
Predefinito
100
AcDbSpline
210
0.0
220
0.0
230
1.0
 70
    24
 71
     2
 72
     6
 73
     3
 74
     0
 42
0.0000000001
 43
0.0000000001
 40
0.0
 40
0.0
 40
0.0
 40
3.44047082292127
 40
3.44047082292127
 40
3.44047082292127
 10
1547.527690428329
 20
2188.226559940047
 30
0.0
 10
1547.527690428329
 20
2186.506324528586
 30
0.0
 10
1547.527690428329
 20
2184.786089117125
 30
0.0
  0
SPLINE
  5
12D
330
1F
100
AcDbEntity
  8
Predefinito
100
AcDbSpline
210
0.0
220
0.0
230
1.0
 70
    24
 71
     2
 72
     6
 73
     3
 74
     0
 42
0.0000000001
 43
0.0000000001
 40
0.0
 40
0.0
 40
0.0
 40
3.44047082292127
 40
3.44047082292127
 40
3.44047082292127
 10
1547.527690428329
 20
2195.667030762968
 30
0.0
 10
1547.527690428329
 20
2193.946795351507
 30
0.0
 10
1547.527690428329
 20
2192.226559940047
 30
0.0
  0
SPLINE
  5
12E
330
1F
100
AcDbEntity
  8
Predefinito
100
AcDbSpline
210
0.0
220
0.0
230
1.0
 70
    12
 71
     2
 72
     6
 73
     3
 74
     0
 42
0.0000000001
 43
0.0000000001
 40
0.0
 40
0.0
 40
0.0
 40
0.3459645070037388
 40
0.3459645070037388
 40
0.3459645070037388
 10
1547.516064341535
 20
2196.233390558212
 30
0.0
 41
1.0
 10
1547.527592560868
 20
2196.060729716463
 30
0.0
 41
0.9994538304756694
 10
1547.527690320149
 20
2195.887684472213
 30
0.0
 41
1.0
  0
SPLINE
  5
12F
330
1F
100
AcDbEntity
  8
Predefinito
100
AcDbSpline
210
0.0
220
0.0
230
1.0
 70
    24
 71
     2
 72
     6
 73
     3
 74
     0
 42
0.0000000001
 43
0.0000000001
 40
0.0
 40
0.0
 40
0.0
 40
4.0
 40
4.0
 40
4.0
 10
1546.554097693563
 20
2188.226559940047
 30
0.0
 10
1546.554097693563
 20
2190.226559940047
 30
0.0
 10
1546.554097693563
 20
2192.226559940047
 30
0.0
  0
SPLINE
  5
130
330
1F
100
AcDbEntity
  8
Predefinito
100
AcDbSpline
210
0.0
220
0.0
230
1.0
 70
    24
 71
     2
 72
     6
 73
     3
 74
     0
 42
0.0000000001
 43
0.0000000001
 40
0.0
 40
0.0
 40
0.0
 40
0.2704424263235978
 40
0.2704424263235978
 40
0.2704424263235978
 10
1546.554097693563
 20
2188.226559940047
 30
0.0
 10
1546.418876480401
 20
2188.226559940047
 30
0.0
 10
1546.283655267239
 20
2188.226559940047
 30
0.0
  0
SPLINE
  5
131
330
1F
100
AcDbEntity
  8
Predefinito
100
AcDbSpline
210
0.0
220
0.0
230
1.0
 70
    24
 71
     2
 72
     6
 73
     3
 74
     0
 42
0.0000000001
 43
0.0000000001
 40
0.0
 40
0.0
 40
0.0
 40
0.911101260431451
 40
0.911101260431451
 40
0.911101260431451
 10
1546.554097693563
 20
2192.226559940047
 30
0.0
 10
1547.009648323779
 20
2192.226559940047
 30
0.0
 10
1547.465198953994
 20
2192.226559940047
 30
0.0
  0
SPLINE
  5
132
330
1F
100
AcDbEntity
  8
Predefinito
100
AcDbSpline
210
0.0
220
0.0
230
1.0
 70
    24
 71
     2
 72
     6
 73
     3
 74
     0
 42
0.0000000001
 43
0.0000000001
 40
0.0
 40
0.0
 40
0.0
 40
0.2704424263238252
 40
0.2704424263238252
 40
0.2704424263238252
 10
1546.283655267239
 20
2192.226559940047
 30
0.0
 10
1546.418876480401
 20
2192.226559940047
 30
0.0
 10
1546.554097693563
 20
2192.226559940047
 30
0.0
  0
SPLINE
  5
133
330
1F
100
AcDbEntity
  8
Predefinito
100
AcDbSpline
210
0.0
220
0.0
230
1.0
 70
     8
 71
     3
 72
    12
 73
     8
 74
     0
 42
0.0000000001
 43
0.0000000001
 40
0.0
 40
0.0
 40
0.0
 40
0.0
 40
1.754726732476553
 40
3.247523162259213
 40
6.077150966705581
 40
8.903204616814948
 40
12.21946521122246
 40
12.21946521122246
 40
12.21946521122246
 40
12.21946521122246
 10
1534.180382602138
 20
2047.1606769258
 30
0.0
 10
1534.474253269683
 20
2046.655957493333
 30
0.0
 10
1535.000122855168
 20
2045.705232192212
 30
0.0
 10
1535.768587482396
 20
2043.833086679144
 30
0.0
 10
1536.234642707961
 20
2041.457604163578
 30
0.0
 10
1535.672082076896
 20
2038.472147642367
 30
0.0
 10
1534.73683008679
 20
2036.638856269777
 30
0.0
 10
1534.175924031247
 20
2035.686688470388
 30
0.0
  0
SPLINE
  5
134
330
1F
100
AcDbEntity
  8
Predefinito
100
AcDbSpline
210
0.0
220
0.0
230
1.0
 70
     8
 71
     3
 72
    12
 73
     8
 74
     0
 42
0.0000000001
 43
0.0000000001
 40
0.0
 40
0.0
 40
0.0
 40
0.0
 40
1.94565854744621
 40
3.288080540979085
 40
6.061927978235552
 40
8.815482190828146
 40
12.23206573460994
 40
12.23206573460994
 40
12.23206573460994
 40
12.23206573460994
 10
1554.066434849693
 20
2035.690545863398
 30
0.0
 10
1553.73881523236
 20
2036.249177986257
 30
0.0
 10
1553.20568239074
 20
2037.211087580184
 30
0.0
 10
1552.437735251953
 20
2039.080022079057
 30
0.0
 10
1552.030322303677
 20
2041.36817733256
 30
0.0
 10
1552.540515468084
 20
2044.34582076849
 30
0.0
 10
1553.48903107422
 20
2046.192188280895
 30
0.0
 10
1554.06862858415
 20
2047.169794708335
 30
0.0
  0
SPLINE
  5
135
330
1F
100
AcDbEntity
  8
Predefinito
100
AcDbSpline
210
0.0
220
0.0
230
1.0
 70
    12
 71
     2
 72
     8
 73
     5
 74
     0
 42
0.0000000001
 43
0.0000000001
 40
0.0
 40
0.0
 40
0.0
 40
0.0402486593018329
 40
0.0402486593018329
 40
5.58816852622478
 40
5.58816852622478
 40
5.58816852622478
 10
1554.03228807617
 20
2051.428653821512
 30
0.0
 41
1.0
 10
1554.052412405821
 20
2051.428653825244
 30
0.0
 41
0.9999999999997446
 10
1554.072536735472
 20
2051.428653800216
 30
0.0
 41
1.0
 10
1551.298576802011
 20
2051.428653516889
 30
0.0
 41
0.9999999999999979
 10
1548.524616868549
 20
2051.428653590711
 30
0.0
 41
1.0
  0
SPLINE
  5
136
330
1F
100
AcDbEntity
  8
Predefinito
100
AcDbSpline
210
0.0
220
0.0
230
1.0
 70
    12
 71
     2
 72
     6
 73
     3
 74
     0
 42
0.0000000001
 43
0.0000000001
 40
0.0
 40
0.0
 40
0.0
 40
7.081588078736336
 40
7.081588078736336
 40
7.081588078736336
 10
1541.29437347351
 20
2051.428653579852
 30
0.0
 41
1.0
 10
1537.753579434142
 20
2051.428653531822
 30
0.0
 41
0.9999999999999991
 10
1534.212785394774
 20
2051.428653778873
 30
0.0
 41
1.0
  0
SPLINE
  5
137
330
1F
100
AcDbEntity
  8
Predefinito
100
AcDbSpline
210
0.0
220
0.0
230
1.0
 70
    24
 71
     2
 72
     6
 73
     3
 74
     0
 42
0.0000000001
 43
0.0000000001
 40
0.0
 40
0.0
 40
0.0
 40
6.578758328701042
 40
6.578758328701042
 40
6.578758328701042
 10
1541.289521177781
 20
2051.928654037214
 30
0.0
 10
1538.000142013431
 20
2051.928654037213
 30
0.0
 10
1534.71076284908
 20
2051.928654037213
 30
0.0
  0
SPLINE
  5
138
330
1F
100
AcDbEntity
  8
Predefinito
100
AcDbSpline
210
0.0
220
0.0
230
1.0
 70
    12
 71
     2
 72
     8
 73
     5
 74
     0
 42
0.0000000001
 43
0.0000000001
 40
0.0
 40
0.0
 40
0.0
 40
0.0382261136082889
 40
0.0382261136082889
 40
10.34444270693652
 40
10.34444270693652
 40
10.34444270693652
 10
1553.534310621864
 20
2051.928654086492
 30
0.0
 41
1.0
 10
1553.553423678668
 20
2051.928654086491
 30
0.0
 41
1.0
 10
1553.572536735472
 20
2051.928654086491
 30
0.0
 41
1.0
 10
1553.572536735472
 20
2051.928654037213
 30
0.0
 41
0.7966440441053596
 10
1548.370334021051
 20
2051.928654037213
 30
0.0
 41
0.8756684380552926
  0
SPLINE
  5
139
330
1F
100
AcDbEntity
  8
Predefinito
100
AcDbSpline
210
0.0
220
0.0
230
1.0
 70
    24
 71
     2
 72
     6
 73
     3
 74
     0
 42
0.0000000001
 43
0.0000000001
 40
0.0
 40
0.0
 40
0.0
 40
56.52608314237841
 40
56.52608314237841
 40
56.52608314237841
 10
1551.991609413346
 20
2001.609727740581
 30
0.0
 10
1580.254650984536
 20
2001.609727740581
 30
0.0
 10
1608.517692555725
 20
2001.609727740581
 30
0.0
  0
SPLINE
  5
13A
330
1F
100
AcDbEntity
  8
Predefinito
100
AcDbSpline
210
0.0
220
0.0
230
1.0
 70
    28
 71
     2
 72
     8
 73
     5
 74
     0
 42
0.0000000001
 43
0.0000000001
 40
302.6647752226263
 40
302.6647752226263
 40
302.6647752226263
 40
328.7429412339753
 40
328.7429412339753
 40
402.2854256730854
 40
402.2854256730854
 40
402.2854256730854
 10
1479.729107416788
 20
2001.60972774058
 30
0.0
 41
0.9239638289880624
 10
1479.633515373243
 20
2001.609727740581
 30
0.0
 41
0.9420676792289999
 10
1484.629170280265
 20
2001.609727740581
 30
0.0
 41
1.0
 10
1500.492862660587
 20
2001.609727740581
 30
0.0
 41
0.8366262874096024
 10
1541.922488331711
 20
2001.60972774058
 30
0.0
 41
0.9900022165928342
  0
SPLINE
  5
13B
330
1F
100
AcDbEntity
  8
Predefinito
100
AcDbSpline
210
0.0
220
0.0
230
1.0
 70
    12
 71
     2
 72
     6
 73
     3
 74
     0
 42
0.0000000001
 43
0.0000000001
 40
0.0
 40
0.0
 40
0.0
 40
58.54284749282287
 40
58.54284749282287
 40
58.54284749282287
 10
1608.517692555725
 20
2001.609727740581
 30
0.0
 41
1.0
 10
1584.209780366581
 20
2019.161790393374
 30
0.0
 41
0.964802803830086
 10
1554.357357437171
 20
2021.951475609725
 30
0.0
 41
1.0
  0
SPLINE
  5
13C
330
1F
100
AcDbEntity
  8
Predefinito
100
AcDbSpline
210
0.0
220
0.0
230
1.0
 70
    24
 71
     2
 72
     6
 73
     3
 74
     0
 42
0.0000000001
 43
0.0000000001
 40
0.0
 40
0.0
 40
0.0
 40
3.101381590387973
 40
3.101381590387973
 40
3.101381590387973
 10
1554.357357437171
 20
2021.951475609725
 30
0.0
 10
1552.806666641977
 20
2021.951475609725
 30
0.0
 10
1551.255975846783
 20
2021.951475609725
 30
0.0
  0
SPLINE
  5
13D
330
1F
100
AcDbEntity
  8
Predefinito
100
AcDbSpline
210
0.0
220
0.0
230
1.0
 70
    12
 71
     2
 72
     8
 73
     5
 74
     0
 42
0.0000000001
 43
0.0000000001
 40
0.0
 40
0.0
 40
0.0
 40
0.0414007850690723
 40
0.0414007850690723
 40
12.28402082434634
 40
12.28402082434634
 40
12.28402082434634
 10
1533.929116818842
 20
2021.951475512883
 30
0.0
 41
1.0
 10
1533.908416426308
 20
2021.951475512884
 30
0.0
 41
1.0
 10
1533.887716033773
 20
2021.951475512884
 30
0.0
 41
1.0
 10
1533.887716033773
 20
2021.951475609725
 30
0.0
 41
0.7769595811998945
 10
1540.529415380191
 20
2021.951475609725
 30
0.0
 41
0.8936131206283746
  0
SPLINE
  5
13E
330
1F
100
AcDbEntity
  8
Predefinito
100
AcDbSpline
210
0.0
220
0.0
230
1.0
 70
    24
 71
     2
 72
     6
 73
     3
 74
     0
 42
0.0000000001
 43
0.0000000001
 40
0.0
 40
0.0
 40
0.0
 40
56.56570957348458
 40
56.56570957348458
 40
56.56570957348458
 10
1608.559151504979
 20
2001.528654037214
 30
0.0
 10
1580.276296718237
 20
2001.528654037214
 30
0.0
 10
1551.993441931495
 20
2001.528654037214
 30
0.0
  0
SPLINE
  5
13F
330
1F
100
AcDbEntity
  8
Predefinito
100
AcDbSpline
210
0.0
220
0.0
230
1.0
 70
    24
 71
     2
 72
     6
 73
     3
 74
     0
 42
0.0000000001
 43
0.0000000001
 40
0.0
 40
0.0
 40
0.0
 40
62.23785957540144
 40
62.23785957540144
 40
62.23785957540144
 10
1541.923781541366
 20
2001.528654037214
 30
0.0
 10
1510.804851753665
 20
2001.528654037214
 30
0.0
 10
1479.685921965965
 20
2001.528654037214
 30
0.0
  0
SPLINE
  5
140
330
1F
100
AcDbEntity
  8
Predefinito
100
AcDbSpline
210
0.0
220
0.0
230
1.0
 70
    24
 71
     2
 72
     6
 73
     3
 74
     0
 42
0.0000000001
 43
0.0000000001
 40
0.0
 40
0.0
 40
0.0
 40
62.13945609133543
 40
62.13945609133543
 40
62.13945609133543
 10
1541.9253780573
 20
2001.428654037214
 30
0.0
 10
1510.855650011632
 20
2001.428654037214
 30
0.0
 10
1479.785921965964
 20
2001.428654037214
 30
0.0
  0
SPLINE
  5
141
330
1F
100
AcDbEntity
  8
Predefinito
100
AcDbSpline
210
0.0
220
0.0
230
1.0
 70
    24
 71
     2
 72
     6
 73
     3
 74
     0
 42
0.0000000001
 43
0.0000000001
 40
0.0
 40
0.0
 40
0.0
 40
56.46346158383562
 40
56.46346158383562
 40
56.46346158383562
 10
1608.459151504979
 20
2001.428654037214
 30
0.0
 10
1580.227420713061
 20
2001.428654037214
 30
0.0
 10
1551.995689921144
 20
2001.428654037214
 30
0.0
  0
SPLINE
  5
142
330
1F
100
AcDbEntity
  8
Predefinito
100
AcDbSpline
210
0.0
220
0.0
230
1.0
 70
     8
 71
     3
 72
    16
 73
    12
 74
     0
 42
0.0000000001
 43
0.0000000001
 40
0.916315288569975
 40
0.916315288569975
 40
0.916315288569975
 40
0.916315288569975
 40
16.79378757497262
 40
24.08107086681215
 40
31.0944573973449
 40
45.97415673820711
 40
64.13634483412572
 40
87.22953470131733
 40
115.7047285061581
 40
149.4520634780358
 40
187.823389078139
 40
187.823389078139
 40
187.823389078139
 40
187.823389078139
 10
851.0059754677713
 20
2020.310461520009
 30
0.0
 10
849.5156246303208
 20
2025.374744958032
 30
0.0
 10
846.4812007366994
 20
2032.622580517221
 30
0.0
 10
839.9091715967551
 20
2040.314918516044
 30
0.0
 10
831.9514356774986
 20
2046.090034200407
 30
0.0
 10
818.6753001796117
 20
2049.331453004771
 30
0.0
 10
799.9245781478409
 20
2047.048472240775
 30
0.0
 10
777.9230409449328
 20
2039.326775855556
 30
0.0
 10
752.641099595449
 20
2026.191013882474
 30
0.0
 10
724.5069278600477
 20
2007.905712601819
 30
0.0
 10
705.3434171656594
 20
1993.364162538655
 30
0.0
 10
695.3787520810282
 20
1985.347708663862
 30
0.0
  0
SPLINE
  5
143
330
1F
100
AcDbEntity
  8
Predefinito
100
AcDbSpline
210
0.0
220
0.0
230
1.0
 70
    12
 71
     2
 72
     6
 73
     3
 74
     0
 42
0.0000000001
 43
0.0000000001
 40
0.0
 40
0.0
 40
0.0
 40
58.51904345351377
 40
58.51904345351377
 40
58.51904345351377
 10
862.2539297861933
 20
2021.95147561004
 30
0.0
 41
1.0
 10
832.4142613534942
 20
2019.162893147649
 30
0.0
 41
0.9648320120906656
 10
808.1128824747256
 20
2001.623651746906
 30
0.0
 41
1.0
  0
SPLINE
  5
144
330
1F
100
AcDbEntity
  8
Predefinito
100
AcDbSpline
210
0.0
220
0.0
230
1.0
 70
    12
 71
     2
 72
     6
 73
     3
 74
     0
 42
0.0000000001
 43
0.0000000001
 40
0.0
 40
0.0
 40
0.0
 40
1.872086066267733
 40
1.872086066267733
 40
1.872086066267733
 10
876.1579961593199
 20
2037.202222112382
 30
0.0
 41
1.0
 10
876.5881458767277
 20
2038.053195891324
 30
0.0
 41
0.9727442034389164
 10
876.5881458767278
 20
2039.006707900599
 30
0.0
 41
1.0
  0
SPLINE
  5
145
330
1F
100
AcDbEntity
  8
Predefinito
100
AcDbSpline
210
0.0
220
0.0
230
1.0
 70
    12
 71
     2
 72
     6
 73
     3
 74
     0
 42
0.0000000001
 43
0.0000000001
 40
0.0
 40
0.0
 40
0.0
 40
18.4902783055915
 40
18.4902783055915
 40
18.4902783055915
 10
667.2810218315433
 20
1962.598426389539
 30
0.0
 41
1.0
 10
674.4658369879984
 20
1968.416590115003
 30
0.0
 41
0.999999999999846
 10
681.6506586027724
 20
1974.234745864286
 30
0.0
 41
1.0
  0
SPLINE
  5
146
330
1F
100
AcDbEntity
  8
Predefinito
100
AcDbSpline
210
0.0
220
0.0
230
1.0
 70
    12
 71
     2
 72
     6
 73
     3
 74
     0
 42
0.0000000001
 43
0.0000000001
 40
0.0
 40
0.0
 40
0.0
 40
2.559339970858623
 40
2.559339970858623
 40
2.559339970858623
 10
681.6506586027724
 20
1974.234745864286
 30
0.0
 41
1.0
 10
682.6451487593898
 20
1975.040068532928
 30
0.0
 41
0.9999999999995317
 10
683.6396414770974
 20
1975.845388038437
 30
0.0
 41
1.0
  0
SPLINE
  5
147
330
1F
100
AcDbEntity
  8
Predefinito
100
AcDbSpline
210
0.0
220
0.0
230
1.0
 70
    12
 71
     2
 72
     6
 73
     3
 74
     0
 42
0.0000000001
 43
0.0000000001
 40
-6.592385649333197
 40
-6.592385649333197
 40
-6.592385649333197
 40
0.0
 40
0.0
 40
0.0
 10
683.6396414770974
 20
1975.845388038437
 30
0.0
 41
0.9999999999946922
 10
686.2012790740362
 20
1977.919731298253
 30
0.0
 41
0.9999999999813242
 10
688.7628921834754
 20
1979.994104797682
 30
0.0
 41
1.0
  0
SPLINE
  5
148
330
1F
100
AcDbEntity
  8
Predefinito
100
AcDbSpline
210
0.0
220
0.0
230
1.0
 70
    12
 71
     3
 72
     8
 73
     4
 74
     0
 42
0.0000000001
 43
0.0000000001
 40
0.0
 40
0.0
 40
0.0
 40
0.0
 40
8.446710906274753
 40
8.446710906274753
 40
8.446710906274753
 40
8.446710906274753
 10
695.3784309350563
 20
1985.347450174311
 30
0.0
 41
1.0
 10
693.1850918945115
 20
1983.582036195364
 30
0.0
 41
1.0
 10
690.9562312240271
 20
1981.759518776612
 30
0.0
 41
1.0
 10
688.7628921834822
 20
1979.994104797665
 30
0.0
 41
1.0
  0
SPLINE
  5
149
330
1F
100
AcDbEntity
  8
Predefinito
100
AcDbSpline
210
0.0
220
0.0
230
1.0
 70
    12
 71
     2
 72
     6
 73
     3
 74
     0
 42
0.0000000001
 43
0.0000000001
 40
0.0
 40
0.0
 40
0.0
 40
2.428826924735682
 40
2.428826924735682
 40
2.428826924735682
 10
936.2211862681241
 20
2001.372547266147
 30
0.0
 41
1.0
 10
937.446515695756
 20
2001.190428933195
 30
0.0
 41
0.9707437821997578
 10
938.4456477573472
 20
2000.458080370745
 30
0.0
 41
1.0
  0
SPLINE
  5
14A
330
1F
100
AcDbEntity
  8
Predefinito
100
AcDbSpline
210
0.0
220
0.0
230
1.0
 70
    12
 71
     2
 72
     6
 73
     3
 74
     0
 42
0.0000000001
 43
0.0000000001
 40
0.0
 40
0.0
 40
0.0
 40
2.902940398359438
 40
2.902940398359438
 40
2.902940398359438
 10
806.5306441169294
 20
2000.458080374619
 30
0.0
 41
1.0
 10
807.7351507000374
 20
2001.341247097115
 30
0.0
 41
0.9582285964783224
 10
809.226680366764
 20
2001.419725258088
 30
0.0
 41
1.0
  0
SPLINE
  5
14B
330
1F
100
AcDbEntity
  8
Predefinito
100
AcDbSpline
210
0.0
220
0.0
230
1.0
 70
    12
 71
     2
 72
     8
 73
     5
 74
     0
 42
0.0000000001
 43
0.0000000001
 40
0.0
 40
0.0
 40
0.0
 40
137.3950319656529
 40
137.3950319656529
 40
274.7900639313057
 40
274.7900639313057
 40
274.7900639313057
 10
938.4881458767281
 20
2000.426559940362
 30
0.0
 41
1.0
 10
1001.914952885321
 20
1952.856450055837
 30
0.0
 41
0.8112421988282631
 10
976.8433051498191
 20
1877.641506849331
 30
0.0
 41
1.0
 10
951.7716574143172
 20
1802.426563642825
 30
0.0
 41
0.8112421988282631
 10
872.4881458767277
 20
1802.426559940362
 30
0.0
 41
1.0
  0
SPLINE
  5
14C
330
1F
100
AcDbEntity
  8
Predefinito
100
AcDbSpline
210
0.0
220
0.0
230
1.0
 70
    12
 71
     2
 72
     8
 73
     5
 74
     0
 42
0.0000000001
 43
0.0000000001
 40
0.0
 40
0.0
 40
0.0
 40
137.3950511248206
 40
137.3950511248206
 40
274.7901022496413
 40
274.7901022496413
 40
274.7901022496413
 10
872.4881458767278
 20
1802.426559940362
 30
0.0
 41
1.0
 10
793.2046172860332
 20
1802.426539982903
 30
0.0
 41
0.8112421115831484
 10
768.1329641578653
 20
1877.641499367407
 30
0.0
 41
1.0
 10
743.0613110296969
 20
1952.856458751912
 30
0.0
 41
0.8112421115831484
 10
806.4881458767276
 20
2000.426559940362
 30
0.0
 41
1.0
  0
SPLINE
  5
14D
330
1F
100
AcDbEntity
  8
Predefinito
100
AcDbSpline
210
0.0
220
0.0
230
1.0
 70
     8
 71
     3
 72
    15
 73
    11
 74
     0
 42
0.0000000001
 43
0.0000000001
 40
0.0
 40
0.0
 40
0.0
 40
0.0
 40
40.43022387287623
 40
75.6984938902222
 40
105.2206381941292
 40
129.2758037473955
 40
148.6650850335654
 40
165.0982926016696
 40
181.2676231246375
 40
199.8139056988352
 40
199.8139056988352
 40
199.8139056988352
 40
199.8139056988352
 10
691.4891705230066
 20
1990.175842644645
 30
0.0
 10
701.990339142991
 20
1998.622772135611
 30
0.0
 10
722.1190826489146
 20
2013.861769041074
 30
0.0
 10
751.6520452934228
 20
2032.844975155747
 30
0.0
 10
778.1276674812628
 20
2046.230694909311
 30
0.0
 10
801.3465133523032
 20
2053.820367306329
 30
0.0
 10
821.4293471115986
 20
2055.477691910571
 30
0.0
 10
838.4646632020197
 20
2050.371636755693
 30
0.0
 10
851.0111248052962
 20
2038.164645021237
 30
0.0
 10
855.454510224456
 20
2027.282269454995
 30
0.0
 10
857.1578672291088
 20
2021.355081580748
 30
0.0
  0
SPLINE
  5
14E
330
1F
100
AcDbEntity
  8
Predefinito
100
AcDbSpline
210
0.0
220
0.0
230
1.0
 70
    12
 71
     2
 72
     6
 73
     3
 74
     0
 42
0.0000000001
 43
0.0000000001
 40
0.0
 40
0.0
 40
0.0
 40
16.87596734473412
 40
16.87596734473412
 40
16.87596734473412
 10
670.9331793016615
 20
1973.533808549897
 30
0.0
 41
1.0
 10
664.3756503474657
 20
1968.223593632151
 30
0.0
 41
0.9999999999971962
 10
657.818096244008
 20
1962.913409771602
 30
0.0
 41
1.0
  0
SPLINE
  5
14F
330
1F
100
AcDbEntity
  8
Predefinito
100
AcDbSpline
210
0.0
220
0.0
230
1.0
 70
    12
 71
     2
 72
     6
 73
     3
 74
     0
 42
0.0000000001
 43
0.0000000001
 40
0.0
 40
0.0
 40
0.0
 40
10.24188560320256
 40
10.24188560320256
 40
10.24188560320256
 10
678.892617778373
 20
1979.979237926223
 30
0.0
 41
1.0
 10
674.9128939927176
 20
1976.756528853542
 30
0.0
 41
0.9999999999990045
 10
670.9331793013287
 20
1973.533808550179
 30
0.0
 41
1.0
  0
SPLINE
  5
150
330
1F
100
AcDbEntity
  8
Predefinito
100
AcDbSpline
210
0.0
220
0.0
230
1.0
 70
    12
 71
     2
 72
     6
 73
     3
 74
     0
 42
0.0000000001
 43
0.0000000001
 40
0.0
 40
0.0
 40
0.0
 40
7.684344394120859
 40
7.684344394120859
 40
7.684344394120859
 10
684.864483977887
 20
1984.815141447036
 30
0.0
 41
1.0
 10
681.8785668327821
 20
1982.39716998426
 30
0.0
 41
0.9999999999782307
 10
678.8926177785377
 20
1979.979237926137
 30
0.0
 41
1.0
  0
SPLINE
  5
151
330
1F
100
AcDbEntity
  8
Predefinito
100
AcDbSpline
210
0.0
220
0.0
230
1.0
 70
    12
 71
     2
 72
     6
 73
     3
 74
     0
 42
0.0000000001
 43
0.0000000001
 40
0.0
 40
0.0
 40
0.0
 40
8.521533810606849
 40
8.521533810606849
 40
8.521533810606849
 10
684.8644839778938
 20
1984.815141447019
 30
0.0
 41
1.0
 10
688.174811998032
 20
1987.497653107874
 30
0.0
 41
0.9999997607896811
 10
691.4888477266666
 20
1990.17558283079
 30
0.0
 41
1.0
  0
SPLINE
  5
152
330
1F
100
AcDbEntity
  8
Predefinito
100
AcDbSpline
210
0.0
220
0.0
230
1.0
 70
    12
 71
     2
 72
     6
 73
     3
 74
     0
 42
0.0000000001
 43
0.0000000001
 40
0.0
 40
0.0
 40
0.0
 40
15.4085484397934
 40
15.4085484397934
 40
15.4085484397934
 10
655.3063152674447
 20
1952.901531641868
 30
0.0
 41
1.0
 10
661.2936769417745
 20
1957.749968651145
 30
0.0
 41
0.999999999998502
 10
667.2810218315964
 20
1962.59842638788
 30
0.0
 41
1.0
  0
SPLINE
  5
153
330
1F
100
AcDbEntity
  8
Predefinito
100
AcDbSpline
210
0.0
220
0.0
230
1.0
 70
    12
 71
     2
 72
     6
 73
     3
 74
     0
 42
0.0000000001
 43
0.0000000001
 40
0.0
 40
0.0
 40
0.0
 40
14.63216164899067
 40
14.63216164899067
 40
14.63216164899067
 10
655.3063152671125
 20
1952.90153164253
 30
0.0
 41
1.0
 10
649.6659539561117
 20
1948.240128972367
 30
0.0
 41
0.9997574992319201
 10
643.8258115675912
 20
1943.831604564603
 30
0.0
 41
1.0
  0
SPLINE
  5
154
330
1F
100
AcDbEntity
  8
Predefinito
100
AcDbSpline
210
0.0
220
0.0
230
1.0
 70
    12
 71
     2
 72
     6
 73
     3
 74
     0
 42
0.0000000001
 43
0.0000000001
 40
0.0
 40
0.0
 40
0.0
 40
8.073133012926874
 40
8.073133012926874
 40
8.073133012926874
 10
651.5440709350867
 20
1957.832850947336
 30
0.0
 41
1.0
 10
654.6823144023278
 20
1960.37161041832
 30
0.0
 41
0.9999998826203765
 10
657.8180962389984
 20
1962.91340977783
 30
0.0
 41
1.0
  0
SPLINE
  5
155
330
1F
100
AcDbEntity
  8
Predefinito
100
AcDbSpline
210
0.0
220
0.0
230
1.0
 70
    12
 71
     2
 72
     6
 73
     3
 74
     0
 42
0.0000000001
 43
0.0000000001
 40
0.0
 40
0.0
 40
0.0
 40
14.5716079314161
 40
14.5716079314161
 40
14.5716079314161
 10
640.1135835252071
 20
1948.79726761954
 30
0.0
 41
1.0
 10
645.9277912890315
 20
1953.189864551889
 30
0.0
 41
0.9997601629127499
 10
651.5440709350866
 20
1957.832850947337
 30
0.0
 41
1.0
  0
SPLINE
  5
156
330
1F
100
AcDbEntity
  8
Predefinito
100
AcDbSpline
210
0.0
220
0.0
230
1.0
 70
     8
 71
     3
 72
    20
 73
    16
 74
     0
 42
0.0000000001
 43
0.0000000001
 40
0.0
 40
0.0
 40
0.0
 40
0.0
 40
25.99985631864894
 40
50.0578839945398
 40
72.39387438134473
 40
93.51244762689241
 40
114.0894175949861
 40
134.2991778207695
 40
155.0026007372866
 40
176.7181064816147
 40
199.8750608972654
 40
224.8968356390836
 40
281.5843107480584
 40
347.5114637666495
 40
423.1543092622447
 40
423.1543092622447
 40
423.1543092622447
 40
423.1543092622447
 10
643.8253537524472
 20
1943.831262312784
 30
0.0
 10
636.8835919697059
 20
1938.643750430481
 30
0.0
 10
622.9505905348752
 20
1929.400547350608
 30
0.0
 10
601.1439862181684
 20
1918.914396923684
 30
0.0
 10
579.4886364217855
 20
1912.4932964155
 30
0.0
 10
558.1599319645253
 20
1910.260564678928
 30
0.0
 10
537.5125588625679
 20
1912.33679793497
 30
0.0
 10
517.9115299314194
 20
1918.723740583679
 30
0.0
 10
499.7362445353061
 20
1929.199683100737
 30
0.0
 10
483.1606936379367
 20
1943.597692153481
 30
0.0
 10
468.3010406030799
 20
1961.611542594662
 30
0.0
 10
450.1279697244711
 20
1991.597523155106
 30
0.0
 10
432.7669424489686
 20
2037.919747848597
 30
0.0
 10
420.4610479259943
 20
2103.01564574555
 30
0.0
 10
417.7323706088184
 20
2150.212794341853
 30
0.0
 10
417.4659411927117
 20
2175.42076117978
 30
0.0
  0
SPLINE
  5
157
330
1F
100
AcDbEntity
  8
Predefinito
100
AcDbSpline
210
0.0
220
0.0
230
1.0
 70
     8
 71
     3
 72
    20
 73
    16
 74
     0
 42
0.0000000001
 43
0.0000000001
 40
0.0
 40
0.0
 40
0.0
 40
0.0
 40
73.57456400369357
 40
137.944093070548
 40
193.2447219163726
 40
217.6639057111379
 40
240.0421144437189
 40
261.1443022959285
 40
281.0731393138942
 40
300.3385087314568
 40
319.6223347401693
 40
339.8028769338828
 40
361.2875251475965
 40
384.4093462967031
 40
409.5000484651915
 40
409.5000484651915
 40
409.5000484651915
 40
409.5000484651915
 10
423.6655947865772
 20
2175.485516872286
 30
0.0
 10
423.9252322879626
 20
2150.966782268379
 30
0.0
 10
426.5405126703475
 20
2104.978545416556
 30
0.0
 10
438.3002844814371
 20
2041.49343384821
 30
0.0
 10
454.898579169246
 20
1996.165080666218
 30
0.0
 10
472.2763297182961
 20
1966.787101007935
 30
0.0
 10
486.4912819116121
 20
1949.104114578495
 30
0.0
 10
502.3413366208786
 20
1934.983069818591
 30
0.0
 10
519.7415464219723
 20
1924.717405179596
 30
0.0
 10
538.3484543393683
 20
1918.531826137307
 30
0.0
 10
557.9310394185591
 20
1916.49024326569
 30
0.0
 10
578.2383498167246
 20
1918.58724345481
 30
0.0
 10
599.0169787653252
 20
1924.762678965564
 30
0.0
 10
619.9991783865171
 20
1934.88234072499
 30
0.0
 10
633.4139519293487
 20
1943.791096072012
 30
0.0
 10
640.1131226598419
 20
1948.796923107369
 30
0.0
  0
SPLINE
  5
158
330
1F
100
AcDbEntity
  8
Predefinito
100
AcDbSpline
210
0.0
220
0.0
230
1.0
 70
    12
 71
     2
 72
     6
 73
     3
 74
     0
 42
0.0000000001
 43
0.0000000001
 40
0.0
 40
0.0
 40
0.0
 40
8.802476608631727
 40
8.802476608631727
 40
8.802476608631727
 10
417.4659399074313
 20
2175.420884915486
 30
0.0
 41
1.0
 10
417.4239642391638
 20
2179.821956141092
 30
0.0
 41
0.9999887224926429
 10
417.4237931157564
 20
2184.22322753244
 30
0.0
 41
1.0
  0
SPLINE
  5
159
330
1F
100
AcDbEntity
  8
Predefinito
100
AcDbSpline
210
0.0
220
0.0
230
1.0
 70
    12
 71
     2
 72
     6
 73
     3
 74
     0
 42
0.0000000001
 43
0.0000000001
 40
0.0
 40
0.0
 40
0.0
 40
8.544553287999017
 40
8.544553287999017
 40
8.544553287999017
 10
423.623878219252
 20
2184.030061343743
 30
0.0
 41
1.0
 10
423.6245527007425
 20
2179.757752968991
 30
0.0
 41
0.9999888407329124
 10
423.6655934912095
 20
2175.485641669245
 30
0.0
 41
1.0
  0
SPLINE
  5
15A
330
1F
100
AcDbEntity
  8
Predefinito
100
AcDbSpline
210
0.0
220
0.0
230
1.0
 70
    24
 71
     2
 72
     6
 73
     3
 74
     0
 42
0.0000000001
 43
0.0000000001
 40
0.0
 40
0.0
 40
0.0
 40
29.48858842375239
 40
29.48858842375239
 40
29.48858842375239
 10
882.4387504878918
 20
2051.428653247536
 30
0.0
 10
882.4387504878918
 20
2036.68435903566
 30
0.0
 10
882.4387504878918
 20
2021.940064823784
 30
0.0
  0
SPLINE
  5
15B
330
1F
100
AcDbEntity
  8
Predefinito
100
AcDbSpline
210
0.0
220
0.0
230
1.0
 70
    24
 71
     2
 72
     6
 73
     3
 74
     0
 42
0.0000000001
 43
0.0000000001
 40
0.0
 40
0.0
 40
0.0
 40
0.7071067811865476
 40
0.7071067811865476
 40
0.7071067811865476
 10
862.5387504878917
 20
2051.428654037529
 30
0.0
 10
862.7887504878917
 20
2051.678654037529
 30
0.0
 10
863.0387504878917
 20
2051.928654037529
 30
0.0
  0
SPLINE
  5
15C
330
1F
100
AcDbEntity
  8
Predefinito
100
AcDbSpline
210
0.0
220
0.0
230
1.0
 70
    12
 71
     2
 72
     6
 73
     3
 74
     0
 42
0.0000000001
 43
0.0000000001
 40
0.0
 40
0.0
 40
0.0
 40
58.51904345351377
 40
58.51904345351377
 40
58.51904345351377
 10
882.7235711895903
 20
2021.95147561004
 30
0.0
 41
1.0
 10
912.5632396222893
 20
2019.162893147649
 30
0.0
 41
0.9648320120906656
 10
936.8646185010581
 20
2001.623651746906
 30
0.0
 41
1.0
  0
SPLINE
  5
15D
330
1F
100
AcDbEntity
  8
Predefinito
100
AcDbSpline
210
0.0
220
0.0
230
1.0
 70
    12
 71
     2
 72
     6
 73
     3
 74
     0
 42
0.0000000001
 43
0.0000000001
 40
0.0
 40
0.0
 40
0.0
 40
0.1553239312256419
 40
0.1553239312256419
 40
0.1553239312256419
 10
936.9253652573991
 20
2001.528654037529
 30
0.0
 41
1.0
 10
936.921297648308
 20
2001.432721646619
 30
0.0
 41
0.7364269799410466
 10
936.8253652573991
 20
2001.428654037529
 30
0.0
 41
1.0
  0
SPLINE
  5
15E
330
1F
100
AcDbEntity
  8
Predefinito
100
AcDbSpline
210
0.0
220
0.0
230
1.0
 70
    12
 71
     2
 72
     6
 73
     3
 74
     0
 42
0.0000000001
 43
0.0000000001
 40
0.0
 40
0.0
 40
0.0
 40
0.1408766006951319
 40
0.1408766006951319
 40
0.1408766006951319
 10
935.1604020249111
 20
2001.609727745136
 30
0.0
 41
1.0
 10
935.2180330960921
 20
2001.569228175064
 30
0.0
 41
0.999999790544993
 10
935.2756116937201
 20
2001.528654037529
 30
0.0
 41
1.0
  0
SPLINE
  5
15F
330
1F
100
AcDbEntity
  8
Predefinito
100
AcDbSpline
210
0.0
220
0.0
230
1.0
 70
    24
 71
     2
 72
     6
 73
     3
 74
     0
 42
0.0000000001
 43
0.0000000001
 40
0.0
 40
0.0
 40
0.0
 40
66.00000000000011
 40
66.00000000000011
 40
66.00000000000011
 10
872.4881458767278
 20
2000.426559940362
 30
0.0
 10
839.4881458767277
 20
2000.426559940362
 30
0.0
 10
806.4881458767277
 20
2000.426559940362
 30
0.0
  0
SPLINE
  5
160
330
1F
100
AcDbEntity
  8
Predefinito
100
AcDbSpline
210
0.0
220
0.0
230
1.0
 70
    24
 71
     2
 72
     6
 73
     3
 74
     0
 42
0.0000000001
 43
0.0000000001
 40
0.0
 40
0.0
 40
0.0
 40
66.00000000000011
 40
66.00000000000011
 40
66.00000000000011
 10
938.4881458767281
 20
2000.426559940362
 30
0.0
 10
905.4881458767279
 20
2000.426559940362
 30
0.0
 10
872.4881458767278
 20
2000.426559940362
 30
0.0
  0
SPLINE
  5
161
330
1F
100
AcDbEntity
  8
Predefinito
100
AcDbSpline
210
0.0
220
0.0
230
1.0
 70
    12
 71
     2
 72
     6
 73
     3
 74
     0
 42
0.0000000001
 43
0.0000000001
 40
0.0
 40
0.0
 40
0.0
 40
2.197467751127586
 40
2.197467751127586
 40
2.197467751127586
 10
868.5881458767278
 20
2039.006707900599
 30
0.0
 41
1.0
 10
868.5881458767274
 20
2037.879480234767
 30
0.0
 41
0.9625111024662614
 10
869.1767248977607
 20
2036.918118207944
 30
0.0
 41
1.0
  0
SPLINE
  5
162
330
1F
100
AcDbEntity
  8
Predefinito
100
AcDbSpline
210
0.0
220
0.0
230
1.0
 70
     8
 71
     3
 72
    12
 73
     8
 74
     0
 42
0.0000000001
 43
0.0000000001
 40
0.0
 40
0.0
 40
0.0
 40
0.0
 40
1.75252170153698
 40
3.77519562616243
 40
7.149153852786407
 40
10.7438592574278
 40
14.19088458726204
 40
14.19088458726204
 40
14.19088458726204
 40
14.19088458726204
 10
872.7483573266494
 20
2035.686688470703
 30
0.0
 10
872.1574455602765
 20
2035.655075062857
 30
0.0
 10
870.9148642631294
 20
2035.828821366993
 30
0.0
 10
868.6761288268178
 20
2036.77440002692
 30
0.0
 10
866.6907414907864
 20
2039.192665783204
 30
0.0
 10
866.4724954428327
 20
2042.847845945675
 30
0.0
 10
867.7052727543999
 20
2044.948151183999
 30
0.0
 10
868.5881458767277
 20
2045.698449069895
 30
0.0
  0
SPLINE
  5
163
330
1F
100
AcDbEntity
  8
Predefinito
100
AcDbSpline
210
0.0
220
0.0
230
1.0
 70
    12
 71
     3
 72
    12
 73
     8
 74
     0
 42
0.0000000001
 43
0.0000000001
 40
0.6340929060764339
 40
0.6340929060764339
 40
0.6340929060764339
 40
0.6340929060764339
 40
0.7493527306484781
 40
0.7493527306484781
 40
0.8748035650411254
 40
0.8748035650411254
 40
1.0
 40
1.0
 40
1.0
 40
1.0
 10
876.5881458764137
 20
2045.538543535857
 30
0.0
 41
1.0
 10
877.5962739615707
 20
2044.592946302591
 30
0.0
 41
1.0
 10
878.2317717291019
 20
2043.273924317505
 30
0.0
 41
1.0
 10
878.3838774818819
 20
2040.055879906775
 30
0.0
 41
1.0
 10
877.79338810668
 20
2038.574308632025
 30
0.0
 41
1.0
 10
875.7050289797506
 20
2036.42181666184
 30
0.0
 41
1.0
 10
874.191520450592
 20
2035.749258155714
 30
0.0
 41
1.0
 10
872.7483573266494
 20
2035.686688470703
 30
0.0
 41
1.0
  0
SPLINE
  5
164
330
1F
100
AcDbEntity
  8
Predefinito
100
AcDbSpline
210
0.0
220
0.0
230
1.0
 70
    24
 71
     2
 72
     6
 73
     3
 74
     0
 42
0.0000000001
 43
0.0000000001
 40
0.0
 40
0.0
 40
0.0
 40
29.48858873974928
 40
29.48858873974928
 40
29.48858873974928
 10
862.5387504878917
 20
2021.940064823784
 30
0.0
 10
862.5387504878917
 20
2036.684359193659
 30
0.0
 10
862.5387504878917
 20
2051.428653563533
 30
0.0
  0
SPLINE
  5
165
330
1F
100
AcDbEntity
  8
Predefinito
100
AcDbSpline
210
0.0
220
0.0
230
1.0
 70
    24
 71
     2
 72
     6
 73
     3
 74
     0
 42
0.0000000001
 43
0.0000000001
 40
0.0
 40
0.0
 40
0.0
 40
6.049395388836048
 40
6.049395388836048
 40
6.049395388836048
 10
868.5881458767278
 20
2051.428653707623
 30
0.0
 10
865.5634481823098
 20
2051.428653635578
 30
0.0
 10
862.5387504878918
 20
2051.428653563533
 30
0.0
  0
SPLINE
  5
166
330
1F
100
AcDbEntity
  8
Predefinito
100
AcDbSpline
210
0.0
220
0.0
230
1.0
 70
    24
 71
     2
 72
     6
 73
     3
 74
     0
 42
0.0000000001
 43
0.0000000001
 40
0.0
 40
0.0
 40
0.0
 40
5.850604611164045
 40
5.850604611164045
 40
5.850604611164045
 10
882.4387504878918
 20
2051.428654037529
 30
0.0
 10
879.5134481823097
 20
2051.428653967851
 30
0.0
 10
876.5881458767277
 20
2051.428653898174
 30
0.0
  0
SPLINE
  5
167
330
1F
100
AcDbEntity
  8
Predefinito
100
AcDbSpline
210
0.0
220
0.0
230
1.0
 70
    24
 71
     2
 72
     6
 73
     3
 74
     0
 42
0.0000000001
 43
0.0000000001
 40
0.0
 40
0.0
 40
0.0
 40
0.7071067811865476
 40
0.7071067811865476
 40
0.7071067811865476
 10
881.9387504878918
 20
2051.928654037529
 30
0.0
 10
882.1887504878918
 20
2051.678654037529
 30
0.0
 10
882.4387504878918
 20
2051.428654037529
 30
0.0
  0
SPLINE
  5
168
330
1F
100
AcDbEntity
  8
Predefinito
100
AcDbSpline
210
0.0
220
0.0
230
1.0
 70
    24
 71
     2
 72
     6
 73
     3
 74
     0
 42
0.0000000001
 43
0.0000000001
 40
0.0
 40
0.0
 40
0.0
 40
5.511169275227644
 40
5.511169275227644
 40
5.511169275227644
 10
868.5881458767276
 20
2051.928654037529
 30
0.0
 10
865.8325612391138
 20
2051.928654037529
 30
0.0
 10
863.0769766015
 20
2051.928654037529
 30
0.0
  0
SPLINE
  5
169
330
1F
100
AcDbEntity
  8
Predefinito
100
AcDbSpline
210
0.0
220
0.0
230
1.0
 70
    24
 71
     2
 72
     6
 73
     3
 74
     0
 42
0.0000000001
 43
0.0000000001
 40
0.0
 40
0.0
 40
0.0
 40
5.350604611163988
 40
5.350604611163988
 40
5.350604611163988
 10
881.9387504878918
 20
2051.928654037529
 30
0.0
 10
879.2634481823097
 20
2051.928654037529
 30
0.0
 10
876.5881458767278
 20
2051.928654037529
 30
0.0
  0
SPLINE
  5
16A
330
1F
100
AcDbEntity
  8
Predefinito
100
AcDbSpline
210
0.0
220
0.0
230
1.0
 70
    12
 71
     2
 72
     8
 73
     5
 74
     0
 42
0.0000000001
 43
0.0000000001
 40
0.0
 40
0.0
 40
0.0
 40
6.280574914752883
 40
6.280574914752883
 40
12.56114982950577
 40
12.56114982950577
 40
12.56114982950577
 10
876.5881458766185
 20
2045.238745364632
 30
0.0
 41
1.0
 10
878.9777085364196
 20
2042.659316218776
 30
0.0
 41
0.8470977641746384
 10
877.6951143850258
 20
2039.385416912686
 30
0.0
 41
1.0
 10
876.4125202336323
 20
2036.111517606596
 30
0.0
 41
0.8470977641746384
 10
872.9067178227979
 20
2035.841677135585
 30
0.0
 41
1.0
  0
SPLINE
  5
16B
330
1F
100
AcDbEntity
  8
Predefinito
100
AcDbSpline
210
0.0
220
0.0
230
1.0
 70
    12
 71
     2
 72
     8
 73
     5
 74
     0
 42
0.0000000001
 43
0.0000000001
 40
0.0
 40
0.0
 40
0.0
 40
6.424640364979823
 40
6.424640364979823
 40
12.84928072995965
 40
12.84928072995965
 40
12.84928072995965
 10
872.0712016831326
 20
2035.841646409848
 30
0.0
 41
1.0
 10
868.4639362936956
 20
2036.116482407875
 30
0.0
 41
0.8400836017138049
 10
867.2301060069133
 20
2039.517300138813
 30
0.0
 41
1.0
 10
865.9962757201309
 20
2042.91811786975
 30
0.0
 41
0.8400836017138049
 10
868.5881458770298
 20
2045.442025060084
 30
0.0
 41
1.0
  0
SPLINE
  5
16C
330
1F
100
AcDbEntity
  8
Predefinito
100
AcDbSpline
210
0.0
220
0.0
230
1.0
 70
    12
 71
     2
 72
     8
 73
     5
 74
     0
 42
0.0000000001
 43
0.0000000001
 40
0.0
 40
0.0
 40
0.0
 40
0.000837219707702
 40
0.000837219707702
 40
0.1689677380698138
 40
0.1689677380698138
 40
0.1689677380698138
 10
872.9067178227979
 20
2035.841677135584
 30
0.0
 41
1.0
 10
872.9063003571415
 20
2035.841646206049
 30
0.0
 41
0.9999999972036127
 10
872.9058828868638
 20
2035.841615338953
 30
0.0
 41
1.0
 10
872.822041152702
 20
2035.835393919223
 30
0.0
 41
0.9998753575202984
 10
872.7380447904972
 20
2035.831822702758
 30
0.0
 41
1.0
  0
SPLINE
  5
16D
330
1F
100
AcDbEntity
  8
Predefinito
100
AcDbSpline
210
0.0
220
0.0
230
1.0
 70
    12
 71
     2
 72
     6
 73
     3
 74
     0
 42
0.0000000001
 43
0.0000000001
 40
0.0
 40
0.0
 40
0.0
 40
0.4987525241169118
 40
0.4987525241169118
 40
0.4987525241169118
 10
872.7380447904972
 20
2035.831822702758
 30
0.0
 41
1.0
 10
872.4887505109725
 20
2035.820835110007
 30
0.0
 41
0.9990382658271408
 10
872.2394521743188
 20
2035.831730262133
 30
0.0
 41
1.0
  0
SPLINE
  5
16E
330
1F
100
AcDbEntity
  8
Predefinito
100
AcDbSpline
210
0.0
220
0.0
230
1.0
 70
    12
 71
     2
 72
     6
 73
     3
 74
     0
 42
0.0000000001
 43
0.0000000001
 40
0.0
 40
0.0
 40
0.0
 40
0.1685471401790571
 40
0.1685471401790571
 40
0.1685471401790571
 10
872.2394521743188
 20
2035.831730262133
 30
0.0
 41
1.0
 10
872.1552628660688
 20
2035.835601364136
 30
0.0
 41
0.9999165359341202
 10
872.0712016831326
 20
2035.841646409848
 30
0.0
 41
1.0
  0
SPLINE
  5
16F
330
1F
100
AcDbEntity
  8
Predefinito
100
AcDbSpline
210
0.0
220
0.0
230
1.0
 70
    24
 71
     2
 72
     6
 73
     3
 74
     0
 42
0.0000000001
 43
0.0000000001
 40
0.0
 40
0.0
 40
0.0
 40
64.35593510811424
 40
64.35593510811424
 40
64.35593510811424
 10
808.1328153797774
 20
2001.609727740896
 30
0.0
 10
840.3107829338346
 20
2001.609727740896
 30
0.0
 10
872.4887504878917
 20
2001.609727740896
 30
0.0
  0
SPLINE
  5
170
330
1F
100
AcDbEntity
  8
Predefinito
100
AcDbSpline
210
0.0
220
0.0
230
1.0
 70
    24
 71
     2
 72
     6
 73
     3
 74
     0
 42
0.0000000001
 43
0.0000000001
 40
0.0
 40
0.0
 40
0.0
 40
64.3658184681072
 40
64.3658184681072
 40
64.3658184681072
 10
872.4887504878918
 20
2001.609727740896
 30
0.0
 10
904.6716597219454
 20
2001.609727740896
 30
0.0
 10
936.8545689559991
 20
2001.609727740896
 30
0.0
  0
SPLINE
  5
171
330
1F
100
AcDbEntity
  8
Predefinito
100
AcDbSpline
210
0.0
220
0.0
230
1.0
 70
    24
 71
     2
 72
     6
 73
     3
 74
     0
 42
0.0000000001
 43
0.0000000001
 40
0.0
 40
0.0
 40
0.0
 40
10.23482070169854
 40
10.23482070169854
 40
10.23482070169854
 10
882.7235711895903
 20
2021.95147561004
 30
0.0
 10
877.6061608387411
 20
2021.95147561004
 30
0.0
 10
872.4887504878918
 20
2021.95147561004
 30
0.0
  0
SPLINE
  5
172
330
1F
100
AcDbEntity
  8
Predefinito
100
AcDbSpline
210
0.0
220
0.0
230
1.0
 70
    24
 71
     2
 72
     6
 73
     3
 74
     0
 42
0.0000000001
 43
0.0000000001
 40
0.0
 40
0.0
 40
0.0
 40
10.19341991662947
 40
10.19341991662947
 40
10.19341991662947
 10
872.4887504878918
 20
2021.95147561004
 30
0.0
 10
867.3920405295771
 20
2021.95147561004
 30
0.0
 10
862.2953305712623
 20
2021.95147561004
 30
0.0
  0
SPLINE
  5
173
330
1F
100
AcDbEntity
  8
Predefinito
100
AcDbSpline
210
0.0
220
0.0
230
1.0
 70
    24
 71
     2
 72
     6
 73
     3
 74
     0
 42
0.0000000001
 43
0.0000000001
 40
0.0
 40
0.0
 40
0.0
 40
128.8732295390147
 40
128.8732295390147
 40
128.8732295390147
 10
936.9253652573991
 20
2001.528654037529
 30
0.0
 10
872.4887504878917
 20
2001.528654037529
 30
0.0
 10
808.0521357183843
 20
2001.528654037529
 30
0.0
  0
SPLINE
  5
174
330
1F
100
AcDbEntity
  8
Predefinito
100
AcDbSpline
210
0.0
220
0.0
230
1.0
 70
    12
 71
     2
 72
     6
 73
     3
 74
     0
 42
0.0000000001
 43
0.0000000001
 40
0.0
 40
0.0
 40
0.0
 40
0.1570796326794036
 40
0.1570796326794036
 40
0.1570796326794036
 10
808.0521357183843
 20
2001.528654037529
 30
0.0
 41
1.0
 10
808.0521357183842
 20
2001.428654037529
 30
0.0
 41
0.7071067811863466
 10
808.1521357183843
 20
2001.428654037529
 30
0.0
 41
1.0
  0
SPLINE
  5
175
330
1F
100
AcDbEntity
  8
Predefinito
100
AcDbSpline
210
0.0
220
0.0
230
1.0
 70
    24
 71
     2
 72
     6
 73
     3
 74
     0
 42
0.0000000001
 43
0.0000000001
 40
0.0
 40
0.0
 40
0.0
 40
128.6732295390149
 40
128.6732295390149
 40
128.6732295390149
 10
936.8253652573991
 20
2001.428654037529
 30
0.0
 10
872.4887504878918
 20
2001.428654037529
 30
0.0
 10
808.1521357183843
 20
2001.428654037529
 30
0.0
  0
SPLINE
  5
176
330
1F
100
AcDbEntity
  8
Predefinito
100
AcDbSpline
210
0.0
220
0.0
230
1.0
 70
    24
 71
     2
 72
     6
 73
     3
 74
     0
 42
0.0000000001
 43
0.0000000001
 40
0.0
 40
0.0
 40
0.0
 40
14.0
 40
14.0
 40
14.0
 10
943.3881569039895
 20
2183.226559940046
 30
0.0
 10
943.3881569039895
 20
2190.226559940046
 30
0.0
 10
943.3881569039895
 20
2197.226559940046
 30
0.0
  0
SPLINE
  5
177
330
1F
100
AcDbEntity
  8
Predefinito
100
AcDbSpline
210
0.0
220
0.0
230
1.0
 70
    24
 71
     2
 72
     6
 73
     3
 74
     0
 42
0.0000000001
 43
0.0000000001
 40
0.0
 40
0.0
 40
0.0
 40
66.7999999999999
 40
66.7999999999999
 40
66.7999999999999
 10
943.3881569039895
 20
2183.226559940046
 30
0.0
 10
909.9881569039894
 20
2183.226559940046
 30
0.0
 10
876.5881569039893
 20
2183.226559940046
 30
0.0
  0
SPLINE
  5
178
330
1F
100
AcDbEntity
  8
Predefinito
100
AcDbSpline
210
0.0
220
0.0
230
1.0
 70
    24
 71
     2
 72
     6
 73
     3
 74
     0
 42
0.0000000001
 43
0.0000000001
 40
0.0
 40
0.0
 40
0.0
 40
434.8
 40
434.8
 40
434.8
 10
868.5881569039893
 20
2183.226559940046
 30
0.0
 10
651.1881569039897
 20
2183.226559940046
 30
0.0
 10
433.7881569039896
 20
2183.226559940046
 30
0.0
  0
SPLINE
  5
179
330
1F
100
AcDbEntity
  8
Predefinito
100
AcDbSpline
210
0.0
220
0.0
230
1.0
 70
    24
 71
     2
 72
     6
 73
     3
 74
     0
 42
0.0000000001
 43
0.0000000001
 40
0.0
 40
0.0
 40
0.0
 40
1.149988399303822
 40
1.149988399303822
 40
1.149988399303822
 10
433.7881569039896
 20
2197.226559940046
 30
0.0
 10
434.3631511036415
 20
2197.226559940046
 30
0.0
 10
434.9381453032934
 20
2197.226559940046
 30
0.0
  0
SPLINE
  5
17A
330
1F
100
AcDbEntity
  8
Predefinito
100
AcDbSpline
210
0.0
220
0.0
230
1.0
 70
    24
 71
     2
 72
     6
 73
     3
 74
     0
 42
0.0000000001
 43
0.0000000001
 40
0.0
 40
0.0
 40
0.0
 40
432.85
 40
432.85
 40
432.85
 10
435.7381569039899
 20
2197.226559940046
 30
0.0
 10
652.1631569039896
 20
2197.226559940046
 30
0.0
 10
868.5881569039893
 20
2197.226559940046
 30
0.0
  0
SPLINE
  5
17B
330
1F
100
AcDbEntity
  8
Predefinito
100
AcDbSpline
210
0.0
220
0.0
230
1.0
 70
    24
 71
     2
 72
     6
 73
     3
 74
     0
 42
0.0000000001
 43
0.0000000001
 40
0.0
 40
0.0
 40
0.0
 40
54.04999999727443
 40
54.04999999727443
 40
54.04999999727443
 10
876.5881569039893
 20
2197.226559940046
 30
0.0
 10
903.6131569026275
 20
2197.226559940046
 30
0.0
 10
930.6381569012647
 20
2197.226559940046
 30
0.0
  0
SPLINE
  5
17C
330
1F
100
AcDbEntity
  8
Predefinito
100
AcDbSpline
210
0.0
220
0.0
230
1.0
 70
    24
 71
     2
 72
     6
 73
     3
 74
     0
 42
0.0000000001
 43
0.0000000001
 40
0.0
 40
0.0
 40
0.0
 40
11.94999874653377
 40
11.94999874653377
 40
11.94999874653377
 10
931.4381581574553
 20
2197.226559940046
 30
0.0
 10
937.4131575307224
 20
2197.226559940046
 30
0.0
 10
943.3881569039895
 20
2197.226559940046
 30
0.0
  0
SPLINE
  5
17D
330
1F
100
AcDbEntity
  8
Predefinito
100
AcDbSpline
210
0.0
220
0.0
230
1.0
 70
    24
 71
     2
 72
     6
 73
     3
 74
     0
 42
0.0000000001
 43
0.0000000001
 40
0.0
 40
0.0
 40
0.0
 40
14.0
 40
14.0
 40
14.0
 10
433.7881569039896
 20
2197.226559940046
 30
0.0
 10
433.7881569039896
 20
2190.226559940046
 30
0.0
 10
433.7881569039896
 20
2183.226559940046
 30
0.0
  0
SPLINE
  5
17E
330
1F
100
AcDbEntity
  8
Predefinito
100
AcDbSpline
210
0.0
220
0.0
230
1.0
 70
    24
 71
     2
 72
     6
 73
     3
 74
     0
 42
0.0000000001
 43
0.0000000001
 40
0.0
 40
0.0
 40
0.0
 40
0.2002085020602031
 40
0.2002085020602031
 40
0.2002085020602031
 10
433.5881569039898
 20
2197.026559940045
 30
0.0
 10
433.6589412987187
 20
2197.097344334775
 30
0.0
 10
433.7297256934476
 20
2197.168128729504
 30
0.0
  0
SPLINE
  5
17F
330
1F
100
AcDbEntity
  8
Predefinito
100
AcDbSpline
210
0.0
220
0.0
230
1.0
 70
    24
 71
     2
 72
     6
 73
     3
 74
     0
 42
0.0000000001
 43
0.0000000001
 40
0.0
 40
0.0
 40
0.0
 40
13.59999999999991
 40
13.59999999999991
 40
13.59999999999991
 10
433.5881569039898
 20
2197.026559940045
 30
0.0
 10
433.5881569039893
 20
2190.226559940046
 30
0.0
 10
433.5881569039893
 20
2183.426559940046
 30
0.0
  0
SPLINE
  5
180
330
1F
100
AcDbEntity
  8
Predefinito
100
AcDbSpline
210
0.0
220
0.0
230
1.0
 70
    24
 71
     2
 72
     6
 73
     3
 74
     0
 42
0.0000000001
 43
0.0000000001
 40
0.0
 40
0.0
 40
0.0
 40
0.2002085020601729
 40
0.2002085020601729
 40
0.2002085020601729
 10
943.5881569039893
 20
2197.026559940045
 30
0.0
 10
943.5173725092604
 20
2197.097344334775
 30
0.0
 10
943.4465881145316
 20
2197.168128729504
 30
0.0
  0
SPLINE
  5
181
330
1F
100
AcDbEntity
  8
Predefinito
100
AcDbSpline
210
0.0
220
0.0
230
1.0
 70
    24
 71
     2
 72
     6
 73
     3
 74
     0
 42
0.0000000001
 43
0.0000000001
 40
0.0
 40
0.0
 40
0.0
 40
13.59999999999991
 40
13.59999999999991
 40
13.59999999999991
 10
943.5881569039893
 20
2197.026559940045
 30
0.0
 10
943.5881569039893
 20
2190.226559940046
 30
0.0
 10
943.5881569039893
 20
2183.426559940046
 30
0.0
  0
SPLINE
  5
182
330
1F
100
AcDbEntity
  8
Predefinito
100
AcDbSpline
210
0.0
220
0.0
230
1.0
 70
    24
 71
     2
 72
     6
 73
     3
 74
     0
 42
0.0000000001
 43
0.0000000001
 40
0.0
 40
0.0
 40
0.0
 40
13.0
 40
13.0
 40
13.0
 10
947.0881569039893
 20
2183.726559940046
 30
0.0
 10
947.0881569039893
 20
2190.226559940046
 30
0.0
 10
947.0881569039893
 20
2196.726559940046
 30
0.0
  0
SPLINE
  5
183
330
1F
100
AcDbEntity
  8
Predefinito
100
AcDbSpline
210
0.0
220
0.0
230
1.0
 70
    24
 71
     2
 72
     6
 73
     3
 74
     0
 42
0.0000000001
 43
0.0000000001
 40
0.0
 40
0.0
 40
0.0
 40
14.0
 40
14.0
 40
14.0
 10
943.7881569039891
 20
2197.226559940046
 30
0.0
 10
943.7881569039891
 20
2190.226559940046
 30
0.0
 10
943.7881569039891
 20
2183.226559940046
 30
0.0
  0
SPLINE
  5
184
330
1F
100
AcDbEntity
  8
Predefinito
100
AcDbSpline
210
0.0
220
0.0
230
1.0
 70
    24
 71
     2
 72
     6
 73
     3
 74
     0
 42
0.0000000001
 43
0.0000000001
 40
0.0
 40
0.0
 40
0.0
 40
2.799999999999955
 40
2.799999999999955
 40
2.799999999999955
 10
946.5881569039893
 20
2183.226559940046
 30
0.0
 10
945.1881569039892
 20
2183.226559940046
 30
0.0
 10
943.7881569039891
 20
2183.226559940046
 30
0.0
  0
SPLINE
  5
185
330
1F
100
AcDbEntity
  8
Predefinito
100
AcDbSpline
210
0.0
220
0.0
230
1.0
 70
    24
 71
     2
 72
     6
 73
     3
 74
     0
 42
0.0000000001
 43
0.0000000001
 40
0.0
 40
0.0
 40
0.0
 40
14.0
 40
14.0
 40
14.0
 10
946.5881569039893
 20
2183.226559940046
 30
0.0
 10
946.5881569039893
 20
2190.226559940046
 30
0.0
 10
946.5881569039893
 20
2197.226559940046
 30
0.0
  0
SPLINE
  5
186
330
1F
100
AcDbEntity
  8
Predefinito
100
AcDbSpline
210
0.0
220
0.0
230
1.0
 70
    24
 71
     2
 72
     6
 73
     3
 74
     0
 42
0.0000000001
 43
0.0000000001
 40
0.0
 40
0.0
 40
0.0
 40
0.624472570772198
 40
0.624472570772198
 40
0.624472570772198
 10
947.0881569039893
 20
2196.726559940046
 30
0.0
 10
946.8673725092603
 20
2196.947344334775
 30
0.0
 10
946.6465881145314
 20
2197.168128729504
 30
0.0
  0
SPLINE
  5
187
330
1F
100
AcDbEntity
  8
Predefinito
100
AcDbSpline
210
0.0
220
0.0
230
1.0
 70
    24
 71
     2
 72
     6
 73
     3
 74
     0
 42
0.0000000001
 43
0.0000000001
 40
0.0
 40
0.0
 40
0.0
 40
0.2002085020602533
 40
0.2002085020602533
 40
0.2002085020602533
 10
943.5881569039893
 20
2183.426559940046
 30
0.0
 10
943.6589412987182
 20
2183.355775545317
 30
0.0
 10
943.7297256934471
 20
2183.284991150588
 30
0.0
  0
SPLINE
  5
188
330
1F
100
AcDbEntity
  8
Predefinito
100
AcDbSpline
210
0.0
220
0.0
230
1.0
 70
    12
 71
     2
 72
     6
 73
     3
 74
     0
 42
0.0000000001
 43
0.0000000001
 40
0.0
 40
0.0
 40
0.0
 40
0.2921736697668705
 40
0.2921736697668705
 40
0.2921736697668705
 10
403.2960984172946
 20
2184.216127496399
 30
0.0
 41
1.0
 10
403.4420411678566
 20
2184.223235376933
 30
0.0
 41
0.9997033287928424
 10
403.5881569039893
 20
2184.223227532125
 30
0.0
 41
1.0
  0
SPLINE
  5
189
330
1F
100
AcDbEntity
  8
Predefinito
100
AcDbSpline
210
0.0
220
0.0
230
1.0
 70
    12
 71
     2
 72
     6
 73
     3
 74
     0
 42
0.0000000001
 43
0.0000000001
 40
0.0
 40
0.0
 40
0.0
 40
0.4561238004928116
 40
0.4561238004928116
 40
0.4561238004928116
 10
397.5881569039898
 20
2196.236992383694
 30
0.0
 41
1.0
 10
397.4431368276522
 20
2196.060973752412
 30
0.0
 41
0.99998340683534
 10
397.2960984172946
 20
2195.886637620248
 30
0.0
 41
1.0
  0
SPLINE
  5
18A
330
1F
100
AcDbEntity
  8
Predefinito
100
AcDbSpline
210
0.0
220
0.0
230
1.0
 70
    12
 71
     2
 72
     6
 73
     3
 74
     0
 42
0.0000000001
 43
0.0000000001
 40
0.0
 40
0.0
 40
0.0
 40
0.4561238004928119
 40
0.4561238004928119
 40
0.4561238004928119
 10
397.2960984172946
 20
2184.566482259845
 30
0.0
 41
1.0
 10
397.4431368276522
 20
2184.39214612768
 30
0.0
 41
0.99998340683534
 10
397.5881569039893
 20
2184.216127496399
 30
0.0
 41
1.0
  0
SPLINE
  5
18B
330
1F
100
AcDbEntity
  8
Predefinito
100
AcDbSpline
210
0.0
220
0.0
230
1.0
 70
    24
 71
     2
 72
     6
 73
     3
 74
     0
 42
0.0000000001
 43
0.0000000001
 40
0.0
 40
0.0
 40
0.0
 40
5.707941513305002
 40
5.707941513305002
 40
5.707941513305002
 10
397.5881569039893
 20
2184.216127496399
 30
0.0
 10
400.4421276606422
 20
2184.216127496399
 30
0.0
 10
403.2960984172946
 20
2184.216127496399
 30
0.0
  0
SPLINE
  5
18C
330
1F
100
AcDbEntity
  8
Predefinito
100
AcDbSpline
210
0.0
220
0.0
230
1.0
 70
    24
 71
     2
 72
     6
 73
     3
 74
     0
 42
0.0000000001
 43
0.0000000001
 40
0.0
 40
0.0
 40
0.0
 40
14.0
 40
14.0
 40
14.0
 10
433.3881569039895
 20
2183.226559940046
 30
0.0
 10
433.3881569039895
 20
2190.226559940046
 30
0.0
 10
433.3881569039895
 20
2197.226559940046
 30
0.0
  0
SPLINE
  5
18D
330
1F
100
AcDbEntity
  8
Predefinito
100
AcDbSpline
210
0.0
220
0.0
230
1.0
 70
    24
 71
     2
 72
     6
 73
     3
 74
     0
 42
0.0000000001
 43
0.0000000001
 40
0.0
 40
0.0
 40
0.0
 40
0.2002085020602935
 40
0.2002085020602935
 40
0.2002085020602935
 10
433.5881569039898
 20
2197.026559940045
 30
0.0
 10
433.5173725092609
 20
2197.097344334775
 30
0.0
 10
433.4465881145316
 20
2197.168128729504
 30
0.0
  0
SPLINE
  5
18E
330
1F
100
AcDbEntity
  8
Predefinito
100
AcDbSpline
210
0.0
220
0.0
230
1.0
 70
    12
 71
     2
 72
     6
 73
     3
 74
     0
 42
0.0000000001
 43
0.0000000001
 40
0.0
 40
0.0
 40
0.0
 40
0.3236832558705375
 40
0.3236832558705375
 40
0.3236832558705375
 10
397.0881569039893
 20
2184.814536288952
 30
0.0
 41
1.0
 10
397.1917207979793
 20
2184.690168205002
 30
0.0
 41
0.9999946194137945
 10
397.2960984172946
 20
2184.566482259845
 30
0.0
 41
1.0
  0
SPLINE
  5
18F
330
1F
100
AcDbEntity
  8
Predefinito
100
AcDbSpline
210
0.0
220
0.0
230
1.0
 70
    12
 71
     2
 72
     6
 73
     3
 74
     0
 42
0.0000000001
 43
0.0000000001
 40
0.0
 40
0.0
 40
0.0
 40
0.3236832558705328
 40
0.3236832558705328
 40
0.3236832558705328
 10
397.2960984172946
 20
2195.886637620248
 30
0.0
 41
1.0
 10
397.1917207979793
 20
2195.76295167509
 30
0.0
 41
0.9999946194137945
 10
397.0881569039893
 20
2195.63858359114
 30
0.0
 41
1.0
  0
SPLINE
  5
190
330
1F
100
AcDbEntity
  8
Predefinito
100
AcDbSpline
210
0.0
220
0.0
230
1.0
 70
    12
 71
     2
 72
     6
 73
     3
 74
     0
 42
0.0000000001
 43
0.0000000001
 40
0.0
 40
0.0
 40
0.0
 40
3.711425130942985
 40
3.711425130942985
 40
3.711425130942985
 10
425.6343646859414
 20
2197.198914672431
 30
0.0
 41
1.0
 10
423.9792672885829
 20
2196.282550150972
 30
0.0
 41
0.971597362903726
 10
422.0881569039893
 20
2196.229892347968
 30
0.0
 41
1.0
  0
SPLINE
  5
191
330
1F
100
AcDbEntity
  8
Predefinito
100
AcDbSpline
210
0.0
220
0.0
230
1.0
 70
    12
 71
     2
 72
     6
 73
     3
 74
     0
 42
0.0000000001
 43
0.0000000001
 40
0.0
 40
0.0
 40
0.0
 40
3.713957355495655
 40
3.713957355495655
 40
3.713957355495655
 10
422.0881569039893
 20
2184.223227532125
 30
0.0
 41
1.0
 10
423.9805367116219
 20
2184.170205487858
 30
0.0
 41
0.9716062750408118
 10
425.6366629599752
 20
2183.253058540513
 30
0.0
 41
1.0
  0
SPLINE
  5
192
330
1F
100
AcDbEntity
  8
Predefinito
100
AcDbSpline
210
0.0
220
0.0
230
1.0
 70
    24
 71
     2
 72
     6
 73
     3
 74
     0
 42
0.0000000001
 43
0.0000000001
 40
0.0
 40
0.0
 40
0.0
 40
24.5
 40
24.5
 40
24.5
 10
422.0881569039893
 20
2196.229892347968
 30
0.0
 10
409.8381569039893
 20
2196.229892347968
 30
0.0
 10
397.5881569039893
 20
2196.229892347968
 30
0.0
  0
SPLINE
  5
193
330
1F
100
AcDbEntity
  8
Predefinito
100
AcDbSpline
210
0.0
220
0.0
230
1.0
 70
    24
 71
     2
 72
     6
 73
     3
 74
     0
 42
0.0000000001
 43
0.0000000001
 40
0.0
 40
0.0
 40
0.0
 40
18.5
 40
18.5
 40
18.5
 10
403.5881569039893
 20
2184.223227532125
 30
0.0
 10
412.8381569039893
 20
2184.223227532125
 30
0.0
 10
422.0881569039893
 20
2184.223227532125
 30
0.0
  0
SPLINE
  5
194
330
1F
100
AcDbEntity
  8
Predefinito
100
AcDbSpline
210
0.0
220
0.0
230
1.0
 70
    24
 71
     2
 72
     6
 73
     3
 74
     0
 42
0.0000000001
 43
0.0000000001
 40
0.0
 40
0.0
 40
0.0
 40
10.82404730218832
 40
10.82404730218832
 40
10.82404730218832
 10
397.0881569039893
 20
2195.63858359114
 30
0.0
 10
397.0881569039893
 20
2190.226559940046
 30
0.0
 10
397.0881569039893
 20
2184.814536288952
 30
0.0
  0
SPLINE
  5
195
330
1F
100
AcDbEntity
  8
Predefinito
100
AcDbSpline
210
0.0
220
0.0
230
1.0
 70
    24
 71
     2
 72
     6
 73
     3
 74
     0
 42
0.0000000001
 43
0.0000000001
 40
0.0
 40
0.0
 40
0.0
 40
12.01376485156925
 40
12.01376485156925
 40
12.01376485156925
 10
397.5881569039893
 20
2196.229892347968
 30
0.0
 10
397.5881569039893
 20
2190.223009922182
 30
0.0
 10
397.5881569039893
 20
2184.216127496399
 30
0.0
  0
SPLINE
  5
196
330
1F
100
AcDbEntity
  8
Predefinito
100
AcDbSpline
210
0.0
220
0.0
230
1.0
 70
    24
 71
     2
 72
     6
 73
     3
 74
     0
 42
0.0000000001
 43
0.0000000001
 40
0.0
 40
0.0
 40
0.0
 40
7.700158444845329
 40
7.700158444845329
 40
7.700158444845329
 10
425.6879984591442
 20
2197.226559940046
 30
0.0
 10
429.5380776815668
 20
2197.226559940046
 30
0.0
 10
433.3881569039895
 20
2197.226559940046
 30
0.0
  0
SPLINE
  5
197
330
1F
100
AcDbEntity
  8
Predefinito
100
AcDbSpline
210
0.0
220
0.0
230
1.0
 70
    12
 71
     2
 72
     6
 73
     3
 74
     0
 42
0.0000000001
 43
0.0000000001
 40
0.0
 40
0.0
 40
0.0
 40
0.3999758875016249
 40
0.3999758875016249
 40
0.3999758875016249
 10
434.9383079290096
 20
2197.22655036127
 30
0.0
 41
1.0
 10
435.1380242843907
 20
2197.215139241002
 30
0.0
 41
0.999594066108951
 10
435.3380663699027
 20
2197.215122024549
 30
0.0
 41
1.0
  0
SPLINE
  5
198
330
1F
100
AcDbEntity
  8
Predefinito
100
AcDbSpline
210
0.0
220
0.0
230
1.0
 70
    12
 71
     2
 72
     6
 73
     3
 74
     0
 42
0.0000000001
 43
0.0000000001
 40
0.0
 40
0.0
 40
0.0
 40
0.4002179001748012
 40
0.4002179001748012
 40
0.4002179001748012
 10
435.3381569039893
 20
2197.215122023908
 30
0.0
 41
1.0
 10
435.5383202751532
 20
2197.215127662809
 30
0.0
 41
0.999592224358179
 10
435.7381569039899
 20
2197.226559940046
 30
0.0
 41
1.0
  0
SPLINE
  5
199
330
1F
100
AcDbEntity
  8
Predefinito
100
AcDbSpline
210
0.0
220
0.0
230
1.0
 70
    12
 71
     2
 72
     6
 73
     3
 74
     0
 42
0.0000000001
 43
0.0000000001
 40
0.0
 40
0.0
 40
0.0
 40
0.4000420436827733
 40
0.4000420436827733
 40
0.4000420436827733
 10
931.0381569039891
 20
2197.215122023908
 30
0.0
 41
1.0
 10
931.2382320882642
 20
2197.215136876639
 30
0.0
 41
0.9995939797263258
 10
931.4379815541142
 20
2197.226548733461
 30
0.0
 41
1.0
  0
SPLINE
  5
19A
330
1F
100
AcDbEntity
  8
Predefinito
100
AcDbSpline
210
0.0
220
0.0
230
1.0
 70
    12
 71
     2
 72
     6
 73
     3
 74
     0
 42
0.0000000001
 43
0.0000000001
 40
0.0
 40
0.0
 40
0.0
 40
0.4000391626263141
 40
0.4000391626263141
 40
0.4000391626263141
 10
930.6383350657607
 20
2197.226548962058
 30
0.0
 41
1.0
 10
930.8380832374926
 20
2197.21514105788
 30
0.0
 41
0.9995945530098281
 10
931.0381569039891
 20
2197.215122023908
 30
0.0
 41
1.0
  0
SPLINE
  5
19B
330
1F
100
AcDbEntity
  8
Predefinito
100
AcDbSpline
210
0.0
220
0.0
230
1.0
 70
    24
 71
     2
 72
     6
 73
     3
 74
     0
 42
0.0000000001
 43
0.0000000001
 40
0.0
 40
0.0
 40
0.0
 40
6.0
 40
6.0
 40
6.0
 10
925.0381569039891
 20
2391.426559940046
 30
0.0
 10
928.0381569039891
 20
2391.426559940046
 30
0.0
 10
931.0381569039891
 20
2391.426559940046
 30
0.0
  0
SPLINE
  5
19C
330
1F
100
AcDbEntity
  8
Predefinito
100
AcDbSpline
210
0.0
220
0.0
230
1.0
 70
    24
 71
     2
 72
     6
 73
     3
 74
     0
 42
0.0000000001
 43
0.0000000001
 40
0.0
 40
0.0
 40
0.0
 40
6.0
 40
6.0
 40
6.0
 10
931.0381569039891
 20
2391.426559940046
 30
0.0
 10
934.0381569039891
 20
2391.426559940046
 30
0.0
 10
937.0381569039891
 20
2391.426559940046
 30
0.0
  0
SPLINE
  5
19D
330
1F
100
AcDbEntity
  8
Predefinito
100
AcDbSpline
210
0.0
220
0.0
230
1.0
 70
    24
 71
     2
 72
     6
 73
     3
 74
     0
 42
0.0000000001
 43
0.0000000001
 40
0.0
 40
0.0
 40
0.0
 40
6.0
 40
6.0
 40
6.0
 10
937.0381569039891
 20
2391.226559940046
 30
0.0
 10
934.0381569039891
 20
2391.226559940046
 30
0.0
 10
931.0381569039891
 20
2391.226559940046
 30
0.0
  0
SPLINE
  5
19E
330
1F
100
AcDbEntity
  8
Predefinito
100
AcDbSpline
210
0.0
220
0.0
230
1.0
 70
    24
 71
     2
 72
     6
 73
     3
 74
     0
 42
0.0000000001
 43
0.0000000001
 40
0.0
 40
0.0
 40
0.0
 40
6.0
 40
6.0
 40
6.0
 10
931.0381569039891
 20
2391.226559940046
 30
0.0
 10
928.0381569039891
 20
2391.226559940046
 30
0.0
 10
925.0381569039891
 20
2391.226559940046
 30
0.0
  0
SPLINE
  5
19F
330
1F
100
AcDbEntity
  8
Predefinito
100
AcDbSpline
210
0.0
220
0.0
230
1.0
 70
    24
 71
     2
 72
     6
 73
     3
 74
     0
 42
0.0000000001
 43
0.0000000001
 40
0.0
 40
0.0
 40
0.0
 40
6.0
 40
6.0
 40
6.0
 10
925.0381569039891
 20
2389.226559940046
 30
0.0
 10
928.0381569039891
 20
2389.226559940046
 30
0.0
 10
931.0381569039891
 20
2389.226559940046
 30
0.0
  0
SPLINE
  5
1A0
330
1F
100
AcDbEntity
  8
Predefinito
100
AcDbSpline
210
0.0
220
0.0
230
1.0
 70
    24
 71
     2
 72
     6
 73
     3
 74
     0
 42
0.0000000001
 43
0.0000000001
 40
0.0
 40
0.0
 40
0.0
 40
6.0
 40
6.0
 40
6.0
 10
931.0381569039891
 20
2389.226559940046
 30
0.0
 10
934.0381569039891
 20
2389.226559940046
 30
0.0
 10
937.0381569039891
 20
2389.226559940046
 30
0.0
  0
SPLINE
  5
1A1
330
1F
100
AcDbEntity
  8
Predefinito
100
AcDbSpline
210
0.0
220
0.0
230
1.0
 70
    12
 71
     2
 72
     8
 73
     5
 74
     0
 42
0.0000000001
 43
0.0000000001
 40
0.0
 40
0.0
 40
0.0
 40
0.0500838947502871
 40
0.0500838947502871
 40
4.762472875134977
 40
4.762472875134977
 40
4.762472875134977
 10
928.0882407987401
 20
2379.226559930597
 30
0.0
 41
1.0
 10
928.0631988513642
 20
2379.226559930596
 30
0.0
 41
1.0
 10
928.0381569039891
 20
2379.226559930596
 30
0.0
 41
1.0
 10
928.0381569039895
 20
2379.226559940046
 30
0.0
 41
0.7071067811865476
 10
931.0381569039891
 20
2379.226559940046
 30
0.0
 41
1.0
  0
SPLINE
  5
1A2
330
1F
100
AcDbEntity
  8
Predefinito
100
AcDbSpline
210
0.0
220
0.0
230
1.0
 70
    24
 71
     2
 72
     6
 73
     3
 74
     0
 42
0.0000000001
 43
0.0000000001
 40
0.0
 40
0.0
 40
0.0
 40
2.949916105249713
 40
2.949916105249713
 40
2.949916105249713
 10
931.0381569039891
 20
2379.226559940046
 30
0.0
 10
932.5131149566141
 20
2379.226559940046
 30
0.0
 10
933.9880730092391
 20
2379.226559940046
 30
0.0
  0
SPLINE
  5
1A3
330
1F
100
AcDbEntity
  8
Predefinito
100
AcDbSpline
210
0.0
220
0.0
230
1.0
 70
    24
 71
     2
 72
     6
 73
     3
 74
     0
 42
0.0000000001
 43
0.0000000001
 40
0.0
 40
0.0
 40
0.0
 40
8.0
 40
8.0
 40
8.0
 10
939.0381569039891
 20
2420.226559940046
 30
0.0
 10
935.0381569039891
 20
2420.226559940046
 30
0.0
 10
931.0381569039891
 20
2420.226559940046
 30
0.0
  0
SPLINE
  5
1A4
330
1F
100
AcDbEntity
  8
Predefinito
100
AcDbSpline
210
0.0
220
0.0
230
1.0
 70
    24
 71
     2
 72
     6
 73
     3
 74
     0
 42
0.0000000001
 43
0.0000000001
 40
0.0
 40
0.0
 40
0.0
 40
8.0
 40
8.0
 40
8.0
 10
931.0381569039891
 20
2420.226559940046
 30
0.0
 10
927.0381569039891
 20
2420.226559940046
 30
0.0
 10
923.0381569039891
 20
2420.226559940046
 30
0.0
  0
SPLINE
  5
1A5
330
1F
100
AcDbEntity
  8
Predefinito
100
AcDbSpline
210
0.0
220
0.0
230
1.0
 70
    24
 71
     2
 72
     6
 73
     3
 74
     0
 42
0.0000000001
 43
0.0000000001
 40
0.0
 40
0.0
 40
0.0
 40
8.0
 40
8.0
 40
8.0
 10
923.0381569039891
 20
2418.226559940046
 30
0.0
 10
927.0381569039891
 20
2418.226559940046
 30
0.0
 10
931.0381569039891
 20
2418.226559940046
 30
0.0
  0
SPLINE
  5
1A6
330
1F
100
AcDbEntity
  8
Predefinito
100
AcDbSpline
210
0.0
220
0.0
230
1.0
 70
    24
 71
     2
 72
     6
 73
     3
 74
     0
 42
0.0000000001
 43
0.0000000001
 40
0.0
 40
0.0
 40
0.0
 40
8.0
 40
8.0
 40
8.0
 10
931.0381569039891
 20
2418.226559940046
 30
0.0
 10
935.0381569039891
 20
2418.226559940046
 30
0.0
 10
939.0381569039891
 20
2418.226559940046
 30
0.0
  0
SPLINE
  5
1A7
330
1F
100
AcDbEntity
  8
Predefinito
100
AcDbSpline
210
0.0
220
0.0
230
1.0
 70
    24
 71
     2
 72
     6
 73
     3
 74
     0
 42
0.0000000001
 43
0.0000000001
 40
0.0
 40
0.0
 40
0.0
 40
67.91445871349146
 40
67.91445871349146
 40
67.91445871349146
 10
435.4881569039899
 20
2420.226559940046
 30
0.0
 10
401.5309275472437
 20
2420.226559940046
 30
0.0
 10
367.5736981904984
 20
2420.226559940046
 30
0.0
  0
SPLINE
  5
1A8
330
1F
100
AcDbEntity
  8
Predefinito
100
AcDbSpline
210
0.0
220
0.0
230
1.0
 70
    28
 71
     3
 72
    13
 73
     9
 74
     0
 42
0.0000000001
 43
0.0000000001
 40
-110.6313160800411
 40
-110.6313160800411
 40
-110.6313160800411
 40
-110.6313160800411
 40
-107.2788741837997
 40
-81.5344272042084
 40
-53.64045189236845
 40
-26.82022594618422
 40
-12.87302392736041
 40
0.0
 40
0.0
 40
0.0
 40
0.0
 10
503.4026146334731
 20
2420.226559940046
 30
0.0
 41
1.0
 10
503.4577272510414
 20
2420.226559940046
 30
0.0
 41
1.0
 10
503.6984395186437
 20
2420.226559940046
 30
0.0
 41
1.0
 10
500.0920002271873
 20
2420.226559940046
 30
0.0
 41
1.0
 10
485.1249784325855
 20
2420.226559940046
 30
0.0
 41
1.0
 10
465.8076104674183
 20
2420.226559940046
 30
0.0
 41
1.0
 10
448.6608919410346
 20
2420.226559940046
 30
0.0
 41
1.0
 10
439.7601147302044
 20
2420.226559940046
 30
0.0
 41
1.0
 10
435.4881569039899
 20
2420.226559940046
 30
0.0
 41
1.0
  0
SPLINE
  5
1A9
330
1F
100
AcDbEntity
  8
Predefinito
100
AcDbSpline
210
0.0
220
0.0
230
1.0
 70
    24
 71
     2
 72
     6
 73
     3
 74
     0
 42
0.0000000001
 43
0.0000000001
 40
0.0
 40
0.0
 40
0.0
 40
68.2211510819123
 40
68.2211510819123
 40
68.2211510819123
 10
435.4881569039894
 20
2419.923941979397
 30
0.0
 10
469.5987324449457
 20
2419.923941979397
 30
0.0
 10
503.7093079859019
 20
2419.923941979397
 30
0.0
  0
SPLINE
  5
1AA
330
1F
100
AcDbEntity
  8
Predefinito
100
AcDbSpline
210
0.0
220
0.0
230
1.0
 70
    28
 71
     3
 72
    13
 73
     9
 74
     0
 42
0.0000000001
 43
0.0000000001
 40
318.6158879385297
 40
318.6158879385297
 40
318.6158879385297
 40
318.6158879385297
 40
321.8339414200424
 40
348.6534546784784
 40
375.4729679369144
 40
403.3667593539137
 40
416.2397832812741
 40
429.1128072086345
 40
429.1128072086345
 40
429.1128072086345
 40
429.1128072086345
 10
367.2670039397485
 20
2419.923941979397
 30
0.0
 41
1.0
 10
367.2161598168013
 20
2419.923941979397
 30
0.0
 41
1.0
 10
366.9782612663976
 20
2419.923941979397
 30
0.0
 41
1.0
 10
370.7464284510943
 20
2419.923941979397
 30
0.0
 41
1.0
 10
386.1405180469287
 20
2419.923941979397
 30
0.0
 41
1.0
 10
405.3643887863113
 20
2419.923941979397
 30
0.0
 41
1.0
 10
422.6162743816308
 20
2419.923941979397
 30
0.0
 41
1.0
 10
431.1974042306119
 20
2419.923941979397
 30
0.0
 41
1.0
 10
435.4881569039894
 20
2419.923941979397
 30
0.0
 41
1.0
  0
SPLINE
  5
1AB
330
1F
100
AcDbEntity
  8
Predefinito
100
AcDbSpline
210
0.0
220
0.0
230
1.0
 70
    12
 71
     2
 72
     8
 73
     5
 74
     0
 42
0.0000000001
 43
0.0000000001
 40
0.0
 40
0.0
 40
0.0
 40
0.0676604685865243
 40
0.0676604685865243
 40
106.9692218963137
 40
106.9692218963137
 40
106.9692218963137
 10
503.4761441372621
 20
2392.226559930597
 30
0.0
 41
1.0
 10
503.509974371555
 20
2392.226559930597
 30
0.0
 41
1.0
 10
503.5438046058484
 20
2392.226559930597
 30
0.0
 41
1.0
 10
503.5438046058482
 20
2392.226559940046
 30
0.0
 41
0.7071067811865476
 10
435.4881569039899
 20
2392.226559940046
 30
0.0
 41
1.0
  0
SPLINE
  5
1AC
330
1F
100
AcDbEntity
  8
Predefinito
100
AcDbSpline
210
0.0
220
0.0
230
1.0
 70
    24
 71
     2
 72
     6
 73
     3
 74
     0
 42
0.0000000001
 43
0.0000000001
 40
0.0
 40
0.0
 40
0.0
 40
67.98798723327225
 40
67.98798723327225
 40
67.98798723327225
 10
435.4881569039899
 20
2392.226559940046
 30
0.0
 10
401.4941632873533
 20
2392.226559940046
 30
0.0
 10
367.5001696707172
 20
2392.226559940046
 30
0.0
  0
SPLINE
  5
1AD
330
1F
100
AcDbEntity
  8
Predefinito
100
AcDbSpline
210
0.0
220
0.0
230
1.0
 70
    12
 71
     2
 72
    10
 73
     7
 74
     0
 42
0.0000000001
 43
0.0000000001
 40
0.0
 40
0.0
 40
0.0
 40
0.0650008391982055
 40
0.0650008391982055
 40
1.053415061755686
 40
1.053415061755686
 40
3.134406027189697
 40
3.134406027189697
 40
3.134406027189697
 10
437.7231560647915
 20
2346.726559930597
 30
0.0
 41
1.0
 10
437.7556564843908
 20
2346.726559930597
 30
0.0
 41
1.0
 10
437.7881569039896
 20
2346.726559930597
 30
0.0
 41
1.0
 10
437.2939497927109
 20
2346.72654085711
 30
0.0
 41
1.0
 10
436.7997426814322
 20
2346.72654085711
 30
0.0
 41
1.0
 10
435.8113284588748
 20
2346.726559940046
 30
0.0
 41
0.867696055287007
 10
434.8114626891138
 20
2346.726559940046
 30
0.0
 41
1.0
  0
SPLINE
  5
1AE
330
1F
100
AcDbEntity
  8
Predefinito
100
AcDbSpline
210
0.0
220
0.0
230
1.0
 70
    24
 71
     2
 72
     6
 73
     3
 74
     0
 42
0.0000000001
 43
0.0000000001
 40
0.0
 40
0.0
 40
0.0
 40
1.015798682851312
 40
1.015798682851312
 40
1.015798682851312
 10
434.8114626891138
 20
2346.726559940046
 30
0.0
 10
434.3035633476879
 20
2346.726559940046
 30
0.0
 10
433.7956640062621
 20
2346.726559940046
 30
0.0
  0
SPLINE
  5
1AF
330
1F
100
AcDbEntity
  8
Predefinito
100
AcDbSpline
210
0.0
220
0.0
230
1.0
 70
    24
 71
     2
 72
     6
 73
     3
 74
     0
 42
0.0000000001
 43
0.0000000001
 40
0.0
 40
0.0
 40
0.0
 40
5.901046435236481
 40
5.901046435236481
 40
5.901046435236481
 10
433.7956640062621
 20
2346.726559940046
 30
0.0
 10
430.8451407886441
 20
2346.726559940046
 30
0.0
 10
427.8946175710257
 20
2346.726559940046
 30
0.0
  0
SPLINE
  5
1B0
330
1F
100
AcDbEntity
  8
Predefinito
100
AcDbSpline
210
0.0
220
0.0
230
1.0
 70
    12
 71
     2
 72
    10
 73
     7
 74
     0
 42
0.0000000001
 43
0.0000000001
 40
0.0
 40
0.0
 40
0.0
 40
0.0650008391982055
 40
0.0650008391982055
 40
2.145991804632216
 40
2.145991804632216
 40
4.226982770066227
 40
4.226982770066227
 40
4.226982770066227
 10
437.7231560647915
 20
2343.726559930597
 30
0.0
 41
1.0
 10
437.7556564843908
 20
2343.726559930596
 30
0.0
 41
1.0
 10
437.7881569039896
 20
2343.726559930596
 30
0.0
 41
1.0
 10
437.7881569039895
 20
2343.726559940046
 30
0.0
 41
0.867696055287007
 10
436.7997426814322
 20
2343.726559940046
 30
0.0
 41
1.0
 10
435.8113284588748
 20
2343.726559940046
 30
0.0
 41
0.867696055287007
 10
434.8114626891138
 20
2343.726559940046
 30
0.0
 41
1.0
  0
SPLINE
  5
1B1
330
1F
100
AcDbEntity
  8
Predefinito
100
AcDbSpline
210
0.0
220
0.0
230
1.0
 70
    24
 71
     2
 72
     6
 73
     3
 74
     0
 42
0.0000000001
 43
0.0000000001
 40
0.0
 40
0.0
 40
0.0
 40
1.015798682851312
 40
1.015798682851312
 40
1.015798682851312
 10
434.8114626891138
 20
2343.726559940046
 30
0.0
 10
434.3035633476879
 20
2343.726559940046
 30
0.0
 10
433.7956640062621
 20
2343.726559940046
 30
0.0
  0
SPLINE
  5
1B2
330
1F
100
AcDbEntity
  8
Predefinito
100
AcDbSpline
210
0.0
220
0.0
230
1.0
 70
    24
 71
     2
 72
     6
 73
     3
 74
     0
 42
0.0000000001
 43
0.0000000001
 40
0.0
 40
0.0
 40
0.0
 40
5.901046435236481
 40
5.901046435236481
 40
5.901046435236481
 10
433.7956640062621
 20
2343.726559940046
 30
0.0
 10
430.8451407886441
 20
2343.726559940046
 30
0.0
 10
427.8946175710257
 20
2343.726559940046
 30
0.0
  0
SPLINE
  5
1B3
330
1F
100
AcDbEntity
  8
Predefinito
100
AcDbSpline
210
0.0
220
0.0
230
1.0
 70
    24
 71
     2
 72
     6
 73
     3
 74
     0
 42
0.0000000001
 43
0.0000000001
 40
0.0
 40
0.0
 40
0.0
 40
3.0
 40
3.0
 40
3.0
 10
433.7956640062621
 20
2343.726559940046
 30
0.0
 10
433.7956640062621
 20
2345.226559940046
 30
0.0
 10
433.7956640062621
 20
2346.726559940046
 30
0.0
  0
SPLINE
  5
1B4
330
1F
100
AcDbEntity
  8
Predefinito
100
AcDbSpline
210
0.0
220
0.0
230
1.0
 70
    24
 71
     2
 72
     6
 73
     3
 74
     0
 42
0.0000000001
 43
0.0000000001
 40
0.0
 40
0.0
 40
0.0
 40
3.0
 40
3.0
 40
3.0
 10
434.8114626891138
 20
2346.726559940046
 30
0.0
 10
434.8114626891138
 20
2345.226559940046
 30
0.0
 10
434.8114626891138
 20
2343.726559940046
 30
0.0
  0
SPLINE
  5
1B5
330
1F
100
AcDbEntity
  8
Predefinito
100
AcDbSpline
210
0.0
220
0.0
230
1.0
 70
    24
 71
     2
 72
     6
 73
     3
 74
     0
 42
0.0000000001
 43
0.0000000001
 40
0.0
 40
0.0
 40
0.0
 40
3.0
 40
3.0
 40
3.0
 10
427.8946175710257
 20
2343.726559940046
 30
0.0
 10
427.8946175710257
 20
2345.226559940046
 30
0.0
 10
427.8946175710257
 20
2346.726559940046
 30
0.0
  0
SPLINE
  5
1B6
330
1F
100
AcDbEntity
  8
Predefinito
100
AcDbSpline
210
0.0
220
0.0
230
1.0
 70
    24
 71
     2
 72
     6
 73
     3
 74
     0
 42
0.0000000001
 43
0.0000000001
 40
0.0
 40
0.0
 40
0.0
 40
4.0
 40
4.0
 40
4.0
 10
868.5881569039893
 20
2095.506707900283
 30
0.0
 10
870.5881569039893
 20
2095.506707900283
 30
0.0
 10
872.5881569039893
 20
2095.506707900283
 30
0.0
  0
SPLINE
  5
1B7
330
1F
100
AcDbEntity
  8
Predefinito
100
AcDbSpline
210
0.0
220
0.0
230
1.0
 70
    24
 71
     2
 72
     6
 73
     3
 74
     0
 42
0.0000000001
 43
0.0000000001
 40
0.0
 40
0.0
 40
0.0
 40
3.933221473666208
 40
3.933221473666208
 40
3.933221473666208
 10
872.5881569039893
 20
2180.006707900283
 30
0.0
 10
870.6215461671563
 20
2180.006707900283
 30
0.0
 10
868.6549354303233
 20
2180.006707900283
 30
0.0
  0
SPLINE
  5
1B8
330
1F
100
AcDbEntity
  8
Predefinito
100
AcDbSpline
210
0.0
220
0.0
230
1.0
 70
    28
 71
     2
 72
     8
 73
     5
 74
     0
 42
0.0000000001
 43
0.0000000001
 40
11.78097245096172
 40
11.78097245096172
 40
11.78097245096172
 40
14.13716694115407
 40
14.13716694115407
 40
18.84955592153876
 40
18.84955592153876
 40
18.84955592153876
 10
876.5112980256026
 20
2180.006707900283
 30
0.0
 41
0.9157348061512727
 10
876.7480180343524
 20
2180.006707900283
 30
0.0
 41
0.9157348061512726
 10
876.2836750340343
 20
2180.006707900283
 30
0.0
 41
1.0
 10
875.2608714556662
 20
2180.006707900283
 30
0.0
 41
0.8314696123025452
 10
872.5881569039893
 20
2180.006707900283
 30
0.0
 41
1.0
  0
SPLINE
  5
1B9
330
1F
100
AcDbEntity
  8
Predefinito
100
AcDbSpline
210
0.0
220
0.0
230
1.0
 70
    24
 71
     2
 72
     6
 73
     3
 74
     0
 42
0.0000000001
 43
0.0000000001
 40
0.0
 40
0.0
 40
0.0
 40
18.0
 40
18.0
 40
18.0
 10
868.5881569039893
 20
2077.506707900283
 30
0.0
 10
868.5881569039893
 20
2086.506707900283
 30
0.0
 10
868.5881569039893
 20
2095.506707900283
 30
0.0
  0
SPLINE
  5
1BA
330
1F
100
AcDbEntity
  8
Predefinito
100
AcDbSpline
210
0.0
220
0.0
230
1.0
 70
    24
 71
     2
 72
     6
 73
     3
 74
     0
 42
0.0000000001
 43
0.0000000001
 40
0.0
 40
0.0
 40
0.0
 40
7.933221473682067
 40
7.933221473682067
 40
7.933221473682067
 10
876.5213783776712
 20
2077.506707900283
 30
0.0
 10
872.5547676408305
 20
2077.506707900283
 30
0.0
 10
868.5881569039893
 20
2077.506707900283
 30
0.0
  0
SPLINE
  5
1BB
330
1F
100
AcDbEntity
  8
Predefinito
100
AcDbSpline
210
0.0
220
0.0
230
1.0
 70
    24
 71
     2
 72
     6
 73
     3
 74
     0
 42
0.0000000001
 43
0.0000000001
 40
0.0
 40
0.0
 40
0.0
 40
17.5
 40
17.5
 40
17.5
 10
868.5881569039893
 20
2060.006707900283
 30
0.0
 10
868.5881569039893
 20
2068.756707900283
 30
0.0
 10
868.5881569039893
 20
2077.506707900283
 30
0.0
  0
SPLINE
  5
1BC
330
1F
100
AcDbEntity
  8
Predefinito
100
AcDbSpline
210
0.0
220
0.0
230
1.0
 70
    24
 71
     2
 72
     6
 73
     3
 74
     0
 42
0.0000000001
 43
0.0000000001
 40
0.0
 40
0.0
 40
0.0
 40
3.441568789458017
 40
3.441568789458017
 40
3.441568789458017
 10
872.5881569039893
 20
2095.006707900283
 30
0.0
 10
870.8673725092603
 20
2095.006707900283
 30
0.0
 10
869.1465881145314
 20
2095.006707900283
 30
0.0
  0
SPLINE
  5
1BD
330
1F
100
AcDbEntity
  8
Predefinito
100
AcDbSpline
210
0.0
220
0.0
230
1.0
 70
    24
 71
     2
 72
     6
 73
     3
 74
     0
 42
0.0000000001
 43
0.0000000001
 40
0.0
 40
0.0
 40
0.0
 40
6.941568789458074
 40
6.941568789458074
 40
6.941568789458074
 10
876.0881569039893
 20
2078.006707900283
 30
0.0
 10
872.6173725092603
 20
2078.006707900283
 30
0.0
 10
869.1465881145314
 20
2078.006707900283
 30
0.0
  0
SPLINE
  5
1BE
330
1F
100
AcDbEntity
  8
Predefinito
100
AcDbSpline
210
0.0
220
0.0
230
1.0
 70
    24
 71
     2
 72
     6
 73
     3
 74
     0
 42
0.0000000001
 43
0.0000000001
 40
0.0
 40
0.0
 40
0.0
 40
0.6598872323783994
 40
0.6598872323783994
 40
0.6598872323783994
 10
876.0881569039893
 20
2095.006707900283
 30
0.0
 10
876.3214622724063
 20
2095.2400132687
 30
0.0
 10
876.5547676408223
 20
2095.473318637116
 30
0.0
  0
SPLINE
  5
1BF
330
1F
100
AcDbEntity
  8
Predefinito
100
AcDbSpline
210
0.0
220
0.0
230
1.0
 70
    24
 71
     2
 72
     6
 73
     3
 74
     0
 42
0.0000000001
 43
0.0000000001
 40
0.0
 40
0.0
 40
0.0
 40
3.5
 40
3.5
 40
3.5
 10
872.5881569039893
 20
2095.006707900283
 30
0.0
 10
874.3381569039893
 20
2095.006707900283
 30
0.0
 10
876.0881569039893
 20
2095.006707900283
 30
0.0
  0
SPLINE
  5
1C0
330
1F
100
AcDbEntity
  8
Predefinito
100
AcDbSpline
210
0.0
220
0.0
230
1.0
 70
    24
 71
     2
 72
     6
 73
     3
 74
     0
 42
0.0000000001
 43
0.0000000001
 40
0.0
 40
0.0
 40
0.0
 40
3.933221473682067
 40
3.933221473682067
 40
3.933221473682067
 10
876.5213783776712
 20
2095.506707900283
 30
0.0
 10
874.5547676408305
 20
2095.506707900283
 30
0.0
 10
872.5881569039893
 20
2095.506707900283
 30
0.0
  0
SPLINE
  5
1C1
330
1F
100
AcDbEntity
  8
Predefinito
100
AcDbSpline
210
0.0
220
0.0
230
1.0
 70
    24
 71
     2
 72
     6
 73
     3
 74
     0
 42
0.0000000001
 43
0.0000000001
 40
0.0
 40
0.0
 40
0.0
 40
0.7071067811865476
 40
0.7071067811865476
 40
0.7071067811865476
 10
869.0881569039893
 20
2078.006707900283
 30
0.0
 10
868.8381569039893
 20
2077.756707900283
 30
0.0
 10
868.5881569039893
 20
2077.506707900283
 30
0.0
  0
SPLINE
  5
1C2
330
1F
100
AcDbEntity
  8
Predefinito
100
AcDbSpline
210
0.0
220
0.0
230
1.0
 70
    12
 71
     2
 72
    10
 73
     7
 74
     0
 42
0.0000000001
 43
0.0000000001
 40
0.0
 40
0.0
 40
0.0
 40
0.0650008391982055
 40
0.0650008391982055
 40
1.053415061755686
 40
1.053415061755686
 40
3.134406027189697
 40
3.134406027189697
 40
3.134406027189697
 10
437.7231560647915
 20
2296.726559930597
 30
0.0
 41
1.0
 10
437.7556564843908
 20
2296.726559930597
 30
0.0
 41
1.0
 10
437.7881569039896
 20
2296.726559930597
 30
0.0
 41
1.0
 10
437.2939497927109
 20
2296.726540857111
 30
0.0
 41
1.0
 10
436.7997426814322
 20
2296.726540857112
 30
0.0
 41
1.0
 10
435.8113284588748
 20
2296.726559940046
 30
0.0
 41
0.867696055287007
 10
434.8114626891138
 20
2296.726559940046
 30
0.0
 41
1.0
  0
SPLINE
  5
1C3
330
1F
100
AcDbEntity
  8
Predefinito
100
AcDbSpline
210
0.0
220
0.0
230
1.0
 70
    24
 71
     2
 72
     6
 73
     3
 74
     0
 42
0.0000000001
 43
0.0000000001
 40
0.0
 40
0.0
 40
0.0
 40
1.015798682851312
 40
1.015798682851312
 40
1.015798682851312
 10
434.8114626891138
 20
2296.726559940046
 30
0.0
 10
434.3035633476879
 20
2296.726559940046
 30
0.0
 10
433.7956640062621
 20
2296.726559940046
 30
0.0
  0
SPLINE
  5
1C4
330
1F
100
AcDbEntity
  8
Predefinito
100
AcDbSpline
210
0.0
220
0.0
230
1.0
 70
    28
 71
     2
 72
    10
 73
     7
 74
     0
 42
0.0000000001
 43
0.0000000001
 40
-4.682229672226525
 40
-4.682229672226525
 40
-4.682229672226525
 40
-4.161981930868022
 40
-4.161981930868022
 40
-2.080990965434011
 40
-2.080990965434011
 40
0.0
 40
0.0
 40
0.0
 10
437.7231560647915
 20
2293.726559940046
 30
0.0
 41
0.9503860207326276
 10
437.7881569039898
 20
2293.726559940046
 30
0.0
 41
0.9669240138217517
 10
437.7881569039896
 20
2293.726559940046
 30
0.0
 41
1.0
 10
437.7881569039895
 20
2293.726559940046
 30
0.0
 41
0.867696055287007
 10
436.7997426814322
 20
2293.726559940046
 30
0.0
 41
1.0
 10
435.8113284588748
 20
2293.726559940046
 30
0.0
 41
0.867696055287007
 10
434.8114626891138
 20
2293.726559940046
 30
0.0
 41
1.0
  0
SPLINE
  5
1C5
330
1F
100
AcDbEntity
  8
Predefinito
100
AcDbSpline
210
0.0
220
0.0
230
1.0
 70
    24
 71
     2
 72
     6
 73
     3
 74
     0
 42
0.0000000001
 43
0.0000000001
 40
0.0
 40
0.0
 40
0.0
 40
1.015798682851312
 40
1.015798682851312
 40
1.015798682851312
 10
434.8114626891138
 20
2293.726559940046
 30
0.0
 10
434.3035633476879
 20
2293.726559940046
 30
0.0
 10
433.7956640062621
 20
2293.726559940046
 30
0.0
  0
SPLINE
  5
1C6
330
1F
100
AcDbEntity
  8
Predefinito
100
AcDbSpline
210
0.0
220
0.0
230
1.0
 70
    24
 71
     2
 72
     6
 73
     3
 74
     0
 42
0.0000000001
 43
0.0000000001
 40
0.0
 40
0.0
 40
0.0
 40
5.901046435236481
 40
5.901046435236481
 40
5.901046435236481
 10
433.7956640062621
 20
2293.726559940046
 30
0.0
 10
430.8451407886441
 20
2293.726559940046
 30
0.0
 10
427.8946175710257
 20
2293.726559940046
 30
0.0
  0
SPLINE
  5
1C7
330
1F
100
AcDbEntity
  8
Predefinito
100
AcDbSpline
210
0.0
220
0.0
230
1.0
 70
    24
 71
     2
 72
     6
 73
     3
 74
     0
 42
0.0000000001
 43
0.0000000001
 40
0.0
 40
0.0
 40
0.0
 40
3.0
 40
3.0
 40
3.0
 10
433.7956640062621
 20
2293.726559940046
 30
0.0
 10
433.7956640062621
 20
2295.226559940046
 30
0.0
 10
433.7956640062621
 20
2296.726559940046
 30
0.0
  0
SPLINE
  5
1C8
330
1F
100
AcDbEntity
  8
Predefinito
100
AcDbSpline
210
0.0
220
0.0
230
1.0
 70
    24
 71
     2
 72
     6
 73
     3
 74
     0
 42
0.0000000001
 43
0.0000000001
 40
0.0
 40
0.0
 40
0.0
 40
3.0
 40
3.0
 40
3.0
 10
434.8114626891138
 20
2296.726559940046
 30
0.0
 10
434.8114626891138
 20
2295.226559940046
 30
0.0
 10
434.8114626891138
 20
2293.726559940046
 30
0.0
  0
SPLINE
  5
1C9
330
1F
100
AcDbEntity
  8
Predefinito
100
AcDbSpline
210
0.0
220
0.0
230
1.0
 70
    24
 71
     2
 72
     6
 73
     3
 74
     0
 42
0.0000000001
 43
0.0000000001
 40
0.0
 40
0.0
 40
0.0
 40
3.0
 40
3.0
 40
3.0
 10
427.8946175710257
 20
2293.726559940046
 30
0.0
 10
427.8946175710257
 20
2295.226559940046
 30
0.0
 10
427.8946175710257
 20
2296.726559940046
 30
0.0
  0
SPLINE
  5
1CA
330
1F
100
AcDbEntity
  8
Predefinito
100
AcDbSpline
210
0.0
220
0.0
230
1.0
 70
    24
 71
     2
 72
     6
 73
     3
 74
     0
 42
0.0000000001
 43
0.0000000001
 40
0.0
 40
0.0
 40
0.0
 40
0.2002085020600724
 40
0.2002085020600724
 40
0.2002085020600724
 10
433.7297256934476
 20
2183.284991150589
 30
0.0
 10
433.6589412987187
 20
2183.355775545317
 30
0.0
 10
433.5881569039898
 20
2183.426559940046
 30
0.0
  0
SPLINE
  5
1CB
330
1F
100
AcDbEntity
  8
Predefinito
100
AcDbSpline
210
0.0
220
0.0
230
1.0
 70
    24
 71
     2
 72
     6
 73
     3
 74
     0
 42
0.0000000001
 43
0.0000000001
 40
0.0
 40
0.0
 40
0.0
 40
0.2002085020600926
 40
0.2002085020600926
 40
0.2002085020600926
 10
943.5881569039893
 20
2183.426559940046
 30
0.0
 10
943.5173725092604
 20
2183.355775545317
 30
0.0
 10
943.4465881145316
 20
2183.284991150589
 30
0.0
  0
SPLINE
  5
1CC
330
1F
100
AcDbEntity
  8
Predefinito
100
AcDbSpline
210
0.0
220
0.0
230
1.0
 70
    24
 71
     2
 72
     6
 73
     3
 74
     0
 42
0.0000000001
 43
0.0000000001
 40
0.0
 40
0.0
 40
0.0
 40
2.799999999999955
 40
2.799999999999955
 40
2.799999999999955
 10
943.7881569039891
 20
2197.226559940046
 30
0.0
 10
945.1881569039892
 20
2197.226559940046
 30
0.0
 10
946.5881569039893
 20
2197.226559940046
 30
0.0
  0
SPLINE
  5
1CD
330
1F
100
AcDbEntity
  8
Predefinito
100
AcDbSpline
210
0.0
220
0.0
230
1.0
 70
    24
 71
     2
 72
     6
 73
     3
 74
     0
 42
0.0000000001
 43
0.0000000001
 40
0.0
 40
0.0
 40
0.0
 40
0.6244725707720371
 40
0.6244725707720371
 40
0.6244725707720371
 10
947.0881569039893
 20
2183.726559940046
 30
0.0
 10
946.8673725092603
 20
2183.505775545317
 30
0.0
 10
946.6465881145314
 20
2183.284991150589
 30
0.0
  0
SPLINE
  5
1CE
330
1F
100
AcDbEntity
  8
Predefinito
100
AcDbSpline
210
0.0
220
0.0
230
1.0
 70
    24
 71
     2
 72
     6
 73
     3
 74
     0
 42
0.0000000001
 43
0.0000000001
 40
0.0
 40
0.0
 40
0.0
 40
0.200208502060173
 40
0.200208502060173
 40
0.200208502060173
 10
943.5881569039893
 20
2197.026559940045
 30
0.0
 10
943.6589412987182
 20
2197.097344334775
 30
0.0
 10
943.7297256934471
 20
2197.168128729504
 30
0.0
  0
SPLINE
  5
1CF
330
1F
100
AcDbEntity
  8
Predefinito
100
AcDbSpline
210
0.0
220
0.0
230
1.0
 70
    24
 71
     2
 72
     6
 73
     3
 74
     0
 42
0.0000000001
 43
0.0000000001
 40
0.0
 40
0.0
 40
0.0
 40
0.2002085020600724
 40
0.2002085020600724
 40
0.2002085020600724
 10
433.5881569039893
 20
2183.426559940046
 30
0.0
 10
433.5173725092609
 20
2183.355775545317
 30
0.0
 10
433.4465881145316
 20
2183.284991150589
 30
0.0
  0
SPLINE
  5
1D0
330
1F
100
AcDbEntity
  8
Predefinito
100
AcDbSpline
210
0.0
220
0.0
230
1.0
 70
    24
 71
     2
 72
     6
 73
     3
 74
     0
 42
0.0000000001
 43
0.0000000001
 40
0.0
 40
0.0
 40
0.0
 40
7.700131838625914
 40
7.700131838625914
 40
7.700131838625914
 10
433.3881569039895
 20
2183.226559940046
 30
0.0
 10
429.5380909846767
 20
2183.226559940046
 30
0.0
 10
425.6880250653639
 20
2183.226559940046
 30
0.0
  0
SPLINE
  5
1D1
330
1F
100
AcDbEntity
  8
Predefinito
100
AcDbSpline
210
0.0
220
0.0
230
1.0
 70
    24
 71
     2
 72
     6
 73
     3
 74
     0
 42
0.0000000001
 43
0.0000000001
 40
0.0
 40
0.0
 40
0.0
 40
96.50000000000023
 40
96.50000000000023
 40
96.50000000000023
 10
434.9381569039897
 20
2197.226559940046
 30
0.0
 10
434.9381569039897
 20
2245.476559940046
 30
0.0
 10
434.9381569039897
 20
2293.726559940047
 30
0.0
  0
SPLINE
  5
1D2
330
1F
100
AcDbEntity
  8
Predefinito
100
AcDbSpline
210
0.0
220
0.0
230
1.0
 70
    24
 71
     2
 72
     6
 73
     3
 74
     0
 42
0.0000000001
 43
0.0000000001
 40
0.0
 40
0.0
 40
0.0
 40
47.00000000000023
 40
47.00000000000023
 40
47.00000000000023
 10
434.9381569039897
 20
2296.726559940046
 30
0.0
 10
434.9381569039897
 20
2320.226559940046
 30
0.0
 10
434.9381569039897
 20
2343.726559940046
 30
0.0
  0
SPLINE
  5
1D3
330
1F
100
AcDbEntity
  8
Predefinito
100
AcDbSpline
210
0.0
220
0.0
230
1.0
 70
    24
 71
     2
 72
     6
 73
     3
 74
     0
 42
0.0000000001
 43
0.0000000001
 40
0.0
 40
0.0
 40
0.0
 40
45.50000000000023
 40
45.50000000000023
 40
45.50000000000023
 10
434.9381569039897
 20
2346.726559940046
 30
0.0
 10
434.9381569039897
 20
2369.476559940046
 30
0.0
 10
434.9381569039897
 20
2392.226559940046
 30
0.0
  0
SPLINE
  5
1D4
330
1F
100
AcDbEntity
  8
Predefinito
100
AcDbSpline
210
0.0
220
0.0
230
1.0
 70
    24
 71
     2
 72
     6
 73
     3
 74
     0
 42
0.0000000001
 43
0.0000000001
 40
0.0
 40
0.0
 40
0.0
 40
45.50000000000023
 40
45.50000000000023
 40
45.50000000000023
 10
435.7381569039899
 20
2392.226559940046
 30
0.0
 10
435.7381569039899
 20
2369.476559940046
 30
0.0
 10
435.7381569039899
 20
2346.726559940046
 30
0.0
  0
SPLINE
  5
1D5
330
1F
100
AcDbEntity
  8
Predefinito
100
AcDbSpline
210
0.0
220
0.0
230
1.0
 70
    24
 71
     2
 72
     6
 73
     3
 74
     0
 42
0.0000000001
 43
0.0000000001
 40
0.0
 40
0.0
 40
0.0
 40
47.00000000000023
 40
47.00000000000023
 40
47.00000000000023
 10
435.7381569039899
 20
2343.726559940047
 30
0.0
 10
435.7381569039899
 20
2320.226559940047
 30
0.0
 10
435.7381569039899
 20
2296.726559940047
 30
0.0
  0
SPLINE
  5
1D6
330
1F
100
AcDbEntity
  8
Predefinito
100
AcDbSpline
210
0.0
220
0.0
230
1.0
 70
    24
 71
     2
 72
     6
 73
     3
 74
     0
 42
0.0000000001
 43
0.0000000001
 40
0.0
 40
0.0
 40
0.0
 40
96.50000000000023
 40
96.50000000000023
 40
96.50000000000023
 10
435.7381569039899
 20
2293.726559940047
 30
0.0
 10
435.7381569039899
 20
2245.476559940046
 30
0.0
 10
435.7381569039899
 20
2197.226559940046
 30
0.0
  0
SPLINE
  5
1D7
330
1F
100
AcDbEntity
  8
Predefinito
100
AcDbSpline
210
0.0
220
0.0
230
1.0
 70
    24
 71
     2
 72
     6
 73
     3
 74
     0
 42
0.0000000001
 43
0.0000000001
 40
0.0
 40
0.0
 40
0.0
 40
181.9999998940964
 40
181.9999998940964
 40
181.9999998940964
 10
930.6381569039895
 20
2197.22656004595
 30
0.0
 10
930.6381569039895
 20
2288.226559992998
 30
0.0
 10
930.6381569039895
 20
2379.226559940046
 30
0.0
  0
SPLINE
  5
1D8
330
1F
100
AcDbEntity
  8
Predefinito
100
AcDbSpline
210
0.0
220
0.0
230
1.0
 70
    24
 71
     2
 72
     6
 73
     3
 74
     0
 42
0.0000000001
 43
0.0000000001
 40
0.0
 40
0.0
 40
0.0
 40
182.0000000274026
 40
182.0000000274026
 40
182.0000000274026
 10
931.4381569039892
 20
2379.226559940046
 30
0.0
 10
931.4381569039892
 20
2288.226559926345
 30
0.0
 10
931.4381569039892
 20
2197.226559912644
 30
0.0
  0
SPLINE
  5
1D9
330
1F
100
AcDbEntity
  8
Predefinito
100
AcDbSpline
210
0.0
220
0.0
230
1.0
 70
    24
 71
     2
 72
     6
 73
     3
 74
     0
 42
0.0000000001
 43
0.0000000001
 40
0.0
 40
0.0
 40
0.0
 40
26.80000000000018
 40
26.80000000000018
 40
26.80000000000018
 10
937.0381573496506
 20
2418.226559940046
 30
0.0
 10
937.0381573496506
 20
2404.826559940046
 30
0.0
 10
937.0381573496506
 20
2391.426559940046
 30
0.0
  0
SPLINE
  5
1DA
330
1F
100
AcDbEntity
  8
Predefinito
100
AcDbSpline
210
0.0
220
0.0
230
1.0
 70
    24
 71
     2
 72
     6
 73
     3
 74
     0
 42
0.0000000001
 43
0.0000000001
 40
0.0
 40
0.0
 40
0.0
 40
26.79999999999995
 40
26.79999999999995
 40
26.79999999999995
 10
925.0381564676072
 20
2391.426559940046
 30
0.0
 10
925.0381564676072
 20
2404.826559940046
 30
0.0
 10
925.0381564676072
 20
2418.226559940046
 30
0.0
  0
SPLINE
  5
1DB
330
1F
100
AcDbEntity
  8
Predefinito
100
AcDbSpline
210
0.0
220
0.0
230
1.0
 70
    24
 71
     2
 72
     6
 73
     3
 74
     0
 42
0.0000000001
 43
0.0000000001
 40
0.0
 40
0.0
 40
0.0
 40
0.2000000000000455
 40
0.2000000000000455
 40
0.2000000000000455
 10
925.3381569039893
 20
2391.226559940046
 30
0.0
 10
925.3381569039893
 20
2391.326559940046
 30
0.0
 10
925.3381569039893
 20
2391.426559940046
 30
0.0
  0
SPLINE
  5
1DC
330
1F
100
AcDbEntity
  8
Predefinito
100
AcDbSpline
210
0.0
220
0.0
230
1.0
 70
    24
 71
     2
 72
     6
 73
     3
 74
     0
 42
0.0000000001
 43
0.0000000001
 40
0.0
 40
0.0
 40
0.0
 40
0.2000000000000455
 40
0.2000000000000455
 40
0.2000000000000455
 10
936.7381569039894
 20
2391.426559940046
 30
0.0
 10
936.7381569039894
 20
2391.326559940046
 30
0.0
 10
936.7381569039894
 20
2391.226559940046
 30
0.0
  0
SPLINE
  5
1DD
330
1F
100
AcDbEntity
  8
Predefinito
100
AcDbSpline
210
0.0
220
0.0
230
1.0
 70
    24
 71
     2
 72
     6
 73
     3
 74
     0
 42
0.0000000001
 43
0.0000000001
 40
0.0
 40
0.0
 40
0.0
 40
2.0
 40
2.0
 40
2.0
 10
925.0381569039891
 20
2389.226559940046
 30
0.0
 10
925.0381569039891
 20
2390.226559940046
 30
0.0
 10
925.0381569039891
 20
2391.226559940046
 30
0.0
  0
SPLINE
  5
1DE
330
1F
100
AcDbEntity
  8
Predefinito
100
AcDbSpline
210
0.0
220
0.0
230
1.0
 70
    24
 71
     2
 72
     6
 73
     3
 74
     0
 42
0.0000000001
 43
0.0000000001
 40
0.0
 40
0.0
 40
0.0
 40
2.0
 40
2.0
 40
2.0
 10
937.0381569039891
 20
2391.226559940046
 30
0.0
 10
937.0381569039891
 20
2390.226559940046
 30
0.0
 10
937.0381569039891
 20
2389.226559940046
 30
0.0
  0
SPLINE
  5
1DF
330
1F
100
AcDbEntity
  8
Predefinito
100
AcDbSpline
210
0.0
220
0.0
230
1.0
 70
    24
 71
     2
 72
     6
 73
     3
 74
     0
 42
0.0000000001
 43
0.0000000001
 40
0.0
 40
0.0
 40
0.0
 40
10.0
 40
10.0
 40
10.0
 10
928.0381569039891
 20
2379.226559940046
 30
0.0
 10
928.0381569039891
 20
2384.226559940046
 30
0.0
 10
928.0381569039891
 20
2389.226559940046
 30
0.0
  0
SPLINE
  5
1E0
330
1F
100
AcDbEntity
  8
Predefinito
100
AcDbSpline
210
0.0
220
0.0
230
1.0
 70
    24
 71
     2
 72
     6
 73
     3
 74
     0
 42
0.0000000001
 43
0.0000000001
 40
0.0
 40
0.0
 40
0.0
 40
10.0
 40
10.0
 40
10.0
 10
934.0381569039891
 20
2389.226559940046
 30
0.0
 10
934.0381569039891
 20
2384.226559940046
 30
0.0
 10
934.0381569039891
 20
2379.226559940046
 30
0.0
  0
SPLINE
  5
1E1
330
1F
100
AcDbEntity
  8
Predefinito
100
AcDbSpline
210
0.0
220
0.0
230
1.0
 70
    24
 71
     2
 72
     6
 73
     3
 74
     0
 42
0.0000000001
 43
0.0000000001
 40
0.0
 40
0.0
 40
0.0
 40
2.0
 40
2.0
 40
2.0
 10
923.0381569039891
 20
2418.226559940046
 30
0.0
 10
923.0381569039891
 20
2419.226559940046
 30
0.0
 10
923.0381569039891
 20
2420.226559940046
 30
0.0
  0
SPLINE
  5
1E2
330
1F
100
AcDbEntity
  8
Predefinito
100
AcDbSpline
210
0.0
220
0.0
230
1.0
 70
    24
 71
     2
 72
     6
 73
     3
 74
     0
 42
0.0000000001
 43
0.0000000001
 40
0.0
 40
0.0
 40
0.0
 40
2.0
 40
2.0
 40
2.0
 10
939.0381569039891
 20
2420.226559940046
 30
0.0
 10
939.0381569039891
 20
2419.226559940046
 30
0.0
 10
939.0381569039891
 20
2418.226559940046
 30
0.0
  0
SPLINE
  5
1E3
330
1F
100
AcDbEntity
  8
Predefinito
100
AcDbSpline
210
0.0
220
0.0
230
1.0
 70
     8
 71
     3
 72
    13
 73
     9
 74
     0
 42
0.0000000001
 43
0.0000000001
 40
0.0
 40
0.0
 40
0.0
 40
0.0
 40
2.99695048193233
 40
6.212112670143995
 40
9.357563200131974
 40
20.39537571585615
 40
28.05401150055523
 40
44.39321220990776
 40
44.39321220990776
 40
44.39321220990776
 40
44.39321220990776
 10
425.6936637903164
 20
2392.226560842658
 30
0.0
 10
425.7111131598058
 20
2391.226644041016
 30
0.0
 10
425.9006642400682
 20
2389.163061941157
 30
0.0
 10
426.4786423540168
 20
2386.093651330539
 30
0.0
 10
427.9639912738471
 20
2380.487367616082
 30
0.0
 10
430.1364442631343
 20
2373.533906237649
 30
0.0
 10
432.5900292464821
 20
2362.101892071046
 30
0.0
 10
433.2964983146048
 20
2354.110749737157
 30
0.0
 10
433.3729223646969
 20
2348.664387109175
 30
0.0
  0
SPLINE
  5
1E4
330
1F
100
AcDbEntity
  8
Predefinito
100
AcDbSpline
210
0.0
220
0.0
230
1.0
 70
     8
 71
     3
 72
    13
 73
     9
 74
     0
 42
0.0000000001
 43
0.0000000001
 40
0.0
 40
0.0
 40
0.0
 40
0.0
 40
4.100245105725095
 40
7.678975056874674
 40
15.40902954928634
 40
22.73662941290443
 40
37.15246868129783
 40
44.48390477204072
 40
44.48390477204072
 40
44.48390477204072
 40
44.48390477204072
 10
427.1736951025396
 20
2348.573392003191
 30
0.0
 10
427.1563647839071
 20
2349.94095558268
 30
0.0
 10
427.0541910453057
 20
2352.496079827873
 30
0.0
 10
426.7179705350768
 20
2357.626793668406
 30
0.0
 10
425.8736185827634
 20
2363.782663417964
 30
0.0
 10
423.8324589507811
 20
2373.40311418775
 30
0.0
 10
420.6789631742222
 20
2382.595084317853
 30
0.0
 10
419.4998627121267
 20
2389.773305953672
 30
0.0
 10
419.4925536571286
 20
2392.226197495481
 30
0.0
  0
SPLINE
  5
1E5
330
1F
100
AcDbEntity
  8
Predefinito
100
AcDbSpline
210
0.0
220
0.0
230
1.0
 70
    12
 71
     2
 72
     6
 73
     3
 74
     0
 42
0.0000000001
 43
0.0000000001
 40
0.0
 40
0.0
 40
0.0
 40
1.937746490452209
 40
1.937746490452209
 40
1.937746490452209
 10
433.3729226403893
 20
2348.66436963815
 30
0.0
 41
1.0
 10
433.3872720421609
 20
2347.695586370138
 30
0.0
 41
0.9999747851987505
 10
433.3878610334805
 20
2346.726697016908
 30
0.0
 41
1.0
  0
SPLINE
  5
1E6
330
1F
100
AcDbEntity
  8
Predefinito
100
AcDbSpline
210
0.0
220
0.0
230
1.0
 70
    12
 71
     2
 72
     6
 73
     3
 74
     0
 42
0.0000000001
 43
0.0000000001
 40
0.0
 40
0.0
 40
0.0
 40
2.370773111728841
 40
2.370773111728841
 40
2.370773111728841
 10
427.1882121560416
 20
2346.20267059023
 30
0.0
 41
1.0
 10
427.1902985083162
 20
2347.388079866862
 30
0.0
 41
0.9999689265322883
 10
427.1736953756499
 20
2348.573374700218
 30
0.0
 41
1.0
  0
SPLINE
  5
1E7
330
1F
100
AcDbEntity
  8
Predefinito
100
AcDbSpline
210
0.0
220
0.0
230
1.0
 70
    12
 71
     2
 72
     6
 73
     3
 74
     0
 42
0.0000000001
 43
0.0000000001
 40
0.0
 40
0.0
 40
0.0
 40
2.559488094818271
 40
2.559488094818271
 40
2.559488094818271
 10
433.3881554956415
 20
2343.726559938017
 30
0.0
 41
1.0
 10
433.3881563036243
 20
2342.446815890608
 30
0.0
 41
0.9999999999996249
 10
433.3881548942104
 20
2341.1670718432
 30
0.0
 41
1.0
  0
SPLINE
  5
1E8
330
1F
100
AcDbEntity
  8
Predefinito
100
AcDbSpline
210
0.0
220
0.0
230
1.0
 70
    12
 71
     2
 72
     6
 73
     3
 74
     0
 42
0.0000000001
 43
0.0000000001
 40
0.0
 40
0.0
 40
0.0
 40
1.918910603195392
 40
1.918910603195392
 40
1.918910603195392
 10
427.1881566765815
 20
2344.283744109831
 30
0.0
 41
1.0
 10
427.1881252375791
 20
2345.24319941213
 30
0.0
 41
0.9999999980978842
 10
427.1882121540166
 20
2346.202654711007
 30
0.0
 41
1.0
  0
SPLINE
  5
1E9
330
1F
100
AcDbEntity
  8
Predefinito
100
AcDbSpline
210
0.0
220
0.0
230
1.0
 70
    12
 71
     2
 72
     6
 73
     3
 74
     0
 42
0.0000000001
 43
0.0000000001
 40
0.0
 40
0.0
 40
0.0
 40
5.12694501274594
 40
5.12694501274594
 40
5.12694501274594
 10
427.1881566766051
 20
2344.283744109831
 30
0.0
 41
1.0
 10
427.1881511388745
 20
2341.720271603462
 30
0.0
 41
0.9999999999991009
 10
427.1881524762662
 20
2339.156799097088
 30
0.0
 41
1.0
  0
SPLINE
  5
1EA
330
1F
100
AcDbEntity
  8
Predefinito
100
AcDbSpline
210
0.0
220
0.0
230
1.0
 70
    12
 71
     3
 72
     8
 73
     4
 74
     0
 42
0.0000000001
 43
0.0000000001
 40
0.0
 40
0.0
 40
0.0
 40
0.0
 40
12.53144567767766
 40
12.53144567767766
 40
12.53144567767766
 40
12.53144567767766
 10
427.1881524760706
 20
2339.156799097088
 30
0.0
 41
1.0
 10
427.1881496313654
 20
2334.979650537863
 30
0.0
 41
1.0
 10
427.1881618160305
 20
2330.677876379012
 30
0.0
 41
1.0
 10
427.1881589713248
 20
2326.500727819786
 30
0.0
 41
1.0
  0
SPLINE
  5
1EB
330
1F
100
AcDbEntity
  8
Predefinito
100
AcDbSpline
210
0.0
220
0.0
230
1.0
 70
    24
 71
     2
 72
     6
 73
     3
 74
     0
 42
0.0000000001
 43
0.0000000001
 40
0.0
 40
0.0
 40
0.0
 40
0.748738973624597
 40
0.748738973624597
 40
0.748738973624597
 10
433.3881570072535
 20
2301.738558611079
 30
0.0
 10
433.3881571528054
 20
2301.364189124267
 30
0.0
 10
433.3881572983569
 20
2300.989819637455
 30
0.0
  0
SPLINE
  5
1EC
330
1F
100
AcDbEntity
  8
Predefinito
100
AcDbSpline
210
0.0
220
0.0
230
1.0
 70
    12
 71
     2
 72
     6
 73
     3
 74
     0
 42
0.0000000001
 43
0.0000000001
 40
0.0
 40
0.0
 40
0.0
 40
0.6401228665155644
 40
0.6401228665155644
 40
0.6401228665155644
 10
433.3881572234777
 20
2299.116659626612
 30
0.0
 41
1.0
 10
433.3881570852142
 20
2298.796598193353
 30
0.0
 41
0.9999999999998196
 10
433.3881565625052
 20
2298.476536760097
 30
0.0
 41
1.0
  0
SPLINE
  5
1ED
330
1F
100
AcDbEntity
  8
Predefinito
100
AcDbSpline
210
0.0
220
0.0
230
1.0
 70
    12
 71
     2
 72
     6
 73
     3
 74
     0
 42
0.0000000001
 43
0.0000000001
 40
0.0
 40
0.0
 40
0.0
 40
1.280729716319532
 40
1.280729716319532
 40
1.280729716319532
 10
427.1881575543766
 20
2299.708747452794
 30
0.0
 41
1.0
 10
427.1881575563027
 20
2300.349112310955
 30
0.0
 41
0.9999999999999548
 10
427.1881571734311
 20
2300.989477169113
 30
0.0
 41
1.0
  0
SPLINE
  5
1EE
330
1F
100
AcDbEntity
  8
Predefinito
100
AcDbSpline
210
0.0
220
0.0
230
1.0
 70
     8
 71
     3
 72
    14
 73
    10
 74
     0
 42
0.0000000001
 43
0.0000000001
 40
0.0
 40
0.0
 40
0.0
 40
0.0
 40
8.033827973583143
 40
15.67804606500877
 40
31.81157770531181
 40
48.10597110236245
 40
73.49640789996485
 40
81.95744697305894
 40
97.89460008385409
 40
97.89460008385409
 40
97.89460008385409
 40
97.89460008385409
 10
433.3856457735119
 20
2293.726382068674
 30
0.0
 10
433.3838593043956
 20
2291.048242607571
 30
0.0
 10
433.304651299914
 20
2285.822996665675
 30
0.0
 10
432.8937890091424
 20
2275.225371451861
 30
0.0
 10
431.8512856933694
 20
2261.905585499085
 30
0.0
 10
429.5160676334863
 20
2242.770387570885
 30
0.0
 10
426.771305871981
 20
2226.278518767085
 30
0.0
 10
424.4430669021112
 20
2209.847279685012
 30
0.0
 10
423.7049573435957
 20
2201.738808577455
 30
0.0
 10
423.6303585905921
 20
2196.424527016464
 30
0.0
  0
SPLINE
  5
1EF
330
1F
100
AcDbEntity
  8
Predefinito
100
AcDbSpline
210
0.0
220
0.0
230
1.0
 70
     8
 71
     3
 72
    12
 73
     8
 74
     0
 42
0.0000000001
 43
0.0000000001
 40
0.0
 40
0.0
 40
0.0
 40
0.0
 40
7.879302224876614
 40
16.71266745180816
 40
51.43001406131164
 40
68.08626389992027
 40
100.315570570356
 40
100.315570570356
 40
100.315570570356
 40
100.315570570356
 10
417.4277315716954
 20
2196.229892348284
 30
0.0
 10
417.4643897763417
 20
2198.855350001029
 30
0.0
 10
417.7007432843238
 20
2204.425726107382
 30
0.0
 10
419.5828850790176
 20
2221.471479692751
 30
0.0
 10
423.1180556779732
 20
2241.238454848811
 30
0.0
 10
426.4410141189824
 20
2268.914672568172
 30
0.0
 10
427.2497569396146
 20
2285.208252286111
 30
0.0
 10
427.1881475691484
 20
2295.952648334272
 30
0.0
  0
SPLINE
  5
1F0
330
1F
100
AcDbEntity
  8
Predefinito
100
AcDbSpline
210
0.0
220
0.0
230
1.0
 70
    12
 71
     2
 72
     8
 73
     5
 74
     0
 42
0.0000000001
 43
0.0000000001
 40
0.0
 40
0.0
 40
0.0
 40
0.2512208316638639
 40
0.2512208316638639
 40
0.5024416633277279
 40
0.5024416633277279
 40
0.5024416633277279
 10
367.1907649312179
 20
2419.923941979397
 30
0.0
 41
1.0
 10
367.1640268680458
 20
2420.057981619376
 30
0.0
 41
0.8828241264742474
 10
367.2602500883577
 20
2420.155051908244
 30
0.0
 41
1.0
 10
367.3564733086697
 20
2420.25212219711
 30
0.0
 41
0.8828241264742474
 10
367.4907421439125
 20
2420.226559939962
 30
0.0
 41
1.0
  0
SPLINE
  5
1F1
330
1F
100
AcDbEntity
  8
Predefinito
100
AcDbSpline
210
0.0
220
0.0
230
1.0
 70
    12
 71
     2
 72
     8
 73
     5
 74
     0
 42
0.0000000001
 43
0.0000000001
 40
0.0
 40
0.0
 40
0.0
 40
0.2504703494533082
 40
0.2504703494533082
 40
0.5009406989066164
 40
0.5009406989066164
 40
0.5009406989066164
 10
503.485560446411
 20
2420.22655994004
 30
0.0
 41
1.0
 10
503.6194321263874
 20
2420.250849082026
 30
0.0
 41
0.884849769041205
 10
503.71521800965
 20
2420.154222720789
 30
0.0
 41
1.0
 10
503.8110038929124
 20
2420.057596359552
 30
0.0
 41
0.884849769041205
 10
503.7855461674953
 20
2419.923941979397
 30
0.0
 41
1.0
  0
SPLINE
  5
1F2
330
1F
100
AcDbEntity
  8
Predefinito
100
AcDbSpline
210
0.0
220
0.0
230
1.0
 70
    24
 71
     2
 72
     6
 73
     3
 74
     0
 42
0.0000000001
 43
0.0000000001
 40
0.0
 40
0.0
 40
0.0
 40
27.69777167901514
 40
27.69777167901514
 40
27.69777167901514
 10
503.7855101957398
 20
2419.923276972787
 30
0.0
 10
503.6646574018446
 20
2406.074918456416
 30
0.0
 10
503.5438046079494
 20
2392.226559940046
 30
0.0
  0
SPLINE
  5
1F3
330
1F
100
AcDbEntity
  8
Predefinito
100
AcDbSpline
210
0.0
220
0.0
230
1.0
 70
    24
 71
     2
 72
     6
 73
     3
 74
     0
 42
0.0000000001
 43
0.0000000001
 40
0.0
 40
0.0
 40
0.0
 40
27.69777169545959
 40
27.69777169545959
 40
27.69777169545959
 10
367.4325092021299
 20
2392.226559940046
 30
0.0
 10
367.3116564081665
 20
2406.074918464637
 30
0.0
 10
367.1908036142036
 20
2419.92327698923
 30
0.0
  0
SPLINE
  5
1F4
330
1F
100
AcDbEntity
  8
Predefinito
100
AcDbSpline
210
0.0
220
0.0
230
1.0
 70
    24
 71
     2
 72
     6
 73
     3
 74
     0
 42
0.0000000001
 43
0.0000000001
 40
0.0
 40
0.0
 40
0.0
 40
3.0
 40
3.0
 40
3.0
 10
437.7881569039896
 20
2346.726559940046
 30
0.0
 10
437.7881569039896
 20
2345.226559940046
 30
0.0
 10
437.7881569039896
 20
2343.726559940046
 30
0.0
  0
SPLINE
  5
1F5
330
1F
100
AcDbEntity
  8
Predefinito
100
AcDbSpline
210
0.0
220
0.0
230
1.0
 70
    24
 71
     2
 72
     6
 73
     3
 74
     0
 42
0.0000000001
 43
0.0000000001
 40
0.0
 40
0.0
 40
0.0
 40
84.5
 40
84.5
 40
84.5
 10
876.5881569039893
 20
2180.006707900283
 30
0.0
 10
876.5881569039893
 20
2137.756707900283
 30
0.0
 10
876.5881569039893
 20
2095.506707900283
 30
0.0
  0
SPLINE
  5
1F6
330
1F
100
AcDbEntity
  8
Predefinito
100
AcDbSpline
210
0.0
220
0.0
230
1.0
 70
    24
 71
     2
 72
     6
 73
     3
 74
     0
 42
0.0000000001
 43
0.0000000001
 40
0.0
 40
0.0
 40
0.0
 40
84.5
 40
84.5
 40
84.5
 10
868.5881569039893
 20
2095.506707900283
 30
0.0
 10
868.5881569039893
 20
2137.756707900283
 30
0.0
 10
868.5881569039893
 20
2180.006707900283
 30
0.0
  0
SPLINE
  5
1F7
330
1F
100
AcDbEntity
  8
Predefinito
100
AcDbSpline
210
0.0
220
0.0
230
1.0
 70
    12
 71
     2
 72
     6
 73
     3
 74
     0
 42
0.0000000001
 43
0.0000000001
 40
0.0
 40
0.0
 40
0.0
 40
6.219195557548635
 40
6.219195557548635
 40
6.219195557548635
 10
872.5881569039893
 20
2205.006707900283
 30
0.0
 41
1.0
 10
876.5245200905612
 20
2205.006191794376
 30
0.0
 41
0.712778353207183
 10
876.5874029659294
 20
2201.070330878776
 30
0.0
 41
1.0
  0
SPLINE
  5
1F8
330
1F
100
AcDbEntity
  8
Predefinito
100
AcDbSpline
210
0.0
220
0.0
230
1.0
 70
    12
 71
     2
 72
     8
 73
     5
 74
     0
 42
0.0000000001
 43
0.0000000001
 40
0.0
 40
0.0
 40
0.0
 40
3.17341103215379
 40
3.17341103215379
 40
6.34682206430758
 40
6.34682206430758
 40
6.34682206430758
 10
868.5889085094886
 20
2200.943233409533
 30
0.0
 41
1.0
 10
868.5619301730383
 20
2202.618583460238
 30
0.0
 41
0.9223151218899736
 10
869.7372599236282
 20
2203.812788467937
 30
0.0
 41
1.0
 10
870.9125896742194
 20
2205.006993475636
 30
0.0
 41
0.9223151218899736
 10
872.5881569039893
 20
2205.006707900283
 30
0.0
 41
1.0
  0
SPLINE
  5
1F9
330
1F
100
AcDbEntity
  8
Predefinito
100
AcDbSpline
210
0.0
220
0.0
230
1.0
 70
    24
 71
     2
 72
     6
 73
     3
 74
     0
 42
0.0000000001
 43
0.0000000001
 40
0.0
 40
0.0
 40
0.0
 40
20.93652550926072
 40
20.93652550926072
 40
20.93652550926072
 10
868.5881569039893
 20
2180.006707900283
 30
0.0
 10
868.5881569039893
 20
2190.474970654914
 30
0.0
 10
868.5881569039893
 20
2200.943233409544
 30
0.0
  0
SPLINE
  5
1FA
330
1F
100
AcDbEntity
  8
Predefinito
100
AcDbSpline
210
0.0
220
0.0
230
1.0
 70
    24
 71
     2
 72
     6
 73
     3
 74
     0
 42
0.0000000001
 43
0.0000000001
 40
0.0
 40
0.0
 40
0.0
 40
20.99999999999955
 40
20.99999999999955
 40
20.99999999999955
 10
876.5881569039893
 20
2201.006707900283
 30
0.0
 10
876.5881569039893
 20
2190.506707900283
 30
0.0
 10
876.5881569039893
 20
2180.006707900283
 30
0.0
  0
SPLINE
  5
1FB
330
1F
100
AcDbEntity
  8
Predefinito
100
AcDbSpline
210
0.0
220
0.0
230
1.0
 70
    24
 71
     2
 72
     6
 73
     3
 74
     0
 42
0.0000000001
 43
0.0000000001
 40
0.0
 40
0.0
 40
0.0
 40
17.99999987298293
 40
17.99999987298293
 40
17.99999987298293
 10
876.5881569039893
 20
2095.506707649777
 30
0.0
 10
876.5881569039893
 20
2086.506707713286
 30
0.0
 10
876.5881569039893
 20
2077.506707776794
 30
0.0
  0
SPLINE
  5
1FC
330
1F
100
AcDbEntity
  8
Predefinito
100
AcDbSpline
210
0.0
220
0.0
230
1.0
 70
    24
 71
     2
 72
     6
 73
     3
 74
     0
 42
0.0000000001
 43
0.0000000001
 40
0.0
 40
0.0
 40
0.0
 40
20.99999993955817
 40
20.99999993955817
 40
20.99999993955817
 10
868.5881569039893
 20
2039.006707960725
 30
0.0
 10
868.5881569039893
 20
2049.506707930504
 30
0.0
 10
868.5881569039893
 20
2060.006707900283
 30
0.0
  0
SPLINE
  5
1FD
330
1F
100
AcDbEntity
  8
Predefinito
100
AcDbSpline
210
0.0
220
0.0
230
1.0
 70
    24
 71
     2
 72
     6
 73
     3
 74
     0
 42
0.0000000001
 43
0.0000000001
 40
0.0
 40
0.0
 40
0.0
 40
20.99999993956158
 40
20.99999993956158
 40
20.99999993956158
 10
876.5881569039893
 20
2060.006707900283
 30
0.0
 10
876.5881569039893
 20
2049.506707930502
 30
0.0
 10
876.5881569039893
 20
2039.006707960722
 30
0.0
  0
SPLINE
  5
1FE
330
1F
100
AcDbEntity
  8
Predefinito
100
AcDbSpline
210
0.0
220
0.0
230
1.0
 70
    24
 71
     2
 72
     6
 73
     3
 74
     0
 42
0.0000000001
 43
0.0000000001
 40
0.0
 40
0.0
 40
0.0
 40
17.5
 40
17.5
 40
17.5
 10
876.5881569039893
 20
2077.506707900283
 30
0.0
 10
876.5881569039893
 20
2068.756707900283
 30
0.0
 10
876.5881569039893
 20
2060.006707900283
 30
0.0
  0
SPLINE
  5
1FF
330
1F
100
AcDbEntity
  8
Predefinito
100
AcDbSpline
210
0.0
220
0.0
230
1.0
 70
    24
 71
     2
 72
     6
 73
     3
 74
     0
 42
0.0000000001
 43
0.0000000001
 40
0.0
 40
0.0
 40
0.0
 40
0.7071067811865476
 40
0.7071067811865476
 40
0.7071067811865476
 10
869.0881569039893
 20
2095.006707900283
 30
0.0
 10
868.8381569039893
 20
2095.256707900283
 30
0.0
 10
868.5881569039893
 20
2095.506707900283
 30
0.0
  0
SPLINE
  5
200
330
1F
100
AcDbEntity
  8
Predefinito
100
AcDbSpline
210
0.0
220
0.0
230
1.0
 70
    24
 71
     2
 72
     6
 73
     3
 74
     0
 42
0.0000000001
 43
0.0000000001
 40
0.0
 40
0.0
 40
0.0
 40
0.6598872323782387
 40
0.6598872323782387
 40
0.6598872323782387
 10
876.0881569039893
 20
2078.006707900283
 30
0.0
 10
876.3214622724063
 20
2077.773402531867
 30
0.0
 10
876.5547676408223
 20
2077.54009716345
 30
0.0
  0
SPLINE
  5
201
330
1F
100
AcDbEntity
  8
Predefinito
100
AcDbSpline
210
0.0
220
0.0
230
1.0
 70
    24
 71
     2
 72
     6
 73
     3
 74
     0
 42
0.0000000001
 43
0.0000000001
 40
0.0
 40
0.0
 40
0.0
 40
3.0
 40
3.0
 40
3.0
 10
437.7881569039896
 20
2296.726559940046
 30
0.0
 10
437.7881569039896
 20
2295.226559940046
 30
0.0
 10
437.7881569039896
 20
2293.726559940046
 30
0.0
  0
LINE
  5
202
330
1F
100
AcDbEntity
  8
Predefinito
100
AcDbLine
 10
427.1881571735689
 20
2300.989477941494
 30
0.0
 11
427.188143705253
 21
2326.500727819779
 31
0.0
  0
SPLINE
  5
203
330
1F
100
AcDbEntity
  8
Predefinito
100
AcDbSpline
210
0.0
220
0.0
230
1.0
 70
    24
 71
     2
 72
     6
 73
     3
 74
     0
 42
0.0000000001
 43
0.0000000001
 40
0.0
 40
0.0
 40
0.0
 40
0.4075077679329937
 40
0.4075077679329937
 40
0.4075077679329937
 10
433.7956640062621
 20
2296.726559940046
 30
0.0
 10
433.5919101222958
 20
2296.726559940046
 30
0.0
 10
433.3881562383294
 20
2296.726559940046
 30
0.0
  0
SPLINE
  5
204
330
1F
100
AcDbEntity
  8
Predefinito
100
AcDbSpline
210
0.0
220
0.0
230
1.0
 70
    24
 71
     2
 72
     6
 73
     3
 74
     0
 42
0.0000000001
 43
0.0000000001
 40
0.4075077679329937
 40
0.4075077679329937
 40
0.4075077679329937
 40
5.901046435236481
 40
5.901046435236481
 40
5.901046435236481
 10
433.3881562383294
 20
2296.726559940046
 30
0.0
 10
430.6413869046773
 20
2296.726559940046
 30
0.0
 10
427.8946175710257
 20
2296.726559940046
 30
0.0
  0
LINE
  5
205
330
1F
100
AcDbEntity
  8
Predefinito
100
AcDbLine
 10
433.3881672890948
 20
2341.167071843196
 30
0.0
 11
433.3881562383294
 21
2296.726559940046
 31
0.0
  0
LINE
  5
206
330
1F
100
AcDbEntity
  8
Predefinito
100
AcDbLine
 10
427.1881404189726
 20
2295.952654019754
 30
0.0
 11
427.1881539389947
 21
2299.708747452808
 31
0.0
  0
SPLINE
  5
207
330
1F
100
AcDbEntity
  8
Predefinito
100
AcDbSpline
210
0.0
220
0.0
230
1.0
 70
    24
 71
     2
 72
     6
 73
     3
 74
     0
 42
0.0000000001
 43
0.0000000001
 40
0.0
 40
0.0
 40
0.0
 40
4.0
 40
4.0
 40
4.0
 10
872.5881569039893
 20
2060.006707900283
 30
0.0
 10
870.5881569039893
 20
2060.006707900283
 30
0.0
 10
868.5881569039893
 20
2060.006707900283
 30
0.0
  0
SPLINE
  5
208
330
1F
100
AcDbEntity
  8
Predefinito
100
AcDbSpline
210
0.0
220
0.0
230
1.0
 70
    24
 71
     2
 72
     6
 73
     3
 74
     0
 42
0.0000000001
 43
0.0000000001
 40
0.0
 40
0.0
 40
0.0
 40
3.933221473666322
 40
3.933221473666322
 40
3.933221473666322
 10
872.5881569039893
 20
2060.006707900283
 30
0.0
 10
874.5547676408223
 20
2060.006707900283
 30
0.0
 10
876.5213783776562
 20
2060.006707900283
 30
0.0
  0
VIEWPORT
  5
212
330
20E
100
AcDbEntity
 67
     1
  8
0
100
AcDbViewport
 10
6.0
 20
4.5
 30
0.0
 40
12.696
 41
9.522
 68
     1
 69
     1
 12
6.0
 22
4.5
 13
0.0
 23
0.0
 14
0.5
 24
0.5
 15
0.5
 25
0.5
 16
0.0
 26
0.0
 36
1.0
 17
0.0
 27
0.0
 37
0.0
 42
50.0
 43
0.0
 44
0.0
 45
9.522
 50
0.0
 51
0.0
 72
   100
 90
   557152
  1

281
     0
 71
     1
 74
     0
110
0.0
120
0.0
130
0.0
111
1.0
121
0.0
131
0.0
112
0.0
122
1.0
132
0.0
 79
     0
146
0.0
170
     0
  0
ENDSEC
  0
SECTION
  2
OBJECTS
  0
DICTIONARY
  5
C
330
0
100
AcDbDictionary
281
     1
  3
ACAD_GROUP
350
D
  3
ACAD_LAYOUT
350
1A
  3
ACAD_MLEADERSTYLE
350
238
  3
ACAD_MLINESTYLE
350
17
  3
ACAD_PLOTSETTINGS
350
19
  3
ACAD_PLOTSTYLENAME
350
E
  3
ACAD_SCALELIST
350
213
  3
ACAD_TABLESTYLE
350
237
  3
ACAD_VISUALSTYLE
350
2A
  3
AcDbVariableDictionary
350
235
  0
DICTIONARY
  5
D
102
{ACAD_REACTORS
330
C
102
}
330
C
100
AcDbDictionary
281
     1
  0
DICTIONARY
  5
1A
102
{ACAD_REACTORS
330
C
102
}
330
C
100
AcDbDictionary
281
     1
  3
Layout1
350
20A
  3
Layout2
350
20F
  3
Model
350
22
  0
DICTIONARY
  5
238
102
{ACAD_REACTORS
330
C
102
}
330
C
100
AcDbDictionary
281
     1
  0
DICTIONARY
  5
17
102
{ACAD_REACTORS
330
C
102
}
330
C
100
AcDbDictionary
281
     1
  3
Standard
350
18
  0
DICTIONARY
  5
19
102
{ACAD_REACTORS
330
C
102
}
330
C
100
AcDbDictionary
281
     1
  0
ACDBDICTIONARYWDFLT
  5
E
102
{ACAD_REACTORS
330
C
102
}
330
C
100
AcDbDictionary
281
     1
  3
Normal
350
F
100
AcDbDictionaryWithDefault
340
F
  0
DICTIONARY
  5
213
102
{ACAD_REACTORS
330
C
102
}
330
C
100
AcDbDictionary
281
     1
  3
A0
350
214
  3
A1
350
215
  3
A2
350
216
  3
A3
350
217
  3
A4
350
218
  3
A5
350
219
  3
A6
350
21A
  3
A7
350
21B
  3
A8
350
21C
  3
A9
350
21D
  3
B0
350
21E
  3
B1
350
21F
  3
B2
350
220
  3
B3
350
221
  3
B4
350
222
  3
B5
350
223
  3
B6
350
224
  3
B7
350
225
  3
B8
350
226
  3
B9
350
227
  3
C0
350
228
  3
C1
350
229
  3
C2
350
22A
  3
C3
350
22B
  3
C4
350
22C
  3
C5
350
22D
  3
C6
350
22E
  3
C7
350
22F
  3
C8
350
230
  3
C9
350
231
  3
D0
350
232
  3
D1
350
233
  3
D2
350
234
  0
DICTIONARY
  5
237
102
{ACAD_REACTORS
330
C
102
}
330
C
100
AcDbDictionary
281
     1
  0
DICTIONARY
  5
2A
102
{ACAD_REACTORS
330
C
102
}
330
C
100
AcDbDictionary
281
     1
  3
2dWireframe
350
2F
  3
3D Hidden
350
31
  3
3dWireframe
350
30
  3
Basic
350
32
  3
Brighten
350
36
  3
ColorChange
350
3A
  3
Conceptual
350
34
  3
Dim
350
35
  3
Facepattern
350
39
  3
Flat
350
2B
  3
FlatWithEdges
350
2C
  3
Gouraud
350
2D
  3
GouraudWithEdges
350
2E
  3
Linepattern
350
38
  3
Realistic
350
33
  3
Thicken
350
37
  0
DICTIONARY
  5
235
102
{ACAD_REACTORS
330
C
102
}
330
C
100
AcDbDictionary
281
     1
  3
CANNOSCALE
350
236
  0
LAYOUT
  5
20A
102
{ACAD_REACTORS
330
1A
102
}
330
1A
100
AcDbPlotSettings
  1

  2
none_device
  4
Letter_(8.50_x_11.00_Inches)
  6

 40
6.35
 41
6.35
 42
6.35000508
 43
6.35000508
 44
215.9
 45
279.4
 46
0.0
 47
0.0
 48
0.0
 49
0.0
140
0.0
141
0.0
142
1.0
143
1.0
 70
   688
 72
     0
 73
     1
 74
     5
  7

 75
    16
 76
     0
 77
     2
 78
   300
147
1.0
148
0.0
149
0.0
100
AcDbLayout
  1
Layout1
 70
     1
 71
     1
 10
0.0
 20
0.0
 11
0.0
 21
0.0
 12
0.0
 22
0.0
 32
0.0
 14
0.0
 24
0.0
 34
0.0
 15
0.0
 25
0.0
 35
0.0
146
0.0
 13
0.0
 23
0.0
 33
0.0
 16
1.0
 26
0.0
 36
0.0
 17
0.0
 27
1.0
 37
0.0
 76
     0
330
209
331
20D
  0
LAYOUT
  5
20F
102
{ACAD_REACTORS
330
1A
102
}
330
1A
100
AcDbPlotSettings
  1

  2
none_device
  4
Letter_(8.50_x_11.00_Inches)
  6

 40
6.35
 41
6.35
 42
6.35000508
 43
6.35000508
 44
215.9
 45
279.4
 46
0.0
 47
0.0
 48
0.0
 49
0.0
140
0.0
141
0.0
142
1.0
143
1.0
 70
   688
 72
     0
 73
     1
 74
     5
  7

 75
    16
 76
     0
 77
     2
 78
   300
147
1.0
148
0.0
149
0.0
100
AcDbLayout
  1
Layout2
 70
     1
 71
     2
 10
0.0
 20
0.0
 11
0.0
 21
0.0
 12
0.0
 22
0.0
 32
0.0
 14
0.0
 24
0.0
 34
0.0
 15
0.0
 25
0.0
 35
0.0
146
0.0
 13
0.0
 23
0.0
 33
0.0
 16
1.0
 26
0.0
 36
0.0
 17
0.0
 27
1.0
 37
0.0
 76
     0
330
20E
331
212
  0
LAYOUT
  5
22
102
{ACAD_REACTORS
330
1A
102
}
330
1A
100
AcDbPlotSettings
  1

  2
none_device
  4

  6

 40
0.0
 41
0.0
 42
0.0
 43
0.0
 44
0.0
 45
0.0
 46
0.0
 47
0.0
 48
0.0
 49
0.0
140
0.0
141
0.0
142
1.0
143
1.0
 70
  1712
 72
     0
 73
     0
 74
     0
  7

 75
     0
 76
     0
 77
     2
 78
   300
147
1.0
148
0.0
149
0.0
100
AcDbLayout
  1
Model
 70
     1
 71
     0
 10
0.0
 20
0.0
 11
12.0
 21
9.0
 12
0.0
 22
0.0
 32
0.0
 14
367.1860486373711
 24
876.0000001450527
 34
0.0
 15
1654.169190263671
 25
2420.23073684151
 35
0.0
146
0.0
 13
0.0
 23
0.0
 33
0.0
 16
1.0
 26
0.0
 36
0.0
 17
0.0
 27
1.0
 37
0.0
 76
     0
330
1F
331
29
  0
MLINESTYLE
  5
18
102
{ACAD_REACTORS
330
17
102
}
330
17
100
AcDbMlineStyle
  2
Standard
 70
     0
  3

 62
   256
 51
90.0
 52
90.0
 71
     2
 49
0.5
 62
   256
  6
BYLAYER
 49
-0.5
 62
   256
  6
BYLAYER
  0
ACDBPLACEHOLDER
  5
F
102
{ACAD_REACTORS
330
E
102
}
330
E
  0
SCALE
  5
214
102
{ACAD_REACTORS
330
213
102
}
330
213
100
AcDbScale
 70
     0
300
1:1
140
1.0
141
1.0
290
     1
  0
SCALE
  5
215
102
{ACAD_REACTORS
330
213
102
}
330
213
100
AcDbScale
 70
     0
300
1:2
140
1.0
141
2.0
290
     0
  0
SCALE
  5
216
102
{ACAD_REACTORS
330
213
102
}
330
213
100
AcDbScale
 70
     0
300
1:4
140
1.0
141
4.0
290
     0
  0
SCALE
  5
217
102
{ACAD_REACTORS
330
213
102
}
330
213
100
AcDbScale
 70
     0
300
1:5
140
1.0
141
5.0
290
     0
  0
SCALE
  5
218
102
{ACAD_REACTORS
330
213
102
}
330
213
100
AcDbScale
 70
     0
300
1:8
140
1.0
141
8.0
290
     0
  0
SCALE
  5
219
102
{ACAD_REACTORS
330
213
102
}
330
213
100
AcDbScale
 70
     0
300
1:10
140
1.0
141
10.0
290
     0
  0
SCALE
  5
21A
102
{ACAD_REACTORS
330
213
102
}
330
213
100
AcDbScale
 70
     0
300
1:16
140
1.0
141
16.0
290
     0
  0
SCALE
  5
21B
102
{ACAD_REACTORS
330
213
102
}
330
213
100
AcDbScale
 70
     0
300
1:20
140
1.0
141
20.0
290
     0
  0
SCALE
  5
21C
102
{ACAD_REACTORS
330
213
102
}
330
213
100
AcDbScale
 70
     0
300
1:30
140
1.0
141
30.0
290
     0
  0
SCALE
  5
21D
102
{ACAD_REACTORS
330
213
102
}
330
213
100
AcDbScale
 70
     0
300
1:40
140
1.0
141
40.0
290
     0
  0
SCALE
  5
21E
102
{ACAD_REACTORS
330
213
102
}
330
213
100
AcDbScale
 70
     0
300
1:50
140
1.0
141
50.0
290
     0
  0
SCALE
  5
21F
102
{ACAD_REACTORS
330
213
102
}
330
213
100
AcDbScale
 70
     0
300
1:100
140
1.0
141
100.0
290
     0
  0
SCALE
  5
220
102
{ACAD_REACTORS
330
213
102
}
330
213
100
AcDbScale
 70
     0
300
2:1
140
2.0
141
1.0
290
     0
  0
SCALE
  5
221
102
{ACAD_REACTORS
330
213
102
}
330
213
100
AcDbScale
 70
     0
300
4:1
140
4.0
141
1.0
290
     0
  0
SCALE
  5
222
102
{ACAD_REACTORS
330
213
102
}
330
213
100
AcDbScale
 70
     0
300
8:1
140
8.0
141
1.0
290
     0
  0
SCALE
  5
223
102
{ACAD_REACTORS
330
213
102
}
330
213
100
AcDbScale
 70
     0
300
10:1
140
10.0
141
1.0
290
     0
  0
SCALE
  5
224
102
{ACAD_REACTORS
330
213
102
}
330
213
100
AcDbScale
 70
     0
300
100:1
140
100.0
141
1.0
290
     0
  0
SCALE
  5
225
102
{ACAD_REACTORS
330
213
102
}
330
213
100
AcDbScale
 70
     0
300
1/128" = 1'-0"
140
0.0078125
141
12.0
290
     0
  0
SCALE
  5
226
102
{ACAD_REACTORS
330
213
102
}
330
213
100
AcDbScale
 70
     0
300
1/64" = 1'-0"
140
0.015625
141
12.0
290
     0
  0
SCALE
  5
227
102
{ACAD_REACTORS
330
213
102
}
330
213
100
AcDbScale
 70
     0
300
1/32" = 1'-0"
140
0.03125
141
12.0
290
     0
  0
SCALE
  5
228
102
{ACAD_REACTORS
330
213
102
}
330
213
100
AcDbScale
 70
     0
300
1/16" = 1'-0"
140
0.0625
141
12.0
290
     0
  0
SCALE
  5
229
102
{ACAD_REACTORS
330
213
102
}
330
213
100
AcDbScale
 70
     0
300
3/32" = 1'-0"
140
0.09375
141
12.0
290
     0
  0
SCALE
  5
22A
102
{ACAD_REACTORS
330
213
102
}
330
213
100
AcDbScale
 70
     0
300
1/8" = 1'-0"
140
0.125
141
12.0
290
     0
  0
SCALE
  5
22B
102
{ACAD_REACTORS
330
213
102
}
330
213
100
AcDbScale
 70
     0
300
3/16" = 1'-0"
140
0.1875
141
12.0
290
     0
  0
SCALE
  5
22C
102
{ACAD_REACTORS
330
213
102
}
330
213
100
AcDbScale
 70
     0
300
1/4" = 1'-0"
140
0.25
141
12.0
290
     0
  0
SCALE
  5
22D
102
{ACAD_REACTORS
330
213
102
}
330
213
100
AcDbScale
 70
     0
300
3/8" = 1'-0"
140
0.375
141
12.0
290
     0
  0
SCALE
  5
22E
102
{ACAD_REACTORS
330
213
102
}
330
213
100
AcDbScale
 70
     0
300
1/2" = 1'-0"
140
0.5
141
12.0
290
     0
  0
SCALE
  5
22F
102
{ACAD_REACTORS
330
213
102
}
330
213
100
AcDbScale
 70
     0
300
3/4" = 1'-0"
140
0.75
141
12.0
290
     0
  0
SCALE
  5
230
102
{ACAD_REACTORS
330
213
102
}
330
213
100
AcDbScale
 70
     0
300
1" = 1'-0"
140
1.0
141
12.0
290
     0
  0
SCALE
  5
231
102
{ACAD_REACTORS
330
213
102
}
330
213
100
AcDbScale
 70
     0
300
1-1/2" = 1'-0"
140
1.5
141
12.0
290
     0
  0
SCALE
  5
232
102
{ACAD_REACTORS
330
213
102
}
330
213
100
AcDbScale
 70
     0
300
3" = 1'-0"
140
3.0
141
12.0
290
     0
  0
SCALE
  5
233
102
{ACAD_REACTORS
330
213
102
}
330
213
100
AcDbScale
 70
     0
300
6" = 1'-0"
140
6.0
141
12.0
290
     0
  0
SCALE
  5
234
102
{ACAD_REACTORS
330
213
102
}
330
213
100
AcDbScale
 70
     0
300
1'-0" = 1'-0"
140
12.0
141
12.0
290
     0
  0
VISUALSTYLE
  5
2F
102
{ACAD_REACTORS
330
2A
102
}
330
2A
100
AcDbVisualStyle
  2
2dWireframe
 70
     4
 71
     0
 72
     2
 73
     0
 90
        0
 40
-0.6
 41
-30.0
 62
     5
 63
     7
421
 16777215
 74
     1
 91
        4
 64
     7
 65
   257
 75
     1
175
     1
 42
1.0
 92
        0
 66
   257
 43
1.0
 76
     1
 77
     6
 78
     2
 67
     7
 79
     5
170
     0
171
     0
290
     0
174
     0
 93
        1
 44
0.0
173
     0
291
     0
 45
0.0
1001
ACAD
1000
AcDbSavedByObjectVersion
1070
     0
  0
VISUALSTYLE
  5
31
102
{ACAD_REACTORS
330
2A
102
}
330
2A
100
AcDbVisualStyle
  2
3D Hidden
 70
     6
 71
     1
 72
     2
 73
     2
 90
        0
 40
-0.6
 41
-30.0
 62
     5
 63
     7
421
 16777215
 74
     2
 91
        2
 64
     7
 65
   257
 75
     2
175
     1
 42
40.0
 92
        0
 66
   257
 43
1.0
 76
     1
 77
     6
 78
     2
 67
     7
 79
     3
170
     0
171
     0
290
     0
174
     0
 93
        1
 44
0.0
173
     0
291
     0
 45
0.0
1001
ACAD
1000
AcDbSavedByObjectVersion
1070
     0
  0
VISUALSTYLE
  5
30
102
{ACAD_REACTORS
330
2A
102
}
330
2A
100
AcDbVisualStyle
  2
3dWireframe
 70
     5
 71
     0
 72
     2
 73
     0
 90
        0
 40
-0.6
 41
-30.0
 62
     5
 63
     7
421
 16777215
 74
     1
 91
        4
 64
     7
 65
   257
 75
     1
175
     1
 42
1.0
 92
        0
 66
   257
 43
1.0
 76
     1
 77
     6
 78
     2
 67
     7
 79
     5
170
     0
171
     0
290
     0
174
     0
 93
        1
 44
0.0
173
     0
291
     0
 45
0.0
1001
ACAD
1000
AcDbSavedByObjectVersion
1070
     0
  0
VISUALSTYLE
  5
32
102
{ACAD_REACTORS
330
2A
102
}
330
2A
100
AcDbVisualStyle
  2
Basic
 70
     7
 71
     1
 72
     0
 73
     1
 90
        0
 40
-0.6
 41
-30.0
 62
     5
 63
     7
421
 16777215
 74
     0
 91
        4
 64
     7
 65
   257
 75
     1
175
     1
 42
1.0
 92
        8
 66
     7
 43
1.0
 76
     1
 77
     6
 78
     2
 67
     7
 79
     5
170
     0
171
     0
290
     0
174
     0
 93
        1
 44
0.0
173
     0
291
     1
 45
0.0
1001
ACAD
1000
AcDbSavedByObjectVersion
1070
     0
  0
VISUALSTYLE
  5
36
102
{ACAD_REACTORS
330
2A
102
}
330
2A
100
AcDbVisualStyle
  2
Brighten
 70
    12
 71
     2
 72
     2
 73
     0
 90
        0
 40
-0.6
 41
-30.0
 62
     5
 63
     7
421
 16777215
 74
     1
 91
        4
 64
     7
 65
   257
 75
     1
175
     1
 42
1.0
 92
        8
 66
     7
 43
1.0
 76
     1
 77
     6
 78
     2
 67
     7
 79
     5
170
     0
171
     0
290
     0
174
     0
 93
        1
 44
50.0
173
     0
291
     1
 45
0.0
1001
ACAD
1000
AcDbSavedByObjectVersion
1070
     0
  0
VISUALSTYLE
  5
3A
102
{ACAD_REACTORS
330
2A
102
}
330
2A
100
AcDbVisualStyle
  2
ColorChange
 70
    16
 71
     2
 72
     2
 73
     3
 90
        0
 40
-0.6
 41
-30.0
 62
     5
 63
     8
421
  8421504
 74
     1
 91
        4
 64
     7
 65
   257
 75
     1
175
     1
 42
1.0
 92
        8
 66
     8
424
  8421504
 43
1.0
 76
     1
 77
     6
 78
     2
 67
     7
 79
     5
170
     0
171
     0
290
     0
174
     0
 93
        1
 44
0.0
173
     0
291
     1
 45
0.0
1001
ACAD
1000
AcDbSavedByObjectVersion
1070
     0
  0
VISUALSTYLE
  5
34
102
{ACAD_REACTORS
330
2A
102
}
330
2A
100
AcDbVisualStyle
  2
Conceptual
 70
     9
 71
     3
 72
     2
 73
     0
 90
        0
 40
-0.6
 41
-30.0
 62
     5
 63
     7
421
 16777215
 74
     2
 91
        2
 64
     7
 65
   257
 75
     1
175
     1
 42
40.0
 92
        8
 66
     7
 43
1.0
 76
     1
 77
     6
 78
     2
 67
     7
 79
     3
170
     0
171
     0
290
     0
174
     0
 93
        1
 44
0.0
173
     0
291
     0
 45
0.0
1001
ACAD
1000
AcDbSavedByObjectVersion
1070
     0
  0
VISUALSTYLE
  5
35
102
{ACAD_REACTORS
330
2A
102
}
330
2A
100
AcDbVisualStyle
  2
Dim
 70
    11
 71
     2
 72
     2
 73
     0
 90
        0
 40
-0.6
 41
-30.0
 62
     5
 63
     7
421
 16777215
 74
     1
 91
        4
 64
     7
 65
   257
 75
     1
175
     1
 42
1.0
 92
        8
 66
     7
 43
1.0
 76
     1
 77
     6
 78
     2
 67
     7
 79
     5
170
     0
171
     0
290
     0
174
     0
 93
        1
 44
-50.0
173
     0
291
     1
 45
0.0
1001
ACAD
1000
AcDbSavedByObjectVersion
1070
     0
  0
VISUALSTYLE
  5
39
102
{ACAD_REACTORS
330
2A
102
}
330
2A
100
AcDbVisualStyle
  2
Facepattern
 70
    15
 71
     2
 72
     2
 73
     0
 90
        0
 40
-0.6
 41
-30.0
 62
     5
 63
     7
421
 16777215
 74
     1
 91
        4
 64
     7
 65
   257
 75
     1
175
     1
 42
1.0
 92
        8
 66
     7
 43
1.0
 76
     1
 77
     6
 78
     2
 67
     7
 79
     5
170
     0
171
     0
290
     0
174
     0
 93
        1
 44
0.0
173
     0
291
     1
 45
0.0
1001
ACAD
1000
AcDbSavedByObjectVersion
1070
     0
  0
VISUALSTYLE
  5
2B
102
{ACAD_REACTORS
330
2A
102
}
330
2A
100
AcDbVisualStyle
  2
Flat
 70
     0
 71
     2
 72
     1
 73
     1
 90
        2
 40
-0.6
 41
30.0
 62
     5
 63
     7
421
 16777215
 74
     0
 91
        4
 64
     7
 65
   257
 75
     1
175
     1
 42
1.0
 92
        8
 66
     7
 43
1.0
 76
     1
 77
     6
 78
     2
 67
     7
 79
     5
170
     0
171
     0
290
     0
174
     0
 93
       13
 44
0.0
173
     0
291
     1
 45
0.0
1001
ACAD
1000
AcDbSavedByObjectVersion
1070
     0
  0
VISUALSTYLE
  5
2C
102
{ACAD_REACTORS
330
2A
102
}
330
2A
100
AcDbVisualStyle
  2
FlatWithEdges
 70
     1
 71
     2
 72
     1
 73
     1
 90
        2
 40
-0.6
 41
30.0
 62
     5
 63
     7
421
 16777215
 74
     1
 91
        4
 64
     7
 65
   257
 75
     1
175
     1
 42
1.0
 92
        0
 66
   257
 43
1.0
 76
     1
 77
     6
 78
     2
 67
     7
 79
     5
170
     0
171
     0
290
     0
174
     0
 93
       13
 44
0.0
173
     0
291
     1
 45
0.0
1001
ACAD
1000
AcDbSavedByObjectVersion
1070
     0
  0
VISUALSTYLE
  5
2D
102
{ACAD_REACTORS
330
2A
102
}
330
2A
100
AcDbVisualStyle
  2
Gouraud
 70
     2
 71
     2
 72
     2
 73
     1
 90
        2
 40
-0.6
 41
30.0
 62
     5
 63
     7
421
 16777215
 74
     0
 91
        4
 64
     7
 65
   257
 75
     1
175
     1
 42
1.0
 92
        0
 66
     7
 43
1.0
 76
     1
 77
     6
 78
     2
 67
     7
 79
     5
170
     0
171
     0
290
     0
174
     0
 93
       13
 44
0.0
173
     0
291
     1
 45
0.0
1001
ACAD
1000
AcDbSavedByObjectVersion
1070
     0
  0
VISUALSTYLE
  5
2E
102
{ACAD_REACTORS
330
2A
102
}
330
2A
100
AcDbVisualStyle
  2
GouraudWithEdges
 70
     3
 71
     2
 72
     2
 73
     1
 90
        2
 40
-0.6
 41
30.0
 62
     5
 63
     7
421
 16777215
 74
     1
 91
        4
 64
     7
 65
   257
 75
     1
175
     1
 42
1.0
 92
        0
 66
   257
 43
1.0
 76
     1
 77
     6
 78
     2
 67
     7
 79
     5
170
     0
171
     0
290
     0
174
     0
 93
       13
 44
0.0
173
     0
291
     1
 45
0.0
1001
ACAD
1000
AcDbSavedByObjectVersion
1070
     0
  0
VISUALSTYLE
  5
38
102
{ACAD_REACTORS
330
2A
102
}
330
2A
100
AcDbVisualStyle
  2
Linepattern
 70
    14
 71
     2
 72
     2
 73
     0
 90
        0
 40
-0.6
 41
-30.0
 62
     5
 63
     7
421
 16777215
 74
     1
 91
        4
 64
     7
 65
   257
 75
     7
175
     7
 42
1.0
 92
        8
 66
     7
 43
1.0
 76
     1
 77
     6
 78
     2
 67
     7
 79
     5
170
     0
171
     0
290
     0
174
     0
 93
        1
 44
0.0
173
     0
291
     1
 45
0.0
1001
ACAD
1000
AcDbSavedByObjectVersion
1070
     0
  0
VISUALSTYLE
  5
33
102
{ACAD_REACTORS
330
2A
102
}
330
2A
100
AcDbVisualStyle
  2
Realistic
 70
     8
 71
     2
 72
     2
 73
     0
 90
        0
 40
-0.6
 41
-30.0
 62
     5
 63
     7
421
 16777215
 74
     1
 91
        0
 64
     7
 65
   257
 75
     1
175
     1
 42
1.0
 92
        8
 66
     8
424
  7895160
 43
1.0
 76
     1
 77
     6
 78
     2
 67
     7
 79
     5
170
     0
171
     0
290
     0
174
     0
 93
       13
 44
0.0
173
     0
291
     0
 45
0.0
1001
ACAD
1000
AcDbSavedByObjectVersion
1070
     0
  0
VISUALSTYLE
  5
37
102
{ACAD_REACTORS
330
2A
102
}
330
2A
100
AcDbVisualStyle
  2
Thicken
 70
    13
 71
     2
 72
     2
 73
     0
 90
        0
 40
-0.6
 41
-30.0
 62
     5
 63
     7
421
 16777215
 74
     1
 91
        4
 64
     7
 65
   257
 75
     1
175
     1
 42
1.0
 92
       12
 66
     7
 43
1.0
 76
     1
 77
     6
 78
     2
 67
     7
 79
     5
170
     0
171
     0
290
     0
174
     0
 93
        1
 44
0.0
173
     0
291
     1
 45
0.0
1001
ACAD
1000
AcDbSavedByObjectVersion
1070
     0
  0
DICTIONARYVAR
  5
236
102
{ACAD_REACTORS
330
235
102
}
330
235
100
DictionaryVariables
280
     0
  1
1:1
  0
ENDSEC
  0
EOF
