  0
SECTION
  2
HEADER
  9
$ACADVER
  1
AC1018
  9
$ACADMAINTVER
 70
    39
  9
$DWGCODEPAGE
  3
ANSI_1252
  9
$INSBASE
 10
0.0
 20
0.0
 30
0.0
  9
$EXTMIN
 10
232.2157353958151
 20
-0.3499356096816579
 30
0.0
  9
$EXTMAX
 10
575.1667611083044
 20
316.7821127176285
 30
0.0
  9
$LIMMIN
 10
0.0
 20
0.0
  9
$LIMMAX
 10
12.0
 20
9.0
  9
$ORTHOMODE
 70
     1
  9
$REGENMODE
 70
     1
  9
$FILLMODE
 70
     1
  9
$QTEXTMODE
 70
     0
  9
$MIRRTEXT
 70
     1
  9
$LTSCALE
 40
1.0
  9
$ATTMODE
 70
     1
  9
$TEXTSIZE
 40
0.2
  9
$TRACEWID
 40
0.05
  9
$TEXTSTYLE
  7
Standard
  9
$CLAYER
  8
0
  9
$CELTYPE
  6
ByLayer
  9
$CECOLOR
 62
   256
  9
$CELTSCALE
 40
1.0
  9
$DISPSILH
 70
     0
  9
$DIMSCALE
 40
1.0
  9
$DIMASZ
 40
0.18
  9
$DIMEXO
 40
0.0625
  9
$DIMDLI
 40
0.38
  9
$DIMRND
 40
0.0
  9
$DIMDLE
 40
0.0
  9
$DIMEXE
 40
0.18
  9
$DIMTP
 40
0.0
  9
$DIMTM
 40
0.0
  9
$DIMTXT
 40
0.18
  9
$DIMCEN
 40
0.09
  9
$DIMTSZ
 40
0.0
  9
$DIMTOL
 70
     0
  9
$DIMLIM
 70
     0
  9
$DIMTIH
 70
     1
  9
$DIMTOH
 70
     1
  9
$DIMSE1
 70
     0
  9
$DIMSE2
 70
     0
  9
$DIMTAD
 70
     0
  9
$DIMZIN
 70
     0
  9
$DIMBLK
  1

  9
$DIMASO
 70
     1
  9
$DIMSHO
 70
     1
  9
$DIMPOST
  1

  9
$DIMAPOST
  1

  9
$DIMALT
 70
     0
  9
$DIMALTD
 70
     2
  9
$DIMALTF
 40
25.4
  9
$DIMLFAC
 40
1.0
  9
$DIMTOFL
 70
     0
  9
$DIMTVP
 40
0.0
  9
$DIMTIX
 70
     0
  9
$DIMSOXD
 70
     0
  9
$DIMSAH
 70
     0
  9
$DIMBLK1
  1

  9
$DIMBLK2
  1

  9
$DIMSTYLE
  2
Standard
  9
$DIMCLRD
 70
     0
  9
$DIMCLRE
 70
     0
  9
$DIMCLRT
 70
     0
  9
$DIMTFAC
 40
1.0
  9
$DIMGAP
 40
0.09
  9
$DIMJUST
 70
     0
  9
$DIMSD1
 70
     0
  9
$DIMSD2
 70
     0
  9
$DIMTOLJ
 70
     1
  9
$DIMTZIN
 70
     0
  9
$DIMALTZ
 70
     0
  9
$DIMALTTZ
 70
     0
  9
$DIMUPT
 70
     0
  9
$DIMDEC
 70
     4
  9
$DIMTDEC
 70
     4
  9
$DIMALTU
 70
     2
  9
$DIMALTTD
 70
     2
  9
$DIMTXSTY
  7
Standard
  9
$DIMAUNIT
 70
     0
  9
$DIMADEC
 70
     0
  9
$DIMALTRND
 40
0.0
  9
$DIMAZIN
 70
     0
  9
$DIMDSEP
 70
    46
  9
$DIMATFIT
 70
     3
  9
$DIMFRAC
 70
     0
  9
$DIMLDRBLK
  1

  9
$DIMLUNIT
 70
     2
  9
$DIMLWD
 70
    -2
  9
$DIMLWE
 70
    -2
  9
$DIMTMOVE
 70
     0
  9
$LUNITS
 70
     2
  9
$LUPREC
 70
     2
  9
$SKETCHINC
 40
0.1
  9
$FILLETRAD
 40
0.5
  9
$AUNITS
 70
     0
  9
$AUPREC
 70
     0
  9
$MENU
  1
.
  9
$ELEVATION
 40
0.0
  9
$PELEVATION
 40
0.0
  9
$THICKNESS
 40
0.0
  9
$LIMCHECK
 70
     0
  9
$CHAMFERA
 40
0.5
  9
$CHAMFERB
 40
0.5
  9
$CHAMFERC
 40
1.0
  9
$CHAMFERD
 40
0.0
  9
$SKPOLY
 70
     0
  9
$TDCREATE
 40
2454981.716425995
  9
$TDUCREATE
 40
2454981.633092662
  9
$TDUPDATE
 40
2454986.483648322
  9
$TDUUPDATE
 40
2454986.400314989
  9
$TDINDWG
 40
0.0020256250
  9
$TDUSRTIMER
 40
0.0020254514
  9
$USRTIMER
 70
     1
  9
$ANGBASE
 50
0.0
  9
$ANGDIR
 70
     0
  9
$PDMODE
 70
     0
  9
$PDSIZE
 40
0.0
  9
$PLINEWID
 40
0.0
  9
$SPLFRAME
 70
     0
  9
$SPLINETYPE
 70
     6
  9
$SPLINESEGS
 70
     8
  9
$HANDSEED
  5
6ED
  9
$SURFTAB1
 70
     6
  9
$SURFTAB2
 70
     6
  9
$SURFTYPE
 70
     6
  9
$SURFU
 70
     6
  9
$SURFV
 70
     6
  9
$UCSBASE
  2

  9
$UCSNAME
  2

  9
$UCSORG
 10
0.0
 20
0.0
 30
0.0
  9
$UCSXDIR
 10
1.0
 20
0.0
 30
0.0
  9
$UCSYDIR
 10
0.0
 20
1.0
 30
0.0
  9
$UCSORTHOREF
  2

  9
$UCSORTHOVIEW
 70
     0
  9
$UCSORGTOP
 10
0.0
 20
0.0
 30
0.0
  9
$UCSORGBOTTOM
 10
0.0
 20
0.0
 30
0.0
  9
$UCSORGLEFT
 10
0.0
 20
0.0
 30
0.0
  9
$UCSORGRIGHT
 10
0.0
 20
0.0
 30
0.0
  9
$UCSORGFRONT
 10
0.0
 20
0.0
 30
0.0
  9
$UCSORGBACK
 10
0.0
 20
0.0
 30
0.0
  9
$PUCSBASE
  2

  9
$PUCSNAME
  2

  9
$PUCSORG
 10
0.0
 20
0.0
 30
0.0
  9
$PUCSXDIR
 10
1.0
 20
0.0
 30
0.0
  9
$PUCSYDIR
 10
0.0
 20
1.0
 30
0.0
  9
$PUCSORTHOREF
  2

  9
$PUCSORTHOVIEW
 70
     0
  9
$PUCSORGTOP
 10
0.0
 20
0.0
 30
0.0
  9
$PUCSORGBOTTOM
 10
0.0
 20
0.0
 30
0.0
  9
$PUCSORGLEFT
 10
0.0
 20
0.0
 30
0.0
  9
$PUCSORGRIGHT
 10
0.0
 20
0.0
 30
0.0
  9
$PUCSORGFRONT
 10
0.0
 20
0.0
 30
0.0
  9
$PUCSORGBACK
 10
0.0
 20
0.0
 30
0.0
  9
$USERI1
 70
     0
  9
$USERI2
 70
     0
  9
$USERI3
 70
     0
  9
$USERI4
 70
     0
  9
$USERI5
 70
     0
  9
$USERR1
 40
0.0
  9
$USERR2
 40
0.0
  9
$USERR3
 40
0.0
  9
$USERR4
 40
0.0
  9
$USERR5
 40
0.0
  9
$WORLDVIEW
 70
     1
  9
$SHADEDGE
 70
     3
  9
$SHADEDIF
 70
    70
  9
$TILEMODE
 70
     1
  9
$MAXACTVP
 70
    64
  9
$PINSBASE
 10
0.0
 20
0.0
 30
0.0
  9
$PLIMCHECK
 70
     0
  9
$PEXTMIN
 10
1.000000000000000E+20
 20
1.000000000000000E+20
 30
1.000000000000000E+20
  9
$PEXTMAX
 10
-1.000000000000000E+20
 20
-1.000000000000000E+20
 30
-1.000000000000000E+20
  9
$PLIMMIN
 10
0.0
 20
0.0
  9
$PLIMMAX
 10
12.0
 20
9.0
  9
$UNITMODE
 70
     0
  9
$VISRETAIN
 70
     1
  9
$PLINEGEN
 70
     0
  9
$PSLTSCALE
 70
     1
  9
$TREEDEPTH
 70
  3020
  9
$CMLSTYLE
  2
Standard
  9
$CMLJUST
 70
     0
  9
$CMLSCALE
 40
1.0
  9
$PROXYGRAPHICS
 70
     1
  9
$MEASUREMENT
 70
     0
  9
$CELWEIGHT
370
    -1
  9
$ENDCAPS
280
     0
  9
$JOINSTYLE
280
     0
  9
$LWDISPLAY
290
     0
  9
$INSUNITS
 70
     4
  9
$HYPERLINKBASE
  1

  9
$STYLESHEET
  1

  9
$XEDIT
290
     1
  9
$CEPSNTYPE
380
     0
  9
$PSTYLEMODE
290
     1
  9
$FINGERPRINTGUID
  2
{FB546F14-FFB0-482D-9840-C8AAE00E3876}
  9
$VERSIONGUID
  2
{C6EB9C4D-967B-4FCE-A767-3D976723A22E}
  9
$EXTNAMES
290
     1
  9
$PSVPSCALE
 40
0.0
  9
$OLESTARTUP
290
     0
  9
$SORTENTS
280
   127
  9
$INDEXCTL
280
     0
  9
$HIDETEXT
280
     1
  9
$XCLIPFRAME
290
     0
  9
$HALOGAP
280
     0
  9
$OBSCOLOR
 70
   257
  9
$OBSLTYPE
280
     0
  9
$INTERSECTIONDISPLAY
280
     0
  9
$INTERSECTIONCOLOR
 70
   257
  9
$DIMASSOC
280
     2
  9
$PROJECTNAME
  1

  0
ENDSEC
  0
SECTION
  2
CLASSES
  0
CLASS
  1
ACDBDICTIONARYWDFLT
  2
AcDbDictionaryWithDefault
  3
ObjectDBX Classes
 90
        0
 91
        1
280
     0
281
     0
  0
CLASS
  1
TABLESTYLE
  2
AcDbTableStyle
  3
ObjectDBX Classes
 90
     2047
 91
        1
280
     0
281
     0
  0
CLASS
  1
DICTIONARYVAR
  2
AcDbDictionaryVar
  3
ObjectDBX Classes
 90
        0
 91
        1
280
     0
281
     0
  0
ENDSEC
  0
SECTION
  2
TABLES
  0
TABLE
  2
VPORT
  5
8
330
0
100
AcDbSymbolTable
 70
     2
  0
VPORT
  5
6EC
330
8
100
AcDbSymbolTableRecord
100
AcDbViewportTableRecord
  2
*Active
 70
     0
 10
0.0
 20
0.0
 11
1.0
 21
1.0
 12
-22.05926932207331
 22
-115.7632048374697
 13
0.0
 23
0.0
 14
0.5
 24
0.5
 15
0.5
 25
0.5
 16
0.0
 26
0.0
 36
1.0
 17
403.6563722795656
 27
158.378961325434
 37
0.0
 40
304.6914885879275
 41
1.489236790606653
 42
50.0
 43
0.0
 44
0.0
 50
0.0
 51
0.0
 71
     0
 72
   100
 73
     1
 74
     3
 75
     0
 76
     0
 77
     0
 78
     0
281
     0
 65
     1
110
0.0
120
0.0
130
0.0
111
1.0
121
0.0
131
0.0
112
0.0
122
1.0
132
0.0
 79
     0
146
0.0
  0
ENDTAB
  0
TABLE
  2
LTYPE
  5
5
330
0
100
AcDbSymbolTable
 70
     1
  0
LTYPE
  5
14
330
5
100
AcDbSymbolTableRecord
100
AcDbLinetypeTableRecord
  2
ByBlock
 70
     0
  3

 72
    65
 73
     0
 40
0.0
  0
LTYPE
  5
15
330
5
100
AcDbSymbolTableRecord
100
AcDbLinetypeTableRecord
  2
ByLayer
 70
     0
  3

 72
    65
 73
     0
 40
0.0
  0
LTYPE
  5
16
330
5
100
AcDbSymbolTableRecord
100
AcDbLinetypeTableRecord
  2
Continuous
 70
     0
  3
Solid line
 72
    65
 73
     0
 40
0.0
  0
ENDTAB
  0
TABLE
  2
LAYER
  5
2
330
0
100
AcDbSymbolTable
 70
     2
  0
LAYER
  5
10
330
2
100
AcDbSymbolTableRecord
100
AcDbLayerTableRecord
  2
0
 70
     0
 62
     7
  6
Continuous
370
    -3
390
F
  0
LAYER
  5
2A
330
2
100
AcDbSymbolTableRecord
100
AcDbLayerTableRecord
  2
LINEE VISIBILI 2D
 70
     0
 62
     7
  6
Continuous
370
    -3
390
F
  0
ENDTAB
  0
TABLE
  2
STYLE
  5
3
330
0
100
AcDbSymbolTable
 70
     1
  0
STYLE
  5
11
330
3
100
AcDbSymbolTableRecord
100
AcDbTextStyleTableRecord
  2
Standard
 70
     0
 40
0.0
 41
1.0
 50
0.0
 71
     0
 42
0.2
  3
txt
  4

  0
ENDTAB
  0
TABLE
  2
VIEW
  5
6
330
0
100
AcDbSymbolTable
 70
     0
  0
ENDTAB
  0
TABLE
  2
UCS
  5
7
330
0
100
AcDbSymbolTable
 70
     0
  0
ENDTAB
  0
TABLE
  2
APPID
  5
9
330
0
100
AcDbSymbolTable
 70
     1
  0
APPID
  5
12
330
9
100
AcDbSymbolTableRecord
100
AcDbRegAppTableRecord
  2
ACAD
 70
     0
  0
ENDTAB
  0
TABLE
  2
DIMSTYLE
  5
A
330
0
100
AcDbSymbolTable
 70
     1
100
AcDbDimStyleTable
 71
     0
  0
DIMSTYLE
105
27
330
A
100
AcDbSymbolTableRecord
100
AcDbDimStyleTableRecord
  2
Standard
 70
     0
340
11
  0
ENDTAB
  0
TABLE
  2
BLOCK_RECORD
  5
1
330
0
100
AcDbSymbolTable
 70
     1
  0
BLOCK_RECORD
  5
1F
330
1
100
AcDbSymbolTableRecord
100
AcDbBlockTableRecord
  2
*Model_Space
340
22
  0
BLOCK_RECORD
  5
1B
330
1
100
AcDbSymbolTableRecord
100
AcDbBlockTableRecord
  2
*Paper_Space
340
1E
  0
BLOCK_RECORD
  5
23
330
1
100
AcDbSymbolTableRecord
100
AcDbBlockTableRecord
  2
*Paper_Space0
340
26
  0
ENDTAB
  0
ENDSEC
  0
SECTION
  2
BLOCKS
  0
BLOCK
  5
20
330
1F
100
AcDbEntity
  8
0
100
AcDbBlockBegin
  2
*Model_Space
 70
     0
 10
0.0
 20
0.0
 30
0.0
  3
*Model_Space
  1

  0
ENDBLK
  5
21
330
1F
100
AcDbEntity
  8
0
100
AcDbBlockEnd
  0
BLOCK
  5
1C
330
1B
100
AcDbEntity
 67
     1
  8
0
100
AcDbBlockBegin
  2
*Paper_Space
 70
     0
 10
0.0
 20
0.0
 30
0.0
  3
*Paper_Space
  1

  0
ENDBLK
  5
1D
330
1B
100
AcDbEntity
 67
     1
  8
0
100
AcDbBlockEnd
  0
BLOCK
  5
24
330
23
100
AcDbEntity
  8
0
100
AcDbBlockBegin
  2
*Paper_Space0
 70
     0
 10
0.0
 20
0.0
 30
0.0
  3
*Paper_Space0
  1

  0
ENDBLK
  5
25
330
23
100
AcDbEntity
  8
0
100
AcDbBlockEnd
  0
ENDSEC
  0
SECTION
  2
ENTITIES
  0
LINE
  5
2B
330
1F
100
AcDbEntity
  8
LINEE VISIBILI 2D
100
AcDbLine
 10
351.9911778360093
 20
11.23981160585895
 30
0.0
 11
352.0345723293425
 21
11.0663109507948
 31
0.0
  0
LINE
  5
2C
330
1F
100
AcDbEntity
  8
LINEE VISIBILI 2D
100
AcDbLine
 10
338.6048667635068
 20
6.313168201172201
 30
0.0
 11
338.95143814733
 21
6.285217262330422
 31
0.0
  0
ARC
  5
2D
330
1F
100
AcDbEntity
  8
LINEE VISIBILI 2D
100
AcDbCircle
 10
252.2633358133896
 20
163.625308404747
 30
0.0
 40
52.81821604447269
100
AcDbArc
 50
80.12892404315508
 51
99.87118090948849
  0
ARC
  5
2E
330
1F
100
AcDbEntity
  8
LINEE VISIBILI 2D
100
AcDbCircle
 10
233.7196226147761
 20
200.7514029538543
 30
0.0
 40
1.456627231379071
100
AcDbArc
 50
148.824988173743
 51
178.7980944469352
  0
POLYLINE
  5
2F
330
1F
100
AcDbEntity
  8
LINEE VISIBILI 2D
100
AcDb2dPolyline
 66
     1
 10
0.0
 20
0.0
 30
0.0
  0
VERTEX
  5
31
330
2F
100
AcDbEntity
  8
LINEE VISIBILI 2D
100
AcDbVertex
100
AcDb2dVertex
 10
239.8056793532281
 20
214.1464613424145
 30
0.0
  0
VERTEX
  5
32
330
2F
100
AcDbEntity
  8
LINEE VISIBILI 2D
100
AcDbVertex
100
AcDb2dVertex
 10
239.8139428396975
 20
214.1603345317643
 30
0.0
  0
VERTEX
  5
33
330
2F
100
AcDbEntity
  8
LINEE VISIBILI 2D
100
AcDbVertex
100
AcDb2dVertex
 10
239.8224484870879
 20
214.1740490113231
 30
0.0
  0
VERTEX
  5
34
330
2F
100
AcDbEntity
  8
LINEE VISIBILI 2D
100
AcDbVertex
100
AcDb2dVertex
 10
239.8401577641548
 20
214.2010080057697
 30
0.0
  0
VERTEX
  5
35
330
2F
100
AcDbEntity
  8
LINEE VISIBILI 2D
100
AcDbVertex
100
AcDb2dVertex
 10
239.8587501834752
 20
214.2273506551592
 30
0.0
  0
VERTEX
  5
36
330
2F
100
AcDbEntity
  8
LINEE VISIBILI 2D
100
AcDbVertex
100
AcDb2dVertex
 10
239.8781687440956
 20
214.2530892888965
 30
0.0
  0
VERTEX
  5
37
330
2F
100
AcDbEntity
  8
LINEE VISIBILI 2D
100
AcDbVertex
100
AcDb2dVertex
 10
239.8983564450625
 20
214.2782362363864
 30
0.0
  0
VERTEX
  5
38
330
2F
100
AcDbEntity
  8
LINEE VISIBILI 2D
100
AcDbVertex
100
AcDb2dVertex
 10
239.9192562854224
 20
214.3028038270336
 30
0.0
  0
VERTEX
  5
39
330
2F
100
AcDbEntity
  8
LINEE VISIBILI 2D
100
AcDbVertex
100
AcDb2dVertex
 10
239.9408112642219
 20
214.326804390243
 30
0.0
  0
VERTEX
  5
3A
330
2F
100
AcDbEntity
  8
LINEE VISIBILI 2D
100
AcDbVertex
100
AcDb2dVertex
 10
239.9629643805074
 20
214.3502502554197
 30
0.0
  0
VERTEX
  5
3B
330
2F
100
AcDbEntity
  8
LINEE VISIBILI 2D
100
AcDbVertex
100
AcDb2dVertex
 10
239.9911550356774
 20
214.3785438575637
 30
0.0
  0
VERTEX
  5
3C
330
2F
100
AcDbEntity
  8
LINEE VISIBILI 2D
100
AcDbVertex
100
AcDb2dVertex
 10
240.020111206978
 20
214.4060499260472
 30
0.0
  0
VERTEX
  5
3D
330
2F
100
AcDbEntity
  8
LINEE VISIBILI 2D
100
AcDbVertex
100
AcDb2dVertex
 10
240.0497682015038
 20
214.432813026521
 30
0.0
  0
VERTEX
  5
3E
330
2F
100
AcDbEntity
  8
LINEE VISIBILI 2D
100
AcDbVertex
100
AcDb2dVertex
 10
240.0800613263491
 20
214.4588777246359
 30
0.0
  0
VERTEX
  5
3F
330
2F
100
AcDbEntity
  8
LINEE VISIBILI 2D
100
AcDbVertex
100
AcDb2dVertex
 10
240.1109258886084
 20
214.4842885860425
 30
0.0
  0
VERTEX
  5
40
330
2F
100
AcDbEntity
  8
LINEE VISIBILI 2D
100
AcDbVertex
100
AcDb2dVertex
 10
240.1422971953762
 20
214.5090901763916
 30
0.0
  0
VERTEX
  5
41
330
2F
100
AcDbEntity
  8
LINEE VISIBILI 2D
100
AcDbVertex
100
AcDb2dVertex
 10
240.2063012708149
 20
214.5570438065203
 30
0.0
  0
VERTEX
  5
42
330
2F
100
AcDbEntity
  8
LINEE VISIBILI 2D
100
AcDbVertex
100
AcDb2dVertex
 10
240.2487470303351
 20
214.5872434324642
 30
0.0
  0
VERTEX
  5
43
330
2F
100
AcDbEntity
  8
LINEE VISIBILI 2D
100
AcDbVertex
100
AcDb2dVertex
 10
240.291700293441
 20
214.6166620971257
 30
0.0
  0
VERTEX
  5
44
330
2F
100
AcDbEntity
  8
LINEE VISIBILI 2D
100
AcDbVertex
100
AcDb2dVertex
 10
240.3790337623692
 20
214.6732657724245
 30
0.0
  0
VERTEX
  5
45
330
2F
100
AcDbEntity
  8
LINEE VISIBILI 2D
100
AcDbVertex
100
AcDb2dVertex
 10
240.4681105415185
 20
214.7270732920625
 30
0.0
  0
VERTEX
  5
46
330
2F
100
AcDbEntity
  8
LINEE VISIBILI 2D
100
AcDbVertex
100
AcDb2dVertex
 10
240.5587394948079
 20
214.7783031156854
 30
0.0
  0
VERTEX
  5
47
330
2F
100
AcDbEntity
  8
LINEE VISIBILI 2D
100
AcDbVertex
100
AcDb2dVertex
 10
240.6507294861565
 20
214.8271737029393
 30
0.0
  0
VERTEX
  5
48
330
2F
100
AcDbEntity
  8
LINEE VISIBILI 2D
100
AcDbVertex
100
AcDb2dVertex
 10
240.7438893794833
 20
214.87390351347
 30
0.0
  0
VERTEX
  5
49
330
2F
100
AcDbEntity
  8
LINEE VISIBILI 2D
100
AcDbVertex
100
AcDb2dVertex
 10
240.8380280387073
 20
214.9187110069235
 30
0.0
  0
VERTEX
  5
4A
330
2F
100
AcDbEntity
  8
LINEE VISIBILI 2D
100
AcDbVertex
100
AcDb2dVertex
 10
240.9329543277476
 20
214.9618146429456
 30
0.0
  0
VERTEX
  5
4B
330
2F
100
AcDbEntity
  8
LINEE VISIBILI 2D
100
AcDbVertex
100
AcDb2dVertex
 10
241.0545212789885
 20
215.0144431908944
 30
0.0
  0
VERTEX
  5
4C
330
2F
100
AcDbEntity
  8
LINEE VISIBILI 2D
100
AcDbVertex
100
AcDb2dVertex
 10
241.1769821030801
 20
215.0648086914038
 30
0.0
  0
VERTEX
  5
4D
330
2F
100
AcDbEntity
  8
LINEE VISIBILI 2D
100
AcDbVertex
100
AcDb2dVertex
 10
241.4243048190199
 20
215.1593007353639
 30
0.0
  0
VERTEX
  5
4E
330
2F
100
AcDbEntity
  8
LINEE VISIBILI 2D
100
AcDbVertex
100
AcDb2dVertex
 10
241.6743613739761
 20
215.2463911453454
 30
0.0
  0
VERTEX
  5
4F
330
2F
100
AcDbEntity
  8
LINEE VISIBILI 2D
100
AcDbVertex
100
AcDb2dVertex
 10
241.9265906663579
 20
215.3271802918673
 30
0.0
  0
VERTEX
  5
50
330
2F
100
AcDbEntity
  8
LINEE VISIBILI 2D
100
AcDbVertex
100
AcDb2dVertex
 10
242.2443536341169
 20
215.420817573446
 30
0.0
  0
VERTEX
  5
51
330
2F
100
AcDbEntity
  8
LINEE VISIBILI 2D
100
AcDbVertex
100
AcDb2dVertex
 10
242.564196025734
 20
215.507202822817
 30
0.0
  0
VERTEX
  5
52
330
2F
100
AcDbEntity
  8
LINEE VISIBILI 2D
100
AcDbVertex
100
AcDb2dVertex
 10
243.2083535221594
 20
215.661748657743
 30
0.0
  0
SEQEND
  5
30
330
2F
100
AcDbEntity
  8
LINEE VISIBILI 2D
  0
LINE
  5
53
330
1F
100
AcDbEntity
  8
LINEE VISIBILI 2D
100
AcDbLine
 10
246.6632738343597
 20
314.7821127110645
 30
0.0
 11
244.7668109938136
 21
316.7783893853236
 31
0.0
  0
LINE
  5
54
330
1F
100
AcDbEntity
  8
LINEE VISIBILI 2D
100
AcDbLine
 10
259.7597366749058
 20
316.7783893853236
 30
0.0
 11
257.8632738343598
 21
314.7821127110645
 31
0.0
  0
LINE
  5
55
330
1F
100
AcDbEntity
  8
LINEE VISIBILI 2D
100
AcDbLine
 10
251.4632738343598
 20
312.8821005040336
 30
0.0
 11
251.4632738343598
 21
316.7821005040336
 31
0.0
  0
LINE
  5
56
330
1F
100
AcDbEntity
  8
LINEE VISIBILI 2D
100
AcDbLine
 10
253.0632738343598
 20
316.7821005040336
 30
0.0
 11
253.0632738343598
 21
312.8821005040336
 31
0.0
  0
LINE
  5
57
330
1F
100
AcDbEntity
  8
LINEE VISIBILI 2D
100
AcDbLine
 10
252.2432738343598
 20
216.4314115482369
 30
0.0
 11
252.2432738343598
 21
312.8821005040336
 31
0.0
  0
LINE
  5
58
330
1F
100
AcDbEntity
  8
LINEE VISIBILI 2D
100
AcDbLine
 10
252.2832738343598
 20
312.8821005040336
 30
0.0
 11
252.2832738343598
 21
216.4314115868421
 31
0.0
  0
LINE
  5
59
330
1F
100
AcDbEntity
  8
LINEE VISIBILI 2D
100
AcDbLine
 10
575.0494285169362
 20
211.6555218674734
 30
0.0
 11
575.0494284997362
 21
215.1736432126993
 31
0.0
  0
LINE
  5
5A
330
1F
100
AcDbEntity
  8
LINEE VISIBILI 2D
100
AcDbLine
 10
500.5484285169491
 20
316.7821127110661
 30
0.0
 11
515.5409720672418
 21
316.7821127110661
 31
0.0
  0
LINE
  5
5B
330
1F
100
AcDbEntity
  8
LINEE VISIBILI 2D
100
AcDbLine
 10
513.6484285169491
 20
314.7821127110661
 30
0.0
 11
515.5448913574953
 21
316.7783893853252
 31
0.0
  0
LINE
  5
5C
330
1F
100
AcDbEntity
  8
LINEE VISIBILI 2D
100
AcDbLine
 10
449.8484285169491
 20
312.8821005040352
 30
0.0
 11
449.8484285169491
 21
316.7821005040352
 31
0.0
  0
LINE
  5
5D
330
1F
100
AcDbEntity
  8
LINEE VISIBILI 2D
100
AcDbLine
 10
449.0484285169491
 20
316.7821005040352
 30
0.0
 11
449.8484285169491
 21
316.7821005040352
 31
0.0
  0
LINE
  5
5E
330
1F
100
AcDbEntity
  8
LINEE VISIBILI 2D
100
AcDbLine
 10
449.0484285169491
 20
312.8821005040352
 30
0.0
 11
448.2484285169491
 21
312.8821005040352
 31
0.0
  0
LINE
  5
5F
330
1F
100
AcDbEntity
  8
LINEE VISIBILI 2D
100
AcDbLine
 10
567.8484285169491
 20
312.8821005040352
 30
0.0
 11
567.8484285169491
 21
316.7821005040352
 31
0.0
  0
LINE
  5
60
330
1F
100
AcDbEntity
  8
LINEE VISIBILI 2D
100
AcDbLine
 10
567.0484285169492
 20
316.7821005040352
 30
0.0
 11
567.8484285169491
 21
316.7821005040352
 31
0.0
  0
LINE
  5
61
330
1F
100
AcDbEntity
  8
LINEE VISIBILI 2D
100
AcDbLine
 10
567.0484285169492
 20
312.8821005040352
 30
0.0
 11
566.2484285169491
 21
312.8821005040352
 31
0.0
  0
LINE
  5
62
330
1F
100
AcDbEntity
  8
LINEE VISIBILI 2D
100
AcDbLine
 10
513.6484285169491
 20
314.7821127110661
 30
0.0
 11
502.4484285169491
 21
314.7821127110661
 31
0.0
  0
LINE
  5
63
330
1F
100
AcDbEntity
  8
LINEE VISIBILI 2D
100
AcDbLine
 10
500.5484285169491
 20
316.7821127110661
 30
0.0
 11
502.4484285169491
 21
314.7821127110661
 31
0.0
  0
LINE
  5
64
330
1F
100
AcDbEntity
  8
LINEE VISIBILI 2D
100
AcDbLine
 10
448.2484285169491
 20
316.7821005040352
 30
0.0
 11
448.2484285169491
 21
312.8821005040352
 31
0.0
  0
LINE
  5
65
330
1F
100
AcDbEntity
  8
LINEE VISIBILI 2D
100
AcDbLine
 10
448.2484285169491
 20
316.7821005040352
 30
0.0
 11
449.0484285169491
 21
316.7821005040352
 31
0.0
  0
LINE
  5
66
330
1F
100
AcDbEntity
  8
LINEE VISIBILI 2D
100
AcDbLine
 10
449.8484285169491
 20
312.8821005040352
 30
0.0
 11
449.0484285169491
 21
312.8821005040352
 31
0.0
  0
LINE
  5
67
330
1F
100
AcDbEntity
  8
LINEE VISIBILI 2D
100
AcDbLine
 10
566.2484285169491
 20
316.7821005040352
 30
0.0
 11
566.2484285169491
 21
312.8821005040352
 31
0.0
  0
LINE
  5
68
330
1F
100
AcDbEntity
  8
LINEE VISIBILI 2D
100
AcDbLine
 10
566.2484285169491
 20
316.7821005040352
 30
0.0
 11
567.0484285169492
 21
316.7821005040352
 31
0.0
  0
LINE
  5
69
330
1F
100
AcDbEntity
  8
LINEE VISIBILI 2D
100
AcDbLine
 10
567.8484285169491
 20
312.8821005040352
 30
0.0
 11
567.0484285169492
 21
312.8821005040352
 31
0.0
  0
LINE
  5
6A
330
1F
100
AcDbEntity
  8
LINEE VISIBILI 2D
100
AcDbLine
 10
567.1284285169492
 20
312.8821005040351
 30
0.0
 11
567.1284285169492
 21
214.8988123979553
 31
0.0
  0
LINE
  5
6B
330
1F
100
AcDbEntity
  8
LINEE VISIBILI 2D
100
AcDbLine
 10
567.1684285169492
 20
214.9051557459714
 30
0.0
 11
567.1684285169492
 21
312.8821005040351
 31
0.0
  0
LINE
  5
6C
330
1F
100
AcDbEntity
  8
LINEE VISIBILI 2D
100
AcDbLine
 10
448.9284285169492
 20
312.8821005040352
 30
0.0
 11
448.9284285169492
 21
214.9051557459714
 31
0.0
  0
LINE
  5
6D
330
1F
100
AcDbEntity
  8
LINEE VISIBILI 2D
100
AcDbLine
 10
446.9337365867302
 20
26.70897514981553
 30
0.0
 11
446.9332989576834
 21
13.29075206691961
 31
0.0
  0
ARC
  5
6E
330
1F
100
AcDbEntity
  8
LINEE VISIBILI 2D
100
AcDbCircle
 10
449.0484285169864
 20
19.99999904688207
 30
0.0
 40
0.25
100
AcDbArc
 50
359.999999284263
 51
180.0000005304461
  0
ARC
  5
6F
330
1F
100
AcDbEntity
  8
LINEE VISIBILI 2D
100
AcDbCircle
 10
449.0484285169864
 20
19.99999904261631
 30
0.0
 40
0.2499999999998863
100
AcDbArc
 50
179.9999995528065
 51
0.000000261902648
  0
LINE
  5
70
330
1F
100
AcDbEntity
  8
LINEE VISIBILI 2D
100
AcDbLine
 10
446.7864157342651
 20
26.64402694635279
 30
0.0
 11
446.7298267551515
 21
26.50381440204349
 31
0.0
  0
LINE
  5
71
330
1F
100
AcDbEntity
  8
LINEE VISIBILI 2D
100
AcDbLine
 10
446.7297442996742
 20
13.49601834443972
 30
0.0
 11
446.7871517800035
 21
13.35495378282304
 31
0.0
  0
LINE
  5
72
330
1F
100
AcDbEntity
  8
LINEE VISIBILI 2D
100
AcDbLine
 10
569.1635580762149
 20
13.29075206691961
 30
0.0
 11
569.1631204471682
 21
26.70897514981553
 31
0.0
  0
ARC
  5
73
330
1F
100
AcDbEntity
  8
LINEE VISIBILI 2D
100
AcDbCircle
 10
567.048428516912
 20
19.99999904261654
 30
0.0
 40
0.2499999999998863
100
AcDbArc
 50
179.9999997381494
 51
0.0000004471414096
  0
ARC
  5
74
330
1F
100
AcDbEntity
  8
LINEE VISIBILI 2D
100
AcDbCircle
 10
567.0484285169118
 20
19.99999904688229
 30
0.0
 40
0.2499999999998863
100
AcDbArc
 50
359.9999994695018
 51
180.000000715789
  0
LINE
  5
75
330
1F
100
AcDbEntity
  8
LINEE VISIBILI 2D
100
AcDbLine
 10
569.3097117376232
 20
13.35496061545289
 30
0.0
 11
569.3671127342242
 21
13.49601834443972
 31
0.0
  0
LINE
  5
76
330
1F
100
AcDbEntity
  8
LINEE VISIBILI 2D
100
AcDbLine
 10
569.3670302787467
 20
26.50381440204349
 30
0.0
 11
569.3104349249328
 21
26.64403372053041
 31
0.0
  0
LINE
  5
77
330
1F
100
AcDbEntity
  8
LINEE VISIBILI 2D
100
AcDbLine
 10
446.727406947582
 20
13.72228402005255
 30
0.0
 11
446.7297442996742
 21
13.49601834443969
 31
0.0
  0
ARC
  5
78
330
1F
100
AcDbEntity
  8
LINEE VISIBILI 2D
100
AcDbCircle
 10
-728.3842837982794
 20
20.00099693611313
 30
0.0
 40
1170.040880900681
100
AcDbArc
 50
359.556592991506
 51
0.4433065708118556
  0
LINE
  5
79
330
1F
100
AcDbEntity
  8
LINEE VISIBILI 2D
100
AcDbLine
 10
446.727506798557
 20
26.26199150393003
 30
0.0
 11
446.7274067904494
 21
13.72230804844566
 31
0.0
  0
LINE
  5
7A
330
1F
100
AcDbEntity
  8
LINEE VISIBILI 2D
100
AcDbLine
 10
446.7871517801444
 20
13.35495378299839
 30
0.0
 11
446.9332989576836
 21
13.29075206691961
 31
0.0
  0
LINE
  5
7B
330
1F
100
AcDbEntity
  8
LINEE VISIBILI 2D
100
AcDbLine
 10
446.9332989576836
 20
13.29075206691965
 30
0.0
 11
447.2896553762175
 21
13.2873325815891
 31
0.0
  0
ARC
  5
7C
330
1F
100
AcDbEntity
  8
LINEE VISIBILI 2D
100
AcDbCircle
 10
567.0484285169492
 20
19.99995797318374
 30
0.0
 40
0.8000000000001568
100
AcDbArc
 50
90.0
 51
179.9999999999885
  0
ARC
  5
7D
330
1F
100
AcDbEntity
  8
LINEE VISIBILI 2D
100
AcDbCircle
 10
567.0484285169492
 20
19.99995797318391
 30
0.0
 40
0.8000000000000682
100
AcDbArc
 50
180.0000000000013
 51
270.0000000000081
  0
ARC
  5
7E
330
1F
100
AcDbEntity
  8
LINEE VISIBILI 2D
100
AcDbCircle
 10
567.0484285169491
 20
19.99995797318398
 30
0.0
 40
0.8000000000000857
100
AcDbArc
 50
270.0000000000163
 51
359.9999999999937
  0
LINE
  5
7F
330
1F
100
AcDbEntity
  8
LINEE VISIBILI 2D
100
AcDbLine
 10
441.4924420264974
 20
32.5498131952366
 30
0.0
 11
508.0484285170233
 21
39.99999809625393
 31
0.0
  0
LINE
  5
80
330
1F
100
AcDbEntity
  8
LINEE VISIBILI 2D
100
AcDbLine
 10
508.0484304849868
 20
39.99999787594624
 30
0.0
 11
574.6044150074009
 21
32.54981319523659
 31
0.0
  0
ARC
  5
81
330
1F
100
AcDbEntity
  8
LINEE VISIBILI 2D
100
AcDbCircle
 10
441.5474994278808
 20
32.05278283257863
 30
0.0
 40
0.5000709148426724
100
AcDbArc
 50
96.39168319601125
 51
179.9928222899439
  0
ARC
  5
82
330
1F
100
AcDbEntity
  8
LINEE VISIBILI 2D
100
AcDbCircle
 10
441.5474322339316
 20
7.947160045084273
 30
0.0
 40
0.5000037170354587
100
AcDbArc
 50
180.0009558106452
 51
263.6225842817037
  0
ARC
  5
83
330
1F
100
AcDbEntity
  8
LINEE VISIBILI 2D
100
AcDbCircle
 10
574.5494153061754
 20
32.05283443651465
 30
0.0
 40
0.5000132108827029
100
AcDbArc
 50
0.0012653190467659
 51
83.61422919489774
  0
ARC
  5
84
330
1F
100
AcDbEntity
  8
LINEE VISIBILI 2D
100
AcDbCircle
 10
574.5493671236202
 20
7.947211635013502
 30
0.0
 40
0.5000613969037082
100
AcDbArc
 50
276.3833266526611
 51
359.993133253658
  0
LINE
  5
85
330
1F
100
AcDbEntity
  8
LINEE VISIBILI 2D
100
AcDbLine
 10
508.0484285169491
 20
205.4928206764079
 30
0.0
 11
508.0484285169491
 21
200.7819566870708
 31
0.0
  0
LINE
  5
86
330
1F
100
AcDbEntity
  8
LINEE VISIBILI 2D
100
AcDbLine
 10
441.0474285530549
 20
215.1736432126921
 30
0.0
 11
441.0474285741446
 21
211.6559462556363
 31
0.0
  0
LINE
  5
87
330
1F
100
AcDbEntity
  8
LINEE VISIBILI 2D
100
AcDbLine
 10
447.2896710820501
 20
215.1649947111728
 30
0.0
 11
508.0484285169474
 21
205.4928552763868
 31
0.0
  0
LINE
  5
88
330
1F
100
AcDbEntity
  8
LINEE VISIBILI 2D
100
AcDbLine
 10
508.0484285169491
 20
200.7819566870708
 30
0.0
 11
508.0484285169942
 21
195.7821126966926
 31
0.0
  0
LINE
  5
8C
330
1F
100
AcDbEntity
  8
LINEE VISIBILI 2D
100
AcDbLine
 10
575.0494285169362
 20
7.959007531383982
 30
0.0
 11
575.0494284997362
 21
11.05344946510354
 31
0.0
  0
ARC
  5
8D
330
1F
100
AcDbEntity
  8
LINEE VISIBILI 2D
100
AcDbCircle
 10
452.1653985167694
 20
304.3562162717174
 30
0.0
 40
89.32438762854884
100
AcDbArc
 50
263.2210089769825
 51
266.8708748015732
  0
LINE
  5
8E
330
1F
100
AcDbEntity
  8
LINEE VISIBILI 2D
100
AcDbLine
 10
441.0474285212221
 20
215.9434995693693
 30
0.0
 11
441.0474285341622
 21
215.1736432126921
 31
0.0
  0
ARC
  5
8F
330
1F
100
AcDbEntity
  8
LINEE VISIBILI 2D
100
AcDbCircle
 10
654.600439550938
 20
219.6679475341871
 30
0.0
 40
80.22550530597888
100
AcDbArc
 50
182.3191816843257
 51
182.8662364333765
  0
LINE
  5
91
330
1F
100
AcDbEntity
  8
LINEE VISIBILI 2D
100
AcDbLine
 10
232.6347380888484
 20
26.97655894416262
 30
0.0
 11
232.3592799477281
 21
27.22898210657222
 31
0.0
  0
LINE
  5
92
330
1F
100
AcDbEntity
  8
LINEE VISIBILI 2D
100
AcDbLine
 10
296.9177209962351
 20
16.35351354800514
 30
0.0
 11
339.9316142842812
 21
12.73067995868953
 31
0.0
  0
LINE
  5
93
330
1F
100
AcDbEntity
  8
LINEE VISIBILI 2D
100
AcDbLine
 10
342.3199646020806
 20
0.6904981368716108
 30
0.0
 11
279.7232519661648
 21
0.000227162875542
 31
0.0
  0
LINE
  5
94
330
1F
100
AcDbEntity
  8
LINEE VISIBILI 2D
100
AcDbLine
 10
351.2166132790085
 20
11.7857476114843
 30
0.0
 11
351.4087777307267
 21
11.75246510967993
 31
0.0
  0
LINE
  5
95
330
1F
100
AcDbEntity
  8
LINEE VISIBILI 2D
100
AcDbLine
 10
339.80875811756
 20
8.956918447872489
 30
0.0
 11
343.0998338443374
 21
110.0485871724915
 31
0.0
  0
LINE
  5
96
330
1F
100
AcDbEntity
  8
LINEE VISIBILI 2D
100
AcDbLine
 10
339.9729965404601
 20
12.7272089324324
 30
0.0
 11
351.2130630781011
 21
11.78597927594551
 31
0.0
  0
POLYLINE
  5
97
330
1F
100
AcDbEntity
  8
LINEE VISIBILI 2D
100
AcDb2dPolyline
 66
     1
 10
0.0
 20
0.0
 30
0.0
  0
VERTEX
  5
99
330
97
100
AcDbEntity
  8
LINEE VISIBILI 2D
100
AcDbVertex
100
AcDb2dVertex
 10
285.3580734653493
 20
13.49659907799359
 30
0.0
  0
VERTEX
  5
9A
330
97
100
AcDbEntity
  8
LINEE VISIBILI 2D
100
AcDbVertex
100
AcDb2dVertex
 10
284.6894703250567
 20
16.38128441533648
 30
0.0
  0
VERTEX
  5
9B
330
97
100
AcDbEntity
  8
LINEE VISIBILI 2D
100
AcDbVertex
100
AcDb2dVertex
 10
284.3935502377627
 20
17.83219156048012
 30
0.0
  0
VERTEX
  5
9C
330
97
100
AcDbEntity
  8
LINEE VISIBILI 2D
100
AcDbVertex
100
AcDb2dVertex
 10
284.1251628123523
 20
19.28833602696838
 30
0.0
  0
VERTEX
  5
9D
330
97
100
AcDbEntity
  8
LINEE VISIBILI 2D
100
AcDbVertex
100
AcDb2dVertex
 10
283.885766803812
 20
20.74936356757359
 30
0.0
  0
VERTEX
  5
9E
330
97
100
AcDbEntity
  8
LINEE VISIBILI 2D
100
AcDbVertex
100
AcDb2dVertex
 10
283.6768209671283
 20
22.21491993506813
 30
0.0
  0
VERTEX
  5
9F
330
97
100
AcDbEntity
  8
LINEE VISIBILI 2D
100
AcDbVertex
100
AcDb2dVertex
 10
283.4997840572878
 20
23.68465088222434
 30
0.0
  0
VERTEX
  5
A0
330
97
100
AcDbEntity
  8
LINEE VISIBILI 2D
100
AcDbVertex
100
AcDb2dVertex
 10
283.3561148292773
 20
25.15820216181458
 30
0.0
  0
VERTEX
  5
A1
330
97
100
AcDbEntity
  8
LINEE VISIBILI 2D
100
AcDbVertex
100
AcDb2dVertex
 10
283.2562414711407
 20
26.49192395475008
 30
0.0
  0
VERTEX
  5
A2
330
97
100
AcDbEntity
  8
LINEE VISIBILI 2D
100
AcDbVertex
100
AcDb2dVertex
 10
283.185794490865
 20
27.82765655006186
 30
0.0
  0
VERTEX
  5
A3
330
97
100
AcDbEntity
  8
LINEE VISIBILI 2D
100
AcDbVertex
100
AcDb2dVertex
 10
283.1457935564322
 20
29.16458358530908
 30
0.0
  0
VERTEX
  5
A4
330
97
100
AcDbEntity
  8
LINEE VISIBILI 2D
100
AcDbVertex
100
AcDb2dVertex
 10
283.1372583358245
 20
30.5018886980509
 30
0.0
  0
VERTEX
  5
A5
330
97
100
AcDbEntity
  8
LINEE VISIBILI 2D
100
AcDbVertex
100
AcDb2dVertex
 10
283.1612084970237
 20
31.8387555258465
 30
0.0
  0
VERTEX
  5
A6
330
97
100
AcDbEntity
  8
LINEE VISIBILI 2D
100
AcDbVertex
100
AcDb2dVertex
 10
283.2186637080122
 20
33.17436770625501
 30
0.0
  0
VERTEX
  5
A7
330
97
100
AcDbEntity
  8
LINEE VISIBILI 2D
100
AcDbVertex
100
AcDb2dVertex
 10
283.3106436367718
 20
34.50790887683559
 30
0.0
  0
VERTEX
  5
A8
330
97
100
AcDbEntity
  8
LINEE VISIBILI 2D
100
AcDbVertex
100
AcDb2dVertex
 10
283.4381679512846
 20
35.83856267514741
 30
0.0
  0
VERTEX
  5
A9
330
97
100
AcDbEntity
  8
LINEE VISIBILI 2D
100
AcDbVertex
100
AcDb2dVertex
 10
283.573887151772
 20
36.95766192873563
 30
0.0
  0
VERTEX
  5
AA
330
97
100
AcDbEntity
  8
LINEE VISIBILI 2D
100
AcDbVertex
100
AcDb2dVertex
 10
283.7351648054451
 20
38.07357947982905
 30
0.0
  0
VERTEX
  5
AB
330
97
100
AcDbEntity
  8
LINEE VISIBILI 2D
100
AcDbVertex
100
AcDb2dVertex
 10
283.9215652990663
 20
39.1857666798812
 30
0.0
  0
VERTEX
  5
AC
330
97
100
AcDbEntity
  8
LINEE VISIBILI 2D
100
AcDbVertex
100
AcDb2dVertex
 10
284.1326530193981
 20
40.29367488034561
 30
0.0
  0
VERTEX
  5
AD
330
97
100
AcDbEntity
  8
LINEE VISIBILI 2D
100
AcDbVertex
100
AcDb2dVertex
 10
284.367992353203
 20
41.39675543267585
 30
0.0
  0
VERTEX
  5
AE
330
97
100
AcDbEntity
  8
LINEE VISIBILI 2D
100
AcDbVertex
100
AcDb2dVertex
 10
284.6271476872431
 20
42.49445968832542
 30
0.0
  0
VERTEX
  5
AF
330
97
100
AcDbEntity
  8
LINEE VISIBILI 2D
100
AcDbVertex
100
AcDb2dVertex
 10
284.9096834082814
 20
43.58623899874792
 30
0.0
  0
VERTEX
  5
B0
330
97
100
AcDbEntity
  8
LINEE VISIBILI 2D
100
AcDbVertex
100
AcDb2dVertex
 10
285.2151639030798
 20
44.67154471539684
 30
0.0
  0
VERTEX
  5
B1
330
97
100
AcDbEntity
  8
LINEE VISIBILI 2D
100
AcDbVertex
100
AcDb2dVertex
 10
285.827897093803
 20
46.63351669791608
 30
0.0
  0
VERTEX
  5
B2
330
97
100
AcDbEntity
  8
LINEE VISIBILI 2D
100
AcDbVertex
100
AcDb2dVertex
 10
286.5007543479936
 20
48.57589074867424
 30
0.0
  0
VERTEX
  5
B3
330
97
100
AcDbEntity
  8
LINEE VISIBILI 2D
100
AcDbVertex
100
AcDb2dVertex
 10
289.3306842124514
 20
56.0849804970098
 30
0.0
  0
VERTEX
  5
B4
330
97
100
AcDbEntity
  8
LINEE VISIBILI 2D
100
AcDbVertex
100
AcDb2dVertex
 10
289.593725826708
 20
56.85361274004527
 30
0.0
  0
VERTEX
  5
B5
330
97
100
AcDbEntity
  8
LINEE VISIBILI 2D
100
AcDbVertex
100
AcDb2dVertex
 10
289.8421137342761
 20
57.62726655648283
 30
0.0
  0
VERTEX
  5
B6
330
97
100
AcDbEntity
  8
LINEE VISIBILI 2D
100
AcDbVertex
100
AcDb2dVertex
 10
290.0727947858767
 20
58.40617891912682
 30
0.0
  0
VERTEX
  5
B7
330
97
100
AcDbEntity
  8
LINEE VISIBILI 2D
100
AcDbVertex
100
AcDb2dVertex
 10
290.2827158322311
 20
59.19058680078165
 30
0.0
  0
VERTEX
  5
B8
330
97
100
AcDbEntity
  8
LINEE VISIBILI 2D
100
AcDbVertex
100
AcDb2dVertex
 10
290.4894102688298
 20
60.07195369138454
 30
0.0
  0
VERTEX
  5
B9
330
97
100
AcDbEntity
  8
LINEE VISIBILI 2D
100
AcDbVertex
100
AcDb2dVertex
 10
290.6671012077711
 20
60.95953376756225
 30
0.0
  0
VERTEX
  5
BA
330
97
100
AcDbEntity
  8
LINEE VISIBILI 2D
100
AcDbVertex
100
AcDb2dVertex
 10
290.8164029524762
 20
61.85241038242279
 30
0.0
  0
VERTEX
  5
BB
330
97
100
AcDbEntity
  8
LINEE VISIBILI 2D
100
AcDbVertex
100
AcDb2dVertex
 10
290.9379298063665
 20
62.74966688907422
 30
0.0
  0
VERTEX
  5
BC
330
97
100
AcDbEntity
  8
LINEE VISIBILI 2D
100
AcDbVertex
100
AcDb2dVertex
 10
291.0322960728634
 20
63.65038664062462
 30
0.0
  0
VERTEX
  5
BD
330
97
100
AcDbEntity
  8
LINEE VISIBILI 2D
100
AcDbVertex
100
AcDb2dVertex
 10
291.1001160553884
 20
64.553652990182
 30
0.0
  0
VERTEX
  5
BE
330
97
100
AcDbEntity
  8
LINEE VISIBILI 2D
100
AcDbVertex
100
AcDb2dVertex
 10
291.1420040573629
 20
65.45854929085442
 30
0.0
  0
VERTEX
  5
BF
330
97
100
AcDbEntity
  8
LINEE VISIBILI 2D
100
AcDbVertex
100
AcDb2dVertex
 10
291.158574382208
 20
66.36415889574995
 30
0.0
  0
VERTEX
  5
C0
330
97
100
AcDbEntity
  8
LINEE VISIBILI 2D
100
AcDbVertex
100
AcDb2dVertex
 10
291.1443357319216
 20
67.51711028764269
 30
0.0
  0
VERTEX
  5
C1
330
97
100
AcDbEntity
  8
LINEE VISIBILI 2D
100
AcDbVertex
100
AcDb2dVertex
 10
291.0933275638935
 20
68.66899020024503
 30
0.0
  0
VERTEX
  5
C2
330
97
100
AcDbEntity
  8
LINEE VISIBILI 2D
100
AcDbVertex
100
AcDb2dVertex
 10
291.0088360780544
 20
69.81905686779611
 30
0.0
  0
VERTEX
  5
C3
330
97
100
AcDbEntity
  8
LINEE VISIBILI 2D
100
AcDbVertex
100
AcDb2dVertex
 10
290.8941474743349
 20
70.96656852453495
 30
0.0
  0
VERTEX
  5
C4
330
97
100
AcDbEntity
  8
LINEE VISIBILI 2D
100
AcDbVertex
100
AcDb2dVertex
 10
290.7302411475669
 20
72.27303652724237
 30
0.0
  0
VERTEX
  5
C5
330
97
100
AcDbEntity
  8
LINEE VISIBILI 2D
100
AcDbVertex
100
AcDb2dVertex
 10
290.5348110783318
 20
73.5751784719525
 30
0.0
  0
VERTEX
  5
C6
330
97
100
AcDbEntity
  8
LINEE VISIBILI 2D
100
AcDbVertex
100
AcDb2dVertex
 10
290.3114246766687
 20
74.87296721346331
 30
0.0
  0
VERTEX
  5
C7
330
97
100
AcDbEntity
  8
LINEE VISIBILI 2D
100
AcDbVertex
100
AcDb2dVertex
 10
290.0636493526162
 20
76.16637560657284
 30
0.0
  0
VERTEX
  5
C8
330
97
100
AcDbEntity
  8
LINEE VISIBILI 2D
100
AcDbVertex
100
AcDb2dVertex
 10
289.4566910205773
 20
78.96469036625664
 30
0.0
  0
VERTEX
  5
C9
330
97
100
AcDbEntity
  8
LINEE VISIBILI 2D
100
AcDbVertex
100
AcDb2dVertex
 10
285.1526337205944
 20
95.65533312856077
 30
0.0
  0
VERTEX
  5
CA
330
97
100
AcDbEntity
  8
LINEE VISIBILI 2D
100
AcDbVertex
100
AcDb2dVertex
 10
284.8056684184014
 20
97.20771389085195
 30
0.0
  0
VERTEX
  5
CB
330
97
100
AcDbEntity
  8
LINEE VISIBILI 2D
100
AcDbVertex
100
AcDb2dVertex
 10
284.4965527657763
 20
98.76771325075166
 30
0.0
  0
VERTEX
  5
CC
330
97
100
AcDbEntity
  8
LINEE VISIBILI 2D
100
AcDbVertex
100
AcDb2dVertex
 10
284.2349581565435
 20
100.3358500432238
 30
0.0
  0
VERTEX
  5
CD
330
97
100
AcDbEntity
  8
LINEE VISIBILI 2D
100
AcDbVertex
100
AcDb2dVertex
 10
284.1250035537695
 20
101.1231321126009
 30
0.0
  0
VERTEX
  5
CE
330
97
100
AcDbEntity
  8
LINEE VISIBILI 2D
100
AcDbVertex
100
AcDb2dVertex
 10
284.0305559845278
 20
101.9126431032325
 30
0.0
  0
VERTEX
  5
CF
330
97
100
AcDbEntity
  8
LINEE VISIBILI 2D
100
AcDbVertex
100
AcDb2dVertex
 10
283.9453201045724
 20
102.7912488134945
 30
0.0
  0
VERTEX
  5
D0
330
97
100
AcDbEntity
  8
LINEE VISIBILI 2D
100
AcDbVertex
100
AcDb2dVertex
 10
283.8820105466008
 20
103.6719010238136
 30
0.0
  0
VERTEX
  5
D1
330
97
100
AcDbEntity
  8
LINEE VISIBILI 2D
100
AcDbVertex
100
AcDb2dVertex
 10
283.8419717465873
 20
104.5538219731953
 30
0.0
  0
VERTEX
  5
D2
330
97
100
AcDbEntity
  8
LINEE VISIBILI 2D
100
AcDbVertex
100
AcDb2dVertex
 10
283.8265481405061
 20
105.4362339006447
 30
0.0
  0
VERTEX
  5
D3
330
97
100
AcDbEntity
  8
LINEE VISIBILI 2D
100
AcDbVertex
100
AcDb2dVertex
 10
283.8370841643317
 20
106.3183590451673
 30
0.0
  0
VERTEX
  5
D4
330
97
100
AcDbEntity
  8
LINEE VISIBILI 2D
100
AcDbVertex
100
AcDb2dVertex
 10
283.8749242540382
 20
107.1994196457684
 30
0.0
  0
VERTEX
  5
D5
330
97
100
AcDbEntity
  8
LINEE VISIBILI 2D
100
AcDbVertex
100
AcDb2dVertex
 10
283.9414128455998
 20
108.0786379414532
 30
0.0
  0
VERTEX
  5
D6
330
97
100
AcDbEntity
  8
LINEE VISIBILI 2D
100
AcDbVertex
100
AcDb2dVertex
 10
283.9858204658183
 20
108.5173131746412
 30
0.0
  0
VERTEX
  5
D7
330
97
100
AcDbEntity
  8
LINEE VISIBILI 2D
100
AcDbVertex
100
AcDb2dVertex
 10
284.0378943749909
 20
108.9552361712271
 30
0.0
  0
VERTEX
  5
D8
330
97
100
AcDbEntity
  8
LINEE VISIBILI 2D
100
AcDbVertex
100
AcDb2dVertex
 10
284.1563519627145
 20
109.7722690250012
 30
0.0
  0
VERTEX
  5
D9
330
97
100
AcDbEntity
  8
LINEE VISIBILI 2D
100
AcDbVertex
100
AcDb2dVertex
 10
284.30234514323
 20
110.5851250901245
 30
0.0
  0
VERTEX
  5
DA
330
97
100
AcDbEntity
  8
LINEE VISIBILI 2D
100
AcDbVertex
100
AcDb2dVertex
 10
284.4759755109384
 20
111.3926021723857
 30
0.0
  0
VERTEX
  5
DB
330
97
100
AcDbEntity
  8
LINEE VISIBILI 2D
100
AcDbVertex
100
AcDb2dVertex
 10
284.677344660241
 20
112.1934980775733
 30
0.0
  0
VERTEX
  5
DC
330
97
100
AcDbEntity
  8
LINEE VISIBILI 2D
100
AcDbVertex
100
AcDb2dVertex
 10
284.7884153621127
 20
112.590977716809
 30
0.0
  0
VERTEX
  5
DD
330
97
100
AcDbEntity
  8
LINEE VISIBILI 2D
100
AcDbVertex
100
AcDb2dVertex
 10
284.906398963424
 20
112.9864131812336
 30
0.0
  0
VERTEX
  5
DE
330
97
100
AcDbEntity
  8
LINEE VISIBILI 2D
100
AcDbVertex
100
AcDb2dVertex
 10
285.1629347705249
 20
113.7707530340675
 30
0.0
  0
VERTEX
  5
DF
330
97
100
AcDbEntity
  8
LINEE VISIBILI 2D
100
AcDbVertex
100
AcDb2dVertex
 10
285.4466118938644
 20
114.5457205329114
 30
0.0
  0
VERTEX
  5
E0
330
97
100
AcDbEntity
  8
LINEE VISIBILI 2D
100
AcDbVertex
100
AcDb2dVertex
 10
285.7570901457631
 20
115.3105185746016
 30
0.0
  0
SEQEND
  5
98
330
97
100
AcDbEntity
  8
LINEE VISIBILI 2D
  0
LINE
  5
E1
330
1F
100
AcDbEntity
  8
LINEE VISIBILI 2D
100
AcDbLine
 10
343.1451586010809
 20
110.048594667623
 30
0.0
 11
339.8504149454727
 21
8.966426708247899
 31
0.0
  0
LINE
  5
E2
330
1F
100
AcDbEntity
  8
LINEE VISIBILI 2D
100
AcDbLine
 10
239.8629689697233
 20
117.110360628293
 30
0.0
 11
244.7741285777152
 21
30.52055691426357
 31
0.0
  0
LINE
  5
E3
330
1F
100
AcDbEntity
  8
LINEE VISIBILI 2D
100
AcDbLine
 10
447.5406054168376
 20
26.71277438911517
 30
0.0
 11
446.9337365867302
 21
26.70897514981553
 31
0.0
  0
LINE
  5
E4
330
1F
100
AcDbEntity
  8
LINEE VISIBILI 2D
100
AcDbLine
 10
446.9337365867302
 20
26.70897514981554
 30
0.0
 11
446.786415734987
 21
26.64402694562263
 31
0.0
  0
LINE
  5
E5
330
1F
100
AcDbEntity
  8
LINEE VISIBILI 2D
100
AcDbLine
 10
446.7298267551515
 20
26.50381440204349
 30
0.0
 11
446.7275068700036
 21
26.26201066183626
 31
0.0
  0
LINE
  5
E6
330
1F
100
AcDbEntity
  8
LINEE VISIBILI 2D
100
AcDbLine
 10
447.2896710820498
 20
13.28733243653551
 30
0.0
 11
504.6956472476122
 21
13.29109385455377
 31
0.0
  0
LINE
  5
E7
330
1F
100
AcDbEntity
  8
LINEE VISIBILI 2D
100
AcDbLine
 10
508.0484285169491
 20
0.0
 30
0.0
 11
441.4920779644559
 21
7.450226551005357
 31
0.0
  0
LINE
  5
E8
330
1F
100
AcDbEntity
  8
LINEE VISIBILI 2D
100
AcDbLine
 10
508.0484285169649
 20
12.49995797322813
 30
0.0
 11
508.0484285169491
 21
0.0
 31
0.0
  0
LINE
  5
E9
330
1F
100
AcDbEntity
  8
LINEE VISIBILI 2D
100
AcDbLine
 10
441.0474285341622
 20
11.05344946510499
 30
0.0
 11
441.047428516962
 21
7.961845683156055
 31
0.0
  0
ARC
  5
EA
330
1F
100
AcDbEntity
  8
LINEE VISIBILI 2D
100
AcDbCircle
 10
1744.481140834843
 20
20.00099693610968
 30
0.0
 40
1170.040880903346
100
AcDbArc
 50
179.5566934291897
 51
180.4434070084921
  0
LINE
  5
EB
330
1F
100
AcDbEntity
  8
LINEE VISIBILI 2D
100
AcDbLine
 10
569.3694502369421
 20
13.72230906107056
 30
0.0
 11
569.3693502413074
 21
26.26199243669276
 31
0.0
  0
POLYLINE
  5
EC
330
1F
100
AcDbEntity
  8
LINEE VISIBILI 2D
100
AcDb2dPolyline
 66
     1
 10
0.0
 20
0.0
 30
0.0
  0
VERTEX
  5
EE
330
EC
100
AcDbEntity
  8
LINEE VISIBILI 2D
100
AcDbVertex
100
AcDb2dVertex
 10
249.3678145094727
 20
216.3640977584965
 30
0.0
  0
VERTEX
  5
EF
330
EC
100
AcDbEntity
  8
LINEE VISIBILI 2D
100
AcDbVertex
100
AcDb2dVertex
 10
248.8911424518204
 20
218.8954340660847
 30
0.0
  0
VERTEX
  5
F0
330
EC
100
AcDbEntity
  8
LINEE VISIBILI 2D
100
AcDbVertex
100
AcDb2dVertex
 10
248.4753749521744
 20
221.4370726589604
 30
0.0
  0
VERTEX
  5
F1
330
EC
100
AcDbEntity
  8
LINEE VISIBILI 2D
100
AcDbVertex
100
AcDb2dVertex
 10
248.127732261483
 20
223.9887108524683
 30
0.0
  0
VERTEX
  5
F2
330
EC
100
AcDbEntity
  8
LINEE VISIBILI 2D
100
AcDbVertex
100
AcDb2dVertex
 10
247.855547091387
 20
226.5494487466768
 30
0.0
  0
VERTEX
  5
F3
330
EC
100
AcDbEntity
  8
LINEE VISIBILI 2D
100
AcDbVertex
100
AcDb2dVertex
 10
247.6793462729636
 20
228.8902477253353
 30
0.0
  0
VERTEX
  5
F4
330
EC
100
AcDbEntity
  8
LINEE VISIBILI 2D
100
AcDbVertex
100
AcDb2dVertex
 10
247.577174286226
 20
231.2353046900438
 30
0.0
  0
VERTEX
  5
F5
330
EC
100
AcDbEntity
  8
LINEE VISIBILI 2D
100
AcDbVertex
100
AcDb2dVertex
 10
247.5542850296927
 20
233.5820659446695
 30
0.0
  0
VERTEX
  5
F6
330
EC
100
AcDbEntity
  8
LINEE VISIBILI 2D
100
AcDbVertex
100
AcDb2dVertex
 10
247.5742132685398
 20
234.7552876506598
 30
0.0
  0
VERTEX
  5
F7
330
EC
100
AcDbEntity
  8
LINEE VISIBILI 2D
100
AcDbVertex
100
AcDb2dVertex
 10
247.6159324018824
 20
235.9279777930795
 30
0.0
  0
VERTEX
  5
F8
330
EC
100
AcDbEntity
  8
LINEE VISIBILI 2D
100
AcDbVertex
100
AcDb2dVertex
 10
247.7308097576258
 20
237.8250114113984
 30
0.0
  0
VERTEX
  5
F9
330
EC
100
AcDbEntity
  8
LINEE VISIBILI 2D
100
AcDbVertex
100
AcDb2dVertex
 10
247.9038572260586
 20
239.717895425174
 30
0.0
  0
VERTEX
  5
FA
330
EC
100
AcDbEntity
  8
LINEE VISIBILI 2D
100
AcDbVertex
100
AcDb2dVertex
 10
248.1343759158317
 20
241.6047113922373
 30
0.0
  0
VERTEX
  5
FB
330
EC
100
AcDbEntity
  8
LINEE VISIBILI 2D
100
AcDbVertex
100
AcDb2dVertex
 10
248.4216669355961
 20
243.4835408704188
 30
0.0
  0
VERTEX
  5
FC
330
EC
100
AcDbEntity
  8
LINEE VISIBILI 2D
100
AcDbVertex
100
AcDb2dVertex
 10
248.7333727283263
 20
245.2006235278842
 30
0.0
  0
VERTEX
  5
FD
330
EC
100
AcDbEntity
  8
LINEE VISIBILI 2D
100
AcDbVertex
100
AcDb2dVertex
 10
250.589012453697
 20
253.6248017281524
 30
0.0
  0
VERTEX
  5
FE
330
EC
100
AcDbEntity
  8
LINEE VISIBILI 2D
100
AcDbVertex
100
AcDb2dVertex
 10
250.8383605226693
 20
254.9045794453931
 30
0.0
  0
VERTEX
  5
FF
330
EC
100
AcDbEntity
  8
LINEE VISIBILI 2D
100
AcDbVertex
100
AcDb2dVertex
 10
251.050139397106
 20
256.1910236598897
 30
0.0
  0
VERTEX
  5
100
330
EC
100
AcDbEntity
  8
LINEE VISIBILI 2D
100
AcDbVertex
100
AcDb2dVertex
 10
251.1405657085624
 20
256.8500774622606
 30
0.0
  0
VERTEX
  5
101
330
EC
100
AcDbEntity
  8
LINEE VISIBILI 2D
100
AcDbVertex
100
AcDb2dVertex
 10
251.2178124517198
 20
257.5107994967471
 30
0.0
  0
VERTEX
  5
102
330
EC
100
AcDbEntity
  8
LINEE VISIBILI 2D
100
AcDbVertex
100
AcDb2dVertex
 10
251.2810966508683
 20
258.1729637962059
 30
0.0
  0
VERTEX
  5
103
330
EC
100
AcDbEntity
  8
LINEE VISIBILI 2D
100
AcDbVertex
100
AcDb2dVertex
 10
251.3296353302985
 20
258.8363443934938
 30
0.0
  0
VERTEX
  5
104
330
EC
100
AcDbEntity
  8
LINEE VISIBILI 2D
100
AcDbVertex
100
AcDb2dVertex
 10
251.3636599951803
 20
259.5193962104052
 30
0.0
  0
VERTEX
  5
105
330
EC
100
AcDbEntity
  8
LINEE VISIBILI 2D
100
AcDbVertex
100
AcDb2dVertex
 10
251.3823272744957
 20
260.2031138769334
 30
0.0
  0
VERTEX
  5
106
330
EC
100
AcDbEntity
  8
LINEE VISIBILI 2D
100
AcDbVertex
100
AcDb2dVertex
 10
251.3866943233517
 20
260.8871164044229
 30
0.0
  0
VERTEX
  5
107
330
EC
100
AcDbEntity
  8
LINEE VISIBILI 2D
100
AcDbVertex
100
AcDb2dVertex
 10
251.3778182968554
 20
261.5710228042186
 30
0.0
  0
VERTEX
  5
108
330
EC
100
AcDbEntity
  8
LINEE VISIBILI 2D
100
AcDbVertex
100
AcDb2dVertex
 10
251.351813963461
 20
262.3737699626176
 30
0.0
  0
VERTEX
  5
109
330
EC
100
AcDbEntity
  8
LINEE VISIBILI 2D
100
AcDbVertex
100
AcDb2dVertex
 10
251.3101418956794
 20
263.17577245121
 30
0.0
  0
VERTEX
  5
10A
330
EC
100
AcDbEntity
  8
LINEE VISIBILI 2D
100
AcDbVertex
100
AcDb2dVertex
 10
251.1843711782355
 20
264.7771976890144
 30
0.0
  0
VERTEX
  5
10B
330
EC
100
AcDbEntity
  8
LINEE VISIBILI 2D
100
AcDbVertex
100
AcDb2dVertex
 10
251.0096593870854
 20
266.3746070577107
 30
0.0
  0
VERTEX
  5
10C
330
EC
100
AcDbEntity
  8
LINEE VISIBILI 2D
100
AcDbVertex
100
AcDb2dVertex
 10
250.7951597647908
 20
267.9673090973775
 30
0.0
  0
VERTEX
  5
10D
330
EC
100
AcDbEntity
  8
LINEE VISIBILI 2D
100
AcDbVertex
100
AcDb2dVertex
 10
248.3741757392541
 20
281.9365062086697
 30
0.0
  0
VERTEX
  5
10E
330
EC
100
AcDbEntity
  8
LINEE VISIBILI 2D
100
AcDbVertex
100
AcDb2dVertex
 10
248.0801880007707
 20
284.129325014044
 30
0.0
  0
VERTEX
  5
10F
330
EC
100
AcDbEntity
  8
LINEE VISIBILI 2D
100
AcDbVertex
100
AcDb2dVertex
 10
247.8679057612667
 20
286.1326525782232
 30
0.0
  0
VERTEX
  5
110
330
EC
100
AcDbEntity
  8
LINEE VISIBILI 2D
100
AcDbVertex
100
AcDb2dVertex
 10
247.717304933434
 20
288.1415888110335
 30
0.0
  0
VERTEX
  5
111
330
EC
100
AcDbEntity
  8
LINEE VISIBILI 2D
100
AcDbVertex
100
AcDb2dVertex
 10
247.6677551096291
 20
289.1473320170764
 30
0.0
  0
VERTEX
  5
112
330
EC
100
AcDbEntity
  8
LINEE VISIBILI 2D
100
AcDbVertex
100
AcDb2dVertex
 10
247.6367697116238
 20
290.1534835969585
 30
0.0
  0
VERTEX
  5
113
330
EC
100
AcDbEntity
  8
LINEE VISIBILI 2D
100
AcDbVertex
100
AcDb2dVertex
 10
247.625396763712
 20
291.1597122862403
 30
0.0
  0
VERTEX
  5
114
330
EC
100
AcDbEntity
  8
LINEE VISIBILI 2D
100
AcDbVertex
100
AcDb2dVertex
 10
247.6346842901876
 20
292.1656868204824
 30
0.0
  0
VERTEX
  5
115
330
EC
100
AcDbEntity
  8
LINEE VISIBILI 2D
100
AcDbVertex
100
AcDb2dVertex
 10
247.6729425720504
 20
293.349576374281
 30
0.0
  0
VERTEX
  5
116
330
EC
100
AcDbEntity
  8
LINEE VISIBILI 2D
100
AcDbVertex
100
AcDb2dVertex
 10
247.7394647768628
 20
294.5323448951892
 30
0.0
  0
VERTEX
  5
117
330
EC
100
AcDbEntity
  8
LINEE VISIBILI 2D
100
AcDbVertex
100
AcDb2dVertex
 10
247.8324112001576
 20
295.7136831637054
 30
0.0
  0
VERTEX
  5
118
330
EC
100
AcDbEntity
  8
LINEE VISIBILI 2D
100
AcDbVertex
100
AcDb2dVertex
 10
247.9499421374674
 20
296.8932819603279
 30
0.0
  0
VERTEX
  5
119
330
EC
100
AcDbEntity
  8
LINEE VISIBILI 2D
100
AcDbVertex
100
AcDb2dVertex
 10
248.0902178843252
 20
298.0708320655556
 30
0.0
  0
VERTEX
  5
11A
330
EC
100
AcDbEntity
  8
LINEE VISIBILI 2D
100
AcDbVertex
100
AcDb2dVertex
 10
248.2513987362636
 20
299.2460242598868
 30
0.0
  0
VERTEX
  5
11B
330
EC
100
AcDbEntity
  8
LINEE VISIBILI 2D
100
AcDbVertex
100
AcDb2dVertex
 10
248.6291169375134
 20
301.5880980378543
 30
0.0
  0
VERTEX
  5
11C
330
EC
100
AcDbEntity
  8
LINEE VISIBILI 2D
100
AcDbVertex
100
AcDb2dVertex
 10
249.15911790925
 20
304.3599787244758
 30
0.0
  0
VERTEX
  5
11D
330
EC
100
AcDbEntity
  8
LINEE VISIBILI 2D
100
AcDbVertex
100
AcDb2dVertex
 10
249.7596512172047
 20
307.1166987559041
 30
0.0
  0
VERTEX
  5
11E
330
EC
100
AcDbEntity
  8
LINEE VISIBILI 2D
100
AcDbVertex
100
AcDb2dVertex
 10
251.4632738343584
 20
313.9476575391435
 30
0.0
  0
SEQEND
  5
ED
330
EC
100
AcDbEntity
  8
LINEE VISIBILI 2D
  0
LINE
  5
11F
330
1F
100
AcDbEntity
  8
LINEE VISIBILI 2D
100
AcDbLine
 10
441.0474285232528
 20
32.04876769648936
 30
0.0
 11
441.0474285388811
 21
28.94649520578547
 31
0.0
  0
LINE
  5
120
330
1F
100
AcDbEntity
  8
LINEE VISIBILI 2D
100
AcDbLine
 10
508.0484721111758
 20
39.99999809625392
 30
0.0
 11
508.048472111183
 21
27.49995797314057
 31
0.0
  0
LINE
  5
121
330
1F
100
AcDbEntity
  8
LINEE VISIBILI 2D
100
AcDbLine
 10
568.8072016576809
 20
13.28733258158905
 30
0.0
 11
569.1635580762149
 21
13.29075206691966
 31
0.0
  0
LINE
  5
122
330
1F
100
AcDbEntity
  8
LINEE VISIBILI 2D
100
AcDbLine
 10
569.3671127342242
 20
13.49601834443969
 30
0.0
 11
569.3694501346717
 21
13.72228828341791
 31
0.0
  0
ARC
  5
123
330
1F
100
AcDbEntity
  8
LINEE VISIBILI 2D
100
AcDbCircle
 10
441.5474869575922
 20
215.9434003210459
 30
0.0
 40
0.5000584481976415
100
AcDbArc
 50
77.18789060009242
 51
179.9886283075715
  0
LINE
  5
124
330
1F
100
AcDbEntity
  8
LINEE VISIBILI 2D
100
AcDbLine
 10
441.0474287914737
 20
28.94649520578547
 30
0.0
 11
441.0474287406755
 21
11.05344946510498
 31
0.0
  0
LINE
  5
125
330
1F
100
AcDbEntity
  8
LINEE VISIBILI 2D
100
AcDbLine
 10
569.1635580762149
 20
13.2907520669196
 30
0.0
 11
569.3097117373597
 21
13.35496061576694
 31
0.0
  0
ARC
  5
126
330
1F
100
AcDbEntity
  8
LINEE VISIBILI 2D
100
AcDbCircle
 10
441.5477339169353
 20
211.64829552716
 30
0.0
 40
0.5003054594429938
100
AcDbArc
 50
180.0279365021916
 51
256.972324826745
  0
ARC
  5
127
330
1F
100
AcDbEntity
  8
LINEE VISIBILI 2D
100
AcDbCircle
 10
239.4120873404693
 20
48.43034358780389
 30
0.0
 40
19.18505165369829
100
AcDbArc
 50
255.0497773191682
 51
270.9828487593164
  0
POLYLINE
  5
128
330
1F
100
AcDbEntity
  8
LINEE VISIBILI 2D
100
AcDb2dPolyline
 66
     1
 10
0.0
 20
0.0
 30
0.0
  0
VERTEX
  5
12A
330
128
100
AcDbEntity
  8
LINEE VISIBILI 2D
100
AcDbVertex
100
AcDb2dVertex
 10
232.2633158611759
 20
27.54878103283689
 30
0.0
  0
VERTEX
  5
12B
330
128
100
AcDbEntity
  8
LINEE VISIBILI 2D
100
AcDbVertex
100
AcDb2dVertex
 10
232.2640481352578
 20
27.56172870797223
 30
0.0
  0
VERTEX
  5
12C
330
128
100
AcDbEntity
  8
LINEE VISIBILI 2D
100
AcDbVertex
100
AcDb2dVertex
 10
232.2650547913707
 20
27.57464772282852
 30
0.0
  0
VERTEX
  5
12D
330
128
100
AcDbEntity
  8
LINEE VISIBILI 2D
100
AcDbVertex
100
AcDb2dVertex
 10
232.2663277450915
 20
27.5875362815145
 30
0.0
  0
VERTEX
  5
12E
330
128
100
AcDbEntity
  8
LINEE VISIBILI 2D
100
AcDbVertex
100
AcDb2dVertex
 10
232.2678589119974
 20
27.60039258813896
 30
0.0
  0
VERTEX
  5
12F
330
128
100
AcDbEntity
  8
LINEE VISIBILI 2D
100
AcDbVertex
100
AcDb2dVertex
 10
232.2696402076656
 20
27.61321484681063
 30
0.0
  0
VERTEX
  5
130
330
128
100
AcDbEntity
  8
LINEE VISIBILI 2D
100
AcDbVertex
100
AcDb2dVertex
 10
232.2716635476731
 20
27.62600126163829
 30
0.0
  0
VERTEX
  5
131
330
128
100
AcDbEntity
  8
LINEE VISIBILI 2D
100
AcDbVertex
100
AcDb2dVertex
 10
232.2739208475973
 20
27.63875003673069
 30
0.0
  0
VERTEX
  5
132
330
128
100
AcDbEntity
  8
LINEE VISIBILI 2D
100
AcDbVertex
100
AcDb2dVertex
 10
232.2764040230152
 20
27.65145937619658
 30
0.0
  0
VERTEX
  5
133
330
128
100
AcDbEntity
  8
LINEE VISIBILI 2D
100
AcDbVertex
100
AcDb2dVertex
 10
232.2820156626409
 20
27.6767525646839
 30
0.0
  0
VERTEX
  5
134
330
128
100
AcDbEntity
  8
LINEE VISIBILI 2D
100
AcDbVertex
100
AcDb2dVertex
 10
232.2884337911673
 20
27.70186645997033
 30
0.0
  0
VERTEX
  5
135
330
128
100
AcDbEntity
  8
LINEE VISIBILI 2D
100
AcDbVertex
100
AcDb2dVertex
 10
232.2955937332119
 20
27.72678669492592
 30
0.0
  0
VERTEX
  5
136
330
128
100
AcDbEntity
  8
LINEE VISIBILI 2D
100
AcDbVertex
100
AcDb2dVertex
 10
232.3034308133917
 20
27.75149890242075
 30
0.0
  0
VERTEX
  5
137
330
128
100
AcDbEntity
  8
LINEE VISIBILI 2D
100
AcDbVertex
100
AcDb2dVertex
 10
232.3139150483894
 20
27.78160352510167
 30
0.0
  0
VERTEX
  5
138
330
128
100
AcDbEntity
  8
LINEE VISIBILI 2D
100
AcDbVertex
100
AcDb2dVertex
 10
232.3252566229383
 20
27.81138577050549
 30
0.0
  0
VERTEX
  5
139
330
128
100
AcDbEntity
  8
LINEE VISIBILI 2D
100
AcDbVertex
100
AcDb2dVertex
 10
232.3373857684394
 20
27.8408599085011
 30
0.0
  0
VERTEX
  5
13A
330
128
100
AcDbEntity
  8
LINEE VISIBILI 2D
100
AcDbVertex
100
AcDb2dVertex
 10
232.3502327162934
 20
27.87004020895733
 30
0.0
  0
VERTEX
  5
13B
330
128
100
AcDbEntity
  8
LINEE VISIBILI 2D
100
AcDbVertex
100
AcDb2dVertex
 10
232.3637276979013
 20
27.89894094174305
 30
0.0
  0
VERTEX
  5
13C
330
128
100
AcDbEntity
  8
LINEE VISIBILI 2D
100
AcDbVertex
100
AcDb2dVertex
 10
232.3778009446639
 20
27.92757637672711
 30
0.0
  0
VERTEX
  5
13D
330
128
100
AcDbEntity
  8
LINEE VISIBILI 2D
100
AcDbVertex
100
AcDb2dVertex
 10
232.4074031592565
 20
27.98410843276571
 30
0.0
  0
VERTEX
  5
13E
330
128
100
AcDbEntity
  8
LINEE VISIBILI 2D
100
AcDbVertex
100
AcDb2dVertex
 10
232.4284670275909
 20
28.02208915349431
 30
0.0
  0
VERTEX
  5
13F
330
128
100
AcDbEntity
  8
LINEE VISIBILI 2D
100
AcDbVertex
100
AcDb2dVertex
 10
232.4501866601512
 20
28.05967003194561
 30
0.0
  0
VERTEX
  5
140
330
128
100
AcDbEntity
  8
LINEE VISIBILI 2D
100
AcDbVertex
100
AcDb2dVertex
 10
232.4954781570653
 20
28.13368402025277
 30
0.0
  0
VERTEX
  5
141
330
128
100
AcDbEntity
  8
LINEE VISIBILI 2D
100
AcDbVertex
100
AcDb2dVertex
 10
232.5430475282323
 20
28.20625391416016
 30
0.0
  0
VERTEX
  5
142
330
128
100
AcDbEntity
  8
LINEE VISIBILI 2D
100
AcDbVertex
100
AcDb2dVertex
 10
232.592664651885
 20
28.27748323014075
 30
0.0
  0
VERTEX
  5
143
330
128
100
AcDbEntity
  8
LINEE VISIBILI 2D
100
AcDbVertex
100
AcDb2dVertex
 10
232.6440994062567
 20
28.34747548466752
 30
0.0
  0
VERTEX
  5
144
330
128
100
AcDbEntity
  8
LINEE VISIBILI 2D
100
AcDbVertex
100
AcDb2dVertex
 10
232.6971216695804
 20
28.41633419421345
 30
0.0
  0
VERTEX
  5
145
330
128
100
AcDbEntity
  8
LINEE VISIBILI 2D
100
AcDbVertex
100
AcDb2dVertex
 10
232.807008236017
 20
28.55106504425471
 30
0.0
  0
VERTEX
  5
146
330
128
100
AcDbEntity
  8
LINEE VISIBILI 2D
100
AcDbVertex
100
AcDb2dVertex
 10
232.8862132277202
 20
28.64327572775795
 30
0.0
  0
VERTEX
  5
147
330
128
100
AcDbEntity
  8
LINEE VISIBILI 2D
100
AcDbVertex
100
AcDb2dVertex
 10
232.9670811217422
 20
28.73394450120985
 30
0.0
  0
VERTEX
  5
148
330
128
100
AcDbEntity
  8
LINEE VISIBILI 2D
100
AcDbVertex
100
AcDb2dVertex
 10
233.1334323990532
 20
28.91093290929471
 30
0.0
  0
VERTEX
  5
149
330
128
100
AcDbEntity
  8
LINEE VISIBILI 2D
100
AcDbVertex
100
AcDb2dVertex
 10
233.30531563257
 20
29.08258345117954
 30
0.0
  0
VERTEX
  5
14A
330
128
100
AcDbEntity
  8
LINEE VISIBILI 2D
100
AcDbVertex
100
AcDb2dVertex
 10
233.4819843869129
 20
29.24944930953458
 30
0.0
  0
VERTEX
  5
14B
330
128
100
AcDbEntity
  8
LINEE VISIBILI 2D
100
AcDbVertex
100
AcDb2dVertex
 10
233.6626922267019
 20
29.41208366703008
 30
0.0
  0
VERTEX
  5
14C
330
128
100
AcDbEntity
  8
LINEE VISIBILI 2D
100
AcDbVertex
100
AcDb2dVertex
 10
233.8466927165572
 20
29.57103970633625
 30
0.0
  0
VERTEX
  5
14D
330
128
100
AcDbEntity
  8
LINEE VISIBILI 2D
100
AcDbVertex
100
AcDb2dVertex
 10
234.2215859049472
 20
29.88012956106164
 30
0.0
  0
SEQEND
  5
129
330
128
100
AcDbEntity
  8
LINEE VISIBILI 2D
  0
LINE
  5
14E
330
1F
100
AcDbEntity
  8
LINEE VISIBILI 2D
100
AcDbLine
 10
441.621559957059
 20
215.6563081903557
 30
0.0
 11
441.6562088076163
 21
216.4214797983416
 31
0.0
  0
LINE
  5
15B
330
1F
100
AcDbEntity
  8
LINEE VISIBILI 2D
100
AcDbLine
 10
504.6957437276926
 20
26.70887030707671
 30
0.0
 11
447.5406139335952
 21
26.71277442761436
 31
0.0
  0
LINE
  5
15D
330
1F
100
AcDbEntity
  8
LINEE VISIBILI 2D
100
AcDbLine
 10
441.6586489495158
 20
216.430882009484
 30
0.0
 11
447.2896710820501
 21
215.1649947111728
 31
0.0
  0
LINE
  5
15E
330
1F
100
AcDbEntity
  8
LINEE VISIBILI 2D
100
AcDbLine
 10
508.0484282421572
 20
195.782112121582
 30
0.0
 11
441.4350187902168
 21
211.1608518079731
 31
0.0
  0
POLYLINE
  5
15F
330
1F
100
AcDbEntity
  8
LINEE VISIBILI 2D
100
AcDb2dPolyline
 66
     1
 10
0.0
 20
0.0
 30
0.0
  0
VERTEX
  5
161
330
15F
100
AcDbEntity
  8
LINEE VISIBILI 2D
100
AcDbVertex
100
AcDb2dVertex
 10
261.3182214896115
 20
215.6617608154073
 30
0.0
  0
VERTEX
  5
162
330
15F
100
AcDbEntity
  8
LINEE VISIBILI 2D
100
AcDbVertex
100
AcDb2dVertex
 10
261.6576751264874
 20
215.5834574361565
 30
0.0
  0
VERTEX
  5
163
330
15F
100
AcDbEntity
  8
LINEE VISIBILI 2D
100
AcDbVertex
100
AcDb2dVertex
 10
261.995482363021
 20
215.4984524221322
 30
0.0
  0
VERTEX
  5
164
330
15F
100
AcDbEntity
  8
LINEE VISIBILI 2D
100
AcDbVertex
100
AcDb2dVertex
 10
262.2986308463364
 20
215.4161372664256
 30
0.0
  0
VERTEX
  5
165
330
15F
100
AcDbEntity
  8
LINEE VISIBILI 2D
100
AcDbVertex
100
AcDb2dVertex
 10
262.5999682144405
 20
215.327399151341
 30
0.0
  0
VERTEX
  5
166
330
15F
100
AcDbEntity
  8
LINEE VISIBILI 2D
100
AcDbVertex
100
AcDb2dVertex
 10
262.8522148638709
 20
215.2465895471862
 30
0.0
  0
VERTEX
  5
167
330
15F
100
AcDbEntity
  8
LINEE VISIBILI 2D
100
AcDbVertex
100
AcDb2dVertex
 10
263.1022560678082
 20
215.1593299993024
 30
0.0
  0
VERTEX
  5
168
330
15F
100
AcDbEntity
  8
LINEE VISIBILI 2D
100
AcDbVertex
100
AcDb2dVertex
 10
263.349548394828
 20
215.064674249851
 30
0.0
  0
VERTEX
  5
169
330
15F
100
AcDbEntity
  8
LINEE VISIBILI 2D
100
AcDbVertex
100
AcDb2dVertex
 10
263.4719939071735
 20
215.0142770939629
 30
0.0
  0
VERTEX
  5
16A
330
15F
100
AcDbEntity
  8
LINEE VISIBILI 2D
100
AcDbVertex
100
AcDb2dVertex
 10
263.6881272481963
 20
214.9188015968525
 30
0.0
  0
VERTEX
  5
16B
330
15F
100
AcDbEntity
  8
LINEE VISIBILI 2D
100
AcDbVertex
100
AcDb2dVertex
 10
263.7819289215212
 20
214.8742660725518
 30
0.0
  0
VERTEX
  5
16C
330
15F
100
AcDbEntity
  8
LINEE VISIBILI 2D
100
AcDbVertex
100
AcDb2dVertex
 10
263.8747653521876
 20
214.8278349180333
 30
0.0
  0
VERTEX
  5
16D
330
15F
100
AcDbEntity
  8
LINEE VISIBILI 2D
100
AcDbVertex
100
AcDb2dVertex
 10
263.9664484589033
 20
214.7792735832388
 30
0.0
  0
VERTEX
  5
16E
330
15F
100
AcDbEntity
  8
LINEE VISIBILI 2D
100
AcDbVertex
100
AcDb2dVertex
 10
264.0567901603757
 20
214.72834751811
 30
0.0
  0
VERTEX
  5
16F
330
15F
100
AcDbEntity
  8
LINEE VISIBILI 2D
100
AcDbVertex
100
AcDb2dVertex
 10
264.1456023753126
 20
214.6748221725887
 30
0.0
  0
VERTEX
  5
170
330
15F
100
AcDbEntity
  8
LINEE VISIBILI 2D
100
AcDbVertex
100
AcDb2dVertex
 10
264.2326970224214
 20
214.6184629966166
 30
0.0
  0
VERTEX
  5
171
330
15F
100
AcDbEntity
  8
LINEE VISIBILI 2D
100
AcDbVertex
100
AcDb2dVertex
 10
264.2755414826365
 20
214.5891474253183
 30
0.0
  0
VERTEX
  5
172
330
15F
100
AcDbEntity
  8
LINEE VISIBILI 2D
100
AcDbVertex
100
AcDb2dVertex
 10
264.31788602041
 20
214.5590354401355
 30
0.0
  0
VERTEX
  5
173
330
15F
100
AcDbEntity
  8
LINEE VISIBILI 2D
100
AcDbVertex
100
AcDb2dVertex
 10
264.3768668168774
 20
214.5149663090794
 30
0.0
  0
VERTEX
  5
174
330
15F
100
AcDbEntity
  8
LINEE VISIBILI 2D
100
AcDbVertex
100
AcDb2dVertex
 10
264.4058306864756
 20
214.4922381195907
 30
0.0
  0
VERTEX
  5
175
330
15F
100
AcDbEntity
  8
LINEE VISIBILI 2D
100
AcDbVertex
100
AcDb2dVertex
 10
264.4343724933654
 20
214.4690085032308
 30
0.0
  0
VERTEX
  5
176
330
15F
100
AcDbEntity
  8
LINEE VISIBILI 2D
100
AcDbVertex
100
AcDb2dVertex
 10
264.4624389548326
 20
214.4452482018264
 30
0.0
  0
VERTEX
  5
177
330
15F
100
AcDbEntity
  8
LINEE VISIBILI 2D
100
AcDbVertex
100
AcDb2dVertex
 10
264.4899767881636
 20
214.4209279572041
 30
0.0
  0
VERTEX
  5
178
330
15F
100
AcDbEntity
  8
LINEE VISIBILI 2D
100
AcDbVertex
100
AcDb2dVertex
 10
264.5169327106445
 20
214.3960185111912
 30
0.0
  0
VERTEX
  5
179
330
15F
100
AcDbEntity
  8
LINEE VISIBILI 2D
100
AcDbVertex
100
AcDb2dVertex
 10
264.5432534395614
 20
214.3704906056142
 30
0.0
  0
VERTEX
  5
17A
330
15F
100
AcDbEntity
  8
LINEE VISIBILI 2D
100
AcDbVertex
100
AcDb2dVertex
 10
264.5688856922007
 20
214.3443149822998
 30
0.0
  0
VERTEX
  5
17B
330
15F
100
AcDbEntity
  8
LINEE VISIBILI 2D
100
AcDbVertex
100
AcDb2dVertex
 10
264.5937761858485
 20
214.3174623830752
 30
0.0
  0
VERTEX
  5
17C
330
15F
100
AcDbEntity
  8
LINEE VISIBILI 2D
100
AcDbVertex
100
AcDb2dVertex
 10
264.617871637791
 20
214.2899035497668
 30
0.0
  0
VERTEX
  5
17D
330
15F
100
AcDbEntity
  8
LINEE VISIBILI 2D
100
AcDbVertex
100
AcDb2dVertex
 10
264.6411187653143
 20
214.2616092242017
 30
0.0
  0
VERTEX
  5
17E
330
15F
100
AcDbEntity
  8
LINEE VISIBILI 2D
100
AcDbVertex
100
AcDb2dVertex
 10
264.6634642857047
 20
214.2325501482067
 30
0.0
  0
VERTEX
  5
17F
330
15F
100
AcDbEntity
  8
LINEE VISIBILI 2D
100
AcDbVertex
100
AcDb2dVertex
 10
264.6848549162484
 20
214.2026970636085
 30
0.0
  0
VERTEX
  5
180
330
15F
100
AcDbEntity
  8
LINEE VISIBILI 2D
100
AcDbVertex
100
AcDb2dVertex
 10
264.6951754969796
 20
214.1874636249041
 30
0.0
  0
VERTEX
  5
181
330
15F
100
AcDbEntity
  8
LINEE VISIBILI 2D
100
AcDbVertex
100
AcDb2dVertex
 10
264.7052373742314
 20
214.1720207122339
 30
0.0
  0
VERTEX
  5
182
330
15F
100
AcDbEntity
  8
LINEE VISIBILI 2D
100
AcDbVertex
100
AcDb2dVertex
 10
264.7150338876646
 20
214.1563646683264
 30
0.0
  0
VERTEX
  5
183
330
15F
100
AcDbEntity
  8
LINEE VISIBILI 2D
100
AcDbVertex
100
AcDb2dVertex
 10
264.7245583769401
 20
214.1404918359099
 30
0.0
  0
SEQEND
  5
160
330
15F
100
AcDbEntity
  8
LINEE VISIBILI 2D
  0
LINE
  5
184
330
1F
100
AcDbEntity
  8
LINEE VISIBILI 2D
100
AcDbLine
 10
351.7733092262064
 20
11.55773494640282
 30
0.0
 11
351.9531339755129
 21
11.32570701981403
 31
0.0
  0
ARC
  5
185
330
1F
100
AcDbEntity
  8
LINEE VISIBILI 2D
100
AcDbCircle
 10
351.1935660352957
 20
10.91102903675492
 30
0.0
 40
0.8685221363996454
100
AcDbArc
 50
48.1251921957577
 51
75.65307495105857
  0
LINE
  5
186
330
1F
100
AcDbEntity
  8
LINEE VISIBILI 2D
100
AcDbLine
 10
294.5661513444225
 20
117.9672627491267
 30
0.0
 11
292.6539183218329
 21
115.9144673277894
 31
0.0
  0
LINE
  5
187
330
1F
100
AcDbEntity
  8
LINEE VISIBILI 2D
100
AcDbLine
 10
232.3592791114555
 20
27.22898338965227
 30
0.0
 11
232.2722743228238
 21
27.43661139625954
 31
0.0
  0
LINE
  5
188
330
1F
100
AcDbEntity
  8
LINEE VISIBILI 2D
100
AcDbLine
 10
281.1701093783744
 20
115.8481986594568
 30
0.0
 11
279.2081600664332
 21
117.8560680803463
 31
0.0
  0
LINE
  5
189
330
1F
100
AcDbEntity
  8
LINEE VISIBILI 2D
100
AcDbLine
 10
239.1423483968468
 20
117.1751770121685
 30
0.0
 11
238.9283819331694
 21
120.9069711035889
 31
0.0
  0
LINE
  5
18A
330
1F
100
AcDbEntity
  8
LINEE VISIBILI 2D
100
AcDbLine
 10
240.4726466141948
 20
120.9320111134328
 30
0.0
 11
240.680919465259
 21
117.2133053857982
 31
0.0
  0
LINE
  5
18B
330
1F
100
AcDbEntity
  8
LINEE VISIBILI 2D
100
AcDbLine
 10
342.1162481443486
 20
110.1802458003741
 30
0.0
 11
342.2564917932533
 21
114.6046314738018
 31
0.0
  0
LINE
  5
18C
330
1F
100
AcDbEntity
  8
LINEE VISIBILI 2D
100
AcDbLine
 10
344.0754203437451
 20
114.5788896103881
 30
0.0
 11
343.9281007266409
 21
110.1510774312831
 31
0.0
  0
LINE
  5
18D
330
1F
100
AcDbEntity
  8
LINEE VISIBILI 2D
100
AcDbLine
 10
244.5353673200916
 20
34.7302124910243
 30
0.0
 11
244.8161677312082
 21
34.78161085862456
 31
0.0
  0
ARC
  5
18E
330
1F
100
AcDbEntity
  8
LINEE VISIBILI 2D
100
AcDbCircle
 10
245.3979958258025
 20
31.10911407117908
 30
0.0
 40
3.762384989437446
100
AcDbArc
 50
75.42914241413242
 51
101.1385851183044
  0
LINE
  5
18F
330
1F
100
AcDbEntity
  8
LINEE VISIBILI 2D
100
AcDbLine
 10
246.7198955256469
 20
32.97443145936359
 30
0.0
 11
244.6903206837191
 21
31.99819349491813
 31
0.0
  0
LINE
  5
190
330
1F
100
AcDbEntity
  8
LINEE VISIBILI 2D
100
AcDbLine
 10
285.1727655148758
 20
10.2275941837579
 30
0.0
 11
291.8941652486036
 21
14.78406351624164
 31
0.0
  0
LINE
  5
191
330
1F
100
AcDbEntity
  8
LINEE VISIBILI 2D
100
AcDbLine
 10
291.8941652478467
 20
14.78406351664307
 30
0.0
 11
285.0178361663733
 21
17.58914245064555
 31
0.0
  0
LINE
  5
192
330
1F
100
AcDbEntity
  8
LINEE VISIBILI 2D
100
AcDbLine
 10
284.3910092151824
 20
17.84479984353311
 30
0.0
 11
247.1074292024429
 21
33.02810880318229
 31
0.0
  0
LINE
  5
193
330
1F
100
AcDbEntity
  8
LINEE VISIBILI 2D
100
AcDbLine
 10
247.1074292024454
 20
33.02810880318584
 30
0.0
 11
244.6979577428952
 21
31.86354271831171
 31
0.0
  0
LINE
  5
194
330
1F
100
AcDbEntity
  8
LINEE VISIBILI 2D
100
AcDbLine
 10
244.6632312660165
 20
31.8467584243705
 30
0.0
 11
239.4960007423766
 21
29.34928894959993
 31
0.0
  0
LINE
  5
195
330
1F
100
AcDbEntity
  8
LINEE VISIBILI 2D
100
AcDbLine
 10
244.6456295534986
 20
30.68617997676777
 30
0.0
 11
244.7277645755133
 21
30.70962289916802
 31
0.0
  0
POLYLINE
  5
196
330
1F
100
AcDbEntity
  8
LINEE VISIBILI 2D
100
AcDb2dPolyline
 66
     1
 10
0.0
 20
0.0
 30
0.0
  0
VERTEX
  5
198
330
196
100
AcDbEntity
  8
LINEE VISIBILI 2D
100
AcDbVertex
100
AcDb2dVertex
 10
244.7632017450545
 20
30.71321068470082
 30
0.0
  0
VERTEX
  5
199
330
196
100
AcDbEntity
  8
LINEE VISIBILI 2D
100
AcDbVertex
100
AcDb2dVertex
 10
244.7757149465986
 20
30.71380507331243
 30
0.0
  0
VERTEX
  5
19A
330
196
100
AcDbEntity
  8
LINEE VISIBILI 2D
100
AcDbVertex
100
AcDb2dVertex
 10
244.7883555908067
 20
30.71407481679798
 30
0.0
  0
VERTEX
  5
19B
330
196
100
AcDbEntity
  8
LINEE VISIBILI 2D
100
AcDbVertex
100
AcDb2dVertex
 10
244.8010900016254
 20
30.71402014596917
 30
0.0
  0
VERTEX
  5
19C
330
196
100
AcDbEntity
  8
LINEE VISIBILI 2D
100
AcDbVertex
100
AcDb2dVertex
 10
244.8138845072576
 20
30.71364128786644
 30
0.0
  0
VERTEX
  5
19D
330
196
100
AcDbEntity
  8
LINEE VISIBILI 2D
100
AcDbVertex
100
AcDb2dVertex
 10
244.8267054395276
 20
30.7129384656675
 30
0.0
  0
VERTEX
  5
19E
330
196
100
AcDbEntity
  8
LINEE VISIBILI 2D
100
AcDbVertex
100
AcDb2dVertex
 10
244.8395191332259
 20
30.71191189859564
 30
0.0
  0
VERTEX
  5
19F
330
196
100
AcDbEntity
  8
LINEE VISIBILI 2D
100
AcDbVertex
100
AcDb2dVertex
 10
244.8522919254348
 20
30.71056180182826
 30
0.0
  0
VERTEX
  5
1A0
330
196
100
AcDbEntity
  8
LINEE VISIBILI 2D
100
AcDbVertex
100
AcDb2dVertex
 10
244.8649901548337
 20
30.70888838640531
 30
0.0
  0
VERTEX
  5
1A1
330
196
100
AcDbEntity
  8
LINEE VISIBILI 2D
100
AcDbVertex
100
AcDb2dVertex
 10
244.8775801609846
 20
30.70689185913777
 30
0.0
  0
VERTEX
  5
1A2
330
196
100
AcDbEntity
  8
LINEE VISIBILI 2D
100
AcDbVertex
100
AcDb2dVertex
 10
244.8900282835978
 20
30.70457242251608
 30
0.0
  0
VERTEX
  5
1A3
330
196
100
AcDbEntity
  8
LINEE VISIBILI 2D
100
AcDbVertex
100
AcDb2dVertex
 10
244.902300861777
 20
30.70193027461864
 30
0.0
  0
VERTEX
  5
1A4
330
196
100
AcDbEntity
  8
LINEE VISIBILI 2D
100
AcDbVertex
100
AcDb2dVertex
 10
244.9143642332456
 20
30.69896560902015
 30
0.0
  0
VERTEX
  5
1A5
330
196
100
AcDbEntity
  8
LINEE VISIBILI 2D
100
AcDbVertex
100
AcDb2dVertex
 10
244.9261847335514
 20
30.69567861470007
 30
0.0
  0
VERTEX
  5
1A6
330
196
100
AcDbEntity
  8
LINEE VISIBILI 2D
100
AcDbVertex
100
AcDb2dVertex
 10
244.9377286952529
 20
30.69206947595093
 30
0.0
  0
VERTEX
  5
1A7
330
196
100
AcDbEntity
  8
LINEE VISIBILI 2D
100
AcDbVertex
100
AcDb2dVertex
 10
244.9489624470841
 20
30.6881383722866
 30
0.0
  0
VERTEX
  5
1A8
330
196
100
AcDbEntity
  8
LINEE VISIBILI 2D
100
AcDbVertex
100
AcDb2dVertex
 10
244.9544524707718
 20
30.68605213838009
 30
0.0
  0
VERTEX
  5
1A9
330
196
100
AcDbEntity
  8
LINEE VISIBILI 2D
100
AcDbVertex
100
AcDb2dVertex
 10
244.9598523130994
 20
30.68388547835057
 30
0.0
  0
VERTEX
  5
1AA
330
196
100
AcDbEntity
  8
LINEE VISIBILI 2D
100
AcDbVertex
100
AcDb2dVertex
 10
244.9685611059424
 20
30.68012994847004
 30
0.0
  0
VERTEX
  5
1AB
330
196
100
AcDbEntity
  8
LINEE VISIBILI 2D
100
AcDbVertex
100
AcDb2dVertex
 10
244.9767917165207
 20
30.67624603696765
 30
0.0
  0
VERTEX
  5
1AC
330
196
100
AcDbEntity
  8
LINEE VISIBILI 2D
100
AcDbVertex
100
AcDb2dVertex
 10
244.980727094695
 20
30.67425868284921
 30
0.0
  0
VERTEX
  5
1AD
330
196
100
AcDbEntity
  8
LINEE VISIBILI 2D
100
AcDbVertex
100
AcDb2dVertex
 10
244.9845421961191
 20
30.67224252708219
 30
0.0
  0
VERTEX
  5
1AE
330
196
100
AcDbEntity
  8
LINEE VISIBILI 2D
100
AcDbVertex
100
AcDb2dVertex
 10
244.9882367763843
 20
30.6701986676653
 30
0.0
  0
VERTEX
  5
1AF
330
196
100
AcDbEntity
  8
LINEE VISIBILI 2D
100
AcDbVertex
100
AcDb2dVertex
 10
244.9918105907685
 20
30.66812820264451
 30
0.0
  0
VERTEX
  5
1B0
330
196
100
AcDbEntity
  8
LINEE VISIBILI 2D
100
AcDbVertex
100
AcDb2dVertex
 10
244.995263394243
 20
30.66603223011798
 30
0.0
  0
VERTEX
  5
1B1
330
196
100
AcDbEntity
  8
LINEE VISIBILI 2D
100
AcDbVertex
100
AcDb2dVertex
 10
244.9985949414798
 20
30.66391184824071
 30
0.0
  0
VERTEX
  5
1B2
330
196
100
AcDbEntity
  8
LINEE VISIBILI 2D
100
AcDbVertex
100
AcDb2dVertex
 10
245.0018049868591
 20
30.66176815522925
 30
0.0
  0
VERTEX
  5
1B3
330
196
100
AcDbEntity
  8
LINEE VISIBILI 2D
100
AcDbVertex
100
AcDb2dVertex
 10
245.0048932844769
 20
30.65960224936606
 30
0.0
  0
VERTEX
  5
1B4
330
196
100
AcDbEntity
  8
LINEE VISIBILI 2D
100
AcDbVertex
100
AcDb2dVertex
 10
245.0078595881524
 20
30.65741522900382
 30
0.0
  0
VERTEX
  5
1B5
330
196
100
AcDbEntity
  8
LINEE VISIBILI 2D
100
AcDbVertex
100
AcDb2dVertex
 10
245.0107036514349
 20
30.65520819256963
 30
0.0
  0
VERTEX
  5
1B6
330
196
100
AcDbEntity
  8
LINEE VISIBILI 2D
100
AcDbVertex
100
AcDb2dVertex
 10
245.0134252276122
 20
30.65298223856898
 30
0.0
  0
VERTEX
  5
1B7
330
196
100
AcDbEntity
  8
LINEE VISIBILI 2D
100
AcDbVertex
100
AcDb2dVertex
 10
245.0160240697174
 20
30.65073846558965
 30
0.0
  0
VERTEX
  5
1B8
330
196
100
AcDbEntity
  8
LINEE VISIBILI 2D
100
AcDbVertex
100
AcDb2dVertex
 10
245.018499930537
 20
30.64847797230536
 30
0.0
  0
VERTEX
  5
1B9
330
196
100
AcDbEntity
  8
LINEE VISIBILI 2D
100
AcDbVertex
100
AcDb2dVertex
 10
245.0208525626178
 20
30.64620185747945
 30
0.0
  0
VERTEX
  5
1BA
330
196
100
AcDbEntity
  8
LINEE VISIBILI 2D
100
AcDbVertex
100
AcDb2dVertex
 10
245.0230817182758
 20
30.64391121996821
 30
0.0
  0
VERTEX
  5
1BB
330
196
100
AcDbEntity
  8
LINEE VISIBILI 2D
100
AcDbVertex
100
AcDb2dVertex
 10
245.0251871496024
 20
30.64160715872424
 30
0.0
  0
VERTEX
  5
1BC
330
196
100
AcDbEntity
  8
LINEE VISIBILI 2D
100
AcDbVertex
100
AcDb2dVertex
 10
245.0271686084731
 20
30.63929077279951
 30
0.0
  0
VERTEX
  5
1BD
330
196
100
AcDbEntity
  8
LINEE VISIBILI 2D
100
AcDbVertex
100
AcDb2dVertex
 10
245.0290258465545
 20
30.63696316134845
 30
0.0
  0
VERTEX
  5
1BE
330
196
100
AcDbEntity
  8
LINEE VISIBILI 2D
100
AcDbVertex
100
AcDb2dVertex
 10
245.0299078051402
 20
30.63579548956498
 30
0.0
  0
VERTEX
  5
1BF
330
196
100
AcDbEntity
  8
LINEE VISIBILI 2D
100
AcDbVertex
100
AcDb2dVertex
 10
245.030758615313
 20
30.63462542363068
 30
0.0
  0
VERTEX
  5
1C0
330
196
100
AcDbEntity
  8
LINEE VISIBILI 2D
100
AcDbVertex
100
AcDb2dVertex
 10
245.0315782459764
 20
30.63345310096988
 30
0.0
  0
VERTEX
  5
1C1
330
196
100
AcDbEntity
  8
LINEE VISIBILI 2D
100
AcDbVertex
100
AcDb2dVertex
 10
245.0323666660219
 20
30.63227865901384
 30
0.0
  0
VERTEX
  5
1C2
330
196
100
AcDbEntity
  8
LINEE VISIBILI 2D
100
AcDbVertex
100
AcDb2dVertex
 10
245.0331238443298
 20
30.6311022352008
 30
0.0
  0
VERTEX
  5
1C3
330
196
100
AcDbEntity
  8
LINEE VISIBILI 2D
100
AcDbVertex
100
AcDb2dVertex
 10
245.0338497497693
 20
30.62992396697604
 30
0.0
  0
VERTEX
  5
1C4
330
196
100
AcDbEntity
  8
LINEE VISIBILI 2D
100
AcDbVertex
100
AcDb2dVertex
 10
245.0345443511987
 20
30.62874399179201
 30
0.0
  0
VERTEX
  5
1C5
330
196
100
AcDbEntity
  8
LINEE VISIBILI 2D
100
AcDbVertex
100
AcDb2dVertex
 10
245.035207617466
 20
30.62756244710832
 30
0.0
  0
VERTEX
  5
1C6
330
196
100
AcDbEntity
  8
LINEE VISIBILI 2D
100
AcDbVertex
100
AcDb2dVertex
 10
245.0358395174085
 20
30.62637947039187
 30
0.0
  0
VERTEX
  5
1C7
330
196
100
AcDbEntity
  8
LINEE VISIBILI 2D
100
AcDbVertex
100
AcDb2dVertex
 10
245.0364400198536
 20
30.62519519911689
 30
0.0
  0
VERTEX
  5
1C8
330
196
100
AcDbEntity
  8
LINEE VISIBILI 2D
100
AcDbVertex
100
AcDb2dVertex
 10
245.0370090936191
 20
30.624009770765
 30
0.0
  0
VERTEX
  5
1C9
330
196
100
AcDbEntity
  8
LINEE VISIBILI 2D
100
AcDbVertex
100
AcDb2dVertex
 10
245.0375467075126
 20
30.62282332282528
 30
0.0
  0
VERTEX
  5
1CA
330
196
100
AcDbEntity
  8
LINEE VISIBILI 2D
100
AcDbVertex
100
AcDb2dVertex
 10
245.0380528303329
 20
30.62163599279432
 30
0.0
  0
VERTEX
  5
1CB
330
196
100
AcDbEntity
  8
LINEE VISIBILI 2D
100
AcDbVertex
100
AcDb2dVertex
 10
245.0385274308696
 20
30.62044791817629
 30
0.0
  0
VERTEX
  5
1CC
330
196
100
AcDbEntity
  8
LINEE VISIBILI 2D
100
AcDbVertex
100
AcDb2dVertex
 10
245.0389704779031
 20
30.61925923648299
 30
0.0
  0
VERTEX
  5
1CD
330
196
100
AcDbEntity
  8
LINEE VISIBILI 2D
100
AcDbVertex
100
AcDb2dVertex
 10
245.0393819402058
 20
30.61807008523385
 30
0.0
  0
VERTEX
  5
1CE
330
196
100
AcDbEntity
  8
LINEE VISIBILI 2D
100
AcDbVertex
100
AcDb2dVertex
 10
245.0397617865414
 20
30.61688060195608
 30
0.0
  0
VERTEX
  5
1CF
330
196
100
AcDbEntity
  8
LINEE VISIBILI 2D
100
AcDbVertex
100
AcDb2dVertex
 10
245.0401099856654
 20
30.61569092418463
 30
0.0
  0
VERTEX
  5
1D0
330
196
100
AcDbEntity
  8
LINEE VISIBILI 2D
100
AcDbVertex
100
AcDb2dVertex
 10
245.0404265063258
 20
30.61450118946227
 30
0.0
  0
VERTEX
  5
1D1
330
196
100
AcDbEntity
  8
LINEE VISIBILI 2D
100
AcDbVertex
100
AcDb2dVertex
 10
245.0407113172629
 20
30.61331153533965
 30
0.0
  0
VERTEX
  5
1D2
330
196
100
AcDbEntity
  8
LINEE VISIBILI 2D
100
AcDbVertex
100
AcDb2dVertex
 10
245.0409643872096
 20
30.61212209937528
 30
0.0
  0
VERTEX
  5
1D3
330
196
100
AcDbEntity
  8
LINEE VISIBILI 2D
100
AcDbVertex
100
AcDb2dVertex
 10
245.0411856848917
 20
30.61093301913562
 30
0.0
  0
VERTEX
  5
1D4
330
196
100
AcDbEntity
  8
LINEE VISIBILI 2D
100
AcDbVertex
100
AcDb2dVertex
 10
245.0413751790283
 20
30.60974443219512
 30
0.0
  0
VERTEX
  5
1D5
330
196
100
AcDbEntity
  8
LINEE VISIBILI 2D
100
AcDbVertex
100
AcDb2dVertex
 10
245.0415328383322
 20
30.60855647613624
 30
0.0
  0
VERTEX
  5
1D6
330
196
100
AcDbEntity
  8
LINEE VISIBILI 2D
100
AcDbVertex
100
AcDb2dVertex
 10
245.0416586315093
 20
30.60736928854943
 30
0.0
  0
VERTEX
  5
1D7
330
196
100
AcDbEntity
  8
LINEE VISIBILI 2D
100
AcDbVertex
100
AcDb2dVertex
 10
245.0417525272598
 20
30.60618300703322
 30
0.0
  0
VERTEX
  5
1D8
330
196
100
AcDbEntity
  8
LINEE VISIBILI 2D
100
AcDbVertex
100
AcDb2dVertex
 10
245.0418144942781
 20
30.60499776919427
 30
0.0
  0
VERTEX
  5
1D9
330
196
100
AcDbEntity
  8
LINEE VISIBILI 2D
100
AcDbVertex
100
AcDb2dVertex
 10
245.041844501253
 20
30.6038137126473
 30
0.0
  0
VERTEX
  5
1DA
330
196
100
AcDbEntity
  8
LINEE VISIBILI 2D
100
AcDbVertex
100
AcDb2dVertex
 10
245.0418425168683
 20
30.60263097501521
 30
0.0
  0
VERTEX
  5
1DB
330
196
100
AcDbEntity
  8
LINEE VISIBILI 2D
100
AcDbVertex
100
AcDb2dVertex
 10
245.0418085098021
 20
30.60144969392903
 30
0.0
  0
VERTEX
  5
1DC
330
196
100
AcDbEntity
  8
LINEE VISIBILI 2D
100
AcDbVertex
100
AcDb2dVertex
 10
245.0417424487288
 20
30.60027000702797
 30
0.0
  0
VERTEX
  5
1DD
330
196
100
AcDbEntity
  8
LINEE VISIBILI 2D
100
AcDbVertex
100
AcDb2dVertex
 10
245.0416443023174
 20
30.59909205195943
 30
0.0
  0
VERTEX
  5
1DE
330
196
100
AcDbEntity
  8
LINEE VISIBILI 2D
100
AcDbVertex
100
AcDb2dVertex
 10
245.0415140392329
 20
30.59791596637901
 30
0.0
  0
VERTEX
  5
1DF
330
196
100
AcDbEntity
  8
LINEE VISIBILI 2D
100
AcDbVertex
100
AcDb2dVertex
 10
245.0413516281366
 20
30.5967418879505
 30
0.0
  0
VERTEX
  5
1E0
330
196
100
AcDbEntity
  8
LINEE VISIBILI 2D
100
AcDbVertex
100
AcDb2dVertex
 10
245.0411570376857
 20
30.59556995434595
 30
0.0
  0
VERTEX
  5
1E1
330
196
100
AcDbEntity
  8
LINEE VISIBILI 2D
100
AcDbVertex
100
AcDb2dVertex
 10
245.0409302365343
 20
30.59440030324561
 30
0.0
  0
VERTEX
  5
1E2
330
196
100
AcDbEntity
  8
LINEE VISIBILI 2D
100
AcDbVertex
100
AcDb2dVertex
 10
245.040671193333
 20
30.59323307233793
 30
0.0
  0
VERTEX
  5
1E3
330
196
100
AcDbEntity
  8
LINEE VISIBILI 2D
100
AcDbVertex
100
AcDb2dVertex
 10
245.0403798767296
 20
30.59206839931964
 30
0.0
  0
VERTEX
  5
1E4
330
196
100
AcDbEntity
  8
LINEE VISIBILI 2D
100
AcDbVertex
100
AcDb2dVertex
 10
245.0400562553696
 20
30.59090642189568
 30
0.0
  0
VERTEX
  5
1E5
330
196
100
AcDbEntity
  8
LINEE VISIBILI 2D
100
AcDbVertex
100
AcDb2dVertex
 10
245.0397002978954
 20
30.58974727777921
 30
0.0
  0
VERTEX
  5
1E6
330
196
100
AcDbEntity
  8
LINEE VISIBILI 2D
100
AcDbVertex
100
AcDb2dVertex
 10
245.0393119729477
 20
30.5885911046916
 30
0.0
  0
VERTEX
  5
1E7
330
196
100
AcDbEntity
  8
LINEE VISIBILI 2D
100
AcDbVertex
100
AcDb2dVertex
 10
245.0388912491654
 20
30.58743804036245
 30
0.0
  0
VERTEX
  5
1E8
330
196
100
AcDbEntity
  8
LINEE VISIBILI 2D
100
AcDbVertex
100
AcDb2dVertex
 10
245.0384380951857
 20
30.58628822252956
 30
0.0
  0
VERTEX
  5
1E9
330
196
100
AcDbEntity
  8
LINEE VISIBILI 2D
100
AcDbVertex
100
AcDb2dVertex
 10
245.0379524796443
 20
30.5851417889389
 30
0.0
  0
VERTEX
  5
1EA
330
196
100
AcDbEntity
  8
LINEE VISIBILI 2D
100
AcDbVertex
100
AcDb2dVertex
 10
245.037434371176
 20
30.58399887734462
 30
0.0
  0
VERTEX
  5
1EB
330
196
100
AcDbEntity
  8
LINEE VISIBILI 2D
100
AcDbVertex
100
AcDb2dVertex
 10
245.0368837384147
 20
30.58285962550904
 30
0.0
  0
VERTEX
  5
1EC
330
196
100
AcDbEntity
  8
LINEE VISIBILI 2D
100
AcDbVertex
100
AcDb2dVertex
 10
245.036300549994
 20
30.58172417120261
 30
0.0
  0
VERTEX
  5
1ED
330
196
100
AcDbEntity
  8
LINEE VISIBILI 2D
100
AcDbVertex
100
AcDb2dVertex
 10
245.0356847745468
 20
30.58059265220388
 30
0.0
  0
VERTEX
  5
1EE
330
196
100
AcDbEntity
  8
LINEE VISIBILI 2D
100
AcDbVertex
100
AcDb2dVertex
 10
245.0350363807065
 20
30.57946520629952
 30
0.0
  0
VERTEX
  5
1EF
330
196
100
AcDbEntity
  8
LINEE VISIBILI 2D
100
AcDbVertex
100
AcDb2dVertex
 10
245.0343553371063
 20
30.57834197128423
 30
0.0
  0
VERTEX
  5
1F0
330
196
100
AcDbEntity
  8
LINEE VISIBILI 2D
100
AcDbVertex
100
AcDb2dVertex
 10
245.0336416123805
 20
30.5772230849608
 30
0.0
  0
VERTEX
  5
1F1
330
196
100
AcDbEntity
  8
LINEE VISIBILI 2D
100
AcDbVertex
100
AcDb2dVertex
 10
245.0328951751636
 20
30.57610868513997
 30
0.0
  0
VERTEX
  5
1F2
330
196
100
AcDbEntity
  8
LINEE VISIBILI 2D
100
AcDbVertex
100
AcDb2dVertex
 10
245.0321159940914
 20
30.57499890964047
 30
0.0
  0
VERTEX
  5
1F3
330
196
100
AcDbEntity
  8
LINEE VISIBILI 2D
100
AcDbVertex
100
AcDb2dVertex
 10
245.0313040378015
 20
30.57389389628899
 30
0.0
  0
VERTEX
  5
1F4
330
196
100
AcDbEntity
  8
LINEE VISIBILI 2D
100
AcDbVertex
100
AcDb2dVertex
 10
245.0304592749324
 20
30.5727937829201
 30
0.0
  0
VERTEX
  5
1F5
330
196
100
AcDbEntity
  8
LINEE VISIBILI 2D
100
AcDbVertex
100
AcDb2dVertex
 10
245.029581674125
 20
30.57169870737623
 30
0.0
  0
VERTEX
  5
1F6
330
196
100
AcDbEntity
  8
LINEE VISIBILI 2D
100
AcDbVertex
100
AcDb2dVertex
 10
245.0286712040222
 20
30.57060880750762
 30
0.0
  0
VERTEX
  5
1F7
330
196
100
AcDbEntity
  8
LINEE VISIBILI 2D
100
AcDbVertex
100
AcDb2dVertex
 10
245.0277278332694
 20
30.56952422117231
 30
0.0
  0
VERTEX
  5
1F8
330
196
100
AcDbEntity
  8
LINEE VISIBILI 2D
100
AcDbVertex
100
AcDb2dVertex
 10
245.0267515305147
 20
30.56844508623604
 30
0.0
  0
VERTEX
  5
1F9
330
196
100
AcDbEntity
  8
LINEE VISIBILI 2D
100
AcDbVertex
100
AcDb2dVertex
 10
245.0257422644092
 20
30.56737154057222
 30
0.0
  0
VERTEX
  5
1FA
330
196
100
AcDbEntity
  8
LINEE VISIBILI 2D
100
AcDbVertex
100
AcDb2dVertex
 10
245.0247000036072
 20
30.56630372206193
 30
0.0
  0
VERTEX
  5
1FB
330
196
100
AcDbEntity
  8
LINEE VISIBILI 2D
100
AcDbVertex
100
AcDb2dVertex
 10
245.0236247167665
 20
30.56524176859377
 30
0.0
  0
VERTEX
  5
1FC
330
196
100
AcDbEntity
  8
LINEE VISIBILI 2D
100
AcDbVertex
100
AcDb2dVertex
 10
245.0225163725488
 20
30.56418581806388
 30
0.0
  0
VERTEX
  5
1FD
330
196
100
AcDbEntity
  8
LINEE VISIBILI 2D
100
AcDbVertex
100
AcDb2dVertex
 10
245.0213749396203
 20
30.56313600837587
 30
0.0
  0
VERTEX
  5
1FE
330
196
100
AcDbEntity
  8
LINEE VISIBILI 2D
100
AcDbVertex
100
AcDb2dVertex
 10
245.0189926823151
 20
30.56105536317674
 30
0.0
  0
VERTEX
  5
1FF
330
196
100
AcDbEntity
  8
LINEE VISIBILI 2D
100
AcDbVertex
100
AcDb2dVertex
 10
245.0164776942703
 20
30.55900093637192
 30
0.0
  0
VERTEX
  5
200
330
196
100
AcDbEntity
  8
LINEE VISIBILI 2D
100
AcDbVertex
100
AcDb2dVertex
 10
245.0138297249882
 20
30.55697383145214
 30
0.0
  0
VERTEX
  5
201
330
196
100
AcDbEntity
  8
LINEE VISIBILI 2D
100
AcDbVertex
100
AcDb2dVertex
 10
245.0110485240636
 20
30.55497515202107
 30
0.0
  0
VERTEX
  5
202
330
196
100
AcDbEntity
  8
LINEE VISIBILI 2D
100
AcDbVertex
100
AcDb2dVertex
 10
245.0081338411926
 20
30.55300600179286
 30
0.0
  0
VERTEX
  5
203
330
196
100
AcDbEntity
  8
LINEE VISIBILI 2D
100
AcDbVertex
100
AcDb2dVertex
 10
245.005085426182
 20
30.55106748458962
 30
0.0
  0
VERTEX
  5
204
330
196
100
AcDbEntity
  8
LINEE VISIBILI 2D
100
AcDbVertex
100
AcDb2dVertex
 10
245.0019030289571
 20
30.54916070433866
 30
0.0
  0
VERTEX
  5
205
330
196
100
AcDbEntity
  8
LINEE VISIBILI 2D
100
AcDbVertex
100
AcDb2dVertex
 10
244.9985863995727
 20
30.5472867650697
 30
0.0
  0
VERTEX
  5
206
330
196
100
AcDbEntity
  8
LINEE VISIBILI 2D
100
AcDbVertex
100
AcDb2dVertex
 10
244.9951352882205
 20
30.54544677091179
 30
0.0
  0
VERTEX
  5
207
330
196
100
AcDbEntity
  8
LINEE VISIBILI 2D
100
AcDbVertex
100
AcDb2dVertex
 10
244.9915494452394
 20
30.54364182609019
 30
0.0
  0
SEQEND
  5
197
330
196
100
AcDbEntity
  8
LINEE VISIBILI 2D
  0
POLYLINE
  5
208
330
1F
100
AcDbEntity
  8
LINEE VISIBILI 2D
100
AcDb2dPolyline
 66
     1
 10
0.0
 20
0.0
 30
0.0
  0
VERTEX
  5
20A
330
208
100
AcDbEntity
  8
LINEE VISIBILI 2D
100
AcDbVertex
100
AcDb2dVertex
 10
244.9915494452394
 20
30.54364182609019
 30
0.0
  0
VERTEX
  5
20B
330
208
100
AcDbEntity
  8
LINEE VISIBILI 2D
100
AcDbVertex
100
AcDb2dVertex
 10
244.987846802417
 20
30.54188158040642
 30
0.0
  0
VERTEX
  5
20C
330
208
100
AcDbEntity
  8
LINEE VISIBILI 2D
100
AcDbVertex
100
AcDb2dVertex
 10
244.9840546483445
 20
30.54017862947676
 30
0.0
  0
VERTEX
  5
20D
330
208
100
AcDbEntity
  8
LINEE VISIBILI 2D
100
AcDbVertex
100
AcDb2dVertex
 10
244.9801754512857
 20
30.53853296009962
 30
0.0
  0
VERTEX
  5
20E
330
208
100
AcDbEntity
  8
LINEE VISIBILI 2D
100
AcDbVertex
100
AcDb2dVertex
 10
244.9762116798205
 20
30.53694455899169
 30
0.0
  0
VERTEX
  5
20F
330
208
100
AcDbEntity
  8
LINEE VISIBILI 2D
100
AcDbVertex
100
AcDb2dVertex
 10
244.9721658028396
 20
30.53541341278686
 30
0.0
  0
VERTEX
  5
210
330
208
100
AcDbEntity
  8
LINEE VISIBILI 2D
100
AcDbVertex
100
AcDb2dVertex
 10
244.9680402895398
 20
30.53393950803493
 30
0.0
  0
VERTEX
  5
211
330
208
100
AcDbEntity
  8
LINEE VISIBILI 2D
100
AcDbVertex
100
AcDb2dVertex
 10
244.9595602322685
 20
30.5311633686612
 30
0.0
  0
VERTEX
  5
212
330
208
100
AcDbEntity
  8
LINEE VISIBILI 2D
100
AcDbVertex
100
AcDb2dVertex
 10
244.9507912674971
 20
30.52861603154138
 30
0.0
  0
VERTEX
  5
213
330
208
100
AcDbEntity
  8
LINEE VISIBILI 2D
100
AcDbVertex
100
AcDb2dVertex
 10
244.9417531592659
 20
30.52629738592403
 30
0.0
  0
VERTEX
  5
214
330
208
100
AcDbEntity
  8
LINEE VISIBILI 2D
100
AcDbVertex
100
AcDb2dVertex
 10
244.932465675981
 20
30.52420731959696
 30
0.0
  0
VERTEX
  5
215
330
208
100
AcDbEntity
  8
LINEE VISIBILI 2D
100
AcDbVertex
100
AcDb2dVertex
 10
244.9229485902259
 20
30.52234571884877
 30
0.0
  0
VERTEX
  5
216
330
208
100
AcDbEntity
  8
LINEE VISIBILI 2D
100
AcDbVertex
100
AcDb2dVertex
 10
244.9132216785645
 20
30.52071246843063
 30
0.0
  0
VERTEX
  5
217
330
208
100
AcDbEntity
  8
LINEE VISIBILI 2D
100
AcDbVertex
100
AcDb2dVertex
 10
244.9033047213375
 20
30.51930745151793
 30
0.0
  0
VERTEX
  5
218
330
208
100
AcDbEntity
  8
LINEE VISIBILI 2D
100
AcDbVertex
100
AcDb2dVertex
 10
244.893217502452
 20
30.51813054967212
 30
0.0
  0
VERTEX
  5
219
330
208
100
AcDbEntity
  8
LINEE VISIBILI 2D
100
AcDbVertex
100
AcDb2dVertex
 10
244.8829798091645
 20
30.51718164280254
 30
0.0
  0
VERTEX
  5
21A
330
208
100
AcDbEntity
  8
LINEE VISIBILI 2D
100
AcDbVertex
100
AcDb2dVertex
 10
244.8726114318564
 20
30.51646060912844
 30
0.0
  0
VERTEX
  5
21B
330
208
100
AcDbEntity
  8
LINEE VISIBILI 2D
100
AcDbVertex
100
AcDb2dVertex
 10
244.8621321638028
 20
30.51596732514089
 30
0.0
  0
VERTEX
  5
21C
330
208
100
AcDbEntity
  8
LINEE VISIBILI 2D
100
AcDbVertex
100
AcDb2dVertex
 10
244.8515618009344
 20
30.51570166556492
 30
0.0
  0
VERTEX
  5
21D
330
208
100
AcDbEntity
  8
LINEE VISIBILI 2D
100
AcDbVertex
100
AcDb2dVertex
 10
244.8409201415925
 20
30.51566350332166
 30
0.0
  0
VERTEX
  5
21E
330
208
100
AcDbEntity
  8
LINEE VISIBILI 2D
100
AcDbVertex
100
AcDb2dVertex
 10
244.8302269862768
 20
30.51585270949054
 30
0.0
  0
VERTEX
  5
21F
330
208
100
AcDbEntity
  8
LINEE VISIBILI 2D
100
AcDbVertex
100
AcDb2dVertex
 10
244.819502137387
 20
30.51626915327168
 30
0.0
  0
VERTEX
  5
220
330
208
100
AcDbEntity
  8
LINEE VISIBILI 2D
100
AcDbVertex
100
AcDb2dVertex
 10
244.8087653989566
 20
30.51691270194816
 30
0.0
  0
VERTEX
  5
221
330
208
100
AcDbEntity
  8
LINEE VISIBILI 2D
100
AcDbVertex
100
AcDb2dVertex
 10
244.7980365763803
 20
30.51778322084864
 30
0.0
  0
VERTEX
  5
222
330
208
100
AcDbEntity
  8
LINEE VISIBILI 2D
100
AcDbVertex
100
AcDb2dVertex
 10
244.7873354761345
 20
30.51888057330983
 30
0.0
  0
VERTEX
  5
223
330
208
100
AcDbEntity
  8
LINEE VISIBILI 2D
100
AcDbVertex
100
AcDb2dVertex
 10
244.776681905491
 20
30.52020462063917
 30
0.0
  0
VERTEX
  5
224
330
208
100
AcDbEntity
  8
LINEE VISIBILI 2D
100
AcDbVertex
100
AcDb2dVertex
 10
244.7660956722232
 20
30.52175522207749
 30
0.0
  0
VERTEX
  5
225
330
208
100
AcDbEntity
  8
LINEE VISIBILI 2D
100
AcDbVertex
100
AcDb2dVertex
 10
244.7555965843064
 20
30.52353223476202
 30
0.0
  0
VERTEX
  5
226
330
208
100
AcDbEntity
  8
LINEE VISIBILI 2D
100
AcDbVertex
100
AcDb2dVertex
 10
244.7452044496105
 20
30.52553551368918
 30
0.0
  0
VERTEX
  5
227
330
208
100
AcDbEntity
  8
LINEE VISIBILI 2D
100
AcDbVertex
100
AcDb2dVertex
 10
244.734939075586
 20
30.52776491167763
 30
0.0
  0
VERTEX
  5
228
330
208
100
AcDbEntity
  8
LINEE VISIBILI 2D
100
AcDbVertex
100
AcDb2dVertex
 10
244.7248202689433
 20
30.53022027933141
 30
0.0
  0
VERTEX
  5
229
330
208
100
AcDbEntity
  8
LINEE VISIBILI 2D
100
AcDbVertex
100
AcDb2dVertex
 10
244.7148678353254
 20
30.5329014650032
 30
0.0
  0
VERTEX
  5
22A
330
208
100
AcDbEntity
  8
LINEE VISIBILI 2D
100
AcDbVertex
100
AcDb2dVertex
 10
244.705101578973
 20
30.53580831475762
 30
0.0
  0
VERTEX
  5
22B
330
208
100
AcDbEntity
  8
LINEE VISIBILI 2D
100
AcDbVertex
100
AcDb2dVertex
 10
244.6955413023835
 20
30.53894067233466
 30
0.0
  0
VERTEX
  5
22C
330
208
100
AcDbEntity
  8
LINEE VISIBILI 2D
100
AcDbVertex
100
AcDb2dVertex
 10
244.6862068059631
 20
30.54229837911329
 30
0.0
  0
VERTEX
  5
22D
330
208
100
AcDbEntity
  8
LINEE VISIBILI 2D
100
AcDbVertex
100
AcDb2dVertex
 10
244.677117887672
 20
30.54588127407506
 30
0.0
  0
VERTEX
  5
22E
330
208
100
AcDbEntity
  8
LINEE VISIBILI 2D
100
AcDbVertex
100
AcDb2dVertex
 10
244.6684019041402
 20
30.54964209355727
 30
0.0
  0
VERTEX
  5
22F
330
208
100
AcDbEntity
  8
LINEE VISIBILI 2D
100
AcDbVertex
100
AcDb2dVertex
 10
244.6601653444474
 20
30.55353149228127
 30
0.0
  0
VERTEX
  5
230
330
208
100
AcDbEntity
  8
LINEE VISIBILI 2D
100
AcDbVertex
100
AcDb2dVertex
 10
244.6562274642629
 20
30.55552164492827
 30
0.0
  0
VERTEX
  5
231
330
208
100
AcDbEntity
  8
LINEE VISIBILI 2D
100
AcDbVertex
100
AcDb2dVertex
 10
244.6524101782367
 20
30.55754062573712
 30
0.0
  0
VERTEX
  5
232
330
208
100
AcDbEntity
  8
LINEE VISIBILI 2D
100
AcDbVertex
100
AcDb2dVertex
 10
244.6487137317526
 20
30.55958732923863
 30
0.0
  0
VERTEX
  5
233
330
208
100
AcDbEntity
  8
LINEE VISIBILI 2D
100
AcDbVertex
100
AcDb2dVertex
 10
244.6451383698788
 20
30.56166065001123
 30
0.0
  0
VERTEX
  5
234
330
208
100
AcDbEntity
  8
LINEE VISIBILI 2D
100
AcDbVertex
100
AcDb2dVertex
 10
244.6416843373765
 20
30.56375948268585
 30
0.0
  0
VERTEX
  5
235
330
208
100
AcDbEntity
  8
LINEE VISIBILI 2D
100
AcDbVertex
100
AcDb2dVertex
 10
244.6383518787063
 20
30.56588272195065
 30
0.0
  0
VERTEX
  5
236
330
208
100
AcDbEntity
  8
LINEE VISIBILI 2D
100
AcDbVertex
100
AcDb2dVertex
 10
244.6351412380365
 20
30.56802926255575
 30
0.0
  0
VERTEX
  5
237
330
208
100
AcDbEntity
  8
LINEE VISIBILI 2D
100
AcDbVertex
100
AcDb2dVertex
 10
244.6320526592501
 20
30.57019799931758
 30
0.0
  0
VERTEX
  5
238
330
208
100
AcDbEntity
  8
LINEE VISIBILI 2D
100
AcDbVertex
100
AcDb2dVertex
 10
244.6290863859522
 20
30.57238782712324
 30
0.0
  0
VERTEX
  5
239
330
208
100
AcDbEntity
  8
LINEE VISIBILI 2D
100
AcDbVertex
100
AcDb2dVertex
 10
244.6262426614779
 20
30.57459764093469
 30
0.0
  0
VERTEX
  5
23A
330
208
100
AcDbEntity
  8
LINEE VISIBILI 2D
100
AcDbVertex
100
AcDb2dVertex
 10
244.6235217288996
 20
30.57682633579274
 30
0.0
  0
VERTEX
  5
23B
330
208
100
AcDbEntity
  8
LINEE VISIBILI 2D
100
AcDbVertex
100
AcDb2dVertex
 10
244.6209238310348
 20
30.57907280682092
 30
0.0
  0
VERTEX
  5
23C
330
208
100
AcDbEntity
  8
LINEE VISIBILI 2D
100
AcDbVertex
100
AcDb2dVertex
 10
244.6184492104536
 20
30.58133594922925
 30
0.0
  0
VERTEX
  5
23D
330
208
100
AcDbEntity
  8
LINEE VISIBILI 2D
100
AcDbVertex
100
AcDb2dVertex
 10
244.6160981094863
 20
30.58361465831776
 30
0.0
  0
VERTEX
  5
23E
330
208
100
AcDbEntity
  8
LINEE VISIBILI 2D
100
AcDbVertex
100
AcDb2dVertex
 10
244.6138707702314
 20
30.58590782947999
 30
0.0
  0
VERTEX
  5
23F
330
208
100
AcDbEntity
  8
LINEE VISIBILI 2D
100
AcDbVertex
100
AcDb2dVertex
 10
244.611767434563
 20
30.58821435820622
 30
0.0
  0
VERTEX
  5
240
330
208
100
AcDbEntity
  8
LINEE VISIBILI 2D
100
AcDbVertex
100
AcDb2dVertex
 10
244.6097883441387
 20
30.59053314008663
 30
0.0
  0
VERTEX
  5
241
330
208
100
AcDbEntity
  8
LINEE VISIBILI 2D
100
AcDbVertex
100
AcDb2dVertex
 10
244.6088454663539
 20
30.59169678085962
 30
0.0
  0
VERTEX
  5
242
330
208
100
AcDbEntity
  8
LINEE VISIBILI 2D
100
AcDbVertex
100
AcDb2dVertex
 10
244.6079337404075
 20
30.59286307081426
 30
0.0
  0
VERTEX
  5
243
330
208
100
AcDbEntity
  8
LINEE VISIBILI 2D
100
AcDbVertex
100
AcDb2dVertex
 10
244.6070531964495
 20
30.59403187192871
 30
0.0
  0
VERTEX
  5
244
330
208
100
AcDbEntity
  8
LINEE VISIBILI 2D
100
AcDbVertex
100
AcDb2dVertex
 10
244.6062038646176
 20
30.59520304618794
 30
0.0
  0
VERTEX
  5
245
330
208
100
AcDbEntity
  8
LINEE VISIBILI 2D
100
AcDbVertex
100
AcDb2dVertex
 10
244.6053857750376
 20
30.59637645558374
 30
0.0
  0
VERTEX
  5
246
330
208
100
AcDbEntity
  8
LINEE VISIBILI 2D
100
AcDbVertex
100
AcDb2dVertex
 10
244.6045989578239
 20
30.59755196211487
 30
0.0
  0
VERTEX
  5
247
330
208
100
AcDbEntity
  8
LINEE VISIBILI 2D
100
AcDbVertex
100
AcDb2dVertex
 10
244.6038434430796
 20
30.59872942778711
 30
0.0
  0
VERTEX
  5
248
330
208
100
AcDbEntity
  8
LINEE VISIBILI 2D
100
AcDbVertex
100
AcDb2dVertex
 10
244.6031192608965
 20
30.59990871461325
 30
0.0
  0
VERTEX
  5
249
330
208
100
AcDbEntity
  8
LINEE VISIBILI 2D
100
AcDbVertex
100
AcDb2dVertex
 10
244.6024264413559
 20
30.60108968461336
 30
0.0
  0
VERTEX
  5
24A
330
208
100
AcDbEntity
  8
LINEE VISIBILI 2D
100
AcDbVertex
100
AcDb2dVertex
 10
244.6017650145281
 20
30.60227219981463
 30
0.0
  0
VERTEX
  5
24B
330
208
100
AcDbEntity
  8
LINEE VISIBILI 2D
100
AcDbVertex
100
AcDb2dVertex
 10
244.6011350104738
 20
30.60345612225163
 30
0.0
  0
VERTEX
  5
24C
330
208
100
AcDbEntity
  8
LINEE VISIBILI 2D
100
AcDbVertex
100
AcDb2dVertex
 10
244.6005364592425
 20
30.60464131396622
 30
0.0
  0
VERTEX
  5
24D
330
208
100
AcDbEntity
  8
LINEE VISIBILI 2D
100
AcDbVertex
100
AcDb2dVertex
 10
244.599969390875
 20
30.60582763700772
 30
0.0
  0
VERTEX
  5
24E
330
208
100
AcDbEntity
  8
LINEE VISIBILI 2D
100
AcDbVertex
100
AcDb2dVertex
 10
244.5994338354018
 20
30.60701495343291
 30
0.0
  0
VERTEX
  5
24F
330
208
100
AcDbEntity
  8
LINEE VISIBILI 2D
100
AcDbVertex
100
AcDb2dVertex
 10
244.5989298228446
 20
30.60820312530615
 30
0.0
  0
VERTEX
  5
250
330
208
100
AcDbEntity
  8
LINEE VISIBILI 2D
100
AcDbVertex
100
AcDb2dVertex
 10
244.5984573832153
 20
30.60939201469934
 30
0.0
  0
VERTEX
  5
251
330
208
100
AcDbEntity
  8
LINEE VISIBILI 2D
100
AcDbVertex
100
AcDb2dVertex
 10
244.5980165465179
 20
30.61058148369207
 30
0.0
  0
VERTEX
  5
252
330
208
100
AcDbEntity
  8
LINEE VISIBILI 2D
100
AcDbVertex
100
AcDb2dVertex
 10
244.597607342747
 20
30.61177139437159
 30
0.0
  0
VERTEX
  5
253
330
208
100
AcDbEntity
  8
LINEE VISIBILI 2D
100
AcDbVertex
100
AcDb2dVertex
 10
244.5972298018894
 20
30.61296160883296
 30
0.0
  0
VERTEX
  5
254
330
208
100
AcDbEntity
  8
LINEE VISIBILI 2D
100
AcDbVertex
100
AcDb2dVertex
 10
244.5968839539236
 20
30.61415198917897
 30
0.0
  0
VERTEX
  5
255
330
208
100
AcDbEntity
  8
LINEE VISIBILI 2D
100
AcDbVertex
100
AcDb2dVertex
 10
244.5965698288206
 20
30.61534239752027
 30
0.0
  0
VERTEX
  5
256
330
208
100
AcDbEntity
  8
LINEE VISIBILI 2D
100
AcDbVertex
100
AcDb2dVertex
 10
244.5962874565433
 20
30.6165326959754
 30
0.0
  0
VERTEX
  5
257
330
208
100
AcDbEntity
  8
LINEE VISIBILI 2D
100
AcDbVertex
100
AcDb2dVertex
 10
244.5960368670477
 20
30.61772274667081
 30
0.0
  0
VERTEX
  5
258
330
208
100
AcDbEntity
  8
LINEE VISIBILI 2D
100
AcDbVertex
100
AcDb2dVertex
 10
244.595818090283
 20
30.61891241174093
 30
0.0
  0
VERTEX
  5
259
330
208
100
AcDbEntity
  8
LINEE VISIBILI 2D
100
AcDbVertex
100
AcDb2dVertex
 10
244.595631156191
 20
30.62010155332812
 30
0.0
  0
VERTEX
  5
25A
330
208
100
AcDbEntity
  8
LINEE VISIBILI 2D
100
AcDbVertex
100
AcDb2dVertex
 10
244.5954760947074
 20
30.62129003358283
 30
0.0
  0
VERTEX
  5
25B
330
208
100
AcDbEntity
  8
LINEE VISIBILI 2D
100
AcDbVertex
100
AcDb2dVertex
 10
244.5953529357614
 20
30.62247771466352
 30
0.0
  0
VERTEX
  5
25C
330
208
100
AcDbEntity
  8
LINEE VISIBILI 2D
100
AcDbVertex
100
AcDb2dVertex
 10
244.5952617092765
 20
30.62366445873677
 30
0.0
  0
VERTEX
  5
25D
330
208
100
AcDbEntity
  8
LINEE VISIBILI 2D
100
AcDbVertex
100
AcDb2dVertex
 10
244.5952024451701
 20
30.62485012797719
 30
0.0
  0
VERTEX
  5
25E
330
208
100
AcDbEntity
  8
LINEE VISIBILI 2D
100
AcDbVertex
100
AcDb2dVertex
 10
244.5951751733542
 20
30.62603458456762
 30
0.0
  0
VERTEX
  5
25F
330
208
100
AcDbEntity
  8
LINEE VISIBILI 2D
100
AcDbVertex
100
AcDb2dVertex
 10
244.5951799237358
 20
30.62721769069899
 30
0.0
  0
VERTEX
  5
260
330
208
100
AcDbEntity
  8
LINEE VISIBILI 2D
100
AcDbVertex
100
AcDb2dVertex
 10
244.5952167262166
 20
30.62839930857041
 30
0.0
  0
VERTEX
  5
261
330
208
100
AcDbEntity
  8
LINEE VISIBILI 2D
100
AcDbVertex
100
AcDb2dVertex
 10
244.5952856106938
 20
30.62957930038921
 30
0.0
  0
VERTEX
  5
262
330
208
100
AcDbEntity
  8
LINEE VISIBILI 2D
100
AcDbVertex
100
AcDb2dVertex
 10
244.5953866070601
 20
30.63075752837085
 30
0.0
  0
VERTEX
  5
263
330
208
100
AcDbEntity
  8
LINEE VISIBILI 2D
100
AcDbVertex
100
AcDb2dVertex
 10
244.595519745204
 20
30.63193385473906
 30
0.0
  0
VERTEX
  5
264
330
208
100
AcDbEntity
  8
LINEE VISIBILI 2D
100
AcDbVertex
100
AcDb2dVertex
 10
244.5956850550099
 20
30.63310814172579
 30
0.0
  0
VERTEX
  5
265
330
208
100
AcDbEntity
  8
LINEE VISIBILI 2D
100
AcDbVertex
100
AcDb2dVertex
 10
244.5958825663587
 20
30.63428025157117
 30
0.0
  0
VERTEX
  5
266
330
208
100
AcDbEntity
  8
LINEE VISIBILI 2D
100
AcDbVertex
100
AcDb2dVertex
 10
244.596112309128
 20
30.63545004652362
 30
0.0
  0
VERTEX
  5
267
330
208
100
AcDbEntity
  8
LINEE VISIBILI 2D
100
AcDbVertex
100
AcDb2dVertex
 10
244.596374313192
 20
30.63661738883978
 30
0.0
  0
VERTEX
  5
268
330
208
100
AcDbEntity
  8
LINEE VISIBILI 2D
100
AcDbVertex
100
AcDb2dVertex
 10
244.5966686084223
 20
30.63778214078452
 30
0.0
  0
VERTEX
  5
269
330
208
100
AcDbEntity
  8
LINEE VISIBILI 2D
100
AcDbVertex
100
AcDb2dVertex
 10
244.5969952246878
 20
30.63894416463095
 30
0.0
  0
VERTEX
  5
26A
330
208
100
AcDbEntity
  8
LINEE VISIBILI 2D
100
AcDbVertex
100
AcDb2dVertex
 10
244.5973541918547
 20
30.64010332266038
 30
0.0
  0
VERTEX
  5
26B
330
208
100
AcDbEntity
  8
LINEE VISIBILI 2D
100
AcDbVertex
100
AcDb2dVertex
 10
244.5977455397874
 20
30.64125947716239
 30
0.0
  0
VERTEX
  5
26C
330
208
100
AcDbEntity
  8
LINEE VISIBILI 2D
100
AcDbVertex
100
AcDb2dVertex
 10
244.5981692983488
 20
30.64241249043477
 30
0.0
  0
VERTEX
  5
26D
330
208
100
AcDbEntity
  8
LINEE VISIBILI 2D
100
AcDbVertex
100
AcDb2dVertex
 10
244.5986254973997
 20
30.6435622247835
 30
0.0
  0
VERTEX
  5
26E
330
208
100
AcDbEntity
  8
LINEE VISIBILI 2D
100
AcDbVertex
100
AcDb2dVertex
 10
244.5991141667999
 20
30.64470854252276
 30
0.0
  0
VERTEX
  5
26F
330
208
100
AcDbEntity
  8
LINEE VISIBILI 2D
100
AcDbVertex
100
AcDb2dVertex
 10
244.5996353364081
 20
30.64585130597486
 30
0.0
  0
VERTEX
  5
270
330
208
100
AcDbEntity
  8
LINEE VISIBILI 2D
100
AcDbVertex
100
AcDb2dVertex
 10
244.6001890360822
 20
30.64699037747036
 30
0.0
  0
VERTEX
  5
271
330
208
100
AcDbEntity
  8
LINEE VISIBILI 2D
100
AcDbVertex
100
AcDb2dVertex
 10
244.6007752956798
 20
30.64812561934787
 30
0.0
  0
VERTEX
  5
272
330
208
100
AcDbEntity
  8
LINEE VISIBILI 2D
100
AcDbVertex
100
AcDb2dVertex
 10
244.6013941450581
 20
30.64925689395416
 30
0.0
  0
VERTEX
  5
273
330
208
100
AcDbEntity
  8
LINEE VISIBILI 2D
100
AcDbVertex
100
AcDb2dVertex
 10
244.6020456140744
 20
30.65038406364406
 30
0.0
  0
VERTEX
  5
274
330
208
100
AcDbEntity
  8
LINEE VISIBILI 2D
100
AcDbVertex
100
AcDb2dVertex
 10
244.6027297325863
 20
30.65150699078052
 30
0.0
  0
VERTEX
  5
275
330
208
100
AcDbEntity
  8
LINEE VISIBILI 2D
100
AcDbVertex
100
AcDb2dVertex
 10
244.6034465304522
 20
30.65262553773447
 30
0.0
  0
VERTEX
  5
276
330
208
100
AcDbEntity
  8
LINEE VISIBILI 2D
100
AcDbVertex
100
AcDb2dVertex
 10
244.604196037531
 20
30.65373956688485
 30
0.0
  0
VERTEX
  5
277
330
208
100
AcDbEntity
  8
LINEE VISIBILI 2D
100
AcDbVertex
100
AcDb2dVertex
 10
244.6049782836829
 20
30.65484894061857
 30
0.0
  0
VERTEX
  5
278
330
208
100
AcDbEntity
  8
LINEE VISIBILI 2D
100
AcDbVertex
100
AcDb2dVertex
 10
244.6057932987697
 20
30.6559535213305
 30
0.0
  0
VERTEX
  5
279
330
208
100
AcDbEntity
  8
LINEE VISIBILI 2D
100
AcDbVertex
100
AcDb2dVertex
 10
244.6066411126546
 20
30.65705317142336
 30
0.0
  0
VERTEX
  5
27A
330
208
100
AcDbEntity
  8
LINEE VISIBILI 2D
100
AcDbVertex
100
AcDb2dVertex
 10
244.6075217552028
 20
30.65814775330776
 30
0.0
  0
VERTEX
  5
27B
330
208
100
AcDbEntity
  8
LINEE VISIBILI 2D
100
AcDbVertex
100
AcDb2dVertex
 10
244.608435256282
 20
30.65923712940209
 30
0.0
  0
VERTEX
  5
27C
330
208
100
AcDbEntity
  8
LINEE VISIBILI 2D
100
AcDbVertex
100
AcDb2dVertex
 10
244.6093816457618
 20
30.66032116213252
 30
0.0
  0
VERTEX
  5
27D
330
208
100
AcDbEntity
  8
LINEE VISIBILI 2D
100
AcDbVertex
100
AcDb2dVertex
 10
244.6103609535153
 20
30.66139971393293
 30
0.0
  0
VERTEX
  5
27E
330
208
100
AcDbEntity
  8
LINEE VISIBILI 2D
100
AcDbVertex
100
AcDb2dVertex
 10
244.6113732094181
 20
30.66247264724488
 30
0.0
  0
VERTEX
  5
27F
330
208
100
AcDbEntity
  8
LINEE VISIBILI 2D
100
AcDbVertex
100
AcDb2dVertex
 10
244.6124184433493
 20
30.66353982451752
 30
0.0
  0
VERTEX
  5
280
330
208
100
AcDbEntity
  8
LINEE VISIBILI 2D
100
AcDbVertex
100
AcDb2dVertex
 10
244.6134966851916
 20
30.66460110820758
 30
0.0
  0
VERTEX
  5
281
330
208
100
AcDbEntity
  8
LINEE VISIBILI 2D
100
AcDbVertex
100
AcDb2dVertex
 10
244.6146079648315
 20
30.66565636077926
 30
0.0
  0
VERTEX
  5
282
330
208
100
AcDbEntity
  8
LINEE VISIBILI 2D
100
AcDbVertex
100
AcDb2dVertex
 10
244.6157523121598
 20
30.66670544470427
 30
0.0
  0
VERTEX
  5
283
330
208
100
AcDbEntity
  8
LINEE VISIBILI 2D
100
AcDbVertex
100
AcDb2dVertex
 10
244.6181403294668
 20
30.66878455653772
 30
0.0
  0
VERTEX
  5
284
330
208
100
AcDbEntity
  8
LINEE VISIBILI 2D
100
AcDbVertex
100
AcDb2dVertex
 10
244.6206609763315
 20
30.67083734362777
 30
0.0
  0
VERTEX
  5
285
330
208
100
AcDbEntity
  8
LINEE VISIBILI 2D
100
AcDbVertex
100
AcDb2dVertex
 10
244.623314492057
 20
30.67286270600919
 30
0.0
  0
VERTEX
  5
286
330
208
100
AcDbEntity
  8
LINEE VISIBILI 2D
100
AcDbVertex
100
AcDb2dVertex
 10
244.6261011160397
 20
30.67485954382938
 30
0.0
  0
VERTEX
  5
287
330
208
100
AcDbEntity
  8
LINEE VISIBILI 2D
100
AcDbVertex
100
AcDb2dVertex
 10
244.6290210877775
 20
30.67682675734595
 30
0.0
  0
VERTEX
  5
288
330
208
100
AcDbEntity
  8
LINEE VISIBILI 2D
100
AcDbVertex
100
AcDb2dVertex
 10
244.6320746468794
 20
30.67876324692417
 30
0.0
  0
VERTEX
  5
289
330
208
100
AcDbEntity
  8
LINEE VISIBILI 2D
100
AcDbVertex
100
AcDb2dVertex
 10
244.6352620330745
 20
30.68066791303412
 30
0.0
  0
VERTEX
  5
28A
330
208
100
AcDbEntity
  8
LINEE VISIBILI 2D
100
AcDbVertex
100
AcDb2dVertex
 10
244.6385834862208
 20
30.68253965624798
 30
0.0
  0
VERTEX
  5
28B
330
208
100
AcDbEntity
  8
LINEE VISIBILI 2D
100
AcDbVertex
100
AcDb2dVertex
 10
244.6420392463143
 20
30.68437737723687
 30
0.0
  0
VERTEX
  5
28C
330
208
100
AcDbEntity
  8
LINEE VISIBILI 2D
100
AcDbVertex
100
AcDb2dVertex
 10
244.6456295534986
 20
30.68617997676777
 30
0.0
  0
SEQEND
  5
209
330
208
100
AcDbEntity
  8
LINEE VISIBILI 2D
  0
LINE
  5
28D
330
1F
100
AcDbEntity
  8
LINEE VISIBILI 2D
100
AcDbLine
 10
247.1074292024454
 20
33.02810880318584
 30
0.0
 11
246.8550407852376
 21
33.03420052093173
 31
0.0
  0
LINE
  5
28E
330
1F
100
AcDbEntity
  8
LINEE VISIBILI 2D
100
AcDbLine
 10
239.4320277308247
 20
29.41007911371907
 30
0.0
 11
239.4960007423766
 21
29.34928894959993
 31
0.0
  0
LINE
  5
28F
330
1F
100
AcDbEntity
  8
LINEE VISIBILI 2D
100
AcDbLine
 10
338.95143814733
 20
6.285217262330335
 30
0.0
 11
344.457421092094
 21
11.42613129185086
 31
0.0
  0
LINE
  5
290
330
1F
100
AcDbEntity
  8
LINEE VISIBILI 2D
100
AcDbLine
 10
344.4574210920944
 20
11.42613129185338
 30
0.0
 11
339.9401001138048
 21
11.71795220533512
 31
0.0
  0
LINE
  5
291
330
1F
100
AcDbEntity
  8
LINEE VISIBILI 2D
100
AcDbLine
 10
339.8987314663638
 20
11.72062146005919
 30
0.0
 11
291.8941652478476
 21
14.78406351664007
 31
0.0
  0
ARC
  5
292
330
1F
100
AcDbEntity
  8
LINEE VISIBILI 2D
100
AcDbCircle
 10
339.7494612096957
 20
9.220448086829938
 30
0.0
 40
0.2984793227273106
100
AcDbArc
 50
213.1300688522578
 51
318.9541200198034
  0
ARC
  5
293
330
1F
100
AcDbEntity
  8
LINEE VISIBILI 2D
100
AcDbCircle
 10
339.7788152192789
 20
8.61806586585908
 30
0.0
 40
0.5205338532976152
100
AcDbArc
 50
86.05441507089379
 51
122.4513996763931
  0
ARC
  5
294
330
1F
100
AcDbEntity
  8
LINEE VISIBILI 2D
100
AcDbCircle
 10
339.9026525786171
 20
9.066132634153934
 30
0.0
 40
0.0831244951751166
100
AcDbArc
 50
329.9023144699992
 51
124.2204088744078
  0
LINE
  5
295
330
1F
100
AcDbEntity
  8
LINEE VISIBILI 2D
100
AcDbLine
 10
344.5689998303574
 20
11.34249240647295
 30
0.0
 11
344.5708852029047
 21
11.39368651514541
 31
0.0
  0
LINE
  5
296
330
1F
100
AcDbEntity
  8
LINEE VISIBILI 2D
100
AcDbLine
 10
239.4960007423766
 20
29.34928894959998
 30
0.0
 11
239.7414158158829
 21
29.24810839332197
 31
0.0
  0
LINE
  5
297
330
1F
100
AcDbEntity
  8
LINEE VISIBILI 2D
100
AcDbLine
 10
244.6555872540568
 20
31.98145287534067
 30
0.0
 11
239.6046038918077
 21
29.53899392771769
 31
0.0
  0
LINE
  5
298
330
1F
100
AcDbEntity
  8
LINEE VISIBILI 2D
100
AcDbLine
 10
239.6045671244209
 20
29.53897542591823
 30
0.0
 11
239.4743673039001
 21
29.47036918299883
 31
0.0
  0
LINE
  5
299
330
1F
100
AcDbEntity
  8
LINEE VISIBILI 2D
100
AcDbLine
 10
239.4743673039001
 20
29.47036918299883
 30
0.0
 11
239.4320277310189
 21
29.41007911378513
 31
0.0
  0
LINE
  5
29A
330
1F
100
AcDbEntity
  8
LINEE VISIBILI 2D
100
AcDbLine
 10
568.8071859518465
 20
215.1649947111728
 30
0.0
 11
574.4382158677645
 21
216.4308840294941
 31
0.0
  0
LINE
  5
29B
330
1F
100
AcDbEntity
  8
LINEE VISIBILI 2D
100
AcDbLine
 10
574.6618391918643
 20
211.1608505249023
 30
0.0
 11
508.0484278638988
 21
195.7821104855195
 31
0.0
  0
ARC
  5
29C
330
1F
100
AcDbEntity
  8
LINEE VISIBILI 2D
100
AcDbCircle
 10
574.5495192709657
 20
211.6479804105628
 30
0.0
 40
0.4999092510363335
100
AcDbArc
 50
282.9915810563008
 51
0.00815761481596
  0
ARC
  5
29D
330
1F
100
AcDbEntity
  8
LINEE VISIBILI 2D
100
AcDbCircle
 10
574.5494264062545
 20
215.943470914157
 30
0.0
 40
0.5000021092218848
100
AcDbArc
 50
0.0032836317291794
 51
102.8193901543683
  0
LINE
  5
29E
330
1F
100
AcDbEntity
  8
LINEE VISIBILI 2D
100
AcDbLine
 10
251.4632738334229
 20
314.7821127110645
 30
0.0
 11
246.668841316808
 21
314.7821127110646
 31
0.0
  0
LINE
  5
2A0
330
1F
100
AcDbEntity
  8
LINEE VISIBILI 2D
100
AcDbLine
 10
244.7707302840672
 20
316.7821127176285
 30
0.0
 11
251.463273846004
 21
316.7821127110646
 31
0.0
  0
LINE
  5
2A1
330
1F
100
AcDbEntity
  8
LINEE VISIBILI 2D
100
AcDbLine
 10
257.8577063519115
 20
314.7821127176285
 30
0.0
 11
253.0632738352966
 21
314.7821127110646
 31
0.0
  0
LINE
  5
2A2
330
1F
100
AcDbEntity
  8
LINEE VISIBILI 2D
100
AcDbLine
 10
252.2632738343597
 20
316.7821005040336
 30
0.0
 11
253.063273834284
 21
316.7821005040336
 31
0.0
  0
LINE
  5
2A3
330
1F
100
AcDbEntity
  8
LINEE VISIBILI 2D
100
AcDbLine
 10
252.2632738343597
 20
312.8821005040336
 30
0.0
 11
251.4632738343598
 21
312.8821005040336
 31
0.0
  0
ARC
  5
2A4
330
1F
100
AcDbEntity
  8
LINEE VISIBILI 2D
100
AcDbCircle
 10
449.0484285169491
 20
19.99995797318394
 30
0.0
 40
0.8000000000000396
100
AcDbArc
 50
270.0
 51
359.9999999999969
  0
ARC
  5
2A5
330
1F
100
AcDbEntity
  8
LINEE VISIBILI 2D
100
AcDbCircle
 10
449.0484285169491
 20
19.99995797318377
 30
0.0
 40
0.8000000000001817
100
AcDbArc
 50
0.0000000000089056
 51
89.99999999998779
  0
ARC
  5
2A6
330
1F
100
AcDbEntity
  8
LINEE VISIBILI 2D
100
AcDbCircle
 10
449.0484285169492
 20
19.99995797318377
 30
0.0
 40
0.800000000000125
100
AcDbArc
 50
90.0000000000122
 51
179.9999999999908
  0
ARC
  5
2A7
330
1F
100
AcDbEntity
  8
LINEE VISIBILI 2D
100
AcDbCircle
 10
567.0484285169492
 20
19.99995797318397
 30
0.0
 40
0.7999999999999547
100
AcDbArc
 50
359.9999999999949
 51
90.0
  0
POLYLINE
  5
2A8
330
1F
100
AcDbEntity
  8
LINEE VISIBILI 2D
100
AcDb2dPolyline
 66
     1
 10
0.0
 20
0.0
 30
0.0
  0
VERTEX
  5
2AA
330
2A8
100
AcDbEntity
  8
LINEE VISIBILI 2D
100
AcDbVertex
100
AcDb2dVertex
 10
232.2633158611759
 20
200.7819566870692
 30
0.0
  0
VERTEX
  5
2AB
330
2A8
100
AcDbEntity
  8
LINEE VISIBILI 2D
100
AcDbVertex
100
AcDb2dVertex
 10
232.2638298908863
 20
200.746861920449
 30
0.0
  0
VERTEX
  5
2AC
330
2A8
100
AcDbEntity
  8
LINEE VISIBILI 2D
100
AcDbVertex
100
AcDb2dVertex
 10
232.2653377679614
 20
200.7119587888569
 30
0.0
  0
VERTEX
  5
2AD
330
2A8
100
AcDbEntity
  8
LINEE VISIBILI 2D
100
AcDbVertex
100
AcDb2dVertex
 10
232.2678188050974
 20
200.6772519199667
 30
0.0
  0
VERTEX
  5
2AE
330
2A8
100
AcDbEntity
  8
LINEE VISIBILI 2D
100
AcDbVertex
100
AcDb2dVertex
 10
232.2712523149907
 20
200.6427459414524
 30
0.0
  0
VERTEX
  5
2AF
330
2A8
100
AcDbEntity
  8
LINEE VISIBILI 2D
100
AcDbVertex
100
AcDb2dVertex
 10
232.2756176103377
 20
200.608445480988
 30
0.0
  0
VERTEX
  5
2B0
330
2A8
100
AcDbEntity
  8
LINEE VISIBILI 2D
100
AcDbVertex
100
AcDb2dVertex
 10
232.2808940038347
 20
200.5743551662473
 30
0.0
  0
VERTEX
  5
2B1
330
2A8
100
AcDbEntity
  8
LINEE VISIBILI 2D
100
AcDbVertex
100
AcDb2dVertex
 10
232.287060808178
 20
200.5404796249042
 30
0.0
  0
VERTEX
  5
2B2
330
2A8
100
AcDbEntity
  8
LINEE VISIBILI 2D
100
AcDbVertex
100
AcDb2dVertex
 10
232.2940973360639
 20
200.5068234846327
 30
0.0
  0
VERTEX
  5
2B3
330
2A8
100
AcDbEntity
  8
LINEE VISIBILI 2D
100
AcDbVertex
100
AcDb2dVertex
 10
232.3019829001888
 20
200.4733913731068
 30
0.0
  0
VERTEX
  5
2B4
330
2A8
100
AcDbEntity
  8
LINEE VISIBILI 2D
100
AcDbVertex
100
AcDb2dVertex
 10
232.3106968132491
 20
200.4401879180002
 30
0.0
  0
VERTEX
  5
2B5
330
2A8
100
AcDbEntity
  8
LINEE VISIBILI 2D
100
AcDbVertex
100
AcDb2dVertex
 10
232.3202183879411
 20
200.407217746987
 30
0.0
  0
VERTEX
  5
2B6
330
2A8
100
AcDbEntity
  8
LINEE VISIBILI 2D
100
AcDbVertex
100
AcDb2dVertex
 10
232.3305269369611
 20
200.374485487741
 30
0.0
  0
VERTEX
  5
2B7
330
2A8
100
AcDbEntity
  8
LINEE VISIBILI 2D
100
AcDbVertex
100
AcDb2dVertex
 10
232.3416017730053
 20
200.3419957679362
 30
0.0
  0
VERTEX
  5
2B8
330
2A8
100
AcDbEntity
  8
LINEE VISIBILI 2D
100
AcDbVertex
100
AcDb2dVertex
 10
232.3534222087704
 20
200.3097532152466
 30
0.0
  0
VERTEX
  5
2B9
330
2A8
100
AcDbEntity
  8
LINEE VISIBILI 2D
100
AcDbVertex
100
AcDb2dVertex
 10
232.3659675569524
 20
200.277762457346
 30
0.0
  0
VERTEX
  5
2BA
330
2A8
100
AcDbEntity
  8
LINEE VISIBILI 2D
100
AcDbVertex
100
AcDb2dVertex
 10
232.3792171302478
 20
200.2460281219082
 30
0.0
  0
VERTEX
  5
2BB
330
2A8
100
AcDbEntity
  8
LINEE VISIBILI 2D
100
AcDbVertex
100
AcDb2dVertex
 10
232.3931502413529
 20
200.2145548366074
 30
0.0
  0
VERTEX
  5
2BC
330
2A8
100
AcDbEntity
  8
LINEE VISIBILI 2D
100
AcDbVertex
100
AcDb2dVertex
 10
232.4077462029641
 20
200.1833472291173
 30
0.0
  0
VERTEX
  5
2BD
330
2A8
100
AcDbEntity
  8
LINEE VISIBILI 2D
100
AcDbVertex
100
AcDb2dVertex
 10
232.4229843277776
 20
200.152409927112
 30
0.0
  0
VERTEX
  5
2BE
330
2A8
100
AcDbEntity
  8
LINEE VISIBILI 2D
100
AcDbVertex
100
AcDb2dVertex
 10
232.4388439284899
 20
200.1217475582653
 30
0.0
  0
VERTEX
  5
2BF
330
2A8
100
AcDbEntity
  8
LINEE VISIBILI 2D
100
AcDbVertex
100
AcDb2dVertex
 10
232.4553043177973
 20
200.0913647502511
 30
0.0
  0
VERTEX
  5
2C0
330
2A8
100
AcDbEntity
  8
LINEE VISIBILI 2D
100
AcDbVertex
100
AcDb2dVertex
 10
232.472344808396
 20
200.0612661307434
 30
0.0
  0
VERTEX
  5
2C1
330
2A8
100
AcDbEntity
  8
LINEE VISIBILI 2D
100
AcDbVertex
100
AcDb2dVertex
 10
232.4899447129825
 20
200.0314563274161
 30
0.0
  0
VERTEX
  5
2C2
330
2A8
100
AcDbEntity
  8
LINEE VISIBILI 2D
100
AcDbVertex
100
AcDb2dVertex
 10
232.5080833442531
 20
200.0019399679431
 30
0.0
  0
VERTEX
  5
2C3
330
2A8
100
AcDbEntity
  8
LINEE VISIBILI 2D
100
AcDbVertex
100
AcDb2dVertex
 10
232.5458940376318
 20
199.9438060912557
 30
0.0
  0
VERTEX
  5
2C4
330
2A8
100
AcDbEntity
  8
LINEE VISIBILI 2D
100
AcDbVertex
100
AcDb2dVertex
 10
232.585611390103
 20
199.8869015220726
 30
0.0
  0
VERTEX
  5
2C5
330
2A8
100
AcDbEntity
  8
LINEE VISIBILI 2D
100
AcDbVertex
100
AcDb2dVertex
 10
232.6270699032373
 20
199.8312632817852
 30
0.0
  0
VERTEX
  5
2C6
330
2A8
100
AcDbEntity
  8
LINEE VISIBILI 2D
100
AcDbVertex
100
AcDb2dVertex
 10
232.6701040786053
 20
199.7769283917848
 30
0.0
  0
VERTEX
  5
2C7
330
2A8
100
AcDbEntity
  8
LINEE VISIBILI 2D
100
AcDbVertex
100
AcDb2dVertex
 10
232.7269901492157
 20
199.709609175415
 30
0.0
  0
VERTEX
  5
2C8
330
2A8
100
AcDbEntity
  8
LINEE VISIBILI 2D
100
AcDbVertex
100
AcDb2dVertex
 10
232.7860042618812
 20
199.6443504238526
 30
0.0
  0
VERTEX
  5
2C9
330
2A8
100
AcDbEntity
  8
LINEE VISIBILI 2D
100
AcDbVertex
100
AcDb2dVertex
 10
232.8469848957885
 20
199.5810363545674
 30
0.0
  0
VERTEX
  5
2CA
330
2A8
100
AcDbEntity
  8
LINEE VISIBILI 2D
100
AcDbVertex
100
AcDb2dVertex
 10
232.9097705301242
 20
199.5195511850295
 30
0.0
  0
VERTEX
  5
2CB
330
2A8
100
AcDbEntity
  8
LINEE VISIBILI 2D
100
AcDbVertex
100
AcDb2dVertex
 10
232.9741996440749
 20
199.4597791327087
 30
0.0
  0
VERTEX
  5
2CC
330
2A8
100
AcDbEntity
  8
LINEE VISIBILI 2D
100
AcDbVertex
100
AcDb2dVertex
 10
233.0401107168271
 20
199.401604415075
 30
0.0
  0
VERTEX
  5
2CD
330
2A8
100
AcDbEntity
  8
LINEE VISIBILI 2D
100
AcDbVertex
100
AcDb2dVertex
 10
233.1073422275676
 20
199.3449112495982
 30
0.0
  0
VERTEX
  5
2CE
330
2A8
100
AcDbEntity
  8
LINEE VISIBILI 2D
100
AcDbVertex
100
AcDb2dVertex
 10
233.1757326554828
 20
199.2895838537484
 30
0.0
  0
VERTEX
  5
2CF
330
2A8
100
AcDbEntity
  8
LINEE VISIBILI 2D
100
AcDbVertex
100
AcDb2dVertex
 10
233.261734353827
 20
199.2228788023458
 30
0.0
  0
VERTEX
  5
2D0
330
2A8
100
AcDbEntity
  8
LINEE VISIBILI 2D
100
AcDbVertex
100
AcDb2dVertex
 10
233.3491572124745
 20
199.1580081973481
 30
0.0
  0
VERTEX
  5
2D1
330
2A8
100
AcDbEntity
  8
LINEE VISIBILI 2D
100
AcDbVertex
100
AcDb2dVertex
 10
233.4378959604328
 20
199.0948934849752
 30
0.0
  0
VERTEX
  5
2D2
330
2A8
100
AcDbEntity
  8
LINEE VISIBILI 2D
100
AcDbVertex
100
AcDb2dVertex
 10
233.5278453267096
 20
199.0334561114472
 30
0.0
  0
VERTEX
  5
2D3
330
2A8
100
AcDbEntity
  8
LINEE VISIBILI 2D
100
AcDbVertex
100
AcDb2dVertex
 10
233.7109548302482
 20
198.9152991658051
 30
0.0
  0
VERTEX
  5
2D4
330
2A8
100
AcDbEntity
  8
LINEE VISIBILI 2D
100
AcDbVertex
100
AcDb2dVertex
 10
233.8976435551508
 20
198.8029089301813
 30
0.0
  0
VERTEX
  5
2D5
330
2A8
100
AcDbEntity
  8
LINEE VISIBILI 2D
100
AcDbVertex
100
AcDb2dVertex
 10
234.1386798085802
 20
198.6676746769825
 30
0.0
  0
VERTEX
  5
2D6
330
2A8
100
AcDbEntity
  8
LINEE VISIBILI 2D
100
AcDbVertex
100
AcDb2dVertex
 10
234.38371172617
 20
198.5401261936996
 30
0.0
  0
VERTEX
  5
2D7
330
2A8
100
AcDbEntity
  8
LINEE VISIBILI 2D
100
AcDbVertex
100
AcDb2dVertex
 10
234.6323244716265
 20
198.4196694026248
 30
0.0
  0
VERTEX
  5
2D8
330
2A8
100
AcDbEntity
  8
LINEE VISIBILI 2D
100
AcDbVertex
100
AcDb2dVertex
 10
234.8841032086562
 20
198.3057102260499
 30
0.0
  0
VERTEX
  5
2D9
330
2A8
100
AcDbEntity
  8
LINEE VISIBILI 2D
100
AcDbVertex
100
AcDb2dVertex
 10
235.1386331009653
 20
198.197654586267
 30
0.0
  0
VERTEX
  5
2DA
330
2A8
100
AcDbEntity
  8
LINEE VISIBILI 2D
100
AcDbVertex
100
AcDb2dVertex
 10
235.3954993122601
 20
198.0949084055682
 30
0.0
  0
VERTEX
  5
2DB
330
2A8
100
AcDbEntity
  8
LINEE VISIBILI 2D
100
AcDbVertex
100
AcDb2dVertex
 10
235.9145813466325
 20
197.902968110591
 30
0.0
  0
VERTEX
  5
2DC
330
2A8
100
AcDbEntity
  8
LINEE VISIBILI 2D
100
AcDbVertex
100
AcDb2dVertex
 10
236.566060749633
 20
197.6848225126618
 30
0.0
  0
VERTEX
  5
2DD
330
2A8
100
AcDbEntity
  8
LINEE VISIBILI 2D
100
AcDbVertex
100
AcDb2dVertex
 10
237.2234296660539
 20
197.4864439567809
 30
0.0
  0
VERTEX
  5
2DE
330
2A8
100
AcDbEntity
  8
LINEE VISIBILI 2D
100
AcDbVertex
100
AcDb2dVertex
 10
237.8858376955629
 20
197.305825370017
 30
0.0
  0
VERTEX
  5
2DF
330
2A8
100
AcDbEntity
  8
LINEE VISIBILI 2D
100
AcDbVertex
100
AcDb2dVertex
 10
238.5524344378279
 20
197.1409596794386
 30
0.0
  0
VERTEX
  5
2E0
330
2A8
100
AcDbEntity
  8
LINEE VISIBILI 2D
100
AcDbVertex
100
AcDb2dVertex
 10
239.3699831378699
 20
196.9585786978195
 30
0.0
  0
VERTEX
  5
2E1
330
2A8
100
AcDbEntity
  8
LINEE VISIBILI 2D
100
AcDbVertex
100
AcDb2dVertex
 10
240.1916712392797
 20
196.794718148348
 30
0.0
  0
VERTEX
  5
2E2
330
2A8
100
AcDbEntity
  8
LINEE VISIBILI 2D
100
AcDbVertex
100
AcDb2dVertex
 10
241.0166724907705
 20
196.6474519096251
 30
0.0
  0
VERTEX
  5
2E3
330
2A8
100
AcDbEntity
  8
LINEE VISIBILI 2D
100
AcDbVertex
100
AcDb2dVertex
 10
241.8441606410554
 20
196.514853860252
 30
0.0
  0
VERTEX
  5
2E4
330
2A8
100
AcDbEntity
  8
LINEE VISIBILI 2D
100
AcDbVertex
100
AcDb2dVertex
 10
243.7036157734338
 20
196.2637442141186
 30
0.0
  0
VERTEX
  5
2E5
330
2A8
100
AcDbEntity
  8
LINEE VISIBILI 2D
100
AcDbVertex
100
AcDb2dVertex
 10
245.5696125865093
 20
196.0701648426342
 30
0.0
  0
VERTEX
  5
2E6
330
2A8
100
AcDbEntity
  8
LINEE VISIBILI 2D
100
AcDbVertex
100
AcDb2dVertex
 10
247.5743322346891
 20
195.9201755628157
 30
0.0
  0
VERTEX
  5
2E7
330
2A8
100
AcDbEntity
  8
LINEE VISIBILI 2D
100
AcDbVertex
100
AcDb2dVertex
 10
249.5827811243961
 20
195.8261212705005
 30
0.0
  0
VERTEX
  5
2E8
330
2A8
100
AcDbEntity
  8
LINEE VISIBILI 2D
100
AcDbVertex
100
AcDb2dVertex
 10
251.5932323564789
 20
195.7852265448044
 30
0.0
  0
VERTEX
  5
2E9
330
2A8
100
AcDbEntity
  8
LINEE VISIBILI 2D
100
AcDbVertex
100
AcDb2dVertex
 10
253.6039590317859
 20
195.7947159648434
 30
0.0
  0
VERTEX
  5
2EA
330
2A8
100
AcDbEntity
  8
LINEE VISIBILI 2D
100
AcDbVertex
100
AcDb2dVertex
 10
255.6133446263509
 20
195.8530741987446
 30
0.0
  0
VERTEX
  5
2EB
330
2A8
100
AcDbEntity
  8
LINEE VISIBILI 2D
100
AcDbVertex
100
AcDb2dVertex
 10
257.6204617633216
 20
195.9638343428814
 30
0.0
  0
VERTEX
  5
2EC
330
2A8
100
AcDbEntity
  8
LINEE VISIBILI 2D
100
AcDbVertex
100
AcDb2dVertex
 10
259.4907880307776
 20
196.1188415819447
 30
0.0
  0
VERTEX
  5
2ED
330
2A8
100
AcDbEntity
  8
LINEE VISIBILI 2D
100
AcDbVertex
100
AcDb2dVertex
 10
261.3558447210043
 20
196.3282549859465
 30
0.0
  0
VERTEX
  5
2EE
330
2A8
100
AcDbEntity
  8
LINEE VISIBILI 2D
100
AcDbVertex
100
AcDb2dVertex
 10
263.0802915593073
 20
196.576458693798
 30
0.0
  0
VERTEX
  5
2EF
330
2A8
100
AcDbEntity
  8
LINEE VISIBILI 2D
100
AcDbVertex
100
AcDb2dVertex
 10
263.9389557965801
 20
196.722773187645
 30
0.0
  0
VERTEX
  5
2F0
330
2A8
100
AcDbEntity
  8
LINEE VISIBILI 2D
100
AcDbVertex
100
AcDb2dVertex
 10
264.7947025765651
 20
196.8855740550878
 30
0.0
  0
VERTEX
  5
2F1
330
2A8
100
AcDbEntity
  8
LINEE VISIBILI 2D
100
AcDbVertex
100
AcDb2dVertex
 10
265.5489184865411
 20
197.0446171622791
 30
0.0
  0
VERTEX
  5
2F2
330
2A8
100
AcDbEntity
  8
LINEE VISIBILI 2D
100
AcDbVertex
100
AcDb2dVertex
 10
266.299472809873
 20
197.2199456220715
 30
0.0
  0
VERTEX
  5
2F3
330
2A8
100
AcDbEntity
  8
LINEE VISIBILI 2D
100
AcDbVertex
100
AcDb2dVertex
 10
267.0453073463636
 20
197.41395506217
 30
0.0
  0
VERTEX
  5
2F4
330
2A8
100
AcDbEntity
  8
LINEE VISIBILI 2D
100
AcDbVertex
100
AcDb2dVertex
 10
267.785363895815
 20
197.6290411102797
 30
0.0
  0
VERTEX
  5
2F5
330
2A8
100
AcDbEntity
  8
LINEE VISIBILI 2D
100
AcDbVertex
100
AcDb2dVertex
 10
268.3595736637747
 20
197.8140082729055
 30
0.0
  0
VERTEX
  5
2F6
330
2A8
100
AcDbEntity
  8
LINEE VISIBILI 2D
100
AcDbVertex
100
AcDb2dVertex
 10
268.9276088365058
 20
198.0168290305647
 30
0.0
  0
VERTEX
  5
2F7
330
2A8
100
AcDbEntity
  8
LINEE VISIBILI 2D
100
AcDbVertex
100
AcDb2dVertex
 10
269.2086898127598
 20
198.1260212460441
 30
0.0
  0
VERTEX
  5
2F8
330
2A8
100
AcDbEntity
  8
LINEE VISIBILI 2D
100
AcDbVertex
100
AcDb2dVertex
 10
269.4874817759256
 20
198.2409809464967
 30
0.0
  0
VERTEX
  5
2F9
330
2A8
100
AcDbEntity
  8
LINEE VISIBILI 2D
100
AcDbVertex
100
AcDb2dVertex
 10
269.763736271243
 20
198.3621428273273
 30
0.0
  0
VERTEX
  5
2FA
330
2A8
100
AcDbEntity
  8
LINEE VISIBILI 2D
100
AcDbVertex
100
AcDb2dVertex
 10
270.0372048439515
 20
198.489941583941
 30
0.0
  0
VERTEX
  5
2FB
330
2A8
100
AcDbEntity
  8
LINEE VISIBILI 2D
100
AcDbVertex
100
AcDb2dVertex
 10
270.2401839931519
 20
198.5904715046232
 30
0.0
  0
VERTEX
  5
2FC
330
2A8
100
AcDbEntity
  8
LINEE VISIBILI 2D
100
AcDbVertex
100
AcDb2dVertex
 10
270.440737582534
 20
198.6956723206056
 30
0.0
  0
VERTEX
  5
2FD
330
2A8
100
AcDbEntity
  8
LINEE VISIBILI 2D
100
AcDbVertex
100
AcDb2dVertex
 10
270.6381461788095
 20
198.8062388247632
 30
0.0
  0
VERTEX
  5
2FE
330
2A8
100
AcDbEntity
  8
LINEE VISIBILI 2D
100
AcDbVertex
100
AcDb2dVertex
 10
270.8316903486907
 20
198.9228658099711
 30
0.0
  0
VERTEX
  5
2FF
330
2A8
100
AcDbEntity
  8
LINEE VISIBILI 2D
100
AcDbVertex
100
AcDb2dVertex
 10
270.9267884508309
 20
198.9836691057423
 30
0.0
  0
VERTEX
  5
300
330
2A8
100
AcDbEntity
  8
LINEE VISIBILI 2D
100
AcDbVertex
100
AcDb2dVertex
 10
271.0206506588895
 20
199.0462480691042
 30
0.0
  0
VERTEX
  5
301
330
2A8
100
AcDbEntity
  8
LINEE VISIBILI 2D
100
AcDbVertex
100
AcDb2dVertex
 10
271.1131870437056
 20
199.1106895491661
 30
0.0
  0
VERTEX
  5
302
330
2A8
100
AcDbEntity
  8
LINEE VISIBILI 2D
100
AcDbVertex
100
AcDb2dVertex
 10
271.2043076761181
 20
199.1770803950377
 30
0.0
  0
VERTEX
  5
303
330
2A8
100
AcDbEntity
  8
LINEE VISIBILI 2D
100
AcDbVertex
100
AcDb2dVertex
 10
271.293922626966
 20
199.245507455828
 30
0.0
  0
VERTEX
  5
304
330
2A8
100
AcDbEntity
  8
LINEE VISIBILI 2D
100
AcDbVertex
100
AcDb2dVertex
 10
271.3819419670884
 20
199.3160575806465
 30
0.0
  0
VERTEX
  5
305
330
2A8
100
AcDbEntity
  8
LINEE VISIBILI 2D
100
AcDbVertex
100
AcDb2dVertex
 10
271.4682757673242
 20
199.3888176186026
 30
0.0
  0
VERTEX
  5
306
330
2A8
100
AcDbEntity
  8
LINEE VISIBILI 2D
100
AcDbVertex
100
AcDb2dVertex
 10
271.5528340985125
 20
199.4638744188057
 30
0.0
  0
VERTEX
  5
307
330
2A8
100
AcDbEntity
  8
LINEE VISIBILI 2D
100
AcDbVertex
100
AcDb2dVertex
 10
271.6142942170433
 20
199.5210654396961
 30
0.0
  0
VERTEX
  5
308
330
2A8
100
AcDbEntity
  8
LINEE VISIBILI 2D
100
AcDbVertex
100
AcDb2dVertex
 10
271.6744968433451
 20
199.5796603971037
 30
0.0
  0
VERTEX
  5
309
330
2A8
100
AcDbEntity
  8
LINEE VISIBILI 2D
100
AcDbVertex
100
AcDb2dVertex
 10
271.7332098570989
 20
199.6397530042818
 30
0.0
  0
VERTEX
  5
30A
330
2A8
100
AcDbEntity
  8
LINEE VISIBILI 2D
100
AcDbVertex
100
AcDb2dVertex
 10
271.7902011379856
 20
199.701436974484
 30
0.0
  0
VERTEX
  5
30B
330
2A8
100
AcDbEntity
  8
LINEE VISIBILI 2D
100
AcDbVertex
100
AcDb2dVertex
 10
271.845238565686
 20
199.7648060209638
 30
0.0
  0
VERTEX
  5
30C
330
2A8
100
AcDbEntity
  8
LINEE VISIBILI 2D
100
AcDbVertex
100
AcDb2dVertex
 10
271.8719520469917
 20
199.7971517331995
 30
0.0
  0
VERTEX
  5
30D
330
2A8
100
AcDbEntity
  8
LINEE VISIBILI 2D
100
AcDbVertex
100
AcDb2dVertex
 10
271.8980900198811
 20
199.8299538569748
 30
0.0
  0
VERTEX
  5
30E
330
2A8
100
AcDbEntity
  8
LINEE VISIBILI 2D
100
AcDbVertex
100
AcDb2dVertex
 10
271.9236234693145
 20
199.8632241064461
 30
0.0
  0
VERTEX
  5
30F
330
2A8
100
AcDbEntity
  8
LINEE VISIBILI 2D
100
AcDbVertex
100
AcDb2dVertex
 10
271.9485233802517
 20
199.8969741957703
 30
0.0
  0
VERTEX
  5
310
330
2A8
100
AcDbEntity
  8
LINEE VISIBILI 2D
100
AcDbVertex
100
AcDb2dVertex
 10
271.9727607376531
 20
199.9312158391041
 30
0.0
  0
VERTEX
  5
311
330
2A8
100
AcDbEntity
  8
LINEE VISIBILI 2D
100
AcDbVertex
100
AcDb2dVertex
 10
271.9963065264786
 20
199.9659607506041
 30
0.0
  0
VERTEX
  5
312
330
2A8
100
AcDbEntity
  8
LINEE VISIBILI 2D
100
AcDbVertex
100
AcDb2dVertex
 10
272.0157273866176
 20
199.9958544029242
 30
0.0
  0
VERTEX
  5
313
330
2A8
100
AcDbEntity
  8
LINEE VISIBILI 2D
100
AcDbVertex
100
AcDb2dVertex
 10
272.0346036217272
 20
200.0261108657394
 30
0.0
  0
VERTEX
  5
314
330
2A8
100
AcDbEntity
  8
LINEE VISIBILI 2D
100
AcDbVertex
100
AcDb2dVertex
 10
272.0529097985417
 20
200.0567218967275
 30
0.0
  0
VERTEX
  5
315
330
2A8
100
AcDbEntity
  8
LINEE VISIBILI 2D
100
AcDbVertex
100
AcDb2dVertex
 10
272.0706204837956
 20
200.0876792535664
 30
0.0
  0
VERTEX
  5
316
330
2A8
100
AcDbEntity
  8
LINEE VISIBILI 2D
100
AcDbVertex
100
AcDb2dVertex
 10
272.087710244223
 20
200.1189746939341
 30
0.0
  0
VERTEX
  5
317
330
2A8
100
AcDbEntity
  8
LINEE VISIBILI 2D
100
AcDbVertex
100
AcDb2dVertex
 10
272.1041536465583
 20
200.1505999755086
 30
0.0
  0
VERTEX
  5
318
330
2A8
100
AcDbEntity
  8
LINEE VISIBILI 2D
100
AcDbVertex
100
AcDb2dVertex
 10
272.119925257536
 20
200.1825468559677
 30
0.0
  0
VERTEX
  5
319
330
2A8
100
AcDbEntity
  8
LINEE VISIBILI 2D
100
AcDbVertex
100
AcDb2dVertex
 10
272.1349996438902
 20
200.2148070929894
 30
0.0
  0
VERTEX
  5
31A
330
2A8
100
AcDbEntity
  8
LINEE VISIBILI 2D
100
AcDbVertex
100
AcDb2dVertex
 10
272.1493513723554
 20
200.2473724442517
 30
0.0
  0
VERTEX
  5
31B
330
2A8
100
AcDbEntity
  8
LINEE VISIBILI 2D
100
AcDbVertex
100
AcDb2dVertex
 10
272.1629550096658
 20
200.2802346674325
 30
0.0
  0
VERTEX
  5
31C
330
2A8
100
AcDbEntity
  8
LINEE VISIBILI 2D
100
AcDbVertex
100
AcDb2dVertex
 10
272.1757851225557
 20
200.3133855202097
 30
0.0
  0
VERTEX
  5
31D
330
2A8
100
AcDbEntity
  8
LINEE VISIBILI 2D
100
AcDbVertex
100
AcDb2dVertex
 10
272.1878162777597
 20
200.3468167602613
 30
0.0
  0
VERTEX
  5
31E
330
2A8
100
AcDbEntity
  8
LINEE VISIBILI 2D
100
AcDbVertex
100
AcDb2dVertex
 10
272.1990230420118
 20
200.3805201452652
 30
0.0
  0
VERTEX
  5
31F
330
2A8
100
AcDbEntity
  8
LINEE VISIBILI 2D
100
AcDbVertex
100
AcDb2dVertex
 10
272.2093799820466
 20
200.4144874328993
 30
0.0
  0
VERTEX
  5
320
330
2A8
100
AcDbEntity
  8
LINEE VISIBILI 2D
100
AcDbVertex
100
AcDb2dVertex
 10
272.2188616645983
 20
200.4487103808416
 30
0.0
  0
VERTEX
  5
321
330
2A8
100
AcDbEntity
  8
LINEE VISIBILI 2D
100
AcDbVertex
100
AcDb2dVertex
 10
272.2274426564012
 20
200.48318074677
 30
0.0
  0
VERTEX
  5
322
330
2A8
100
AcDbEntity
  8
LINEE VISIBILI 2D
100
AcDbVertex
100
AcDb2dVertex
 10
272.2344658236075
 20
200.5148315539976
 30
0.0
  0
VERTEX
  5
323
330
2A8
100
AcDbEntity
  8
LINEE VISIBILI 2D
100
AcDbVertex
100
AcDb2dVertex
 10
272.2407140793992
 20
200.5466596229708
 30
0.0
  0
VERTEX
  5
324
330
2A8
100
AcDbEntity
  8
LINEE VISIBILI 2D
100
AcDbVertex
100
AcDb2dVertex
 10
272.2461831831006
 20
200.5786431862736
 30
0.0
  0
VERTEX
  5
325
330
2A8
100
AcDbEntity
  8
LINEE VISIBILI 2D
100
AcDbVertex
100
AcDb2dVertex
 10
272.2508688940361
 20
200.6107604764904
 30
0.0
  0
VERTEX
  5
326
330
2A8
100
AcDbEntity
  8
LINEE VISIBILI 2D
100
AcDbVertex
100
AcDb2dVertex
 10
272.2547669715301
 20
200.6429897262055
 30
0.0
  0
VERTEX
  5
327
330
2A8
100
AcDbEntity
  8
LINEE VISIBILI 2D
100
AcDbVertex
100
AcDb2dVertex
 10
272.2578731749069
 20
200.6753091680031
 30
0.0
  0
VERTEX
  5
328
330
2A8
100
AcDbEntity
  8
LINEE VISIBILI 2D
100
AcDbVertex
100
AcDb2dVertex
 10
272.2601832634909
 20
200.7076970344674
 30
0.0
  0
VERTEX
  5
329
330
2A8
100
AcDbEntity
  8
LINEE VISIBILI 2D
100
AcDbVertex
100
AcDb2dVertex
 10
272.2616929966065
 20
200.7401315581827
 30
0.0
  0
VERTEX
  5
32A
330
2A8
100
AcDbEntity
  8
LINEE VISIBILI 2D
100
AcDbVertex
100
AcDb2dVertex
 10
272.2623981335781
 20
200.7725909717334
 30
0.0
  0
VERTEX
  5
32B
330
2A8
100
AcDbEntity
  8
LINEE VISIBILI 2D
100
AcDbVertex
100
AcDb2dVertex
 10
272.2622944337301
 20
200.8050535077035
 30
0.0
  0
VERTEX
  5
32C
330
2A8
100
AcDbEntity
  8
LINEE VISIBILI 2D
100
AcDbVertex
100
AcDb2dVertex
 10
272.2613776563867
 20
200.8374973986773
 30
0.0
  0
VERTEX
  5
32D
330
2A8
100
AcDbEntity
  8
LINEE VISIBILI 2D
100
AcDbVertex
100
AcDb2dVertex
 10
272.2596435608725
 20
200.8699008772392
 30
0.0
  0
VERTEX
  5
32E
330
2A8
100
AcDbEntity
  8
LINEE VISIBILI 2D
100
AcDbVertex
100
AcDb2dVertex
 10
272.2570879065118
 20
200.9022421759733
 30
0.0
  0
VERTEX
  5
32F
330
2A8
100
AcDbEntity
  8
LINEE VISIBILI 2D
100
AcDbVertex
100
AcDb2dVertex
 10
272.253706452629
 20
200.934499527464
 30
0.0
  0
VERTEX
  5
330
330
2A8
100
AcDbEntity
  8
LINEE VISIBILI 2D
100
AcDbVertex
100
AcDb2dVertex
 10
272.2494949585483
 20
200.9666511642955
 30
0.0
  0
VERTEX
  5
331
330
2A8
100
AcDbEntity
  8
LINEE VISIBILI 2D
100
AcDbVertex
100
AcDb2dVertex
 10
272.2444491835944
 20
200.998675319052
 30
0.0
  0
VERTEX
  5
332
330
2A8
100
AcDbEntity
  8
LINEE VISIBILI 2D
100
AcDbVertex
100
AcDb2dVertex
 10
272.2383085872334
 20
201.0318669475434
 30
0.0
  0
VERTEX
  5
333
330
2A8
100
AcDbEntity
  8
LINEE VISIBILI 2D
100
AcDbVertex
100
AcDb2dVertex
 10
272.2312848577463
 20
201.0648846243396
 30
0.0
  0
VERTEX
  5
334
330
2A8
100
AcDbEntity
  8
LINEE VISIBILI 2D
100
AcDbVertex
100
AcDb2dVertex
 10
272.2234041711618
 20
201.0977162468097
 30
0.0
  0
VERTEX
  5
335
330
2A8
100
AcDbEntity
  8
LINEE VISIBILI 2D
100
AcDbVertex
100
AcDb2dVertex
 10
272.2146927035092
 20
201.1303497123231
 30
0.0
  0
VERTEX
  5
336
330
2A8
100
AcDbEntity
  8
LINEE VISIBILI 2D
100
AcDbVertex
100
AcDb2dVertex
 10
272.2051766308172
 20
201.1627729182491
 30
0.0
  0
VERTEX
  5
337
330
2A8
100
AcDbEntity
  8
LINEE VISIBILI 2D
100
AcDbVertex
100
AcDb2dVertex
 10
272.1948821291148
 20
201.1949737619568
 30
0.0
  0
VERTEX
  5
338
330
2A8
100
AcDbEntity
  8
LINEE VISIBILI 2D
100
AcDbVertex
100
AcDb2dVertex
 10
272.183835374431
 20
201.2269401408155
 30
0.0
  0
VERTEX
  5
339
330
2A8
100
AcDbEntity
  8
LINEE VISIBILI 2D
100
AcDbVertex
100
AcDb2dVertex
 10
272.1720625427946
 20
201.2586599521946
 30
0.0
  0
VERTEX
  5
33A
330
2A8
100
AcDbEntity
  8
LINEE VISIBILI 2D
100
AcDbVertex
100
AcDb2dVertex
 10
272.1595898102346
 20
201.2901210934633
 30
0.0
  0
VERTEX
  5
33B
330
2A8
100
AcDbEntity
  8
LINEE VISIBILI 2D
100
AcDbVertex
100
AcDb2dVertex
 10
272.14644335278
 20
201.3213114619908
 30
0.0
  0
VERTEX
  5
33C
330
2A8
100
AcDbEntity
  8
LINEE VISIBILI 2D
100
AcDbVertex
100
AcDb2dVertex
 10
272.1326493464597
 20
201.3522189551464
 30
0.0
  0
VERTEX
  5
33D
330
2A8
100
AcDbEntity
  8
LINEE VISIBILI 2D
100
AcDbVertex
100
AcDb2dVertex
 10
272.1182339673025
 20
201.3828314702994
 30
0.0
  0
VERTEX
  5
33E
330
2A8
100
AcDbEntity
  8
LINEE VISIBILI 2D
100
AcDbVertex
100
AcDb2dVertex
 10
272.1032233913376
 20
201.413136904819
 30
0.0
  0
VERTEX
  5
33F
330
2A8
100
AcDbEntity
  8
LINEE VISIBILI 2D
100
AcDbVertex
100
AcDb2dVertex
 10
272.0876437945936
 20
201.4431231560744
 30
0.0
  0
VERTEX
  5
340
330
2A8
100
AcDbEntity
  8
LINEE VISIBILI 2D
100
AcDbVertex
100
AcDb2dVertex
 10
272.0715213530997
 20
201.472778121435
 30
0.0
  0
VERTEX
  5
341
330
2A8
100
AcDbEntity
  8
LINEE VISIBILI 2D
100
AcDbVertex
100
AcDb2dVertex
 10
272.0548822428848
 20
201.50208969827
 30
0.0
  0
SEQEND
  5
2A9
330
2A8
100
AcDbEntity
  8
LINEE VISIBILI 2D
  0
LINE
  5
342
330
1F
100
AcDbEntity
  8
LINEE VISIBILI 2D
100
AcDbLine
 10
253.0632738227155
 20
316.7821127110646
 30
0.0
 11
259.7558173846522
 21
316.7821127110646
 31
0.0
  0
LINE
  5
343
330
1F
100
AcDbEntity
  8
LINEE VISIBILI 2D
100
AcDbLine
 10
251.4632738344354
 20
316.7821005040336
 30
0.0
 11
252.2632738343597
 21
316.7821005040336
 31
0.0
  0
LINE
  5
344
330
1F
100
AcDbEntity
  8
LINEE VISIBILI 2D
100
AcDbLine
 10
253.0632738343598
 20
312.8821005040336
 30
0.0
 11
252.2632738343597
 21
312.8821005040336
 31
0.0
  0
LINE
  5
345
330
1F
100
AcDbEntity
  8
LINEE VISIBILI 2D
100
AcDbLine
 10
232.4733467693901
 20
201.5054317386439
 30
0.0
 11
239.8059320682781
 21
214.1463117512615
 31
0.0
  0
LINE
  5
346
330
1F
100
AcDbEntity
  8
LINEE VISIBILI 2D
100
AcDbLine
 10
264.7246193356138
 20
214.1403131959714
 30
0.0
 11
272.0548822429673
 21
201.5020896981332
 31
0.0
  0
ARC
  5
348
330
1F
100
AcDbEntity
  8
LINEE VISIBILI 2D
100
AcDbCircle
 10
449.0484285169491
 20
19.99995797318398
 30
0.0
 40
0.8000000000000111
100
AcDbArc
 50
180.0000000000063
 51
269.9999999999959
  0
POLYLINE
  5
349
330
1F
100
AcDbEntity
  8
LINEE VISIBILI 2D
100
AcDb2dPolyline
 66
     1
 10
0.0
 20
0.0
 30
0.0
  0
VERTEX
  5
34B
330
349
100
AcDbEntity
  8
LINEE VISIBILI 2D
100
AcDbVertex
100
AcDb2dVertex
 10
239.1129755808195
 20
120.9627864591082
 30
0.0
  0
VERTEX
  5
34C
330
349
100
AcDbEntity
  8
LINEE VISIBILI 2D
100
AcDbVertex
100
AcDb2dVertex
 10
239.0703448688689
 20
120.956911450097
 30
0.0
  0
VERTEX
  5
34D
330
349
100
AcDbEntity
  8
LINEE VISIBILI 2D
100
AcDbVertex
100
AcDb2dVertex
 10
239.0316195941545
 20
120.9505811960936
 30
0.0
  0
VERTEX
  5
34E
330
349
100
AcDbEntity
  8
LINEE VISIBILI 2D
100
AcDbVertex
100
AcDb2dVertex
 10
239.0140248642514
 20
120.9472604091081
 30
0.0
  0
VERTEX
  5
34F
330
349
100
AcDbEntity
  8
LINEE VISIBILI 2D
100
AcDbVertex
100
AcDb2dVertex
 10
238.9977687235091
 20
120.9438462355564
 30
0.0
  0
VERTEX
  5
350
330
349
100
AcDbEntity
  8
LINEE VISIBILI 2D
100
AcDbVertex
100
AcDb2dVertex
 10
238.9829672303241
 20
120.9403479298678
 30
0.0
  0
VERTEX
  5
351
330
349
100
AcDbEntity
  8
LINEE VISIBILI 2D
100
AcDbVertex
100
AcDb2dVertex
 10
238.9761468702499
 20
120.9385704297475
 30
0.0
  0
VERTEX
  5
352
330
349
100
AcDbEntity
  8
LINEE VISIBILI 2D
100
AcDbVertex
100
AcDb2dVertex
 10
238.9697312399732
 20
120.9367758753394
 30
0.0
  0
VERTEX
  5
353
330
349
100
AcDbEntity
  8
LINEE VISIBILI 2D
100
AcDbVertex
100
AcDb2dVertex
 10
238.9637330940448
 20
120.9349657303459
 30
0.0
  0
VERTEX
  5
354
330
349
100
AcDbEntity
  8
LINEE VISIBILI 2D
100
AcDbVertex
100
AcDb2dVertex
 10
238.9581646416723
 20
120.933141519553
 30
0.0
  0
VERTEX
  5
355
330
349
100
AcDbEntity
  8
LINEE VISIBILI 2D
100
AcDbVertex
100
AcDb2dVertex
 10
238.9530374929875
 20
120.9313048254189
 30
0.0
  0
VERTEX
  5
356
330
349
100
AcDbEntity
  8
LINEE VISIBILI 2D
100
AcDbVertex
100
AcDb2dVertex
 10
238.9506428589573
 20
120.9303823064603
 30
0.0
  0
VERTEX
  5
357
330
349
100
AcDbEntity
  8
LINEE VISIBILI 2D
100
AcDbVertex
100
AcDb2dVertex
 10
238.9483626066559
 20
120.9294572842779
 30
0.0
  0
VERTEX
  5
358
330
349
100
AcDbEntity
  8
LINEE VISIBILI 2D
100
AcDbVertex
100
AcDb2dVertex
 10
238.946197995815
 20
120.9285299711478
 30
0.0
  0
VERTEX
  5
359
330
349
100
AcDbEntity
  8
LINEE VISIBILI 2D
100
AcDbVertex
100
AcDb2dVertex
 10
238.9441502392339
 20
120.9276005821729
 30
0.0
  0
VERTEX
  5
35A
330
349
100
AcDbEntity
  8
LINEE VISIBILI 2D
100
AcDbVertex
100
AcDb2dVertex
 10
238.9422205013213
 20
120.9266693351334
 30
0.0
  0
VERTEX
  5
35B
330
349
100
AcDbEntity
  8
LINEE VISIBILI 2D
100
AcDbVertex
100
AcDb2dVertex
 10
238.9404098966795
 20
120.9257364503327
 30
0.0
  0
VERTEX
  5
35C
330
349
100
AcDbEntity
  8
LINEE VISIBILI 2D
100
AcDbVertex
100
AcDb2dVertex
 10
238.9387194887347
 20
120.9248021504381
 30
0.0
  0
VERTEX
  5
35D
330
349
100
AcDbEntity
  8
LINEE VISIBILI 2D
100
AcDbVertex
100
AcDb2dVertex
 10
238.9371502884173
 20
120.9238666603168
 30
0.0
  0
VERTEX
  5
35E
330
349
100
AcDbEntity
  8
LINEE VISIBILI 2D
100
AcDbVertex
100
AcDb2dVertex
 10
238.9357032528924
 20
120.9229302068682
 30
0.0
  0
VERTEX
  5
35F
330
349
100
AcDbEntity
  8
LINEE VISIBILI 2D
100
AcDbVertex
100
AcDb2dVertex
 10
238.9343792843469
 20
120.921993018851
 30
0.0
  0
VERTEX
  5
360
330
349
100
AcDbEntity
  8
LINEE VISIBILI 2D
100
AcDbVertex
100
AcDb2dVertex
 10
238.933179228832
 20
120.9210553267073
 30
0.0
  0
VERTEX
  5
361
330
349
100
AcDbEntity
  8
LINEE VISIBILI 2D
100
AcDbVertex
100
AcDb2dVertex
 10
238.9321038751674
 20
120.9201173623826
 30
0.0
  0
VERTEX
  5
362
330
349
100
AcDbEntity
  8
LINEE VISIBILI 2D
100
AcDbVertex
100
AcDb2dVertex
 10
238.9311539539074
 20
120.9191793591427
 30
0.0
  0
VERTEX
  5
363
330
349
100
AcDbEntity
  8
LINEE VISIBILI 2D
100
AcDbVertex
100
AcDb2dVertex
 10
238.9303301363717
 20
120.9182415513875
 30
0.0
  0
VERTEX
  5
364
330
349
100
AcDbEntity
  8
LINEE VISIBILI 2D
100
AcDbVertex
100
AcDb2dVertex
 10
238.9296330337431
 20
120.9173041744617
 30
0.0
  0
VERTEX
  5
365
330
349
100
AcDbEntity
  8
LINEE VISIBILI 2D
100
AcDbVertex
100
AcDb2dVertex
 10
238.929063196236
 20
120.9163674644637
 30
0.0
  0
VERTEX
  5
366
330
349
100
AcDbEntity
  8
LINEE VISIBILI 2D
100
AcDbVertex
100
AcDb2dVertex
 10
238.9286211123341
 20
120.9154316580516
 30
0.0
  0
VERTEX
  5
367
330
349
100
AcDbEntity
  8
LINEE VISIBILI 2D
100
AcDbVertex
100
AcDb2dVertex
 10
238.9283072081032
 20
120.9144969922485
 30
0.0
  0
VERTEX
  5
368
330
349
100
AcDbEntity
  8
LINEE VISIBILI 2D
100
AcDbVertex
100
AcDb2dVertex
 10
238.9281218465769
 20
120.9135637042448
 30
0.0
  0
VERTEX
  5
369
330
349
100
AcDbEntity
  8
LINEE VISIBILI 2D
100
AcDbVertex
100
AcDb2dVertex
 10
238.9280653272201
 20
120.9126320312008
 30
0.0
  0
VERTEX
  5
36A
330
349
100
AcDbEntity
  8
LINEE VISIBILI 2D
100
AcDbVertex
100
AcDb2dVertex
 10
238.9281378854698
 20
120.9117022100476
 30
0.0
  0
VERTEX
  5
36B
330
349
100
AcDbEntity
  8
LINEE VISIBILI 2D
100
AcDbVertex
100
AcDb2dVertex
 10
238.9283396923539
 20
120.9107744772882
 30
0.0
  0
VERTEX
  5
36C
330
349
100
AcDbEntity
  8
LINEE VISIBILI 2D
100
AcDbVertex
100
AcDb2dVertex
 10
238.9286708541903
 20
120.9098490687977
 30
0.0
  0
VERTEX
  5
36D
330
349
100
AcDbEntity
  8
LINEE VISIBILI 2D
100
AcDbVertex
100
AcDb2dVertex
 10
238.9291314123673
 20
120.9089262196246
 30
0.0
  0
VERTEX
  5
36E
330
349
100
AcDbEntity
  8
LINEE VISIBILI 2D
100
AcDbVertex
100
AcDb2dVertex
 10
238.9297213432042
 20
120.9080061637923
 30
0.0
  0
VERTEX
  5
36F
330
349
100
AcDbEntity
  8
LINEE VISIBILI 2D
100
AcDbVertex
100
AcDb2dVertex
 10
238.9304405578935
 20
120.9070891341016
 30
0.0
  0
VERTEX
  5
370
330
349
100
AcDbEntity
  8
LINEE VISIBILI 2D
100
AcDbVertex
100
AcDb2dVertex
 10
238.9312889025262
 20
120.9061753619341
 30
0.0
  0
VERTEX
  5
371
330
349
100
AcDbEntity
  8
LINEE VISIBILI 2D
100
AcDbVertex
100
AcDb2dVertex
 10
238.9322661581974
 20
120.9052650770583
 30
0.0
  0
VERTEX
  5
372
330
349
100
AcDbEntity
  8
LINEE VISIBILI 2D
100
AcDbVertex
100
AcDb2dVertex
 10
238.9333720411944
 20
120.9043585074365
 30
0.0
  0
VERTEX
  5
373
330
349
100
AcDbEntity
  8
LINEE VISIBILI 2D
100
AcDbVertex
100
AcDb2dVertex
 10
238.9346062032674
 20
120.9034558790349
 30
0.0
  0
VERTEX
  5
374
330
349
100
AcDbEntity
  8
LINEE VISIBILI 2D
100
AcDbVertex
100
AcDb2dVertex
 10
238.9359682319783
 20
120.902557415636
 30
0.0
  0
VERTEX
  5
375
330
349
100
AcDbEntity
  8
LINEE VISIBILI 2D
100
AcDbVertex
100
AcDb2dVertex
 10
238.9374576511329
 20
120.9016633386539
 30
0.0
  0
VERTEX
  5
376
330
349
100
AcDbEntity
  8
LINEE VISIBILI 2D
100
AcDbVertex
100
AcDb2dVertex
 10
238.9390739212894
 20
120.9007738669532
 30
0.0
  0
VERTEX
  5
377
330
349
100
AcDbEntity
  8
LINEE VISIBILI 2D
100
AcDbVertex
100
AcDb2dVertex
 10
238.9408164403477
 20
120.8998892166716
 30
0.0
  0
VERTEX
  5
378
330
349
100
AcDbEntity
  8
LINEE VISIBILI 2D
100
AcDbVertex
100
AcDb2dVertex
 10
238.942684544214
 20
120.8990096010454
 30
0.0
  0
VERTEX
  5
379
330
349
100
AcDbEntity
  8
LINEE VISIBILI 2D
100
AcDbVertex
100
AcDb2dVertex
 10
238.9446775075406
 20
120.8981352302413
 30
0.0
  0
VERTEX
  5
37A
330
349
100
AcDbEntity
  8
LINEE VISIBILI 2D
100
AcDbVertex
100
AcDb2dVertex
 10
238.9467945445413
 20
120.8972663111901
 30
0.0
  0
VERTEX
  5
37B
330
349
100
AcDbEntity
  8
LINEE VISIBILI 2D
100
AcDbVertex
100
AcDb2dVertex
 10
238.9490348098773
 20
120.8964030474275
 30
0.0
  0
VERTEX
  5
37C
330
349
100
AcDbEntity
  8
LINEE VISIBILI 2D
100
AcDbVertex
100
AcDb2dVertex
 10
238.9513973996136
 20
120.8955456389383
 30
0.0
  0
VERTEX
  5
37D
330
349
100
AcDbEntity
  8
LINEE VISIBILI 2D
100
AcDbVertex
100
AcDb2dVertex
 10
238.9538813522441
 20
120.8946942820069
 30
0.0
  0
VERTEX
  5
37E
330
349
100
AcDbEntity
  8
LINEE VISIBILI 2D
100
AcDbVertex
100
AcDb2dVertex
 10
238.9592092189115
 20
120.8930104885903
 30
0.0
  0
VERTEX
  5
37F
330
349
100
AcDbEntity
  8
LINEE VISIBILI 2D
100
AcDbVertex
100
AcDb2dVertex
 10
238.9650096094045
 20
120.8913531580944
 30
0.0
  0
VERTEX
  5
380
330
349
100
AcDbEntity
  8
LINEE VISIBILI 2D
100
AcDbVertex
100
AcDb2dVertex
 10
238.9712728782693
 20
120.8897237135906
 30
0.0
  0
VERTEX
  5
381
330
349
100
AcDbEntity
  8
LINEE VISIBILI 2D
100
AcDbVertex
100
AcDb2dVertex
 10
238.9779885783939
 20
120.8881235065535
 30
0.0
  0
VERTEX
  5
382
330
349
100
AcDbEntity
  8
LINEE VISIBILI 2D
100
AcDbVertex
100
AcDb2dVertex
 10
238.9851455075199
 20
120.8865538135252
 30
0.0
  0
VERTEX
  5
383
330
349
100
AcDbEntity
  8
LINEE VISIBILI 2D
100
AcDbVertex
100
AcDb2dVertex
 10
239.0007347662822
 20
120.8835106840227
 30
0.0
  0
VERTEX
  5
384
330
349
100
AcDbEntity
  8
LINEE VISIBILI 2D
100
AcDbVertex
100
AcDb2dVertex
 10
239.0179378641183
 20
120.8806029395017
 30
0.0
  0
VERTEX
  5
385
330
349
100
AcDbEntity
  8
LINEE VISIBILI 2D
100
AcDbVertex
100
AcDb2dVertex
 10
239.0567326594648
 20
120.8752213410309
 30
0.0
  0
VERTEX
  5
386
330
349
100
AcDbEntity
  8
LINEE VISIBILI 2D
100
AcDbVertex
100
AcDb2dVertex
 10
239.1005659988171
 20
120.8704508263984
 30
0.0
  0
VERTEX
  5
387
330
349
100
AcDbEntity
  8
LINEE VISIBILI 2D
100
AcDbVertex
100
AcDb2dVertex
 10
239.1484211913191
 20
120.8663118460437
 30
0.0
  0
VERTEX
  5
388
330
349
100
AcDbEntity
  8
LINEE VISIBILI 2D
100
AcDbVertex
100
AcDb2dVertex
 10
239.1992820082562
 20
120.8628052287315
 30
0.0
  0
SEQEND
  5
34A
330
349
100
AcDbEntity
  8
LINEE VISIBILI 2D
  0
LINE
  5
389
330
1F
100
AcDbEntity
  8
LINEE VISIBILI 2D
100
AcDbLine
 10
344.475515840195
 20
11.25733801406692
 30
0.0
 11
344.5689998303574
 21
11.34249240647305
 31
0.0
  0
LINE
  5
38A
330
1F
100
AcDbEntity
  8
LINEE VISIBILI 2D
100
AcDbLine
 10
344.5708852026799
 20
11.39368651486858
 30
0.0
 11
344.457421092094
 21
11.42613129185096
 31
0.0
  0
LINE
  5
38B
330
1F
100
AcDbEntity
  8
LINEE VISIBILI 2D
100
AcDbLine
 10
285.172767616663
 20
10.22762309140671
 30
0.0
 11
338.6048667635058
 21
6.313168201166083
 31
0.0
  0
POLYLINE
  5
38C
330
1F
100
AcDbEntity
  8
LINEE VISIBILI 2D
100
AcDb2dPolyline
 66
     1
 10
0.0
 20
0.0
 30
0.0
  0
VERTEX
  5
38E
330
38C
100
AcDbEntity
  8
LINEE VISIBILI 2D
100
AcDbVertex
100
AcDb2dVertex
 10
352.0381491004978
 20
10.93218339330899
 30
0.0
  0
VERTEX
  5
38F
330
38C
100
AcDbEntity
  8
LINEE VISIBILI 2D
100
AcDbVertex
100
AcDb2dVertex
 10
352.0354007485913
 20
10.90547789560492
 30
0.0
  0
VERTEX
  5
390
330
38C
100
AcDbEntity
  8
LINEE VISIBILI 2D
100
AcDbVertex
100
AcDb2dVertex
 10
352.0318975212518
 20
10.87887053949269
 30
0.0
  0
VERTEX
  5
391
330
38C
100
AcDbEntity
  8
LINEE VISIBILI 2D
100
AcDbVertex
100
AcDb2dVertex
 10
352.0277033504489
 20
10.85236082850133
 30
0.0
  0
VERTEX
  5
392
330
38C
100
AcDbEntity
  8
LINEE VISIBILI 2D
100
AcDbVertex
100
AcDb2dVertex
 10
352.0228821681521
 20
10.82594826615992
 30
0.0
  0
VERTEX
  5
393
330
38C
100
AcDbEntity
  8
LINEE VISIBILI 2D
100
AcDbVertex
100
AcDb2dVertex
 10
352.0174979063313
 20
10.79963235599748
 30
0.0
  0
VERTEX
  5
394
330
38C
100
AcDbEntity
  8
LINEE VISIBILI 2D
100
AcDbVertex
100
AcDb2dVertex
 10
352.0116144969561
 20
10.77341260154307
 30
0.0
  0
VERTEX
  5
395
330
38C
100
AcDbEntity
  8
LINEE VISIBILI 2D
100
AcDbVertex
100
AcDb2dVertex
 10
351.998605963421
 20
10.72125957387454
 30
0.0
  0
VERTEX
  5
396
330
38C
100
AcDbEntity
  8
LINEE VISIBILI 2D
100
AcDbVertex
100
AcDb2dVertex
 10
351.979018567317
 20
10.65140013158179
 30
0.0
  0
VERTEX
  5
397
330
38C
100
AcDbEntity
  8
LINEE VISIBILI 2D
100
AcDbVertex
100
AcDb2dVertex
 10
351.9574977071323
 20
10.58215190693128
 30
0.0
  0
VERTEX
  5
398
330
38C
100
AcDbEntity
  8
LINEE VISIBILI 2D
100
AcDbVertex
100
AcDb2dVertex
 10
351.9343531659218
 20
10.51343518293508
 30
0.0
  0
VERTEX
  5
399
330
38C
100
AcDbEntity
  8
LINEE VISIBILI 2D
100
AcDbVertex
100
AcDb2dVertex
 10
351.9098947267403
 20
10.44517024260525
 30
0.0
  0
VERTEX
  5
39A
330
38C
100
AcDbEntity
  8
LINEE VISIBILI 2D
100
AcDbVertex
100
AcDb2dVertex
 10
351.8774162203055
 20
10.35922440773342
 30
0.0
  0
VERTEX
  5
39B
330
38C
100
AcDbEntity
  8
LINEE VISIBILI 2D
100
AcDbVertex
100
AcDb2dVertex
 10
351.8434353520752
 20
10.27385092984964
 30
0.0
  0
VERTEX
  5
39C
330
38C
100
AcDbEntity
  8
LINEE VISIBILI 2D
100
AcDbVertex
100
AcDb2dVertex
 10
351.7714048384722
 20
10.1047213092625
 30
0.0
  0
VERTEX
  5
39D
330
38C
100
AcDbEntity
  8
LINEE VISIBILI 2D
100
AcDbVertex
100
AcDb2dVertex
 10
351.6946798024191
 20
9.937581909276367
 30
0.0
  0
VERTEX
  5
39E
330
38C
100
AcDbEntity
  8
LINEE VISIBILI 2D
100
AcDbVertex
100
AcDb2dVertex
 10
351.6141368604033
 20
9.772233258323756
 30
0.0
  0
VERTEX
  5
39F
330
38C
100
AcDbEntity
  8
LINEE VISIBILI 2D
100
AcDbVertex
100
AcDb2dVertex
 10
351.5062416975911
 20
9.562200185290297
 30
0.0
  0
VERTEX
  5
3A0
330
38C
100
AcDbEntity
  8
LINEE VISIBILI 2D
100
AcDbVertex
100
AcDb2dVertex
 10
351.3938646717247
 20
9.354630033961806
 30
0.0
  0
VERTEX
  5
3A1
330
38C
100
AcDbEntity
  8
LINEE VISIBILI 2D
100
AcDbVertex
100
AcDb2dVertex
 10
351.2773765516406
 20
9.149360386428112
 30
0.0
  0
VERTEX
  5
3A2
330
38C
100
AcDbEntity
  8
LINEE VISIBILI 2D
100
AcDbVertex
100
AcDb2dVertex
 10
351.1571481061753
 20
8.946228824779028
 30
0.0
  0
VERTEX
  5
3A3
330
38C
100
AcDbEntity
  8
LINEE VISIBILI 2D
100
AcDbVertex
100
AcDb2dVertex
 10
350.9069533144458
 20
8.54573028749399
 30
0.0
  0
VERTEX
  5
3A4
330
38C
100
AcDbEntity
  8
LINEE VISIBILI 2D
100
AcDbVertex
100
AcDb2dVertex
 10
350.6462464472269
 20
8.151835078825254
 30
0.0
  0
VERTEX
  5
3A5
330
38C
100
AcDbEntity
  8
LINEE VISIBILI 2D
100
AcDbVertex
100
AcDb2dVertex
 10
350.3140638246037
 20
7.673952425435798
 30
0.0
  0
VERTEX
  5
3A6
330
38C
100
AcDbEntity
  8
LINEE VISIBILI 2D
100
AcDbVertex
100
AcDb2dVertex
 10
349.9709687843164
 20
7.203979390474634
 30
0.0
  0
VERTEX
  5
3A7
330
38C
100
AcDbEntity
  8
LINEE VISIBILI 2D
100
AcDbVertex
100
AcDb2dVertex
 10
349.6175090074394
 20
6.741770357621808
 30
0.0
  0
VERTEX
  5
3A8
330
38C
100
AcDbEntity
  8
LINEE VISIBILI 2D
100
AcDbVertex
100
AcDb2dVertex
 10
349.2542321750469
 20
6.287179710557365
 30
0.0
  0
VERTEX
  5
3A9
330
38C
100
AcDbEntity
  8
LINEE VISIBILI 2D
100
AcDbVertex
100
AcDb2dVertex
 10
348.8816859682133
 20
5.840061832961351
 30
0.0
  0
VERTEX
  5
3AA
330
38C
100
AcDbEntity
  8
LINEE VISIBILI 2D
100
AcDbVertex
100
AcDb2dVertex
 10
348.5004180680132
 20
5.400271108513813
 30
0.0
  0
VERTEX
  5
3AB
330
38C
100
AcDbEntity
  8
LINEE VISIBILI 2D
100
AcDbVertex
100
AcDb2dVertex
 10
348.1109761555208
 20
4.9676619208948
 30
0.0
  0
VERTEX
  5
3AC
330
38C
100
AcDbEntity
  8
LINEE VISIBILI 2D
100
AcDbVertex
100
AcDb2dVertex
 10
347.3214259661189
 20
4.13564128868958
 30
0.0
  0
VERTEX
  5
3AD
330
38C
100
AcDbEntity
  8
LINEE VISIBILI 2D
100
AcDbVertex
100
AcDb2dVertex
 10
346.9216744589446
 20
3.736490327025185
 30
0.0
  0
VERTEX
  5
3AE
330
38C
100
AcDbEntity
  8
LINEE VISIBILI 2D
100
AcDbVertex
100
AcDb2dVertex
 10
346.5140567541303
 20
3.345436797483738
 30
0.0
  0
VERTEX
  5
3AF
330
38C
100
AcDbEntity
  8
LINEE VISIBILI 2D
100
AcDbVertex
100
AcDb2dVertex
 10
346.0979762155183
 20
2.963281728757798
 30
0.0
  0
VERTEX
  5
3B0
330
38C
100
AcDbEntity
  8
LINEE VISIBILI 2D
100
AcDbVertex
100
AcDb2dVertex
 10
345.7285622145144
 20
2.638840396642316
 30
0.0
  0
VERTEX
  5
3B1
330
38C
100
AcDbEntity
  8
LINEE VISIBILI 2D
100
AcDbVertex
100
AcDb2dVertex
 10
345.3514770122034
 20
2.323326637051871
 30
0.0
  0
VERTEX
  5
3B2
330
38C
100
AcDbEntity
  8
LINEE VISIBILI 2D
100
AcDbVertex
100
AcDb2dVertex
 10
344.9659067176993
 20
2.018326267329487
 30
0.0
  0
VERTEX
  5
3B3
330
38C
100
AcDbEntity
  8
LINEE VISIBILI 2D
100
AcDbVertex
100
AcDb2dVertex
 10
344.5710374401167
 20
1.725425104818192
 30
0.0
  0
VERTEX
  5
3B4
330
38C
100
AcDbEntity
  8
LINEE VISIBILI 2D
100
AcDbVertex
100
AcDb2dVertex
 10
344.2371947903771
 20
1.494385935584524
 30
0.0
  0
VERTEX
  5
3B5
330
38C
100
AcDbEntity
  8
LINEE VISIBILI 2D
100
AcDbVertex
100
AcDb2dVertex
 10
344.0671481092957
 20
1.383702213906967
 30
0.0
  0
VERTEX
  5
3B6
330
38C
100
AcDbEntity
  8
LINEE VISIBILI 2D
100
AcDbVertex
100
AcDb2dVertex
 10
343.8947299586312
 20
1.276955483307796
 30
0.0
  0
VERTEX
  5
3B7
330
38C
100
AcDbEntity
  8
LINEE VISIBILI 2D
100
AcDbVertex
100
AcDb2dVertex
 10
343.7468210313263
 20
1.190129355693644
 30
0.0
  0
VERTEX
  5
3B8
330
38C
100
AcDbEntity
  8
LINEE VISIBILI 2D
100
AcDbVertex
100
AcDb2dVertex
 10
343.596823928218
 20
1.106943202311367
 30
0.0
  0
VERTEX
  5
3B9
330
38C
100
AcDbEntity
  8
LINEE VISIBILI 2D
100
AcDbVertex
100
AcDb2dVertex
 10
343.4445026585389
 20
1.027835858517005
 30
0.0
  0
VERTEX
  5
3BA
330
38C
100
AcDbEntity
  8
LINEE VISIBILI 2D
100
AcDbVertex
100
AcDb2dVertex
 10
343.2896212315216
 20
0.9532461596666006
 30
0.0
  0
VERTEX
  5
3BB
330
38C
100
AcDbEntity
  8
LINEE VISIBILI 2D
100
AcDbVertex
100
AcDb2dVertex
 10
343.173801917855
 20
0.9015806815483303
 30
0.0
  0
VERTEX
  5
3BC
330
38C
100
AcDbEntity
  8
LINEE VISIBILI 2D
100
AcDbVertex
100
AcDb2dVertex
 10
343.0564585356117
 20
0.853499340956603
 30
0.0
  0
VERTEX
  5
3BD
330
38C
100
AcDbEntity
  8
LINEE VISIBILI 2D
100
AcDbVertex
100
AcDb2dVertex
 10
342.997212931529
 20
0.8310827533294895
 30
0.0
  0
VERTEX
  5
3BE
330
38C
100
AcDbEntity
  8
LINEE VISIBILI 2D
100
AcDbVertex
100
AcDb2dVertex
 10
342.9375834456083
 20
0.8098982373995673
 30
0.0
  0
VERTEX
  5
3BF
330
38C
100
AcDbEntity
  8
LINEE VISIBILI 2D
100
AcDbVertex
100
AcDb2dVertex
 10
342.8775691229516
 20
0.7900578056053549
 30
0.0
  0
VERTEX
  5
3C0
330
38C
100
AcDbEntity
  8
LINEE VISIBILI 2D
100
AcDbVertex
100
AcDb2dVertex
 10
342.8171690086611
 20
0.7716734703853705
 30
0.0
  0
VERTEX
  5
3C1
330
38C
100
AcDbEntity
  8
LINEE VISIBILI 2D
100
AcDbVertex
100
AcDb2dVertex
 10
342.7563821478387
 20
0.7548572441781328
 30
0.0
  0
VERTEX
  5
3C2
330
38C
100
AcDbEntity
  8
LINEE VISIBILI 2D
100
AcDbVertex
100
AcDb2dVertex
 10
342.6952075855867
 20
0.7397211394221607
 30
0.0
  0
VERTEX
  5
3C3
330
38C
100
AcDbEntity
  8
LINEE VISIBILI 2D
100
AcDbVertex
100
AcDb2dVertex
 10
342.6336443670069
 20
0.7263771685559722
 30
0.0
  0
VERTEX
  5
3C4
330
38C
100
AcDbEntity
  8
LINEE VISIBILI 2D
100
AcDbVertex
100
AcDb2dVertex
 10
342.5716915372014
 20
0.7149373440180856
 30
0.0
  0
VERTEX
  5
3C5
330
38C
100
AcDbEntity
  8
LINEE VISIBILI 2D
100
AcDbVertex
100
AcDb2dVertex
 10
342.5093481412723
 20
0.70551367824702
 30
0.0
  0
VERTEX
  5
3C6
330
38C
100
AcDbEntity
  8
LINEE VISIBILI 2D
100
AcDbVertex
100
AcDb2dVertex
 10
342.4780296826059
 20
0.7015929087860818
 30
0.0
  0
VERTEX
  5
3C7
330
38C
100
AcDbEntity
  8
LINEE VISIBILI 2D
100
AcDbVertex
100
AcDb2dVertex
 10
342.4466132243217
 20
0.6982181836812933
 30
0.0
  0
VERTEX
  5
3C8
330
38C
100
AcDbEntity
  8
LINEE VISIBILI 2D
100
AcDbVertex
100
AcDb2dVertex
 10
342.4150986470577
 20
0.6954035044874694
 30
0.0
  0
VERTEX
  5
3C9
330
38C
100
AcDbEntity
  8
LINEE VISIBILI 2D
100
AcDbVertex
100
AcDb2dVertex
 10
342.3834858314517
 20
0.6931628727594245
 30
0.0
  0
VERTEX
  5
3CA
330
38C
100
AcDbEntity
  8
LINEE VISIBILI 2D
100
AcDbVertex
100
AcDb2dVertex
 10
342.3517746581413
 20
0.6915102900519737
 30
0.0
  0
VERTEX
  5
3CB
330
38C
100
AcDbEntity
  8
LINEE VISIBILI 2D
100
AcDbVertex
100
AcDb2dVertex
 10
342.3199650077643
 20
0.6904597579199318
 30
0.0
  0
SEQEND
  5
38D
330
38C
100
AcDbEntity
  8
LINEE VISIBILI 2D
  0
POLYLINE
  5
3CC
330
1F
100
AcDbEntity
  8
LINEE VISIBILI 2D
100
AcDb2dPolyline
 66
     1
 10
0.0
 20
0.0
 30
0.0
  0
VERTEX
  5
3CE
330
3CC
100
AcDbEntity
  8
LINEE VISIBILI 2D
100
AcDbVertex
100
AcDb2dVertex
 10
507.9293599784277
 20
314.7821127110661
 30
0.0
  0
VERTEX
  5
3CF
330
3CC
100
AcDbEntity
  8
LINEE VISIBILI 2D
100
AcDbVertex
100
AcDb2dVertex
 10
507.8094363050751
 20
314.490028404175
 30
0.0
  0
VERTEX
  5
3D0
330
3CC
100
AcDbEntity
  8
LINEE VISIBILI 2D
100
AcDbVertex
100
AcDb2dVertex
 10
507.6946576415513
 20
314.1958225388547
 30
0.0
  0
VERTEX
  5
3D1
330
3CC
100
AcDbEntity
  8
LINEE VISIBILI 2D
100
AcDbVertex
100
AcDb2dVertex
 10
507.5850419505681
 20
313.8995973763924
 30
0.0
  0
VERTEX
  5
3D2
330
3CC
100
AcDbEntity
  8
LINEE VISIBILI 2D
100
AcDbVertex
100
AcDb2dVertex
 10
507.4806071948377
 20
313.6014551780753
 30
0.0
  0
VERTEX
  5
3D3
330
3CC
100
AcDbEntity
  8
LINEE VISIBILI 2D
100
AcDbVertex
100
AcDb2dVertex
 10
507.2873523399827
 20
312.9998287190258
 30
0.0
  0
VERTEX
  5
3D4
330
3CC
100
AcDbEntity
  8
LINEE VISIBILI 2D
100
AcDbVertex
100
AcDb2dVertex
 10
507.1150367786811
 20
312.3917612520041
 30
0.0
  0
VERTEX
  5
3D5
330
3CC
100
AcDbEntity
  8
LINEE VISIBILI 2D
100
AcDbVertex
100
AcDb2dVertex
 10
506.9638042126292
 20
311.7780708673083
 30
0.0
  0
VERTEX
  5
3D6
330
3CC
100
AcDbEntity
  8
LINEE VISIBILI 2D
100
AcDbVertex
100
AcDb2dVertex
 10
506.8337983435216
 20
311.1595756552361
 30
0.0
  0
VERTEX
  5
3D7
330
3CC
100
AcDbEntity
  8
LINEE VISIBILI 2D
100
AcDbVertex
100
AcDb2dVertex
 10
506.7251628730542
 20
310.5370937060858
 30
0.0
  0
VERTEX
  5
3D8
330
3CC
100
AcDbEntity
  8
LINEE VISIBILI 2D
100
AcDbVertex
100
AcDb2dVertex
 10
506.6380415029225
 20
309.911443110155
 30
0.0
  0
VERTEX
  5
3D9
330
3CC
100
AcDbEntity
  8
LINEE VISIBILI 2D
100
AcDbVertex
100
AcDb2dVertex
 10
506.6009748555767
 20
309.5822985429086
 30
0.0
  0
VERTEX
  5
3DA
330
3CC
100
AcDbEntity
  8
LINEE VISIBILI 2D
100
AcDbVertex
100
AcDb2dVertex
 10
506.5697553680807
 20
309.2525880064525
 30
0.0
  0
VERTEX
  5
3DB
330
3CC
100
AcDbEntity
  8
LINEE VISIBILI 2D
100
AcDbVertex
100
AcDb2dVertex
 10
506.5244152572857
 20
308.5917915939152
 30
0.0
  0
VERTEX
  5
3DC
330
3CC
100
AcDbEntity
  8
LINEE VISIBILI 2D
100
AcDbVertex
100
AcDb2dVertex
 10
506.5011359398332
 20
307.9296990085496
 30
0.0
  0
VERTEX
  5
3DD
330
3CC
100
AcDbEntity
  8
LINEE VISIBILI 2D
100
AcDbVertex
100
AcDb2dVertex
 10
506.4990321850193
 20
307.2669553863624
 30
0.0
  0
VERTEX
  5
3DE
330
3CC
100
AcDbEntity
  8
LINEE VISIBILI 2D
100
AcDbVertex
100
AcDb2dVertex
 10
506.5172187621397
 20
306.6042058633601
 30
0.0
  0
VERTEX
  5
3DF
330
3CC
100
AcDbEntity
  8
LINEE VISIBILI 2D
100
AcDbVertex
100
AcDb2dVertex
 10
506.5548104404907
 20
305.9420955755491
 30
0.0
  0
VERTEX
  5
3E0
330
3CC
100
AcDbEntity
  8
LINEE VISIBILI 2D
100
AcDbVertex
100
AcDb2dVertex
 10
506.6109219893678
 20
305.2812696589362
 30
0.0
  0
VERTEX
  5
3E1
330
3CC
100
AcDbEntity
  8
LINEE VISIBILI 2D
100
AcDbVertex
100
AcDb2dVertex
 10
506.6846681780669
 20
304.6223732495278
 30
0.0
  0
VERTEX
  5
3E2
330
3CC
100
AcDbEntity
  8
LINEE VISIBILI 2D
100
AcDbVertex
100
AcDb2dVertex
 10
506.7616747386813
 20
304.056367960538
 30
0.0
  0
VERTEX
  5
3E3
330
3CC
100
AcDbEntity
  8
LINEE VISIBILI 2D
100
AcDbVertex
100
AcDb2dVertex
 10
506.8503331344881
 20
303.4922444068574
 30
0.0
  0
VERTEX
  5
3E4
330
3CC
100
AcDbEntity
  8
LINEE VISIBILI 2D
100
AcDbVertex
100
AcDb2dVertex
 10
506.9498494378063
 20
302.9299712175679
 30
0.0
  0
VERTEX
  5
3E5
330
3CC
100
AcDbEntity
  8
LINEE VISIBILI 2D
100
AcDbVertex
100
AcDb2dVertex
 10
507.0594297209542
 20
302.3695170217513
 30
0.0
  0
VERTEX
  5
3E6
330
3CC
100
AcDbEntity
  8
LINEE VISIBILI 2D
100
AcDbVertex
100
AcDb2dVertex
 10
507.3056065160137
 20
301.2539401268636
 30
0.0
  0
VERTEX
  5
3E7
330
3CC
100
AcDbEntity
  8
LINEE VISIBILI 2D
100
AcDbVertex
100
AcDb2dVertex
 10
507.5825120982166
 20
300.1452627548488
 30
0.0
  0
VERTEX
  5
3E8
330
3CC
100
AcDbEntity
  8
LINEE VISIBILI 2D
100
AcDbVertex
100
AcDb2dVertex
 10
507.9150571824721
 20
298.9347312845713
 30
0.0
  0
VERTEX
  5
3E9
330
3CC
100
AcDbEntity
  8
LINEE VISIBILI 2D
100
AcDbVertex
100
AcDb2dVertex
 10
510.8123204467381
 20
289.5676447524266
 30
0.0
  0
VERTEX
  5
3EA
330
3CC
100
AcDbEntity
  8
LINEE VISIBILI 2D
100
AcDbVertex
100
AcDb2dVertex
 10
511.2483540827358
 20
287.9433269795248
 30
0.0
  0
VERTEX
  5
3EB
330
3CC
100
AcDbEntity
  8
LINEE VISIBILI 2D
100
AcDbVertex
100
AcDb2dVertex
 10
511.6527409347931
 20
286.3109529411866
 30
0.0
  0
VERTEX
  5
3EC
330
3CC
100
AcDbEntity
  8
LINEE VISIBILI 2D
100
AcDbVertex
100
AcDb2dVertex
 10
512.0236965165942
 20
284.6706371503076
 30
0.0
  0
VERTEX
  5
3ED
330
3CC
100
AcDbEntity
  8
LINEE VISIBILI 2D
100
AcDbVertex
100
AcDb2dVertex
 10
512.3594363418239
 20
283.0224941197836
 30
0.0
  0
VERTEX
  5
3EE
330
3CC
100
AcDbEntity
  8
LINEE VISIBILI 2D
100
AcDbVertex
100
AcDb2dVertex
 10
512.6713420040459
 20
281.28856098306
 30
0.0
  0
VERTEX
  5
3EF
330
3CC
100
AcDbEntity
  8
LINEE VISIBILI 2D
100
AcDbVertex
100
AcDb2dVertex
 10
512.9407841314373
 20
279.5473352529645
 30
0.0
  0
VERTEX
  5
3F0
330
3CC
100
AcDbEntity
  8
LINEE VISIBILI 2D
100
AcDbVertex
100
AcDb2dVertex
 10
513.1658702262725
 20
277.7999813974499
 30
0.0
  0
VERTEX
  5
3F1
330
3CC
100
AcDbEntity
  8
LINEE VISIBILI 2D
100
AcDbVertex
100
AcDb2dVertex
 10
513.3447077908266
 20
276.0476638844691
 30
0.0
  0
VERTEX
  5
3F2
330
3CC
100
AcDbEntity
  8
LINEE VISIBILI 2D
100
AcDbVertex
100
AcDb2dVertex
 10
513.4754043273747
 20
274.2915471819749
 30
0.0
  0
VERTEX
  5
3F3
330
3CC
100
AcDbEntity
  8
LINEE VISIBILI 2D
100
AcDbVertex
100
AcDb2dVertex
 10
513.5560673381916
 20
272.5327957579201
 30
0.0
  0
VERTEX
  5
3F4
330
3CC
100
AcDbEntity
  8
LINEE VISIBILI 2D
100
AcDbVertex
100
AcDb2dVertex
 10
513.5848043255523
 20
270.7725740802575
 30
0.0
  0
VERTEX
  5
3F5
330
3CC
100
AcDbEntity
  8
LINEE VISIBILI 2D
100
AcDbVertex
100
AcDb2dVertex
 10
513.5597227917319
 20
269.01204661694
 30
0.0
  0
VERTEX
  5
3F6
330
3CC
100
AcDbEntity
  8
LINEE VISIBILI 2D
100
AcDbVertex
100
AcDb2dVertex
 10
513.508118606892
 20
267.7592526701965
 30
0.0
  0
VERTEX
  5
3F7
330
3CC
100
AcDbEntity
  8
LINEE VISIBILI 2D
100
AcDbVertex
100
AcDb2dVertex
 10
513.4281237226221
 20
266.5076816678115
 30
0.0
  0
VERTEX
  5
3F8
330
3CC
100
AcDbEntity
  8
LINEE VISIBILI 2D
100
AcDbVertex
100
AcDb2dVertex
 10
513.3195814595413
 20
265.2581213789541
 30
0.0
  0
VERTEX
  5
3F9
330
3CC
100
AcDbEntity
  8
LINEE VISIBILI 2D
100
AcDbVertex
100
AcDb2dVertex
 10
513.1823351382686
 20
264.0113595727935
 30
0.0
  0
VERTEX
  5
3FA
330
3CC
100
AcDbEntity
  8
LINEE VISIBILI 2D
100
AcDbVertex
100
AcDb2dVertex
 10
513.0162280794231
 20
262.7681840184985
 30
0.0
  0
VERTEX
  5
3FB
330
3CC
100
AcDbEntity
  8
LINEE VISIBILI 2D
100
AcDbVertex
100
AcDb2dVertex
 10
512.8211036036239
 20
261.5293824852382
 30
0.0
  0
VERTEX
  5
3FC
330
3CC
100
AcDbEntity
  8
LINEE VISIBILI 2D
100
AcDbVertex
100
AcDb2dVertex
 10
512.5968050314899
 20
260.2957427421817
 30
0.0
  0
VERTEX
  5
3FD
330
3CC
100
AcDbEntity
  8
LINEE VISIBILI 2D
100
AcDbVertex
100
AcDb2dVertex
 10
512.3431756836403
 20
259.0680525584978
 30
0.0
  0
VERTEX
  5
3FE
330
3CC
100
AcDbEntity
  8
LINEE VISIBILI 2D
100
AcDbVertex
100
AcDb2dVertex
 10
512.122617632613
 20
258.10450159941
 30
0.0
  0
VERTEX
  5
3FF
330
3CC
100
AcDbEntity
  8
LINEE VISIBILI 2D
100
AcDbVertex
100
AcDb2dVertex
 10
511.8851189320347
 20
257.1449775379125
 30
0.0
  0
VERTEX
  5
400
330
3CC
100
AcDbEntity
  8
LINEE VISIBILI 2D
100
AcDbVertex
100
AcDb2dVertex
 10
511.3648911160073
 20
255.2373576594007
 30
0.0
  0
VERTEX
  5
401
330
3CC
100
AcDbEntity
  8
LINEE VISIBILI 2D
100
AcDbVertex
100
AcDb2dVertex
 10
508.142642940666
 20
244.641152780908
 30
0.0
  0
VERTEX
  5
402
330
3CC
100
AcDbEntity
  8
LINEE VISIBILI 2D
100
AcDbVertex
100
AcDb2dVertex
 10
507.5580611385431
 20
242.4322468657837
 30
0.0
  0
VERTEX
  5
403
330
3CC
100
AcDbEntity
  8
LINEE VISIBILI 2D
100
AcDbVertex
100
AcDb2dVertex
 10
506.9785732205186
 20
239.9907349580505
 30
0.0
  0
VERTEX
  5
404
330
3CC
100
AcDbEntity
  8
LINEE VISIBILI 2D
100
AcDbVertex
100
AcDb2dVertex
 10
506.4651356448396
 20
237.5344066019811
 30
0.0
  0
VERTEX
  5
405
330
3CC
100
AcDbEntity
  8
LINEE VISIBILI 2D
100
AcDbVertex
100
AcDb2dVertex
 10
506.0164775388173
 20
235.0653980129648
 30
0.0
  0
VERTEX
  5
406
330
3CC
100
AcDbEntity
  8
LINEE VISIBILI 2D
100
AcDbVertex
100
AcDb2dVertex
 10
505.6313280297636
 20
232.5858454063908
 30
0.0
  0
VERTEX
  5
407
330
3CC
100
AcDbEntity
  8
LINEE VISIBILI 2D
100
AcDbVertex
100
AcDb2dVertex
 10
505.2414437836225
 20
229.5200168917138
 30
0.0
  0
VERTEX
  5
408
330
3CC
100
AcDbEntity
  8
LINEE VISIBILI 2D
100
AcDbVertex
100
AcDb2dVertex
 10
504.9383715119751
 20
226.444176932957
 30
0.0
  0
VERTEX
  5
409
330
3CC
100
AcDbEntity
  8
LINEE VISIBILI 2D
100
AcDbVertex
100
AcDb2dVertex
 10
504.7144893225257
 20
223.3610713209676
 30
0.0
  0
VERTEX
  5
40A
330
3CC
100
AcDbEntity
  8
LINEE VISIBILI 2D
100
AcDbVertex
100
AcDb2dVertex
 10
504.5621753229788
 20
220.2734458465929
 30
0.0
  0
VERTEX
  5
40B
330
3CC
100
AcDbEntity
  8
LINEE VISIBILI 2D
100
AcDbVertex
100
AcDb2dVertex
 10
504.4662066508784
 20
216.7159471452285
 30
0.0
  0
VERTEX
  5
40C
330
3CC
100
AcDbEntity
  8
LINEE VISIBILI 2D
100
AcDbVertex
100
AcDb2dVertex
 10
504.4474475770563
 20
213.1573287548794
 30
0.0
  0
VERTEX
  5
40D
330
3CC
100
AcDbEntity
  8
LINEE VISIBILI 2D
100
AcDbVertex
100
AcDb2dVertex
 10
504.6113179413925
 20
206.0416612608577
 30
0.0
  0
SEQEND
  5
3CD
330
3CC
100
AcDbEntity
  8
LINEE VISIBILI 2D
  0
ARC
  5
40E
330
1F
100
AcDbEntity
  8
LINEE VISIBILI 2D
100
AcDbCircle
 10
343.0859197000757
 20
114.8026478010804
 30
0.0
 40
4.7577392320598
100
AcDbArc
 50
264.9297042784771
 51
279.3175065429496
  0
ARC
  5
40F
330
1F
100
AcDbEntity
  8
LINEE VISIBILI 2D
100
AcDbCircle
 10
342.5730544269406
 20
110.9781747496502
 30
0.0
 40
0.9193032357114432
100
AcDbArc
 50
240.2248816126245
 51
275.7677313999376
  0
LINE
  5
410
330
1F
100
AcDbEntity
  8
LINEE VISIBILI 2D
100
AcDbLine
 10
343.9278528972847
 20
110.1488334829748
 30
0.0
 11
343.856223107943
 21
110.1076807873401
 31
0.0
  0
LINE
  5
411
330
1F
100
AcDbEntity
  8
LINEE VISIBILI 2D
100
AcDbLine
 10
339.3357364161953
 20
6.44987949765111
 30
0.0
 11
339.2361637531774
 21
6.356790059876575
 31
0.0
  0
LINE
  5
412
330
1F
100
AcDbEntity
  8
LINEE VISIBILI 2D
100
AcDbLine
 10
244.5327215485092
 20
34.77686070861097
 30
0.0
 11
244.6666452162287
 21
34.79976459650659
 31
0.0
  0
LINE
  5
413
330
1F
100
AcDbEntity
  8
LINEE VISIBILI 2D
100
AcDbLine
 10
278.6520400973501
 20
0.2475154801795725
 30
0.0
 11
232.6349123365897
 21
26.97685727574106
 31
0.0
  0
LINE
  5
414
330
1F
100
AcDbEntity
  8
LINEE VISIBILI 2D
100
AcDbLine
 10
246.3466147301521
 20
34.74919749244146
 30
0.0
 11
283.8220245689356
 21
21.17163461931834
 31
0.0
  0
LINE
  5
415
330
1F
100
AcDbEntity
  8
LINEE VISIBILI 2D
100
AcDbLine
 10
284.4299559557882
 20
20.95156606774253
 30
0.0
 11
297.1999681030609
 21
16.32966975402309
 31
0.0
  0
POLYLINE
  5
416
330
1F
100
AcDbEntity
  8
LINEE VISIBILI 2D
100
AcDb2dPolyline
 66
     1
 10
0.0
 20
0.0
 30
0.0
  0
VERTEX
  5
418
330
416
100
AcDbEntity
  8
LINEE VISIBILI 2D
100
AcDbVertex
100
AcDb2dVertex
 10
285.1727502953361
 20
10.22761250864223
 30
0.0
  0
VERTEX
  5
419
330
416
100
AcDbEntity
  8
LINEE VISIBILI 2D
100
AcDbVertex
100
AcDb2dVertex
 10
284.4424602179681
 20
9.607723817566476
 30
0.0
  0
VERTEX
  5
41A
330
416
100
AcDbEntity
  8
LINEE VISIBILI 2D
100
AcDbVertex
100
AcDb2dVertex
 10
283.7270256256766
 20
8.97119647363586
 30
0.0
  0
VERTEX
  5
41B
330
416
100
AcDbEntity
  8
LINEE VISIBILI 2D
100
AcDbVertex
100
AcDb2dVertex
 10
283.0257913310979
 20
8.317708433663431
 30
0.0
  0
VERTEX
  5
41C
330
416
100
AcDbEntity
  8
LINEE VISIBILI 2D
100
AcDbVertex
100
AcDb2dVertex
 10
282.3407995921329
 20
7.647080274944181
 30
0.0
  0
VERTEX
  5
41D
330
416
100
AcDbEntity
  8
LINEE VISIBILI 2D
100
AcDbVertex
100
AcDb2dVertex
 10
281.7450859572338
 20
7.033348423020036
 30
0.0
  0
VERTEX
  5
41E
330
416
100
AcDbEntity
  8
LINEE VISIBILI 2D
100
AcDbVertex
100
AcDb2dVertex
 10
281.1665578503928
 20
6.403755789250322
 30
0.0
  0
VERTEX
  5
41F
330
416
100
AcDbEntity
  8
LINEE VISIBILI 2D
100
AcDbVertex
100
AcDb2dVertex
 10
280.6077856541359
 20
5.756636465022834
 30
0.0
  0
VERTEX
  5
420
330
416
100
AcDbEntity
  8
LINEE VISIBILI 2D
100
AcDbVertex
100
AcDb2dVertex
 10
280.3366112670159
 20
5.425983697546113
 30
0.0
  0
VERTEX
  5
421
330
416
100
AcDbEntity
  8
LINEE VISIBILI 2D
100
AcDbVertex
100
AcDb2dVertex
 10
280.0713397509889
 20
5.090324541725371
 30
0.0
  0
VERTEX
  5
422
330
416
100
AcDbEntity
  8
LINEE VISIBILI 2D
100
AcDbVertex
100
AcDb2dVertex
 10
279.6747064726598
 20
4.560923640245912
 30
0.0
  0
VERTEX
  5
423
330
416
100
AcDbEntity
  8
LINEE VISIBILI 2D
100
AcDbVertex
100
AcDb2dVertex
 10
279.4841545992611
 20
4.290695778249823
 30
0.0
  0
VERTEX
  5
424
330
416
100
AcDbEntity
  8
LINEE VISIBILI 2D
100
AcDbVertex
100
AcDb2dVertex
 10
279.2999473061551
 20
4.016325926985346
 30
0.0
  0
VERTEX
  5
425
330
416
100
AcDbEntity
  8
LINEE VISIBILI 2D
100
AcDbVertex
100
AcDb2dVertex
 10
279.1229606456779
 20
3.737471300129371
 30
0.0
  0
VERTEX
  5
426
330
416
100
AcDbEntity
  8
LINEE VISIBILI 2D
100
AcDbVertex
100
AcDb2dVertex
 10
278.9540706701662
 20
3.453789111358783
 30
0.0
  0
VERTEX
  5
427
330
416
100
AcDbEntity
  8
LINEE VISIBILI 2D
100
AcDbVertex
100
AcDb2dVertex
 10
278.7941534319561
 20
3.164936574350476
 30
0.0
  0
VERTEX
  5
428
330
416
100
AcDbEntity
  8
LINEE VISIBILI 2D
100
AcDbVertex
100
AcDb2dVertex
 10
278.7178333556943
 20
3.018464304531203
 30
0.0
  0
VERTEX
  5
429
330
416
100
AcDbEntity
  8
LINEE VISIBILI 2D
100
AcDbVertex
100
AcDb2dVertex
 10
278.6440849833842
 20
2.870570902781335
 30
0.0
  0
VERTEX
  5
42A
330
416
100
AcDbEntity
  8
LINEE VISIBILI 2D
100
AcDbVertex
100
AcDb2dVertex
 10
278.5398005521155
 20
2.648036129702869
 30
0.0
  0
VERTEX
  5
42B
330
416
100
AcDbEntity
  8
LINEE VISIBILI 2D
100
AcDbVertex
100
AcDb2dVertex
 10
278.4906003171818
 20
2.535440597095063
 30
0.0
  0
VERTEX
  5
42C
330
416
100
AcDbEntity
  8
LINEE VISIBILI 2D
100
AcDbVertex
100
AcDb2dVertex
 10
278.4437462263846
 20
2.421897897615544
 30
0.0
  0
VERTEX
  5
42D
330
416
100
AcDbEntity
  8
LINEE VISIBILI 2D
100
AcDbVertex
100
AcDb2dVertex
 10
278.3995268974765
 20
2.307361729144814
 30
0.0
  0
VERTEX
  5
42E
330
416
100
AcDbEntity
  8
LINEE VISIBILI 2D
100
AcDbVertex
100
AcDb2dVertex
 10
278.3582309482092
 20
2.191785789563375
 30
0.0
  0
VERTEX
  5
42F
330
416
100
AcDbEntity
  8
LINEE VISIBILI 2D
100
AcDbVertex
100
AcDb2dVertex
 10
278.3201469963353
 20
2.07512377675173
 30
0.0
  0
VERTEX
  5
430
330
416
100
AcDbEntity
  8
LINEE VISIBILI 2D
100
AcDbVertex
100
AcDb2dVertex
 10
278.285563659607
 20
1.957329388590382
 30
0.0
  0
VERTEX
  5
431
330
416
100
AcDbEntity
  8
LINEE VISIBILI 2D
100
AcDbVertex
100
AcDb2dVertex
 10
278.2609055103362
 20
1.863368948088228
 30
0.0
  0
VERTEX
  5
432
330
416
100
AcDbEntity
  8
LINEE VISIBILI 2D
100
AcDbVertex
100
AcDb2dVertex
 10
278.2388765944696
 20
1.768743158622858
 30
0.0
  0
VERTEX
  5
433
330
416
100
AcDbEntity
  8
LINEE VISIBILI 2D
100
AcDbVertex
100
AcDb2dVertex
 10
278.2197368910283
 20
1.673523650676638
 30
0.0
  0
VERTEX
  5
434
330
416
100
AcDbEntity
  8
LINEE VISIBILI 2D
100
AcDbVertex
100
AcDb2dVertex
 10
278.2037463790335
 20
1.577782054731933
 30
0.0
  0
VERTEX
  5
435
330
416
100
AcDbEntity
  8
LINEE VISIBILI 2D
100
AcDbVertex
100
AcDb2dVertex
 10
278.1970133132725
 20
1.529737858285888
 30
0.0
  0
VERTEX
  5
436
330
416
100
AcDbEntity
  8
LINEE VISIBILI 2D
100
AcDbVertex
100
AcDb2dVertex
 10
278.1911650375061
 20
1.481590001271108
 30
0.0
  0
VERTEX
  5
437
330
416
100
AcDbEntity
  8
LINEE VISIBILI 2D
100
AcDbVertex
100
AcDb2dVertex
 10
278.186234049112
 20
1.43334743749789
 30
0.0
  0
VERTEX
  5
438
330
416
100
AcDbEntity
  8
LINEE VISIBILI 2D
100
AcDbVertex
100
AcDb2dVertex
 10
278.1822528454676
 20
1.385019120776529
 30
0.0
  0
VERTEX
  5
439
330
416
100
AcDbEntity
  8
LINEE VISIBILI 2D
100
AcDbVertex
100
AcDb2dVertex
 10
278.1792539239506
 20
1.33661400491732
 30
0.0
  0
VERTEX
  5
43A
330
416
100
AcDbEntity
  8
LINEE VISIBILI 2D
100
AcDbVertex
100
AcDb2dVertex
 10
278.1772697819388
 20
1.28814104373056
 30
0.0
  0
VERTEX
  5
43B
330
416
100
AcDbEntity
  8
LINEE VISIBILI 2D
100
AcDbVertex
100
AcDb2dVertex
 10
278.1763329168096
 20
1.239609191026543
 30
0.0
  0
VERTEX
  5
43C
330
416
100
AcDbEntity
  8
LINEE VISIBILI 2D
100
AcDbVertex
100
AcDb2dVertex
 10
278.1764758259409
 20
1.191027400615567
 30
0.0
  0
SEQEND
  5
417
330
416
100
AcDbEntity
  8
LINEE VISIBILI 2D
  0
POLYLINE
  5
43D
330
1F
100
AcDbEntity
  8
LINEE VISIBILI 2D
100
AcDb2dPolyline
 66
     1
 10
0.0
 20
0.0
 30
0.0
  0
VERTEX
  5
43F
330
43D
100
AcDbEntity
  8
LINEE VISIBILI 2D
100
AcDbVertex
100
AcDb2dVertex
 10
296.9176745032561
 20
16.35351747531968
 30
0.0
  0
VERTEX
  5
440
330
43D
100
AcDbEntity
  8
LINEE VISIBILI 2D
100
AcDbVertex
100
AcDb2dVertex
 10
296.8570692541098
 20
16.35796680664505
 30
0.0
  0
VERTEX
  5
441
330
43D
100
AcDbEntity
  8
LINEE VISIBILI 2D
100
AcDbVertex
100
AcDb2dVertex
 10
296.7851106033833
 20
16.36160906182212
 30
0.0
  0
VERTEX
  5
442
330
43D
100
AcDbEntity
  8
LINEE VISIBILI 2D
100
AcDbVertex
100
AcDb2dVertex
 10
296.7127887125609
 20
16.36358332617119
 30
0.0
  0
VERTEX
  5
443
330
43D
100
AcDbEntity
  8
LINEE VISIBILI 2D
100
AcDbVertex
100
AcDb2dVertex
 10
296.6401220238002
 20
16.36396192110125
 30
0.0
  0
VERTEX
  5
444
330
43D
100
AcDbEntity
  8
LINEE VISIBILI 2D
100
AcDbVertex
100
AcDb2dVertex
 10
296.5671290204533
 20
16.36281728427052
 30
0.0
  0
VERTEX
  5
445
330
43D
100
AcDbEntity
  8
LINEE VISIBILI 2D
100
AcDbVertex
100
AcDb2dVertex
 10
296.4938282273109
 20
16.36022197054762
 30
0.0
  0
VERTEX
  5
446
330
43D
100
AcDbEntity
  8
LINEE VISIBILI 2D
100
AcDbVertex
100
AcDb2dVertex
 10
296.4202382108324
 20
16.35624865291824
 30
0.0
  0
VERTEX
  5
447
330
43D
100
AcDbEntity
  8
LINEE VISIBILI 2D
100
AcDbVertex
100
AcDb2dVertex
 10
296.2722649833331
 20
16.34445929352237
 30
0.0
  0
VERTEX
  5
448
330
43D
100
AcDbEntity
  8
LINEE VISIBILI 2D
100
AcDbVertex
100
AcDb2dVertex
 10
296.1233420893084
 20
16.32797396357472
 30
0.0
  0
VERTEX
  5
449
330
43D
100
AcDbEntity
  8
LINEE VISIBILI 2D
100
AcDbVertex
100
AcDb2dVertex
 10
295.9735363159103
 20
16.30708288702378
 30
0.0
  0
VERTEX
  5
44A
330
43D
100
AcDbEntity
  8
LINEE VISIBILI 2D
100
AcDbVertex
100
AcDb2dVertex
 10
295.8228980795102
 20
16.28201813907654
 30
0.0
  0
VERTEX
  5
44B
330
43D
100
AcDbEntity
  8
LINEE VISIBILI 2D
100
AcDbVertex
100
AcDb2dVertex
 10
295.6714780095173
 20
16.25301257381075
 30
0.0
  0
VERTEX
  5
44C
330
43D
100
AcDbEntity
  8
LINEE VISIBILI 2D
100
AcDbVertex
100
AcDb2dVertex
 10
295.5193269496309
 20
16.22029982937515
 30
0.0
  0
VERTEX
  5
44D
330
43D
100
AcDbEntity
  8
LINEE VISIBILI 2D
100
AcDbVertex
100
AcDb2dVertex
 10
295.3664959590211
 20
16.18411433285555
 30
0.0
  0
VERTEX
  5
44E
330
43D
100
AcDbEntity
  8
LINEE VISIBILI 2D
100
AcDbVertex
100
AcDb2dVertex
 10
295.0589995062344
 20
16.10226676341518
 30
0.0
  0
VERTEX
  5
44F
330
43D
100
AcDbEntity
  8
LINEE VISIBILI 2D
100
AcDbVertex
100
AcDb2dVertex
 10
294.7493542223307
 20
16.009168445711
 30
0.0
  0
VERTEX
  5
450
330
43D
100
AcDbEntity
  8
LINEE VISIBILI 2D
100
AcDbVertex
100
AcDb2dVertex
 10
294.4377393355596
 20
15.90575712157888
 30
0.0
  0
VERTEX
  5
451
330
43D
100
AcDbEntity
  8
LINEE VISIBILI 2D
100
AcDbVertex
100
AcDb2dVertex
 10
294.1242880223354
 20
15.79278354641709
 30
0.0
  0
VERTEX
  5
452
330
43D
100
AcDbEntity
  8
LINEE VISIBILI 2D
100
AcDbVertex
100
AcDb2dVertex
 10
293.8091344529955
 20
15.67100364276484
 30
0.0
  0
VERTEX
  5
453
330
43D
100
AcDbEntity
  8
LINEE VISIBILI 2D
100
AcDbVertex
100
AcDb2dVertex
 10
293.3352504405681
 20
15.47398209382494
 30
0.0
  0
VERTEX
  5
454
330
43D
100
AcDbEntity
  8
LINEE VISIBILI 2D
100
AcDbVertex
100
AcDb2dVertex
 10
292.8580235913811
 20
15.2598815399067
 30
0.0
  0
VERTEX
  5
455
330
43D
100
AcDbEntity
  8
LINEE VISIBILI 2D
100
AcDbVertex
100
AcDb2dVertex
 10
292.3776124201437
 20
15.02959883544727
 30
0.0
  0
VERTEX
  5
456
330
43D
100
AcDbEntity
  8
LINEE VISIBILI 2D
100
AcDbVertex
100
AcDb2dVertex
 10
291.8941772441332
 20
14.78404049763452
 30
0.0
  0
SEQEND
  5
43E
330
43D
100
AcDbEntity
  8
LINEE VISIBILI 2D
  0
LINE
  5
457
330
1F
100
AcDbEntity
  8
LINEE VISIBILI 2D
100
AcDbLine
 10
339.3344964129761
 20
6.451205861926382
 30
0.0
 11
344.475515840195
 21
11.25733801406691
 31
0.0
  0
ARC
  5
458
330
1F
100
AcDbEntity
  8
LINEE VISIBILI 2D
100
AcDbCircle
 10
279.4725919874947
 20
1.274618863328759
 30
0.0
 40
1.298808930089167
100
AcDbArc
 50
183.6901122018788
 51
281.1274572870626
  0
LINE
  5
459
330
1F
100
AcDbEntity
  8
LINEE VISIBILI 2D
100
AcDbLine
 10
239.1992820082562
 20
120.8628052287315
 30
0.0
 11
240.2891878970666
 21
120.8907830954877
 31
0.0
  0
POLYLINE
  5
45A
330
1F
100
AcDbEntity
  8
LINEE VISIBILI 2D
100
AcDb2dPolyline
 66
     1
 10
0.0
 20
0.0
 30
0.0
  0
VERTEX
  5
45C
330
45A
100
AcDbEntity
  8
LINEE VISIBILI 2D
100
AcDbVertex
100
AcDb2dVertex
 10
240.2891878970666
 20
120.8907830954877
 30
0.0
  0
VERTEX
  5
45D
330
45A
100
AcDbEntity
  8
LINEE VISIBILI 2D
100
AcDbVertex
100
AcDb2dVertex
 10
240.3316859123555
 20
120.8966817932747
 30
0.0
  0
VERTEX
  5
45E
330
45A
100
AcDbEntity
  8
LINEE VISIBILI 2D
100
AcDbVertex
100
AcDb2dVertex
 10
240.3702237046465
 20
120.903032843472
 30
0.0
  0
VERTEX
  5
45F
330
45A
100
AcDbEntity
  8
LINEE VISIBILI 2D
100
AcDbVertex
100
AcDb2dVertex
 10
240.3877048059088
 20
120.9063625804966
 30
0.0
  0
VERTEX
  5
460
330
45A
100
AcDbEntity
  8
LINEE VISIBILI 2D
100
AcDbVertex
100
AcDb2dVertex
 10
240.403834846425
 20
120.9097845510576
 30
0.0
  0
VERTEX
  5
461
330
45A
100
AcDbEntity
  8
LINEE VISIBILI 2D
100
AcDbVertex
100
AcDb2dVertex
 10
240.4184986447011
 20
120.9132893695364
 30
0.0
  0
VERTEX
  5
462
330
45A
100
AcDbEntity
  8
LINEE VISIBILI 2D
100
AcDbVertex
100
AcDb2dVertex
 10
240.4252461464032
 20
120.9150696066005
 30
0.0
  0
VERTEX
  5
463
330
45A
100
AcDbEntity
  8
LINEE VISIBILI 2D
100
AcDbVertex
100
AcDb2dVertex
 10
240.4315864524109
 20
120.9168665332304
 30
0.0
  0
VERTEX
  5
464
330
45A
100
AcDbEntity
  8
LINEE VISIBILI 2D
100
AcDbVertex
100
AcDb2dVertex
 10
240.437506981282
 20
120.9186786732027
 30
0.0
  0
VERTEX
  5
465
330
45A
100
AcDbEntity
  8
LINEE VISIBILI 2D
100
AcDbVertex
100
AcDb2dVertex
 10
240.4429957099856
 20
120.9205044903677
 30
0.0
  0
VERTEX
  5
466
330
45A
100
AcDbEntity
  8
LINEE VISIBILI 2D
100
AcDbVertex
100
AcDb2dVertex
 10
240.4480412270095
 20
120.9223423921568
 30
0.0
  0
VERTEX
  5
467
330
45A
100
AcDbEntity
  8
LINEE VISIBILI 2D
100
AcDbVertex
100
AcDb2dVertex
 10
240.450394395004
 20
120.9232653626293
 30
0.0
  0
VERTEX
  5
468
330
45A
100
AcDbEntity
  8
LINEE VISIBILI 2D
100
AcDbVertex
100
AcDb2dVertex
 10
240.4526327840133
 20
120.924190733468
 30
0.0
  0
VERTEX
  5
469
330
45A
100
AcDbEntity
  8
LINEE VISIBILI 2D
100
AcDbVertex
100
AcDb2dVertex
 10
240.4547551622862
 20
120.9251182915243
 30
0.0
  0
VERTEX
  5
46A
330
45A
100
AcDbEntity
  8
LINEE VISIBILI 2D
100
AcDbVertex
100
AcDb2dVertex
 10
240.4567603456236
 20
120.9260478209168
 30
0.0
  0
VERTEX
  5
46B
330
45A
100
AcDbEntity
  8
LINEE VISIBILI 2D
100
AcDbVertex
100
AcDb2dVertex
 10
240.4586471988047
 20
120.9269791031822
 30
0.0
  0
VERTEX
  5
46C
330
45A
100
AcDbEntity
  8
LINEE VISIBILI 2D
100
AcDbVertex
100
AcDb2dVertex
 10
240.4604146369693
 20
120.9279119174325
 30
0.0
  0
VERTEX
  5
46D
330
45A
100
AcDbEntity
  8
LINEE VISIBILI 2D
100
AcDbVertex
100
AcDb2dVertex
 10
240.4620616269514
 20
120.9288460405154
 30
0.0
  0
VERTEX
  5
46E
330
45A
100
AcDbEntity
  8
LINEE VISIBILI 2D
100
AcDbVertex
100
AcDb2dVertex
 10
240.4635871885639
 20
120.9297812471799
 30
0.0
  0
VERTEX
  5
46F
330
45A
100
AcDbEntity
  8
LINEE VISIBILI 2D
100
AcDbVertex
100
AcDb2dVertex
 10
240.4649903958283
 20
120.9307173102462
 30
0.0
  0
VERTEX
  5
470
330
45A
100
AcDbEntity
  8
LINEE VISIBILI 2D
100
AcDbVertex
100
AcDb2dVertex
 10
240.466270378151
 20
120.9316540007788
 30
0.0
  0
VERTEX
  5
471
330
45A
100
AcDbEntity
  8
LINEE VISIBILI 2D
100
AcDbVertex
100
AcDb2dVertex
 10
240.4674263214377
 20
120.9325910882647
 30
0.0
  0
VERTEX
  5
472
330
45A
100
AcDbEntity
  8
LINEE VISIBILI 2D
100
AcDbVertex
100
AcDb2dVertex
 10
240.4684574691503
 20
120.9335283407932
 30
0.0
  0
VERTEX
  5
473
330
45A
100
AcDbEntity
  8
LINEE VISIBILI 2D
100
AcDbVertex
100
AcDb2dVertex
 10
240.4693631232971
 20
120.9344655252408
 30
0.0
  0
VERTEX
  5
474
330
45A
100
AcDbEntity
  8
LINEE VISIBILI 2D
100
AcDbVertex
100
AcDb2dVertex
 10
240.4701426453593
 20
120.9354024074573
 30
0.0
  0
VERTEX
  5
475
330
45A
100
AcDbEntity
  8
LINEE VISIBILI 2D
100
AcDbVertex
100
AcDb2dVertex
 10
240.4707954571491
 20
120.9363387524555
 30
0.0
  0
VERTEX
  5
476
330
45A
100
AcDbEntity
  8
LINEE VISIBILI 2D
100
AcDbVertex
100
AcDb2dVertex
 10
240.4713210415969
 20
120.9372743246028
 30
0.0
  0
VERTEX
  5
477
330
45A
100
AcDbEntity
  8
LINEE VISIBILI 2D
100
AcDbVertex
100
AcDb2dVertex
 10
240.4717189434676
 20
120.9382088878148
 30
0.0
  0
VERTEX
  5
478
330
45A
100
AcDbEntity
  8
LINEE VISIBILI 2D
100
AcDbVertex
100
AcDb2dVertex
 10
240.4719887700029
 20
120.9391422057502
 30
0.0
  0
VERTEX
  5
479
330
45A
100
AcDbEntity
  8
LINEE VISIBILI 2D
100
AcDbVertex
100
AcDb2dVertex
 10
240.4721301914886
 20
120.9400740420074
 30
0.0
  0
VERTEX
  5
47A
330
45A
100
AcDbEntity
  8
LINEE VISIBILI 2D
100
AcDbVertex
100
AcDb2dVertex
 10
240.4721429417454
 20
120.9410041603219
 30
0.0
  0
VERTEX
  5
47B
330
45A
100
AcDbEntity
  8
LINEE VISIBILI 2D
100
AcDbVertex
100
AcDb2dVertex
 10
240.4720268185415
 20
120.9419323247639
 30
0.0
  0
VERTEX
  5
47C
330
45A
100
AcDbEntity
  8
LINEE VISIBILI 2D
100
AcDbVertex
100
AcDb2dVertex
 10
240.4717816839266
 20
120.942858299937
 30
0.0
  0
VERTEX
  5
47D
330
45A
100
AcDbEntity
  8
LINEE VISIBILI 2D
100
AcDbVertex
100
AcDb2dVertex
 10
240.4714074644866
 20
120.9437818511758
 30
0.0
  0
VERTEX
  5
47E
330
45A
100
AcDbEntity
  8
LINEE VISIBILI 2D
100
AcDbVertex
100
AcDb2dVertex
 10
240.4709041515172
 20
120.9447027447435
 30
0.0
  0
VERTEX
  5
47F
330
45A
100
AcDbEntity
  8
LINEE VISIBILI 2D
100
AcDbVertex
100
AcDb2dVertex
 10
240.470271801117
 20
120.9456207480291
 30
0.0
  0
VERTEX
  5
480
330
45A
100
AcDbEntity
  8
LINEE VISIBILI 2D
100
AcDbVertex
100
AcDb2dVertex
 10
240.4695105341998
 20
120.9465356297428
 30
0.0
  0
VERTEX
  5
481
330
45A
100
AcDbEntity
  8
LINEE VISIBILI 2D
100
AcDbVertex
100
AcDb2dVertex
 10
240.4686205364241
 20
120.9474471601102
 30
0.0
  0
VERTEX
  5
482
330
45A
100
AcDbEntity
  8
LINEE VISIBILI 2D
100
AcDbVertex
100
AcDb2dVertex
 10
240.4676020580435
 20
120.9483551110647
 30
0.0
  0
VERTEX
  5
483
330
45A
100
AcDbEntity
  8
LINEE VISIBILI 2D
100
AcDbVertex
100
AcDb2dVertex
 10
240.4664554136738
 20
120.9492592564372
 30
0.0
  0
VERTEX
  5
484
330
45A
100
AcDbEntity
  8
LINEE VISIBILI 2D
100
AcDbVertex
100
AcDb2dVertex
 10
240.4651809819816
 20
120.9501593721447
 30
0.0
  0
VERTEX
  5
485
330
45A
100
AcDbEntity
  8
LINEE VISIBILI 2D
100
AcDbVertex
100
AcDb2dVertex
 10
240.4637792052914
 20
120.9510552363742
 30
0.0
  0
VERTEX
  5
486
330
45A
100
AcDbEntity
  8
LINEE VISIBILI 2D
100
AcDbVertex
100
AcDb2dVertex
 10
240.4622505891143
 20
120.9519466297646
 30
0.0
  0
VERTEX
  5
487
330
45A
100
AcDbEntity
  8
LINEE VISIBILI 2D
100
AcDbVertex
100
AcDb2dVertex
 10
240.4605957015987
 20
120.9528333355851
 30
0.0
  0
VERTEX
  5
488
330
45A
100
AcDbEntity
  8
LINEE VISIBILI 2D
100
AcDbVertex
100
AcDb2dVertex
 10
240.4588151729039
 20
120.9537151399098
 30
0.0
  0
VERTEX
  5
489
330
45A
100
AcDbEntity
  8
LINEE VISIBILI 2D
100
AcDbVertex
100
AcDb2dVertex
 10
240.4569096944979
 20
120.9545918317874
 30
0.0
  0
VERTEX
  5
48A
330
45A
100
AcDbEntity
  8
LINEE VISIBILI 2D
100
AcDbVertex
100
AcDb2dVertex
 10
240.4548800183812
 20
120.9554632034078
 30
0.0
  0
VERTEX
  5
48B
330
45A
100
AcDbEntity
  8
LINEE VISIBILI 2D
100
AcDbVertex
100
AcDb2dVertex
 10
240.4527269562391
 20
120.9563290502631
 30
0.0
  0
VERTEX
  5
48C
330
45A
100
AcDbEntity
  8
LINEE VISIBILI 2D
100
AcDbVertex
100
AcDb2dVertex
 10
240.4504513785221
 20
120.9571891713047
 30
0.0
  0
VERTEX
  5
48D
330
45A
100
AcDbEntity
  8
LINEE VISIBILI 2D
100
AcDbVertex
100
AcDb2dVertex
 10
240.4455364460035
 20
120.9588914499497
 30
0.0
  0
VERTEX
  5
48E
330
45A
100
AcDbEntity
  8
LINEE VISIBILI 2D
100
AcDbVertex
100
AcDb2dVertex
 10
240.4401433205823
 20
120.9605685057505
 30
0.0
  0
VERTEX
  5
48F
330
45A
100
AcDbEntity
  8
LINEE VISIBILI 2D
100
AcDbVertex
100
AcDb2dVertex
 10
240.4342809723822
 20
120.9622188695752
 30
0.0
  0
VERTEX
  5
490
330
45A
100
AcDbEntity
  8
LINEE VISIBILI 2D
100
AcDbVertex
100
AcDb2dVertex
 10
240.4279592014049
 20
120.9638411407725
 30
0.0
  0
VERTEX
  5
491
330
45A
100
AcDbEntity
  8
LINEE VISIBILI 2D
100
AcDbVertex
100
AcDb2dVertex
 10
240.4211885936093
 20
120.9654339907916
 30
0.0
  0
VERTEX
  5
492
330
45A
100
AcDbEntity
  8
LINEE VISIBILI 2D
100
AcDbVertex
100
AcDb2dVertex
 10
240.4139804739298
 20
120.9669961663822
 30
0.0
  0
VERTEX
  5
493
330
45A
100
AcDbEntity
  8
LINEE VISIBILI 2D
100
AcDbVertex
100
AcDb2dVertex
 10
240.3983003933361
 20
120.9700238739667
 30
0.0
  0
VERTEX
  5
494
330
45A
100
AcDbEntity
  8
LINEE VISIBILI 2D
100
AcDbVertex
100
AcDb2dVertex
 10
240.3810223982415
 20
120.9729158378048
 30
0.0
  0
VERTEX
  5
495
330
45A
100
AcDbEntity
  8
LINEE VISIBILI 2D
100
AcDbVertex
100
AcDb2dVertex
 10
240.3421268441326
 20
120.9782655378015
 30
0.0
  0
VERTEX
  5
496
330
45A
100
AcDbEntity
  8
LINEE VISIBILI 2D
100
AcDbVertex
100
AcDb2dVertex
 10
240.298257709259
 20
120.9830048559181
 30
0.0
  0
VERTEX
  5
497
330
45A
100
AcDbEntity
  8
LINEE VISIBILI 2D
100
AcDbVertex
100
AcDb2dVertex
 10
240.2504280740713
 20
120.987114548117
 30
0.0
  0
VERTEX
  5
498
330
45A
100
AcDbEntity
  8
LINEE VISIBILI 2D
100
AcDbVertex
100
AcDb2dVertex
 10
240.1996477356817
 20
120.9905947380836
 30
0.0
  0
SEQEND
  5
45B
330
45A
100
AcDbEntity
  8
LINEE VISIBILI 2D
  0
LINE
  5
499
330
1F
100
AcDbEntity
  8
LINEE VISIBILI 2D
100
AcDbLine
 10
240.1996477356817
 20
120.9905947380836
 30
0.0
 11
239.1129755808195
 21
120.9627864591082
 31
0.0
  0
ARC
  5
49A
330
1F
100
AcDbEntity
  8
LINEE VISIBILI 2D
100
AcDbCircle
 10
240.53458317815
 20
117.3397163832029
 30
0.0
 40
0.1917201304337453
100
AcDbArc
 50
259.371623079435
 51
318.6981514179142
  0
LINE
  5
49B
330
1F
100
AcDbEntity
  8
LINEE VISIBILI 2D
100
AcDbLine
 10
240.4992226725299
 20
117.1512853797671
 30
0.0
 11
239.4130029592668
 21
117.1202274731998
 31
0.0
  0
LINE
  5
49C
330
1F
100
AcDbEntity
  8
LINEE VISIBILI 2D
100
AcDbLine
 10
239.4130029592668
 20
117.1202274731998
 30
0.0
 11
239.1447391493174
 21
117.1693866031598
 31
0.0
  0
POLYLINE
  5
49D
330
1F
100
AcDbEntity
  8
LINEE VISIBILI 2D
100
AcDb2dPolyline
 66
     1
 10
0.0
 20
0.0
 30
0.0
  0
VERTEX
  5
49F
330
49D
100
AcDbEntity
  8
LINEE VISIBILI 2D
100
AcDbVertex
100
AcDb2dVertex
 10
344.0034807339596
 20
114.541778042045
 30
0.0
  0
VERTEX
  5
4A0
330
49D
100
AcDbEntity
  8
LINEE VISIBILI 2D
100
AcDbVertex
100
AcDb2dVertex
 10
344.0184781393936
 20
114.5458915689658
 30
0.0
  0
VERTEX
  5
4A1
330
49D
100
AcDbEntity
  8
LINEE VISIBILI 2D
100
AcDbVertex
100
AcDb2dVertex
 10
344.0254291051203
 20
114.5480116873445
 30
0.0
  0
VERTEX
  5
4A2
330
49D
100
AcDbEntity
  8
LINEE VISIBILI 2D
100
AcDbVertex
100
AcDb2dVertex
 10
344.0319937763111
 20
114.5501730213904
 30
0.0
  0
VERTEX
  5
4A3
330
49D
100
AcDbEntity
  8
LINEE VISIBILI 2D
100
AcDbVertex
100
AcDb2dVertex
 10
344.0381564722326
 20
114.5523746795422
 30
0.0
  0
VERTEX
  5
4A4
330
49D
100
AcDbEntity
  8
LINEE VISIBILI 2D
100
AcDbVertex
100
AcDb2dVertex
 10
344.0439017132914
 20
114.5546156675392
 30
0.0
  0
VERTEX
  5
4A5
330
49D
100
AcDbEntity
  8
LINEE VISIBILI 2D
100
AcDbVertex
100
AcDb2dVertex
 10
344.0466130194488
 20
114.5557505711287
 30
0.0
  0
VERTEX
  5
4A6
330
49D
100
AcDbEntity
  8
LINEE VISIBILI 2D
100
AcDbVertex
100
AcDb2dVertex
 10
344.0492142763302
 20
114.5568948871849
 30
0.0
  0
VERTEX
  5
4A7
330
49D
100
AcDbEntity
  8
LINEE VISIBILI 2D
100
AcDbVertex
100
AcDb2dVertex
 10
344.0517036304349
 20
114.5580484620585
 30
0.0
  0
VERTEX
  5
4A8
330
49D
100
AcDbEntity
  8
LINEE VISIBILI 2D
100
AcDbVertex
100
AcDb2dVertex
 10
344.0540792514653
 20
114.5592111355254
 30
0.0
  0
VERTEX
  5
4A9
330
49D
100
AcDbEntity
  8
LINEE VISIBILI 2D
100
AcDbVertex
100
AcDb2dVertex
 10
344.0563393341684
 20
114.5603827407863
 30
0.0
  0
VERTEX
  5
4AA
330
49D
100
AcDbEntity
  8
LINEE VISIBILI 2D
100
AcDbVertex
100
AcDb2dVertex
 10
344.0584821001873
 20
114.5615631044728
 30
0.0
  0
VERTEX
  5
4AB
330
49D
100
AcDbEntity
  8
LINEE VISIBILI 2D
100
AcDbVertex
100
AcDb2dVertex
 10
344.060505799925
 20
114.5627520466625
 30
0.0
  0
VERTEX
  5
4AC
330
49D
100
AcDbEntity
  8
LINEE VISIBILI 2D
100
AcDbVertex
100
AcDb2dVertex
 10
344.0624087144136
 20
114.5639493809005
 30
0.0
  0
VERTEX
  5
4AD
330
49D
100
AcDbEntity
  8
LINEE VISIBILI 2D
100
AcDbVertex
100
AcDb2dVertex
 10
344.0641891571878
 20
114.5651549142306
 30
0.0
  0
VERTEX
  5
4AE
330
49D
100
AcDbEntity
  8
LINEE VISIBILI 2D
100
AcDbVertex
100
AcDb2dVertex
 10
344.0658454761599
 20
114.5663684472335
 30
0.0
  0
VERTEX
  5
4AF
330
49D
100
AcDbEntity
  8
LINEE VISIBILI 2D
100
AcDbVertex
100
AcDb2dVertex
 10
344.0673760554919
 20
114.5675897740741
 30
0.0
  0
VERTEX
  5
4B0
330
49D
100
AcDbEntity
  8
LINEE VISIBILI 2D
100
AcDbVertex
100
AcDb2dVertex
 10
344.0687793174642
 20
114.568818682557
 30
0.0
  0
VERTEX
  5
4B1
330
49D
100
AcDbEntity
  8
LINEE VISIBILI 2D
100
AcDbVertex
100
AcDb2dVertex
 10
344.0700537243341
 20
114.5700549541905
 30
0.0
  0
VERTEX
  5
4B2
330
49D
100
AcDbEntity
  8
LINEE VISIBILI 2D
100
AcDbVertex
100
AcDb2dVertex
 10
344.0711977801835
 20
114.5712983642598
 30
0.0
  0
VERTEX
  5
4B3
330
49D
100
AcDbEntity
  8
LINEE VISIBILI 2D
100
AcDbVertex
100
AcDb2dVertex
 10
344.0722100327523
 20
114.5725486819081
 30
0.0
  0
VERTEX
  5
4B4
330
49D
100
AcDbEntity
  8
LINEE VISIBILI 2D
100
AcDbVertex
100
AcDb2dVertex
 10
344.0730890752525
 20
114.5738056702277
 30
0.0
  0
VERTEX
  5
4B5
330
49D
100
AcDbEntity
  8
LINEE VISIBILI 2D
100
AcDbVertex
100
AcDb2dVertex
 10
344.073833548161
 20
114.5750690863589
 30
0.0
  0
VERTEX
  5
4B6
330
49D
100
AcDbEntity
  8
LINEE VISIBILI 2D
100
AcDbVertex
100
AcDb2dVertex
 10
344.0744421409875
 20
114.5763386815981
 30
0.0
  0
VERTEX
  5
4B7
330
49D
100
AcDbEntity
  8
LINEE VISIBILI 2D
100
AcDbVertex
100
AcDb2dVertex
 10
344.0749135940131
 20
114.5776142015151
 30
0.0
  0
VERTEX
  5
4B8
330
49D
100
AcDbEntity
  8
LINEE VISIBILI 2D
100
AcDbVertex
100
AcDb2dVertex
 10
344.0752466999972
 20
114.5788953860788
 30
0.0
  0
VERTEX
  5
4B9
330
49D
100
AcDbEntity
  8
LINEE VISIBILI 2D
100
AcDbVertex
100
AcDb2dVertex
 10
344.0754403058489
 20
114.5801819697922
 30
0.0
  0
VERTEX
  5
4BA
330
49D
100
AcDbEntity
  8
LINEE VISIBILI 2D
100
AcDbVertex
100
AcDb2dVertex
 10
344.0754933142583
 20
114.5814736818353
 30
0.0
  0
VERTEX
  5
4BB
330
49D
100
AcDbEntity
  8
LINEE VISIBILI 2D
100
AcDbVertex
100
AcDb2dVertex
 10
344.0754046852867
 20
114.5827702462179
 30
0.0
  0
VERTEX
  5
4BC
330
49D
100
AcDbEntity
  8
LINEE VISIBILI 2D
100
AcDbVertex
100
AcDb2dVertex
 10
344.0751734379088
 20
114.5840713819396
 30
0.0
  0
VERTEX
  5
4BD
330
49D
100
AcDbEntity
  8
LINEE VISIBILI 2D
100
AcDbVertex
100
AcDb2dVertex
 10
344.0747986515074
 20
114.5853768031594
 30
0.0
  0
VERTEX
  5
4BE
330
49D
100
AcDbEntity
  8
LINEE VISIBILI 2D
100
AcDbVertex
100
AcDb2dVertex
 10
344.0742794673131
 20
114.5866862193728
 30
0.0
  0
VERTEX
  5
4BF
330
49D
100
AcDbEntity
  8
LINEE VISIBILI 2D
100
AcDbVertex
100
AcDb2dVertex
 10
344.0736150897897
 20
114.5879993355971
 30
0.0
  0
VERTEX
  5
4C0
330
49D
100
AcDbEntity
  8
LINEE VISIBILI 2D
100
AcDbVertex
100
AcDb2dVertex
 10
344.0728047879586
 20
114.5893158525651
 30
0.0
  0
VERTEX
  5
4C1
330
49D
100
AcDbEntity
  8
LINEE VISIBILI 2D
100
AcDbVertex
100
AcDb2dVertex
 10
344.0718478966618
 20
114.5906354669263
 30
0.0
  0
VERTEX
  5
4C2
330
49D
100
AcDbEntity
  8
LINEE VISIBILI 2D
100
AcDbVertex
100
AcDb2dVertex
 10
344.0707438177585
 20
114.5919578714547
 30
0.0
  0
VERTEX
  5
4C3
330
49D
100
AcDbEntity
  8
LINEE VISIBILI 2D
100
AcDbVertex
100
AcDb2dVertex
 10
344.0694920212522
 20
114.5932827552652
 30
0.0
  0
VERTEX
  5
4C4
330
49D
100
AcDbEntity
  8
LINEE VISIBILI 2D
100
AcDbVertex
100
AcDb2dVertex
 10
344.0680920463486
 20
114.5946098040362
 30
0.0
  0
VERTEX
  5
4C5
330
49D
100
AcDbEntity
  8
LINEE VISIBILI 2D
100
AcDbVertex
100
AcDb2dVertex
 10
344.0665435024365
 20
114.5959387002387
 30
0.0
  0
VERTEX
  5
4C6
330
49D
100
AcDbEntity
  8
LINEE VISIBILI 2D
100
AcDbVertex
100
AcDb2dVertex
 10
344.0648460699937
 20
114.5972691233718
 30
0.0
  0
VERTEX
  5
4C7
330
49D
100
AcDbEntity
  8
LINEE VISIBILI 2D
100
AcDbVertex
100
AcDb2dVertex
 10
344.0629995014124
 20
114.5986007502047
 30
0.0
  0
VERTEX
  5
4C8
330
49D
100
AcDbEntity
  8
LINEE VISIBILI 2D
100
AcDbVertex
100
AcDb2dVertex
 10
344.0610036217438
 20
114.5999332550236
 30
0.0
  0
VERTEX
  5
4C9
330
49D
100
AcDbEntity
  8
LINEE VISIBILI 2D
100
AcDbVertex
100
AcDb2dVertex
 10
344.0588583293577
 20
114.6012663098841
 30
0.0
  0
VERTEX
  5
4CA
330
49D
100
AcDbEntity
  8
LINEE VISIBILI 2D
100
AcDbVertex
100
AcDb2dVertex
 10
344.0565635965181
 20
114.6025995848689
 30
0.0
  0
VERTEX
  5
4CB
330
49D
100
AcDbEntity
  8
LINEE VISIBILI 2D
100
AcDbVertex
100
AcDb2dVertex
 10
344.0541194698684
 20
114.6039327483491
 30
0.0
  0
VERTEX
  5
4CC
330
49D
100
AcDbEntity
  8
LINEE VISIBILI 2D
100
AcDbVertex
100
AcDb2dVertex
 10
344.0515260708302
 20
114.6052654672506
 30
0.0
  0
VERTEX
  5
4CD
330
49D
100
AcDbEntity
  8
LINEE VISIBILI 2D
100
AcDbVertex
100
AcDb2dVertex
 10
344.0487835959094
 20
114.6065974073229
 30
0.0
  0
VERTEX
  5
4CE
330
49D
100
AcDbEntity
  8
LINEE VISIBILI 2D
100
AcDbVertex
100
AcDb2dVertex
 10
344.0458923169123
 20
114.6079282334126
 30
0.0
  0
VERTEX
  5
4CF
330
49D
100
AcDbEntity
  8
LINEE VISIBILI 2D
100
AcDbVertex
100
AcDb2dVertex
 10
344.0428525810653
 20
114.6092576097375
 30
0.0
  0
VERTEX
  5
4D0
330
49D
100
AcDbEntity
  8
LINEE VISIBILI 2D
100
AcDbVertex
100
AcDb2dVertex
 10
344.0396648110458
 20
114.6105852001654
 30
0.0
  0
VERTEX
  5
4D1
330
49D
100
AcDbEntity
  8
LINEE VISIBILI 2D
100
AcDbVertex
100
AcDb2dVertex
 10
344.0328472359527
 20
114.6132336787253
 30
0.0
  0
VERTEX
  5
4D2
330
49D
100
AcDbEntity
  8
LINEE VISIBILI 2D
100
AcDbVertex
100
AcDb2dVertex
 10
344.0254444771562
 20
114.6158709836665
 30
0.0
  0
VERTEX
  5
4D3
330
49D
100
AcDbEntity
  8
LINEE VISIBILI 2D
100
AcDbVertex
100
AcDb2dVertex
 10
344.0174626132793
 20
114.618494441925
 30
0.0
  0
VERTEX
  5
4D4
330
49D
100
AcDbEntity
  8
LINEE VISIBILI 2D
100
AcDbVertex
100
AcDb2dVertex
 10
344.0089089002993
 20
114.6211014017907
 30
0.0
  0
VERTEX
  5
4D5
330
49D
100
AcDbEntity
  8
LINEE VISIBILI 2D
100
AcDbVertex
100
AcDb2dVertex
 10
343.9901207016105
 20
114.6262553796421
 30
0.0
  0
VERTEX
  5
4D6
330
49D
100
AcDbEntity
  8
LINEE VISIBILI 2D
100
AcDbVertex
100
AcDb2dVertex
 10
343.9691605067638
 20
114.6313124655635
 30
0.0
  0
VERTEX
  5
4D7
330
49D
100
AcDbEntity
  8
LINEE VISIBILI 2D
100
AcDbVertex
100
AcDb2dVertex
 10
343.9461258019588
 20
114.6362531006515
 30
0.0
  0
VERTEX
  5
4D8
330
49D
100
AcDbEntity
  8
LINEE VISIBILI 2D
100
AcDbVertex
100
AcDb2dVertex
 10
343.9211294651368
 20
114.6410588681938
 30
0.0
  0
VERTEX
  5
4D9
330
49D
100
AcDbEntity
  8
LINEE VISIBILI 2D
100
AcDbVertex
100
AcDb2dVertex
 10
343.8657696519709
 20
114.6501991491833
 30
0.0
  0
VERTEX
  5
4DA
330
49D
100
AcDbEntity
  8
LINEE VISIBILI 2D
100
AcDbVertex
100
AcDb2dVertex
 10
343.8042203651394
 20
114.6586164483706
 30
0.0
  0
VERTEX
  5
4DB
330
49D
100
AcDbEntity
  8
LINEE VISIBILI 2D
100
AcDbVertex
100
AcDb2dVertex
 10
343.737737376537
 20
114.6662227911264
 30
0.0
  0
VERTEX
  5
4DC
330
49D
100
AcDbEntity
  8
LINEE VISIBILI 2D
100
AcDbVertex
100
AcDb2dVertex
 10
343.6676216170567
 20
114.6729608784009
 30
0.0
  0
VERTEX
  5
4DD
330
49D
100
AcDbEntity
  8
LINEE VISIBILI 2D
100
AcDbVertex
100
AcDb2dVertex
 10
343.5215339538075
 20
114.6837509520359
 30
0.0
  0
SEQEND
  5
49E
330
49D
100
AcDbEntity
  8
LINEE VISIBILI 2D
  0
ARC
  5
4DE
330
1F
100
AcDbEntity
  8
LINEE VISIBILI 2D
100
AcDbCircle
 10
343.1013204028745
 20
109.3764314302668
 30
0.0
 40
5.323928994130104
100
AcDbArc
 50
85.47298019762358
 51
98.3285448317469
  0
POLYLINE
  5
4DF
330
1F
100
AcDbEntity
  8
LINEE VISIBILI 2D
100
AcDb2dPolyline
 66
     1
 10
0.0
 20
0.0
 30
0.0
  0
VERTEX
  5
4E1
330
4DF
100
AcDbEntity
  8
LINEE VISIBILI 2D
100
AcDbVertex
100
AcDb2dVertex
 10
342.3301537277067
 20
114.6442129266512
 30
0.0
  0
VERTEX
  5
4E2
330
4DF
100
AcDbEntity
  8
LINEE VISIBILI 2D
100
AcDbVertex
100
AcDb2dVertex
 10
342.3150173673971
 20
114.6401199880568
 30
0.0
  0
VERTEX
  5
4E3
330
4DF
100
AcDbEntity
  8
LINEE VISIBILI 2D
100
AcDbVertex
100
AcDb2dVertex
 10
342.3079905222745
 20
114.638009811468
 30
0.0
  0
VERTEX
  5
4E4
330
4DF
100
AcDbEntity
  8
LINEE VISIBILI 2D
100
AcDbVertex
100
AcDb2dVertex
 10
342.3013457963239
 20
114.6358581435346
 30
0.0
  0
VERTEX
  5
4E5
330
4DF
100
AcDbEntity
  8
LINEE VISIBILI 2D
100
AcDbVertex
100
AcDb2dVertex
 10
342.2950989616464
 20
114.6336658448803
 30
0.0
  0
VERTEX
  5
4E6
330
4DF
100
AcDbEntity
  8
LINEE VISIBILI 2D
100
AcDbVertex
100
AcDb2dVertex
 10
342.2892656072613
 20
114.6314338787026
 30
0.0
  0
VERTEX
  5
4E7
330
4DF
100
AcDbEntity
  8
LINEE VISIBILI 2D
100
AcDbVertex
100
AcDb2dVertex
 10
342.2838610841397
 20
114.6291633121594
 30
0.0
  0
VERTEX
  5
4E8
330
4DF
100
AcDbEntity
  8
LINEE VISIBILI 2D
100
AcDbVertex
100
AcDb2dVertex
 10
342.2813243524865
 20
114.6280139159143
 30
0.0
  0
VERTEX
  5
4E9
330
4DF
100
AcDbEntity
  8
LINEE VISIBILI 2D
100
AcDbVertex
100
AcDb2dVertex
 10
342.2789004485875
 20
114.6268553173492
 30
0.0
  0
VERTEX
  5
4EA
330
4DF
100
AcDbEntity
  8
LINEE VISIBILI 2D
100
AcDbVertex
100
AcDb2dVertex
 10
342.2765911989238
 20
114.6256876794624
 30
0.0
  0
VERTEX
  5
4EB
330
4DF
100
AcDbEntity
  8
LINEE VISIBILI 2D
100
AcDbVertex
100
AcDb2dVertex
 10
342.2743984042488
 20
114.6245111718535
 30
0.0
  0
VERTEX
  5
4EC
330
4DF
100
AcDbEntity
  8
LINEE VISIBILI 2D
100
AcDbVertex
100
AcDb2dVertex
 10
342.2723238377217
 20
114.6233259707147
 30
0.0
  0
VERTEX
  5
4ED
330
4DF
100
AcDbEntity
  8
LINEE VISIBILI 2D
100
AcDbVertex
100
AcDb2dVertex
 10
342.2703692430326
 20
114.6221322588139
 30
0.0
  0
VERTEX
  5
4EE
330
4DF
100
AcDbEntity
  8
LINEE VISIBILI 2D
100
AcDbVertex
100
AcDb2dVertex
 10
342.268536332521
 20
114.62093022547
 30
0.0
  0
VERTEX
  5
4EF
330
4DF
100
AcDbEntity
  8
LINEE VISIBILI 2D
100
AcDbVertex
100
AcDb2dVertex
 10
342.2668267852903
 20
114.6197200665199
 30
0.0
  0
VERTEX
  5
4F0
330
4DF
100
AcDbEntity
  8
LINEE VISIBILI 2D
100
AcDbVertex
100
AcDb2dVertex
 10
342.2652422453228
 20
114.618501984277
 30
0.0
  0
VERTEX
  5
4F1
330
4DF
100
AcDbEntity
  8
LINEE VISIBILI 2D
100
AcDbVertex
100
AcDb2dVertex
 10
342.2637843195979
 20
114.6172761874816
 30
0.0
  0
VERTEX
  5
4F2
330
4DF
100
AcDbEntity
  8
LINEE VISIBILI 2D
100
AcDbVertex
100
AcDb2dVertex
 10
342.2624545762149
 20
114.6160428912429
 30
0.0
  0
VERTEX
  5
4F3
330
4DF
100
AcDbEntity
  8
LINEE VISIBILI 2D
100
AcDbVertex
100
AcDb2dVertex
 10
342.2612545425264
 20
114.6148023169709
 30
0.0
  0
VERTEX
  5
4F4
330
4DF
100
AcDbEntity
  8
LINEE VISIBILI 2D
100
AcDbVertex
100
AcDb2dVertex
 10
342.2601857032839
 20
114.6135546923018
 30
0.0
  0
VERTEX
  5
4F5
330
4DF
100
AcDbEntity
  8
LINEE VISIBILI 2D
100
AcDbVertex
100
AcDb2dVertex
 10
342.2592494987989
 20
114.6123002510123
 30
0.0
  0
VERTEX
  5
4F6
330
4DF
100
AcDbEntity
  8
LINEE VISIBILI 2D
100
AcDbVertex
100
AcDb2dVertex
 10
342.2584473231236
 20
114.6110392329265
 30
0.0
  0
VERTEX
  5
4F7
330
4DF
100
AcDbEntity
  8
LINEE VISIBILI 2D
100
AcDbVertex
100
AcDb2dVertex
 10
342.2577805222549
 20
114.6097718838134
 30
0.0
  0
VERTEX
  5
4F8
330
4DF
100
AcDbEntity
  8
LINEE VISIBILI 2D
100
AcDbVertex
100
AcDb2dVertex
 10
342.2572503923644
 20
114.6084984552751
 30
0.0
  0
VERTEX
  5
4F9
330
4DF
100
AcDbEntity
  8
LINEE VISIBILI 2D
100
AcDbVertex
100
AcDb2dVertex
 10
342.2568581780577
 20
114.607219204627
 30
0.0
  0
VERTEX
  5
4FA
330
4DF
100
AcDbEntity
  8
LINEE VISIBILI 2D
100
AcDbVertex
100
AcDb2dVertex
 10
342.2566050706679
 20
114.6059343947678
 30
0.0
  0
VERTEX
  5
4FB
330
4DF
100
AcDbEntity
  8
LINEE VISIBILI 2D
100
AcDbVertex
100
AcDb2dVertex
 10
342.2564922065862
 20
114.6046442940417
 30
0.0
  0
VERTEX
  5
4FC
330
4DF
100
AcDbEntity
  8
LINEE VISIBILI 2D
100
AcDbVertex
100
AcDb2dVertex
 10
342.2565206656313
 20
114.6033491760915
 30
0.0
  0
VERTEX
  5
4FD
330
4DF
100
AcDbEntity
  8
LINEE VISIBILI 2D
100
AcDbVertex
100
AcDb2dVertex
 10
342.2566914694651
 20
114.6020493197029
 30
0.0
  0
VERTEX
  5
4FE
330
4DF
100
AcDbEntity
  8
LINEE VISIBILI 2D
100
AcDbVertex
100
AcDb2dVertex
 10
342.2570055800538
 20
114.6007450086403
 30
0.0
  0
VERTEX
  5
4FF
330
4DF
100
AcDbEntity
  8
LINEE VISIBILI 2D
100
AcDbVertex
100
AcDb2dVertex
 10
342.2574638981815
 20
114.5994365314738
 30
0.0
  0
VERTEX
  5
500
330
4DF
100
AcDbEntity
  8
LINEE VISIBILI 2D
100
AcDbVertex
100
AcDb2dVertex
 10
342.2580672620165
 20
114.5981241813989
 30
0.0
  0
VERTEX
  5
501
330
4DF
100
AcDbEntity
  8
LINEE VISIBILI 2D
100
AcDbVertex
100
AcDb2dVertex
 10
342.2588164457364
 20
114.5968082560468
 30
0.0
  0
VERTEX
  5
502
330
4DF
100
AcDbEntity
  8
LINEE VISIBILI 2D
100
AcDbVertex
100
AcDb2dVertex
 10
342.2597121582138
 20
114.5954890572877
 30
0.0
  0
VERTEX
  5
503
330
4DF
100
AcDbEntity
  8
LINEE VISIBILI 2D
100
AcDbVertex
100
AcDb2dVertex
 10
342.2607550417654
 20
114.594166891026
 30
0.0
  0
VERTEX
  5
504
330
4DF
100
AcDbEntity
  8
LINEE VISIBILI 2D
100
AcDbVertex
100
AcDb2dVertex
 10
342.2619456709695
 20
114.5928420669884
 30
0.0
  0
VERTEX
  5
505
330
4DF
100
AcDbEntity
  8
LINEE VISIBILI 2D
100
AcDbVertex
100
AcDb2dVertex
 10
342.2632845515515
 20
114.5915148985043
 30
0.0
  0
VERTEX
  5
506
330
4DF
100
AcDbEntity
  8
LINEE VISIBILI 2D
100
AcDbVertex
100
AcDb2dVertex
 10
342.2647721193452
 20
114.5901857022796
 30
0.0
  0
VERTEX
  5
507
330
4DF
100
AcDbEntity
  8
LINEE VISIBILI 2D
100
AcDbVertex
100
AcDb2dVertex
 10
342.2664087393266
 20
114.5888547981643
 30
0.0
  0
VERTEX
  5
508
330
4DF
100
AcDbEntity
  8
LINEE VISIBILI 2D
100
AcDbVertex
100
AcDb2dVertex
 10
342.2681947047294
 20
114.5875225089128
 30
0.0
  0
VERTEX
  5
509
330
4DF
100
AcDbEntity
  8
LINEE VISIBILI 2D
100
AcDbVertex
100
AcDb2dVertex
 10
342.2701302362375
 20
114.5861891599396
 30
0.0
  0
VERTEX
  5
50A
330
4DF
100
AcDbEntity
  8
LINEE VISIBILI 2D
100
AcDbVertex
100
AcDb2dVertex
 10
342.2722154812636
 20
114.584855079068
 30
0.0
  0
VERTEX
  5
50B
330
4DF
100
AcDbEntity
  8
LINEE VISIBILI 2D
100
AcDbVertex
100
AcDb2dVertex
 10
342.2744505133118
 20
114.583520596275
 30
0.0
  0
VERTEX
  5
50C
330
4DF
100
AcDbEntity
  8
LINEE VISIBILI 2D
100
AcDbVertex
100
AcDb2dVertex
 10
342.2768353314264
 20
114.5821860434306
 30
0.0
  0
VERTEX
  5
50D
330
4DF
100
AcDbEntity
  8
LINEE VISIBILI 2D
100
AcDbVertex
100
AcDb2dVertex
 10
342.2793698597311
 20
114.5808517540327
 30
0.0
  0
VERTEX
  5
50E
330
4DF
100
AcDbEntity
  8
LINEE VISIBILI 2D
100
AcDbVertex
100
AcDb2dVertex
 10
342.282053947058
 20
114.5795180629384
 30
0.0
  0
VERTEX
  5
50F
330
4DF
100
AcDbEntity
  8
LINEE VISIBILI 2D
100
AcDbVertex
100
AcDb2dVertex
 10
342.2848873666679
 20
114.5781853060917
 30
0.0
  0
VERTEX
  5
510
330
4DF
100
AcDbEntity
  8
LINEE VISIBILI 2D
100
AcDbVertex
100
AcDb2dVertex
 10
342.2878698160643
 20
114.5768538202482
 30
0.0
  0
VERTEX
  5
511
330
4DF
100
AcDbEntity
  8
LINEE VISIBILI 2D
100
AcDbVertex
100
AcDb2dVertex
 10
342.2910009169017
 20
114.5755239426967
 30
0.0
  0
VERTEX
  5
512
330
4DF
100
AcDbEntity
  8
LINEE VISIBILI 2D
100
AcDbVertex
100
AcDb2dVertex
 10
342.2977071803797
 20
114.5728703626106
 30
0.0
  0
VERTEX
  5
513
330
4DF
100
AcDbEntity
  8
LINEE VISIBILI 2D
100
AcDbVertex
100
AcDb2dVertex
 10
342.3050016158297
 20
114.5702272641328
 30
0.0
  0
VERTEX
  5
514
330
4DF
100
AcDbEntity
  8
LINEE VISIBILI 2D
100
AcDbVertex
100
AcDb2dVertex
 10
342.3128784784822
 20
114.5675973360431
 30
0.0
  0
VERTEX
  5
515
330
4DF
100
AcDbEntity
  8
LINEE VISIBILI 2D
100
AcDbVertex
100
AcDb2dVertex
 10
342.3213308339012
 20
114.5649832485356
 30
0.0
  0
VERTEX
  5
516
330
4DF
100
AcDbEntity
  8
LINEE VISIBILI 2D
100
AcDbVertex
100
AcDb2dVertex
 10
342.3303505778637
 20
114.5623876442058
 30
0.0
  0
VERTEX
  5
517
330
4DF
100
AcDbEntity
  8
LINEE VISIBILI 2D
100
AcDbVertex
100
AcDb2dVertex
 10
342.3399284621722
 20
114.5598131291554
 30
0.0
  0
VERTEX
  5
518
330
4DF
100
AcDbEntity
  8
LINEE VISIBILI 2D
100
AcDbVertex
100
AcDb2dVertex
 10
342.3607161341427
 20
114.5547375567741
 30
0.0
  0
VERTEX
  5
519
330
4DF
100
AcDbEntity
  8
LINEE VISIBILI 2D
100
AcDbVertex
100
AcDb2dVertex
 10
342.3835983206615
 20
114.5497763256173
 30
0.0
  0
VERTEX
  5
51A
330
4DF
100
AcDbEntity
  8
LINEE VISIBILI 2D
100
AcDbVertex
100
AcDb2dVertex
 10
342.4084637590431
 20
114.5449481183071
 30
0.0
  0
VERTEX
  5
51B
330
4DF
100
AcDbEntity
  8
LINEE VISIBILI 2D
100
AcDbVertex
100
AcDb2dVertex
 10
342.4636312255872
 20
114.5357586042519
 30
0.0
  0
VERTEX
  5
51C
330
4DF
100
AcDbEntity
  8
LINEE VISIBILI 2D
100
AcDbVertex
100
AcDb2dVertex
 10
342.5250845191295
 20
114.5272883589923
 30
0.0
  0
VERTEX
  5
51D
330
4DF
100
AcDbEntity
  8
LINEE VISIBILI 2D
100
AcDbVertex
100
AcDb2dVertex
 10
342.5915670466476
 20
114.5196278893509
 30
0.0
  0
VERTEX
  5
51E
330
4DF
100
AcDbEntity
  8
LINEE VISIBILI 2D
100
AcDbVertex
100
AcDb2dVertex
 10
342.6617716201594
 20
114.5128368662865
 30
0.0
  0
VERTEX
  5
51F
330
4DF
100
AcDbEntity
  8
LINEE VISIBILI 2D
100
AcDbVertex
100
AcDb2dVertex
 10
342.8082597004294
 20
114.501952251782
 30
0.0
  0
SEQEND
  5
4E0
330
4DF
100
AcDbEntity
  8
LINEE VISIBILI 2D
  0
ARC
  5
520
330
1F
100
AcDbEntity
  8
LINEE VISIBILI 2D
100
AcDbCircle
 10
343.2302830243194
 20
119.7914531389473
 30
0.0
 40
5.306309764914709
100
AcDbArc
 50
265.4383138696195
 51
278.378563007452
  0
ARC
  5
521
330
1F
100
AcDbEntity
  8
LINEE VISIBILI 2D
100
AcDbCircle
 10
344.8100174743952
 20
15.64655308496624
 30
0.0
 40
11.20783679809605
100
AcDbArc
 50
236.3855802404588
 51
261.4984842609945
  0
ARC
  5
522
330
1F
100
AcDbEntity
  8
LINEE VISIBILI 2D
100
AcDbCircle
 10
439.9927307009694
 20
22.92207110177493
 30
0.0
 40
12.08608820381448
100
AcDbArc
 50
277.7452588344291
 51
307.1387360234167
  0
LINE
  5
523
330
1F
100
AcDbEntity
  8
LINEE VISIBILI 2D
100
AcDbLine
 10
448.9684285169491
 20
214.8988123979553
 30
0.0
 11
448.9684285169491
 21
312.8821005040351
 31
0.0
  0
LINE
  5
524
330
1F
100
AcDbEntity
  8
LINEE VISIBILI 2D
100
AcDbLine
 10
246.8550407852376
 20
33.03420052093182
 30
0.0
 11
246.7199308023398
 21
32.97444781366842
 31
0.0
  0
ARC
  5
525
330
1F
100
AcDbEntity
  8
LINEE VISIBILI 2D
100
AcDbCircle
 10
338.9993998301429
 20
6.696137237987554
 30
0.0
 40
0.4137094988180701
100
AcDbArc
 50
263.342683586969
 51
304.9022438880296
  0
LINE
  5
526
330
1F
100
AcDbEntity
  8
LINEE VISIBILI 2D
100
AcDbLine
 10
239.7414158158833
 20
29.24810839332349
 30
0.0
 11
285.1727634151284
 21
10.22762339685256
 31
0.0
  0
LINE
  5
527
330
1F
100
AcDbEntity
  8
LINEE VISIBILI 2D
100
AcDbLine
 10
508.0484285169482
 20
205.4928552763886
 30
0.0
 11
568.8071859518465
 21
215.1649947111728
 31
0.0
  0
POLYLINE
  5
528
330
1F
100
AcDbEntity
  8
LINEE VISIBILI 2D
100
AcDb2dPolyline
 66
     1
 10
0.0
 20
0.0
 30
0.0
  0
VERTEX
  5
52A
330
528
100
AcDbEntity
  8
LINEE VISIBILI 2D
100
AcDbVertex
100
AcDb2dVertex
 10
251.8034482631376
 20
312.8821005040353
 30
0.0
  0
VERTEX
  5
52B
330
528
100
AcDbEntity
  8
LINEE VISIBILI 2D
100
AcDbVertex
100
AcDb2dVertex
 10
250.2192194528519
 20
306.4322863489039
 30
0.0
  0
VERTEX
  5
52C
330
528
100
AcDbEntity
  8
LINEE VISIBILI 2D
100
AcDbVertex
100
AcDb2dVertex
 10
249.6473053056686
 20
303.7521898374246
 30
0.0
  0
VERTEX
  5
52D
330
528
100
AcDbEntity
  8
LINEE VISIBILI 2D
100
AcDbVertex
100
AcDb2dVertex
 10
249.1456580543313
 20
301.0576505638293
 30
0.0
  0
VERTEX
  5
52E
330
528
100
AcDbEntity
  8
LINEE VISIBILI 2D
100
AcDbVertex
100
AcDb2dVertex
 10
248.7953428861609
 20
298.8111431084798
 30
0.0
  0
VERTEX
  5
52F
330
528
100
AcDbEntity
  8
LINEE VISIBILI 2D
100
AcDbVertex
100
AcDb2dVertex
 10
248.646608859069
 20
297.6841472928423
 30
0.0
  0
VERTEX
  5
530
330
528
100
AcDbEntity
  8
LINEE VISIBILI 2D
100
AcDbVertex
100
AcDb2dVertex
 10
248.5176619247757
 20
296.5550046209486
 30
0.0
  0
VERTEX
  5
531
330
528
100
AcDbEntity
  8
LINEE VISIBILI 2D
100
AcDbVertex
100
AcDb2dVertex
 10
248.4101306243834
 20
295.4239759945876
 30
0.0
  0
VERTEX
  5
532
330
528
100
AcDbEntity
  8
LINEE VISIBILI 2D
100
AcDbVertex
100
AcDb2dVertex
 10
248.3256434989944
 20
294.2913223155484
 30
0.0
  0
VERTEX
  5
533
330
528
100
AcDbEntity
  8
LINEE VISIBILI 2D
100
AcDbVertex
100
AcDb2dVertex
 10
248.2658290897111
 20
293.1573044856203
 30
0.0
  0
VERTEX
  5
534
330
528
100
AcDbEntity
  8
LINEE VISIBILI 2D
100
AcDbVertex
100
AcDb2dVertex
 10
248.2323159376358
 20
292.0221834065923
 30
0.0
  0
VERTEX
  5
535
330
528
100
AcDbEntity
  8
LINEE VISIBILI 2D
100
AcDbVertex
100
AcDb2dVertex
 10
248.2254726267681
 20
291.03436169921
 30
0.0
  0
VERTEX
  5
536
330
528
100
AcDbEntity
  8
LINEE VISIBILI 2D
100
AcDbVertex
100
AcDb2dVertex
 10
248.2387404549431
 20
290.0462665781915
 30
0.0
  0
VERTEX
  5
537
330
528
100
AcDbEntity
  8
LINEE VISIBILI 2D
100
AcDbVertex
100
AcDb2dVertex
 10
248.2711074321515
 20
289.0582616918218
 30
0.0
  0
VERTEX
  5
538
330
528
100
AcDbEntity
  8
LINEE VISIBILI 2D
100
AcDbVertex
100
AcDb2dVertex
 10
248.3215615683844
 20
288.0707106883851
 30
0.0
  0
VERTEX
  5
539
330
528
100
AcDbEntity
  8
LINEE VISIBILI 2D
100
AcDbVertex
100
AcDb2dVertex
 10
248.4726833578875
 20
286.0984249234493
 30
0.0
  0
VERTEX
  5
53A
330
528
100
AcDbEntity
  8
LINEE VISIBILI 2D
100
AcDbVertex
100
AcDb2dVertex
 10
248.68400990338
 20
284.1323184696607
 30
0.0
  0
VERTEX
  5
53B
330
528
100
AcDbEntity
  8
LINEE VISIBILI 2D
100
AcDbVertex
100
AcDb2dVertex
 10
248.9791931485226
 20
281.9554197048129
 30
0.0
  0
VERTEX
  5
53C
330
528
100
AcDbEntity
  8
LINEE VISIBILI 2D
100
AcDbVertex
100
AcDb2dVertex
 10
251.3805581298322
 20
268.1151168102384
 30
0.0
  0
VERTEX
  5
53D
330
528
100
AcDbEntity
  8
LINEE VISIBILI 2D
100
AcDbVertex
100
AcDb2dVertex
 10
251.6000499449992
 20
266.4959659551022
 30
0.0
  0
VERTEX
  5
53E
330
528
100
AcDbEntity
  8
LINEE VISIBILI 2D
100
AcDbVertex
100
AcDb2dVertex
 10
251.7785414667423
 20
264.8717624400107
 30
0.0
  0
VERTEX
  5
53F
330
528
100
AcDbEntity
  8
LINEE VISIBILI 2D
100
AcDbVertex
100
AcDb2dVertex
 10
251.9070984049761
 20
263.2433174418933
 30
0.0
  0
VERTEX
  5
540
330
528
100
AcDbEntity
  8
LINEE VISIBILI 2D
100
AcDbVertex
100
AcDb2dVertex
 10
251.9498594396253
 20
262.4277578794904
 30
0.0
  0
VERTEX
  5
541
330
528
100
AcDbEntity
  8
LINEE VISIBILI 2D
100
AcDbVertex
100
AcDb2dVertex
 10
251.9767864696152
 20
261.6114421376797
 30
0.0
  0
VERTEX
  5
542
330
528
100
AcDbEntity
  8
LINEE VISIBILI 2D
100
AcDbVertex
100
AcDb2dVertex
 10
251.9863638791399
 20
260.9083739691634
 30
0.0
  0
VERTEX
  5
543
330
528
100
AcDbEntity
  8
LINEE VISIBILI 2D
100
AcDbVertex
100
AcDb2dVertex
 10
251.9822716049748
 20
260.2052109427046
 30
0.0
  0
VERTEX
  5
544
330
528
100
AcDbEntity
  8
LINEE VISIBILI 2D
100
AcDbVertex
100
AcDb2dVertex
 10
251.963396877618
 20
259.502343254131
 30
0.0
  0
VERTEX
  5
545
330
528
100
AcDbEntity
  8
LINEE VISIBILI 2D
100
AcDbVertex
100
AcDb2dVertex
 10
251.9286269275676
 20
258.8001610992705
 30
0.0
  0
VERTEX
  5
546
330
528
100
AcDbEntity
  8
LINEE VISIBILI 2D
100
AcDbVertex
100
AcDb2dVertex
 10
251.8796931937504
 20
258.1287690290174
 30
0.0
  0
VERTEX
  5
547
330
528
100
AcDbEntity
  8
LINEE VISIBILI 2D
100
AcDbVertex
100
AcDb2dVertex
 10
251.8159039595672
 20
257.45859942888
 30
0.0
  0
VERTEX
  5
548
330
528
100
AcDbEntity
  8
LINEE VISIBILI 2D
100
AcDbVertex
100
AcDb2dVertex
 10
251.7379985183778
 20
256.7898884220785
 30
0.0
  0
VERTEX
  5
549
330
528
100
AcDbEntity
  8
LINEE VISIBILI 2D
100
AcDbVertex
100
AcDb2dVertex
 10
251.6467161635419
 20
256.1228721318336
 30
0.0
  0
VERTEX
  5
54A
330
528
100
AcDbEntity
  8
LINEE VISIBILI 2D
100
AcDbVertex
100
AcDb2dVertex
 10
251.432860374798
 20
254.8216923230425
 30
0.0
  0
VERTEX
  5
54B
330
528
100
AcDbEntity
  8
LINEE VISIBILI 2D
100
AcDbVertex
100
AcDb2dVertex
 10
251.181397338101
 20
253.5271226064113
 30
0.0
  0
VERTEX
  5
54C
330
528
100
AcDbEntity
  8
LINEE VISIBILI 2D
100
AcDbVertex
100
AcDb2dVertex
 10
249.3306651227698
 20
245.1291717904332
 30
0.0
  0
VERTEX
  5
54D
330
528
100
AcDbEntity
  8
LINEE VISIBILI 2D
100
AcDbVertex
100
AcDb2dVertex
 10
249.0189508529945
 20
243.4137495708865
 30
0.0
  0
VERTEX
  5
54E
330
528
100
AcDbEntity
  8
LINEE VISIBILI 2D
100
AcDbVertex
100
AcDb2dVertex
 10
248.731440895749
 20
241.5358749299231
 30
0.0
  0
VERTEX
  5
54F
330
528
100
AcDbEntity
  8
LINEE VISIBILI 2D
100
AcDbVertex
100
AcDb2dVertex
 10
248.5007628319128
 20
239.6500695841455
 30
0.0
  0
VERTEX
  5
550
330
528
100
AcDbEntity
  8
LINEE VISIBILI 2D
100
AcDbVertex
100
AcDb2dVertex
 10
248.3278355639285
 20
237.7582232990872
 30
0.0
  0
VERTEX
  5
551
330
528
100
AcDbEntity
  8
LINEE VISIBILI 2D
100
AcDbVertex
100
AcDb2dVertex
 10
248.2135779942387
 20
235.8622258402815
 30
0.0
  0
VERTEX
  5
552
330
528
100
AcDbEntity
  8
LINEE VISIBILI 2D
100
AcDbVertex
100
AcDb2dVertex
 10
248.1731351023928
 20
234.7120856023025
 30
0.0
  0
VERTEX
  5
553
330
528
100
AcDbEntity
  8
LINEE VISIBILI 2D
100
AcDbVertex
100
AcDb2dVertex
 10
248.1539198109725
 20
233.5614230852879
 30
0.0
  0
VERTEX
  5
554
330
528
100
AcDbEntity
  8
LINEE VISIBILI 2D
100
AcDbVertex
100
AcDb2dVertex
 10
248.1765613994162
 20
231.2597635517366
 30
0.0
  0
VERTEX
  5
555
330
528
100
AcDbEntity
  8
LINEE VISIBILI 2D
100
AcDbVertex
100
AcDb2dVertex
 10
248.2762814995866
 20
228.9597119147967
 30
0.0
  0
VERTEX
  5
556
330
528
100
AcDbEntity
  8
LINEE VISIBILI 2D
100
AcDbVertex
100
AcDb2dVertex
 10
248.4478588515002
 20
226.663732849637
 30
0.0
  0
VERTEX
  5
557
330
528
100
AcDbEntity
  8
LINEE VISIBILI 2D
100
AcDbVertex
100
AcDb2dVertex
 10
248.7212106468225
 20
224.0804525646619
 30
0.0
  0
VERTEX
  5
558
330
528
100
AcDbEntity
  8
LINEE VISIBILI 2D
100
AcDbVertex
100
AcDb2dVertex
 10
249.0718340113804
 20
221.5064649319248
 30
0.0
  0
VERTEX
  5
559
330
528
100
AcDbEntity
  8
LINEE VISIBILI 2D
100
AcDbVertex
100
AcDb2dVertex
 10
249.4921508001017
 20
218.9427385205168
 30
0.0
  0
VERTEX
  5
55A
330
528
100
AcDbEntity
  8
LINEE VISIBILI 2D
100
AcDbVertex
100
AcDb2dVertex
 10
249.9745828679141
 20
216.3902418995287
 30
0.0
  0
SEQEND
  5
529
330
528
100
AcDbEntity
  8
LINEE VISIBILI 2D
  0
ARC
  5
55B
330
1F
100
AcDbEntity
  8
LINEE VISIBILI 2D
100
AcDbCircle
 10
576.1198582425201
 20
22.96016030718878
 30
0.0
 40
12.12595460340805
100
AcDbArc
 50
232.9106651054547
 51
262.2053400369676
  0
LINE
  5
55C
330
1F
100
AcDbEntity
  8
LINEE VISIBILI 2D
100
AcDbLine
 10
569.3693501218722
 20
26.2620148094903
 30
0.0
 11
569.3670302787467
 21
26.50381440204349
 31
0.0
  0
LINE
  5
55D
330
1F
100
AcDbEntity
  8
LINEE VISIBILI 2D
100
AcDbLine
 10
569.3104349245787
 20
26.64403372016236
 30
0.0
 11
569.1631204471682
 21
26.70897514981554
 31
0.0
  0
LINE
  5
55E
330
1F
100
AcDbEntity
  8
LINEE VISIBILI 2D
100
AcDbLine
 10
569.1631204471682
 20
26.70897514981556
 30
0.0
 11
568.5562516170607
 21
26.71277438911517
 31
0.0
  0
LINE
  5
55F
330
1F
100
AcDbEntity
  8
LINEE VISIBILI 2D
100
AcDbLine
 10
511.4012097862863
 20
13.29109385469928
 30
0.0
 11
568.8071859518486
 21
13.28733243656817
 31
0.0
  0
LINE
  5
560
330
1F
100
AcDbEntity
  8
LINEE VISIBILI 2D
100
AcDbLine
 10
568.5562431003034
 20
26.71277442760766
 30
0.0
 11
511.4011133062058
 21
26.70887030687612
 31
0.0
  0
LINE
  5
561
330
1F
100
AcDbEntity
  8
LINEE VISIBILI 2D
100
AcDbLine
 10
575.0494286465152
 20
11.05344946510354
 30
0.0
 11
575.0494286979552
 21
28.94649520578547
 31
0.0
  0
LINE
  5
562
330
1F
100
AcDbEntity
  8
LINEE VISIBILI 2D
100
AcDbLine
 10
575.0494285000566
 20
28.94649520578547
 30
0.0
 11
575.0494285169361
 21
32.05177033948344
 31
0.0
  0
LINE
  5
563
330
1F
100
AcDbEntity
  8
LINEE VISIBILI 2D
100
AcDbLine
 10
575.0494284997362
 20
215.1736432126993
 30
0.0
 11
575.0494285126762
 21
215.9434995693702
 31
0.0
  0
LINE
  5
564
330
1F
100
AcDbEntity
  8
LINEE VISIBILI 2D
100
AcDbLine
 10
574.6047790694425
 20
7.450226551005357
 30
0.0
 11
508.0484285169491
 21
0.0
 31
0.0
  0
ARC
  5
565
330
1F
100
AcDbEntity
  8
LINEE VISIBILI 2D
100
AcDbCircle
 10
563.9314424128786
 20
304.3564237939755
 30
0.0
 40
89.32459572017917
100
AcDbArc
 50
273.1291282582877
 51
276.7789763049791
  0
ARC
  5
566
330
1F
100
AcDbEntity
  8
LINEE VISIBILI 2D
100
AcDbCircle
 10
252.1186448773405
 20
6.038783804632048
 30
0.0
 40
29.67888114545301
100
AcDbArc
 50
104.8745043412167
 51
126.5053749233528
  0
POLYLINE
  5
567
330
1F
100
AcDbEntity
  8
LINEE VISIBILI 2D
100
AcDb2dPolyline
 66
     1
 10
0.0
 20
0.0
 30
0.0
  0
VERTEX
  5
569
330
567
100
AcDbEntity
  8
LINEE VISIBILI 2D
100
AcDbVertex
100
AcDb2dVertex
 10
350.4011832530385
 20
11.59486571186805
 30
0.0
  0
VERTEX
  5
56A
330
567
100
AcDbEntity
  8
LINEE VISIBILI 2D
100
AcDbVertex
100
AcDb2dVertex
 10
350.3006339531883
 20
11.54843725411471
 30
0.0
  0
VERTEX
  5
56B
330
567
100
AcDbEntity
  8
LINEE VISIBILI 2D
100
AcDbVertex
100
AcDb2dVertex
 10
350.201181894222
 20
11.4998334736697
 30
0.0
  0
VERTEX
  5
56C
330
567
100
AcDbEntity
  8
LINEE VISIBILI 2D
100
AcDbVertex
100
AcDb2dVertex
 10
350.1027767496193
 20
11.44920062492741
 30
0.0
  0
VERTEX
  5
56D
330
567
100
AcDbEntity
  8
LINEE VISIBILI 2D
100
AcDbVertex
100
AcDb2dVertex
 10
350.0053681928599
 20
11.39668496228225
 30
0.0
  0
VERTEX
  5
56E
330
567
100
AcDbEntity
  8
LINEE VISIBILI 2D
100
AcDbVertex
100
AcDb2dVertex
 10
349.8133395367895
 20
11.28659021286088
 30
0.0
  0
VERTEX
  5
56F
330
567
100
AcDbEntity
  8
LINEE VISIBILI 2D
100
AcDbVertex
100
AcDb2dVertex
 10
349.6246933138479
 20
11.17071926056078
 30
0.0
  0
VERTEX
  5
570
330
567
100
AcDbEntity
  8
LINEE VISIBILI 2D
100
AcDbVertex
100
AcDb2dVertex
 10
349.3994264794697
 20
11.02359962676163
 30
0.0
  0
VERTEX
  5
571
330
567
100
AcDbEntity
  8
LINEE VISIBILI 2D
100
AcDbVertex
100
AcDb2dVertex
 10
349.1781010866447
 20
10.87057604027215
 30
0.0
  0
VERTEX
  5
572
330
567
100
AcDbEntity
  8
LINEE VISIBILI 2D
100
AcDbVertex
100
AcDb2dVertex
 10
348.9602566849774
 20
10.71254893458733
 30
0.0
  0
VERTEX
  5
573
330
567
100
AcDbEntity
  8
LINEE VISIBILI 2D
100
AcDbVertex
100
AcDb2dVertex
 10
348.7454328240721
 20
10.55041874320219
 30
0.0
  0
VERTEX
  5
574
330
567
100
AcDbEntity
  8
LINEE VISIBILI 2D
100
AcDbVertex
100
AcDb2dVertex
 10
348.4866054010437
 20
10.34792653577303
 30
0.0
  0
VERTEX
  5
575
330
567
100
AcDbEntity
  8
LINEE VISIBILI 2D
100
AcDbVertex
100
AcDb2dVertex
 10
348.2314339305101
 20
10.14093728650589
 30
0.0
  0
VERTEX
  5
576
330
567
100
AcDbEntity
  8
LINEE VISIBILI 2D
100
AcDbVertex
100
AcDb2dVertex
 10
347.7314081350909
 20
9.714587797536195
 30
0.0
  0
VERTEX
  5
577
330
567
100
AcDbEntity
  8
LINEE VISIBILI 2D
100
AcDbVertex
100
AcDb2dVertex
 10
347.2440540141423
 20
9.27361054645015
 30
0.0
  0
VERTEX
  5
578
330
567
100
AcDbEntity
  8
LINEE VISIBILI 2D
100
AcDbVertex
100
AcDb2dVertex
 10
346.768070143992
 20
8.820245803404816
 30
0.0
  0
VERTEX
  5
579
330
567
100
AcDbEntity
  8
LINEE VISIBILI 2D
100
AcDbVertex
100
AcDb2dVertex
 10
346.2413374182369
 20
8.294082832795211
 30
0.0
  0
VERTEX
  5
57A
330
567
100
AcDbEntity
  8
LINEE VISIBILI 2D
100
AcDbVertex
100
AcDb2dVertex
 10
345.7276726818478
 20
7.755265644619692
 30
0.0
  0
VERTEX
  5
57B
330
567
100
AcDbEntity
  8
LINEE VISIBILI 2D
100
AcDbVertex
100
AcDb2dVertex
 10
345.2272246342471
 20
7.204159899293264
 30
0.0
  0
VERTEX
  5
57C
330
567
100
AcDbEntity
  8
LINEE VISIBILI 2D
100
AcDbVertex
100
AcDb2dVertex
 10
344.7401419748562
 20
6.641131257230933
 30
0.0
  0
VERTEX
  5
57D
330
567
100
AcDbEntity
  8
LINEE VISIBILI 2D
100
AcDbVertex
100
AcDb2dVertex
 10
344.3235313418918
 20
6.136646101447151
 30
0.0
  0
VERTEX
  5
57E
330
567
100
AcDbEntity
  8
LINEE VISIBILI 2D
100
AcDbVertex
100
AcDb2dVertex
 10
343.9190350582597
 20
5.622458923213487
 30
0.0
  0
VERTEX
  5
57F
330
567
100
AcDbEntity
  8
LINEE VISIBILI 2D
100
AcDbVertex
100
AcDb2dVertex
 10
343.5283318580502
 20
5.09779222941469
 30
0.0
  0
VERTEX
  5
580
330
567
100
AcDbEntity
  8
LINEE VISIBILI 2D
100
AcDbVertex
100
AcDb2dVertex
 10
343.1531004753542
 20
4.561868526935514
 30
0.0
  0
SEQEND
  5
568
330
567
100
AcDbEntity
  8
LINEE VISIBILI 2D
  0
POLYLINE
  5
581
330
1F
100
AcDbEntity
  8
LINEE VISIBILI 2D
100
AcDb2dPolyline
 66
     1
 10
0.0
 20
0.0
 30
0.0
  0
VERTEX
  5
583
330
581
100
AcDbEntity
  8
LINEE VISIBILI 2D
100
AcDbVertex
100
AcDb2dVertex
 10
291.8239716889238
 20
115.6387927411323
 30
0.0
  0
VERTEX
  5
584
330
581
100
AcDbEntity
  8
LINEE VISIBILI 2D
100
AcDbVertex
100
AcDb2dVertex
 10
291.5288734086344
 20
115.5889325185048
 30
0.0
  0
VERTEX
  5
585
330
581
100
AcDbEntity
  8
LINEE VISIBILI 2D
100
AcDbVertex
100
AcDb2dVertex
 10
291.1834502732972
 20
115.5404244314236
 30
0.0
  0
VERTEX
  5
586
330
581
100
AcDbEntity
  8
LINEE VISIBILI 2D
100
AcDbVertex
100
AcDb2dVertex
 10
290.7879185957618
 20
115.494158871441
 30
0.0
  0
VERTEX
  5
587
330
581
100
AcDbEntity
  8
LINEE VISIBILI 2D
100
AcDbVertex
100
AcDb2dVertex
 10
290.3441145081217
 20
115.4510697706497
 30
0.0
  0
VERTEX
  5
588
330
581
100
AcDbEntity
  8
LINEE VISIBILI 2D
100
AcDbVertex
100
AcDb2dVertex
 10
289.3278827483998
 20
115.3781040141067
 30
0.0
  0
VERTEX
  5
589
330
581
100
AcDbEntity
  8
LINEE VISIBILI 2D
100
AcDbVertex
100
AcDb2dVertex
 10
288.1841622879025
 20
115.3280592068766
 30
0.0
  0
VERTEX
  5
58A
330
581
100
AcDbEntity
  8
LINEE VISIBILI 2D
100
AcDbVertex
100
AcDb2dVertex
 10
286.9836642315247
 20
115.3050484967475
 30
0.0
  0
VERTEX
  5
58B
330
581
100
AcDbEntity
  8
LINEE VISIBILI 2D
100
AcDbVertex
100
AcDb2dVertex
 10
285.8046021666512
 20
115.3097520692361
 30
0.0
  0
VERTEX
  5
58C
330
581
100
AcDbEntity
  8
LINEE VISIBILI 2D
100
AcDbVertex
100
AcDb2dVertex
 10
284.7165447404206
 20
115.3394380864567
 30
0.0
  0
VERTEX
  5
58D
330
581
100
AcDbEntity
  8
LINEE VISIBILI 2D
100
AcDbVertex
100
AcDb2dVertex
 10
283.7684672710803
 20
115.3889478495574
 30
0.0
  0
VERTEX
  5
58E
330
581
100
AcDbEntity
  8
LINEE VISIBILI 2D
100
AcDbVertex
100
AcDb2dVertex
 10
283.2881212023835
 20
115.4247459885955
 30
0.0
  0
VERTEX
  5
58F
330
581
100
AcDbEntity
  8
LINEE VISIBILI 2D
100
AcDbVertex
100
AcDb2dVertex
 10
282.8308452475606
 20
115.4676550557942
 30
0.0
  0
VERTEX
  5
590
330
581
100
AcDbEntity
  8
LINEE VISIBILI 2D
100
AcDbVertex
100
AcDb2dVertex
 10
282.4079930348828
 20
115.517577328241
 30
0.0
  0
VERTEX
  5
591
330
581
100
AcDbEntity
  8
LINEE VISIBILI 2D
100
AcDbVertex
100
AcDb2dVertex
 10
282.2130675933449
 20
115.545058365584
 30
0.0
  0
VERTEX
  5
592
330
581
100
AcDbEntity
  8
LINEE VISIBILI 2D
100
AcDbVertex
100
AcDb2dVertex
 10
282.0310041541575
 20
115.574121958901
 30
0.0
  0
VERTEX
  5
593
330
581
100
AcDbEntity
  8
LINEE VISIBILI 2D
100
AcDbVertex
100
AcDb2dVertex
 10
281.8631207863592
 20
115.604670722792
 30
0.0
  0
VERTEX
  5
594
330
581
100
AcDbEntity
  8
LINEE VISIBILI 2D
100
AcDbVertex
100
AcDb2dVertex
 10
281.7106420713478
 20
115.6365884501864
 30
0.0
  0
VERTEX
  5
595
330
581
100
AcDbEntity
  8
LINEE VISIBILI 2D
100
AcDbVertex
100
AcDb2dVertex
 10
281.6405304030283
 20
115.653019486622
 30
0.0
  0
VERTEX
  5
596
330
581
100
AcDbEntity
  8
LINEE VISIBILI 2D
100
AcDbVertex
100
AcDb2dVertex
 10
281.5746741504826
 20
115.6697412631888
 30
0.0
  0
VERTEX
  5
597
330
581
100
AcDbEntity
  8
LINEE VISIBILI 2D
100
AcDbVertex
100
AcDb2dVertex
 10
281.5131892809733
 20
115.6867345563425
 30
0.0
  0
VERTEX
  5
598
330
581
100
AcDbEntity
  8
LINEE VISIBILI 2D
100
AcDbVertex
100
AcDb2dVertex
 10
281.4561816150026
 20
115.7039792717791
 30
0.0
  0
VERTEX
  5
599
330
581
100
AcDbEntity
  8
LINEE VISIBILI 2D
100
AcDbVertex
100
AcDb2dVertex
 10
281.4037462690692
 20
115.7214545213752
 30
0.0
  0
VERTEX
  5
59A
330
581
100
AcDbEntity
  8
LINEE VISIBILI 2D
100
AcDbVertex
100
AcDb2dVertex
 10
281.3792698900316
 20
115.7302718721721
 30
0.0
  0
VERTEX
  5
59B
330
581
100
AcDbEntity
  8
LINEE VISIBILI 2D
100
AcDbVertex
100
AcDb2dVertex
 10
281.3559671609491
 20
115.7391387060786
 30
0.0
  0
VERTEX
  5
59C
330
581
100
AcDbEntity
  8
LINEE VISIBILI 2D
100
AcDbVertex
100
AcDb2dVertex
 10
281.3338467516704
 20
115.7480522265975
 30
0.0
  0
VERTEX
  5
59D
330
581
100
AcDbEntity
  8
LINEE VISIBILI 2D
100
AcDbVertex
100
AcDb2dVertex
 10
281.3129165826587
 20
115.7570096040726
 30
0.0
  0
VERTEX
  5
59E
330
581
100
AcDbEntity
  8
LINEE VISIBILI 2D
100
AcDbVertex
100
AcDb2dVertex
 10
281.2931838156496
 20
115.7660079786793
 30
0.0
  0
VERTEX
  5
59F
330
581
100
AcDbEntity
  8
LINEE VISIBILI 2D
100
AcDbVertex
100
AcDb2dVertex
 10
281.2746548455184
 20
115.7750444634665
 30
0.0
  0
VERTEX
  5
5A0
330
581
100
AcDbEntity
  8
LINEE VISIBILI 2D
100
AcDbVertex
100
AcDb2dVertex
 10
281.2573352933739
 20
115.7841161474433
 30
0.0
  0
VERTEX
  5
5A1
330
581
100
AcDbEntity
  8
LINEE VISIBILI 2D
100
AcDbVertex
100
AcDb2dVertex
 10
281.241230000896
 20
115.7932200987036
 30
0.0
  0
VERTEX
  5
5A2
330
581
100
AcDbEntity
  8
LINEE VISIBILI 2D
100
AcDbVertex
100
AcDb2dVertex
 10
281.2336340008208
 20
115.7977832534015
 30
0.0
  0
VERTEX
  5
5A3
330
581
100
AcDbEntity
  8
LINEE VISIBILI 2D
100
AcDbVertex
100
AcDb2dVertex
 10
281.2263430259266
 20
115.8023533675817
 30
0.0
  0
VERTEX
  5
5A4
330
581
100
AcDbEntity
  8
LINEE VISIBILI 2D
100
AcDbVertex
100
AcDb2dVertex
 10
281.2193574604529
 20
115.8069300702827
 30
0.0
  0
VERTEX
  5
5A5
330
581
100
AcDbEntity
  8
LINEE VISIBILI 2D
100
AcDbVertex
100
AcDb2dVertex
 10
281.2126776393262
 20
115.8115129898312
 30
0.0
  0
VERTEX
  5
5A6
330
581
100
AcDbEntity
  8
LINEE VISIBILI 2D
100
AcDbVertex
100
AcDb2dVertex
 10
281.20630384813
 20
115.8161017539427
 30
0.0
  0
VERTEX
  5
5A7
330
581
100
AcDbEntity
  8
LINEE VISIBILI 2D
100
AcDbVertex
100
AcDb2dVertex
 10
281.2002363230958
 20
115.8206959898211
 30
0.0
  0
VERTEX
  5
5A8
330
581
100
AcDbEntity
  8
LINEE VISIBILI 2D
100
AcDbVertex
100
AcDb2dVertex
 10
281.1944752511149
 20
115.8252953242596
 30
0.0
  0
VERTEX
  5
5A9
330
581
100
AcDbEntity
  8
LINEE VISIBILI 2D
100
AcDbVertex
100
AcDb2dVertex
 10
281.1890207697674
 20
115.8298993837405
 30
0.0
  0
VERTEX
  5
5AA
330
581
100
AcDbEntity
  8
LINEE VISIBILI 2D
100
AcDbVertex
100
AcDb2dVertex
 10
281.1838729673728
 20
115.8345077945355
 30
0.0
  0
VERTEX
  5
5AB
330
581
100
AcDbEntity
  8
LINEE VISIBILI 2D
100
AcDbVertex
100
AcDb2dVertex
 10
281.1790318830598
 20
115.8391201828059
 30
0.0
  0
VERTEX
  5
5AC
330
581
100
AcDbEntity
  8
LINEE VISIBILI 2D
100
AcDbVertex
100
AcDb2dVertex
 10
281.1744975068552
 20
115.8437361747022
 30
0.0
  0
VERTEX
  5
5AD
330
581
100
AcDbEntity
  8
LINEE VISIBILI 2D
100
AcDbVertex
100
AcDb2dVertex
 10
281.1702697797924
 20
115.8483553964636
 30
0.0
  0
SEQEND
  5
582
330
581
100
AcDbEntity
  8
LINEE VISIBILI 2D
  0
ARC
  5
5AE
330
1F
100
AcDbEntity
  8
LINEE VISIBILI 2D
100
AcDbCircle
 10
251.3972392169666
 20
7.032034949655303
 30
0.0
 40
28.58379152921874
100
AcDbArc
 50
103.9687852882186
 51
126.9294911577434
  0
POLYLINE
  5
5AF
330
1F
100
AcDbEntity
  8
LINEE VISIBILI 2D
100
AcDb2dPolyline
 66
     1
 10
0.0
 20
0.0
 30
0.0
  0
VERTEX
  5
5B1
330
5AF
100
AcDbEntity
  8
LINEE VISIBILI 2D
100
AcDbVertex
100
AcDb2dVertex
 10
286.431743853867
 20
115.3038706750169
 30
0.0
  0
VERTEX
  5
5B2
330
5AF
100
AcDbEntity
  8
LINEE VISIBILI 2D
100
AcDbVertex
100
AcDb2dVertex
 10
286.2689084232295
 20
114.9247273756648
 30
0.0
  0
VERTEX
  5
5B3
330
5AF
100
AcDbEntity
  8
LINEE VISIBILI 2D
100
AcDbVertex
100
AcDb2dVertex
 10
286.1127906492322
 20
114.5427997336313
 30
0.0
  0
VERTEX
  5
5B4
330
5AF
100
AcDbEntity
  8
LINEE VISIBILI 2D
100
AcDbVertex
100
AcDb2dVertex
 10
285.9634561015943
 20
114.1581922176552
 30
0.0
  0
VERTEX
  5
5B5
330
5AF
100
AcDbEntity
  8
LINEE VISIBILI 2D
100
AcDbVertex
100
AcDb2dVertex
 10
285.8209703500348
 20
113.7710092964753
 30
0.0
  0
VERTEX
  5
5B6
330
5AF
100
AcDbEntity
  8
LINEE VISIBILI 2D
100
AcDbVertex
100
AcDb2dVertex
 10
285.6853989642729
 20
113.3813554388306
 30
0.0
  0
VERTEX
  5
5B7
330
5AF
100
AcDbEntity
  8
LINEE VISIBILI 2D
100
AcDbVertex
100
AcDb2dVertex
 10
285.5568075140277
 20
112.9893351134597
 30
0.0
  0
VERTEX
  5
5B8
330
5AF
100
AcDbEntity
  8
LINEE VISIBILI 2D
100
AcDbVertex
100
AcDb2dVertex
 10
285.4352615690183
 20
112.5950527891015
 30
0.0
  0
VERTEX
  5
5B9
330
5AF
100
AcDbEntity
  8
LINEE VISIBILI 2D
100
AcDbVertex
100
AcDb2dVertex
 10
285.3208266989637
 20
112.1986129344948
 30
0.0
  0
VERTEX
  5
5BA
330
5AF
100
AcDbEntity
  8
LINEE VISIBILI 2D
100
AcDbVertex
100
AcDb2dVertex
 10
285.214449434933
 20
111.8035743563442
 30
0.0
  0
VERTEX
  5
5BB
330
5AF
100
AcDbEntity
  8
LINEE VISIBILI 2D
100
AcDbVertex
100
AcDb2dVertex
 10
285.1151094036025
 20
111.4066713909918
 30
0.0
  0
VERTEX
  5
5BC
330
5AF
100
AcDbEntity
  8
LINEE VISIBILI 2D
100
AcDbVertex
100
AcDb2dVertex
 10
285.0227904652268
 20
111.0080574475933
 30
0.0
  0
VERTEX
  5
5BD
330
5AF
100
AcDbEntity
  8
LINEE VISIBILI 2D
100
AcDbVertex
100
AcDb2dVertex
 10
284.9374764800601
 20
110.6078859353042
 30
0.0
  0
VERTEX
  5
5BE
330
5AF
100
AcDbEntity
  8
LINEE VISIBILI 2D
100
AcDbVertex
100
AcDb2dVertex
 10
284.7877988103702
 20
109.8034838406775
 30
0.0
  0
VERTEX
  5
5BF
330
5AF
100
AcDbEntity
  8
LINEE VISIBILI 2D
100
AcDbVertex
100
AcDb2dVertex
 10
284.6659472765667
 20
108.9946923803575
 30
0.0
  0
VERTEX
  5
5C0
330
5AF
100
AcDbEntity
  8
LINEE VISIBILI 2D
100
AcDbVertex
100
AcDb2dVertex
 10
284.6124289013265
 20
108.5633521090271
 30
0.0
  0
VERTEX
  5
5C1
330
5AF
100
AcDbEntity
  8
LINEE VISIBILI 2D
100
AcDbVertex
100
AcDb2dVertex
 10
284.5665690663551
 20
108.131217453394
 30
0.0
  0
VERTEX
  5
5C2
330
5AF
100
AcDbEntity
  8
LINEE VISIBILI 2D
100
AcDbVertex
100
AcDb2dVertex
 10
284.4971495773329
 20
107.2649619831386
 30
0.0
  0
VERTEX
  5
5C3
330
5AF
100
AcDbEntity
  8
LINEE VISIBILI 2D
100
AcDbVertex
100
AcDb2dVertex
 10
284.4563379297298
 20
106.3967199574284
 30
0.0
  0
VERTEX
  5
5C4
330
5AF
100
AcDbEntity
  8
LINEE VISIBILI 2D
100
AcDbVertex
100
AcDb2dVertex
 10
284.4427832437749
 20
105.5272853641005
 30
0.0
  0
VERTEX
  5
5C5
330
5AF
100
AcDbEntity
  8
LINEE VISIBILI 2D
100
AcDbVertex
100
AcDb2dVertex
 10
284.4551346396978
 20
104.6574521909921
 30
0.0
  0
VERTEX
  5
5C6
330
5AF
100
AcDbEntity
  8
LINEE VISIBILI 2D
100
AcDbVertex
100
AcDb2dVertex
 10
284.4920412377279
 20
103.7880144259403
 30
0.0
  0
VERTEX
  5
5C7
330
5AF
100
AcDbEntity
  8
LINEE VISIBILI 2D
100
AcDbVertex
100
AcDb2dVertex
 10
284.5521521580944
 20
102.9197660567823
 30
0.0
  0
VERTEX
  5
5C8
330
5AF
100
AcDbEntity
  8
LINEE VISIBILI 2D
100
AcDbVertex
100
AcDb2dVertex
 10
284.6341165210268
 20
102.0535010713551
 30
0.0
  0
VERTEX
  5
5C9
330
5AF
100
AcDbEntity
  8
LINEE VISIBILI 2D
100
AcDbVertex
100
AcDb2dVertex
 10
284.7263292184398
 20
101.2689672564744
 30
0.0
  0
VERTEX
  5
5CA
330
5AF
100
AcDbEntity
  8
LINEE VISIBILI 2D
100
AcDbVertex
100
AcDb2dVertex
 10
284.8342182068215
 20
100.4866605419749
 30
0.0
  0
VERTEX
  5
5CB
330
5AF
100
AcDbEntity
  8
LINEE VISIBILI 2D
100
AcDbVertex
100
AcDb2dVertex
 10
285.0920742361097
 20
98.92847182446985
 30
0.0
  0
VERTEX
  5
5CC
330
5AF
100
AcDbEntity
  8
LINEE VISIBILI 2D
100
AcDbVertex
100
AcDb2dVertex
 10
285.3977829681292
 20
97.37842173954028
 30
0.0
  0
VERTEX
  5
5CD
330
5AF
100
AcDbEntity
  8
LINEE VISIBILI 2D
100
AcDbVertex
100
AcDb2dVertex
 10
285.7414427621185
 20
95.83599710788655
 30
0.0
  0
VERTEX
  5
5CE
330
5AF
100
AcDbEntity
  8
LINEE VISIBILI 2D
100
AcDbVertex
100
AcDb2dVertex
 10
290.0495216712577
 20
79.0955561836904
 30
0.0
  0
VERTEX
  5
5CF
330
5AF
100
AcDbEntity
  8
LINEE VISIBILI 2D
100
AcDbVertex
100
AcDb2dVertex
 10
290.6634462760258
 20
76.25369282102119
 30
0.0
  0
VERTEX
  5
5D0
330
5AF
100
AcDbEntity
  8
LINEE VISIBILI 2D
100
AcDbVertex
100
AcDb2dVertex
 10
290.9129766156583
 20
74.94479077407902
 30
0.0
  0
VERTEX
  5
5D1
330
5AF
100
AcDbEntity
  8
LINEE VISIBILI 2D
100
AcDbVertex
100
AcDb2dVertex
 10
291.1376693427466
 20
73.63144978180527
 30
0.0
  0
VERTEX
  5
5D2
330
5AF
100
AcDbEntity
  8
LINEE VISIBILI 2D
100
AcDbVertex
100
AcDb2dVertex
 10
291.3337127372187
 20
72.31369720182475
 30
0.0
  0
VERTEX
  5
5D3
330
5AF
100
AcDbEntity
  8
LINEE VISIBILI 2D
100
AcDbVertex
100
AcDb2dVertex
 10
291.4972950790024
 20
70.99156039176229
 30
0.0
  0
VERTEX
  5
5D4
330
5AF
100
AcDbEntity
  8
LINEE VISIBILI 2D
100
AcDbVertex
100
AcDb2dVertex
 10
291.6104942633375
 20
69.83407354299663
 30
0.0
  0
VERTEX
  5
5D5
330
5AF
100
AcDbEntity
  8
LINEE VISIBILI 2D
100
AcDbVertex
100
AcDb2dVertex
 10
291.6931033045285
 20
68.67404016671621
 30
0.0
  0
VERTEX
  5
5D6
330
5AF
100
AcDbEntity
  8
LINEE VISIBILI 2D
100
AcDbVertex
100
AcDb2dVertex
 10
291.7421682107088
 20
67.51223322760814
 30
0.0
  0
VERTEX
  5
5D7
330
5AF
100
AcDbEntity
  8
LINEE VISIBILI 2D
100
AcDbVertex
100
AcDb2dVertex
 10
291.7547349900118
 20
66.3494256903596
 30
0.0
  0
VERTEX
  5
5D8
330
5AF
100
AcDbEntity
  8
LINEE VISIBILI 2D
100
AcDbVertex
100
AcDb2dVertex
 10
291.73693590703
 20
65.42758483912264
 30
0.0
  0
VERTEX
  5
5D9
330
5AF
100
AcDbEntity
  8
LINEE VISIBILI 2D
100
AcDbVertex
100
AcDb2dVertex
 10
291.6936292075246
 20
64.50652475876589
 30
0.0
  0
VERTEX
  5
5DA
330
5AF
100
AcDbEntity
  8
LINEE VISIBILI 2D
100
AcDbVertex
100
AcDb2dVertex
 10
291.6240965034244
 20
63.58716925070521
 30
0.0
  0
VERTEX
  5
5DB
330
5AF
100
AcDbEntity
  8
LINEE VISIBILI 2D
100
AcDbVertex
100
AcDb2dVertex
 10
291.5276194066582
 20
62.67044211635647
 30
0.0
  0
VERTEX
  5
5DC
330
5AF
100
AcDbEntity
  8
LINEE VISIBILI 2D
100
AcDbVertex
100
AcDb2dVertex
 10
291.4034795291544
 20
61.75726715713557
 30
0.0
  0
VERTEX
  5
5DD
330
5AF
100
AcDbEntity
  8
LINEE VISIBILI 2D
100
AcDbVertex
100
AcDb2dVertex
 10
291.2509584828418
 20
60.84856817445838
 30
0.0
  0
VERTEX
  5
5DE
330
5AF
100
AcDbEntity
  8
LINEE VISIBILI 2D
100
AcDbVertex
100
AcDb2dVertex
 10
291.069337879649
 20
59.94526896974075
 30
0.0
  0
VERTEX
  5
5DF
330
5AF
100
AcDbEntity
  8
LINEE VISIBILI 2D
100
AcDbVertex
100
AcDb2dVertex
 10
290.8578993315048
 20
59.04829334439861
 30
0.0
  0
VERTEX
  5
5E0
330
5AF
100
AcDbEntity
  8
LINEE VISIBILI 2D
100
AcDbVertex
100
AcDb2dVertex
 10
290.6449088866846
 20
58.25659843624385
 30
0.0
  0
VERTEX
  5
5E1
330
5AF
100
AcDbEntity
  8
LINEE VISIBILI 2D
100
AcDbVertex
100
AcDb2dVertex
 10
290.4111665157495
 20
57.47036111327434
 30
0.0
  0
VERTEX
  5
5E2
330
5AF
100
AcDbEntity
  8
LINEE VISIBILI 2D
100
AcDbVertex
100
AcDb2dVertex
 10
290.1600652177692
 20
56.68930849307592
 30
0.0
  0
VERTEX
  5
5E3
330
5AF
100
AcDbEntity
  8
LINEE VISIBILI 2D
100
AcDbVertex
100
AcDb2dVertex
 10
289.8949979918134
 20
55.91316769323445
 30
0.0
  0
VERTEX
  5
5E4
330
5AF
100
AcDbEntity
  8
LINEE VISIBILI 2D
100
AcDbVertex
100
AcDb2dVertex
 10
287.0706962190722
 20
48.42752559750191
 30
0.0
  0
VERTEX
  5
5E5
330
5AF
100
AcDbEntity
  8
LINEE VISIBILI 2D
100
AcDbVertex
100
AcDb2dVertex
 10
286.3917383162533
 20
46.47417602959797
 30
0.0
  0
VERTEX
  5
5E6
330
5AF
100
AcDbEntity
  8
LINEE VISIBILI 2D
100
AcDbVertex
100
AcDb2dVertex
 10
286.0746042940192
 20
45.49011591526707
 30
0.0
  0
VERTEX
  5
5E7
330
5AF
100
AcDbEntity
  8
LINEE VISIBILI 2D
100
AcDbVertex
100
AcDb2dVertex
 10
285.7747214834167
 20
44.50058339882447
 30
0.0
  0
VERTEX
  5
5E8
330
5AF
100
AcDbEntity
  8
LINEE VISIBILI 2D
100
AcDbVertex
100
AcDb2dVertex
 10
285.4741292083107
 20
43.43343930495684
 30
0.0
  0
VERTEX
  5
5E9
330
5AF
100
AcDbEntity
  8
LINEE VISIBILI 2D
100
AcDbVertex
100
AcDb2dVertex
 10
285.19583818035
 20
42.36004871298374
 30
0.0
  0
VERTEX
  5
5EA
330
5AF
100
AcDbEntity
  8
LINEE VISIBILI 2D
100
AcDbVertex
100
AcDb2dVertex
 10
284.9402958484771
 20
41.28092683994244
 30
0.0
  0
VERTEX
  5
5EB
330
5AF
100
AcDbEntity
  8
LINEE VISIBILI 2D
100
AcDbVertex
100
AcDb2dVertex
 10
284.7079496616347
 20
40.19658890287021
 30
0.0
  0
VERTEX
  5
5EC
330
5AF
100
AcDbEntity
  8
LINEE VISIBILI 2D
100
AcDbVertex
100
AcDb2dVertex
 10
284.4992470687654
 20
39.10755011880435
 30
0.0
  0
VERTEX
  5
5ED
330
5AF
100
AcDbEntity
  8
LINEE VISIBILI 2D
100
AcDbVertex
100
AcDb2dVertex
 10
284.3146355188117
 20
38.01432570478207
 30
0.0
  0
VERTEX
  5
5EE
330
5AF
100
AcDbEntity
  8
LINEE VISIBILI 2D
100
AcDbVertex
100
AcDb2dVertex
 10
284.1545624607162
 20
36.91743087784067
 30
0.0
  0
VERTEX
  5
5EF
330
5AF
100
AcDbEntity
  8
LINEE VISIBILI 2D
100
AcDbVertex
100
AcDb2dVertex
 10
284.0194753434218
 20
35.81738085501743
 30
0.0
  0
VERTEX
  5
5F0
330
5AF
100
AcDbEntity
  8
LINEE VISIBILI 2D
100
AcDbVertex
100
AcDb2dVertex
 10
283.8908691294566
 20
34.49612323567985
 30
0.0
  0
VERTEX
  5
5F1
330
5AF
100
AcDbEntity
  8
LINEE VISIBILI 2D
100
AcDbVertex
100
AcDb2dVertex
 10
283.7977318490763
 20
33.17190091995974
 30
0.0
  0
VERTEX
  5
5F2
330
5AF
100
AcDbEntity
  8
LINEE VISIBILI 2D
100
AcDbVertex
100
AcDb2dVertex
 10
283.739032741396
 20
31.8455378696992
 30
0.0
  0
VERTEX
  5
5F3
330
5AF
100
AcDbEntity
  8
LINEE VISIBILI 2D
100
AcDbVertex
100
AcDb2dVertex
 10
283.7137410455312
 20
30.51785804674042
 30
0.0
  0
VERTEX
  5
5F4
330
5AF
100
AcDbEntity
  8
LINEE VISIBILI 2D
100
AcDbVertex
100
AcDb2dVertex
 10
283.7208260005969
 20
29.18968541292552
 30
0.0
  0
VERTEX
  5
5F5
330
5AF
100
AcDbEntity
  8
LINEE VISIBILI 2D
100
AcDbVertex
100
AcDb2dVertex
 10
283.7592568457086
 20
27.86184393009663
 30
0.0
  0
VERTEX
  5
5F6
330
5AF
100
AcDbEntity
  8
LINEE VISIBILI 2D
100
AcDbVertex
100
AcDb2dVertex
 10
283.8280028199815
 20
26.5351575600959
 30
0.0
  0
VERTEX
  5
5F7
330
5AF
100
AcDbEntity
  8
LINEE VISIBILI 2D
100
AcDbVertex
100
AcDb2dVertex
 10
283.9260331625308
 20
25.21045026476547
 30
0.0
  0
VERTEX
  5
5F8
330
5AF
100
AcDbEntity
  8
LINEE VISIBILI 2D
100
AcDbVertex
100
AcDb2dVertex
 10
284.0673235700029
 20
23.74833505183267
 30
0.0
  0
VERTEX
  5
5F9
330
5AF
100
AcDbEntity
  8
LINEE VISIBILI 2D
100
AcDbVertex
100
AcDb2dVertex
 10
284.2417235219375
 20
22.28999600062624
 30
0.0
  0
VERTEX
  5
5FA
330
5AF
100
AcDbEntity
  8
LINEE VISIBILI 2D
100
AcDbVertex
100
AcDb2dVertex
 10
284.447774192379
 20
20.83577974958677
 30
0.0
  0
VERTEX
  5
5FB
330
5AF
100
AcDbEntity
  8
LINEE VISIBILI 2D
100
AcDbVertex
100
AcDb2dVertex
 10
284.684016755372
 20
19.38603293715484
 30
0.0
  0
VERTEX
  5
5FC
330
5AF
100
AcDbEntity
  8
LINEE VISIBILI 2D
100
AcDbVertex
100
AcDb2dVertex
 10
284.9489923849607
 20
17.94110220177104
 30
0.0
  0
VERTEX
  5
5FD
330
5AF
100
AcDbEntity
  8
LINEE VISIBILI 2D
100
AcDbVertex
100
AcDb2dVertex
 10
285.2412422551896
 20
16.50133418187595
 30
0.0
  0
VERTEX
  5
5FE
330
5AF
100
AcDbEntity
  8
LINEE VISIBILI 2D
100
AcDbVertex
100
AcDb2dVertex
 10
285.9017294137453
 20
13.63867284231425
 30
0.0
  0
SEQEND
  5
5B0
330
5AF
100
AcDbEntity
  8
LINEE VISIBILI 2D
  0
POLYLINE
  5
5FF
330
1F
100
AcDbEntity
  8
LINEE VISIBILI 2D
100
AcDb2dPolyline
 66
     1
 10
0.0
 20
0.0
 30
0.0
  0
VERTEX
  5
601
330
5FF
100
AcDbEntity
  8
LINEE VISIBILI 2D
100
AcDbVertex
100
AcDb2dVertex
 10
280.4324627483341
 20
118.4333729971339
 30
0.0
  0
VERTEX
  5
602
330
5FF
100
AcDbEntity
  8
LINEE VISIBILI 2D
100
AcDbVertex
100
AcDb2dVertex
 10
280.0760963841943
 20
118.3693751171666
 30
0.0
  0
VERTEX
  5
603
330
5FF
100
AcDbEntity
  8
LINEE VISIBILI 2D
100
AcDbVertex
100
AcDb2dVertex
 10
279.9138719372566
 20
118.3354022989842
 30
0.0
  0
VERTEX
  5
604
330
5FF
100
AcDbEntity
  8
LINEE VISIBILI 2D
100
AcDbVertex
100
AcDb2dVertex
 10
279.7638500359048
 20
118.3001840932113
 30
0.0
  0
VERTEX
  5
605
330
5FF
100
AcDbEntity
  8
LINEE VISIBILI 2D
100
AcDbVertex
100
AcDb2dVertex
 10
279.6271940018748
 20
118.2637896786073
 30
0.0
  0
VERTEX
  5
606
330
5FF
100
AcDbEntity
  8
LINEE VISIBILI 2D
100
AcDbVertex
100
AcDb2dVertex
 10
279.564235142355
 20
118.2451766575124
 30
0.0
  0
VERTEX
  5
607
330
5FF
100
AcDbEntity
  8
LINEE VISIBILI 2D
100
AcDbVertex
100
AcDb2dVertex
 10
279.5050414595902
 20
118.226301574447
 30
0.0
  0
VERTEX
  5
608
330
5FF
100
AcDbEntity
  8
LINEE VISIBILI 2D
100
AcDbVertex
100
AcDb2dVertex
 10
279.4497484314855
 20
118.2071768284346
 30
0.0
  0
VERTEX
  5
609
330
5FF
100
AcDbEntity
  8
LINEE VISIBILI 2D
100
AcDbVertex
100
AcDb2dVertex
 10
279.3984878248295
 20
118.1878156380122
 30
0.0
  0
VERTEX
  5
60A
330
5FF
100
AcDbEntity
  8
LINEE VISIBILI 2D
100
AcDbVertex
100
AcDb2dVertex
 10
279.374409707056
 20
118.1780507275386
 30
0.0
  0
VERTEX
  5
60B
330
5FF
100
AcDbEntity
  8
LINEE VISIBILI 2D
100
AcDbVertex
100
AcDb2dVertex
 10
279.3513871471499
 20
118.1682320266887
 30
0.0
  0
VERTEX
  5
60C
330
5FF
100
AcDbEntity
  8
LINEE VISIBILI 2D
100
AcDbVertex
100
AcDb2dVertex
 10
279.3294353278827
 20
118.1583614110586
 30
0.0
  0
VERTEX
  5
60D
330
5FF
100
AcDbEntity
  8
LINEE VISIBILI 2D
100
AcDbVertex
100
AcDb2dVertex
 10
279.3085690972359
 20
118.1484408039294
 30
0.0
  0
VERTEX
  5
60E
330
5FF
100
AcDbEntity
  8
LINEE VISIBILI 2D
100
AcDbVertex
100
AcDb2dVertex
 10
279.2888029514175
 20
118.1384721754243
 30
0.0
  0
VERTEX
  5
60F
330
5FF
100
AcDbEntity
  8
LINEE VISIBILI 2D
100
AcDbVertex
100
AcDb2dVertex
 10
279.270151018005
 20
118.1284575415924
 30
0.0
  0
VERTEX
  5
610
330
5FF
100
AcDbEntity
  8
LINEE VISIBILI 2D
100
AcDbVertex
100
AcDb2dVertex
 10
279.2526270392484
 20
118.1183989634211
 30
0.0
  0
VERTEX
  5
611
330
5FF
100
AcDbEntity
  8
LINEE VISIBILI 2D
100
AcDbVertex
100
AcDb2dVertex
 10
279.2362443555622
 20
118.1082985457783
 30
0.0
  0
VERTEX
  5
612
330
5FF
100
AcDbEntity
  8
LINEE VISIBILI 2D
100
AcDbVertex
100
AcDb2dVertex
 10
279.2210158892411
 20
118.0981584362812
 30
0.0
  0
VERTEX
  5
613
330
5FF
100
AcDbEntity
  8
LINEE VISIBILI 2D
100
AcDbVertex
100
AcDb2dVertex
 10
279.2069541284287
 20
118.0879808240969
 30
0.0
  0
VERTEX
  5
614
330
5FF
100
AcDbEntity
  8
LINEE VISIBILI 2D
100
AcDbVertex
100
AcDb2dVertex
 10
279.194071111374
 20
118.0777679386718
 30
0.0
  0
VERTEX
  5
615
330
5FF
100
AcDbEntity
  8
LINEE VISIBILI 2D
100
AcDbVertex
100
AcDb2dVertex
 10
279.1823784110068
 20
118.0675220483932
 30
0.0
  0
VERTEX
  5
616
330
5FF
100
AcDbEntity
  8
LINEE VISIBILI 2D
100
AcDbVertex
100
AcDb2dVertex
 10
279.1718871198642
 20
118.0572454591829
 30
0.0
  0
VERTEX
  5
617
330
5FF
100
AcDbEntity
  8
LINEE VISIBILI 2D
100
AcDbVertex
100
AcDb2dVertex
 10
279.1626078354002
 20
118.0469405130243
 30
0.0
  0
VERTEX
  5
618
330
5FF
100
AcDbEntity
  8
LINEE VISIBILI 2D
100
AcDbVertex
100
AcDb2dVertex
 10
279.1545506457109
 20
118.0366095864255
 30
0.0
  0
VERTEX
  5
619
330
5FF
100
AcDbEntity
  8
LINEE VISIBILI 2D
100
AcDbVertex
100
AcDb2dVertex
 10
279.1477251157054
 20
118.0262550888186
 30
0.0
  0
VERTEX
  5
61A
330
5FF
100
AcDbEntity
  8
LINEE VISIBILI 2D
100
AcDbVertex
100
AcDb2dVertex
 10
279.1421402737539
 20
118.0158794608977
 30
0.0
  0
VERTEX
  5
61B
330
5FF
100
AcDbEntity
  8
LINEE VISIBILI 2D
100
AcDbVertex
100
AcDb2dVertex
 10
279.1378045988438
 20
118.0054851728983
 30
0.0
  0
VERTEX
  5
61C
330
5FF
100
AcDbEntity
  8
LINEE VISIBILI 2D
100
AcDbVertex
100
AcDb2dVertex
 10
279.1347260082722
 20
117.9950747228188
 30
0.0
  0
VERTEX
  5
61D
330
5FF
100
AcDbEntity
  8
LINEE VISIBILI 2D
100
AcDbVertex
100
AcDb2dVertex
 10
279.1329118459037
 20
117.984650634588
 30
0.0
  0
VERTEX
  5
61E
330
5FF
100
AcDbEntity
  8
LINEE VISIBILI 2D
100
AcDbVertex
100
AcDb2dVertex
 10
279.1323688710239
 20
117.9742154561801
 30
0.0
  0
VERTEX
  5
61F
330
5FF
100
AcDbEntity
  8
LINEE VISIBILI 2D
100
AcDbVertex
100
AcDb2dVertex
 10
279.1331032478103
 20
117.96377175768
 30
0.0
  0
VERTEX
  5
620
330
5FF
100
AcDbEntity
  8
LINEE VISIBILI 2D
100
AcDbVertex
100
AcDb2dVertex
 10
279.135120535452
 20
117.9533221293022
 30
0.0
  0
VERTEX
  5
621
330
5FF
100
AcDbEntity
  8
LINEE VISIBILI 2D
100
AcDbVertex
100
AcDb2dVertex
 10
279.138425678939
 20
117.942869179366
 30
0.0
  0
VERTEX
  5
622
330
5FF
100
AcDbEntity
  8
LINEE VISIBILI 2D
100
AcDbVertex
100
AcDb2dVertex
 10
279.1430230005462
 20
117.9324155322299
 30
0.0
  0
VERTEX
  5
623
330
5FF
100
AcDbEntity
  8
LINEE VISIBILI 2D
100
AcDbVertex
100
AcDb2dVertex
 10
279.1489161920332
 20
117.9219638261887
 30
0.0
  0
VERTEX
  5
624
330
5FF
100
AcDbEntity
  8
LINEE VISIBILI 2D
100
AcDbVertex
100
AcDb2dVertex
 10
279.1561083075812
 20
117.9115167113371
 30
0.0
  0
VERTEX
  5
625
330
5FF
100
AcDbEntity
  8
LINEE VISIBILI 2D
100
AcDbVertex
100
AcDb2dVertex
 10
279.1646017574852
 20
117.9010768474018
 30
0.0
  0
VERTEX
  5
626
330
5FF
100
AcDbEntity
  8
LINEE VISIBILI 2D
100
AcDbVertex
100
AcDb2dVertex
 10
279.1743983026192
 20
117.890646901548
 30
0.0
  0
VERTEX
  5
627
330
5FF
100
AcDbEntity
  8
LINEE VISIBILI 2D
100
AcDbVertex
100
AcDb2dVertex
 10
279.185499049691
 20
117.8802295461615
 30
0.0
  0
VERTEX
  5
628
330
5FF
100
AcDbEntity
  8
LINEE VISIBILI 2D
100
AcDbVertex
100
AcDb2dVertex
 10
279.1979044472984
 20
117.8698274566123
 30
0.0
  0
VERTEX
  5
629
330
5FF
100
AcDbEntity
  8
LINEE VISIBILI 2D
100
AcDbVertex
100
AcDb2dVertex
 10
279.2116142828009
 20
117.8594433090022
 30
0.0
  0
VERTEX
  5
62A
330
5FF
100
AcDbEntity
  8
LINEE VISIBILI 2D
100
AcDbVertex
100
AcDb2dVertex
 10
279.226627680017
 20
117.8490797779005
 30
0.0
  0
VERTEX
  5
62B
330
5FF
100
AcDbEntity
  8
LINEE VISIBILI 2D
100
AcDbVertex
100
AcDb2dVertex
 10
279.2429430977555
 20
117.8387395340728
 30
0.0
  0
VERTEX
  5
62C
330
5FF
100
AcDbEntity
  8
LINEE VISIBILI 2D
100
AcDbVertex
100
AcDb2dVertex
 10
279.2605583291852
 20
117.8284252422054
 30
0.0
  0
VERTEX
  5
62D
330
5FF
100
AcDbEntity
  8
LINEE VISIBILI 2D
100
AcDbVertex
100
AcDb2dVertex
 10
279.2794705020511
 20
117.81813955863
 30
0.0
  0
VERTEX
  5
62E
330
5FF
100
AcDbEntity
  8
LINEE VISIBILI 2D
100
AcDbVertex
100
AcDb2dVertex
 10
279.2996760797374
 20
117.8078851290542
 30
0.0
  0
VERTEX
  5
62F
330
5FF
100
AcDbEntity
  8
LINEE VISIBILI 2D
100
AcDbVertex
100
AcDb2dVertex
 10
279.3211708631782
 20
117.7976645862977
 30
0.0
  0
VERTEX
  5
630
330
5FF
100
AcDbEntity
  8
LINEE VISIBILI 2D
100
AcDbVertex
100
AcDb2dVertex
 10
279.3439499936144
 20
117.7874805480445
 30
0.0
  0
VERTEX
  5
631
330
5FF
100
AcDbEntity
  8
LINEE VISIBILI 2D
100
AcDbVertex
100
AcDb2dVertex
 10
279.3680079561941
 20
117.777335614609
 30
0.0
  0
VERTEX
  5
632
330
5FF
100
AcDbEntity
  8
LINEE VISIBILI 2D
100
AcDbVertex
100
AcDb2dVertex
 10
279.3933385844098
 20
117.767232366723
 30
0.0
  0
VERTEX
  5
633
330
5FF
100
AcDbEntity
  8
LINEE VISIBILI 2D
100
AcDbVertex
100
AcDb2dVertex
 10
279.4199350653661
 20
117.7571733633489
 30
0.0
  0
VERTEX
  5
634
330
5FF
100
AcDbEntity
  8
LINEE VISIBILI 2D
100
AcDbVertex
100
AcDb2dVertex
 10
279.4768951393156
 20
117.7371982042106
 30
0.0
  0
VERTEX
  5
635
330
5FF
100
AcDbEntity
  8
LINEE VISIBILI 2D
100
AcDbVertex
100
AcDb2dVertex
 10
279.538820998582
 20
117.7174300922652
 30
0.0
  0
VERTEX
  5
636
330
5FF
100
AcDbEntity
  8
LINEE VISIBILI 2D
100
AcDbVertex
100
AcDb2dVertex
 10
279.6056355940315
 20
117.6978884997285
 30
0.0
  0
VERTEX
  5
637
330
5FF
100
AcDbEntity
  8
LINEE VISIBILI 2D
100
AcDbVertex
100
AcDb2dVertex
 10
279.6772523140568
 20
117.6785923524867
 30
0.0
  0
VERTEX
  5
638
330
5FF
100
AcDbEntity
  8
LINEE VISIBILI 2D
100
AcDbVertex
100
AcDb2dVertex
 10
279.7535753380723
 20
117.659559969809
 30
0.0
  0
VERTEX
  5
639
330
5FF
100
AcDbEntity
  8
LINEE VISIBILI 2D
100
AcDbVertex
100
AcDb2dVertex
 10
279.9199133921801
 20
117.6223564058748
 30
0.0
  0
VERTEX
  5
63A
330
5FF
100
AcDbEntity
  8
LINEE VISIBILI 2D
100
AcDbVertex
100
AcDb2dVertex
 10
280.1037150664983
 20
117.5864101761965
 30
0.0
  0
VERTEX
  5
63B
330
5FF
100
AcDbEntity
  8
LINEE VISIBILI 2D
100
AcDbVertex
100
AcDb2dVertex
 10
280.3039275682391
 20
117.5518407505314
 30
0.0
  0
VERTEX
  5
63C
330
5FF
100
AcDbEntity
  8
LINEE VISIBILI 2D
100
AcDbVertex
100
AcDb2dVertex
 10
280.5193974226385
 20
117.518753526887
 30
0.0
  0
VERTEX
  5
63D
330
5FF
100
AcDbEntity
  8
LINEE VISIBILI 2D
100
AcDbVertex
100
AcDb2dVertex
 10
280.9911046672064
 20
117.4573721354706
 30
0.0
  0
VERTEX
  5
63E
330
5FF
100
AcDbEntity
  8
LINEE VISIBILI 2D
100
AcDbVertex
100
AcDb2dVertex
 10
281.5083181958611
 20
117.4028035232602
 30
0.0
  0
VERTEX
  5
63F
330
5FF
100
AcDbEntity
  8
LINEE VISIBILI 2D
100
AcDbVertex
100
AcDb2dVertex
 10
282.6357960060183
 20
117.3150380995111
 30
0.0
  0
VERTEX
  5
640
330
5FF
100
AcDbEntity
  8
LINEE VISIBILI 2D
100
AcDbVertex
100
AcDb2dVertex
 10
283.9129844637897
 20
117.2515895230964
 30
0.0
  0
VERTEX
  5
641
330
5FF
100
AcDbEntity
  8
LINEE VISIBILI 2D
100
AcDbVertex
100
AcDb2dVertex
 10
285.380564785879
 20
117.2135184311612
 30
0.0
  0
VERTEX
  5
642
330
5FF
100
AcDbEntity
  8
LINEE VISIBILI 2D
100
AcDbVertex
100
AcDb2dVertex
 10
286.9717982674687
 20
117.2074844088384
 30
0.0
  0
VERTEX
  5
643
330
5FF
100
AcDbEntity
  8
LINEE VISIBILI 2D
100
AcDbVertex
100
AcDb2dVertex
 10
288.591703383348
 20
117.2369990063777
 30
0.0
  0
VERTEX
  5
644
330
5FF
100
AcDbEntity
  8
LINEE VISIBILI 2D
100
AcDbVertex
100
AcDb2dVertex
 10
290.1335694307336
 20
117.3011462055475
 30
0.0
  0
VERTEX
  5
645
330
5FF
100
AcDbEntity
  8
LINEE VISIBILI 2D
100
AcDbVertex
100
AcDb2dVertex
 10
291.5012312702193
 20
117.394568981239
 30
0.0
  0
VERTEX
  5
646
330
5FF
100
AcDbEntity
  8
LINEE VISIBILI 2D
100
AcDbVertex
100
AcDb2dVertex
 10
292.0974251634163
 20
117.4496806706881
 30
0.0
  0
VERTEX
  5
647
330
5FF
100
AcDbEntity
  8
LINEE VISIBILI 2D
100
AcDbVertex
100
AcDb2dVertex
 10
292.6279786823282
 20
117.508807167978
 30
0.0
  0
VERTEX
  5
648
330
5FF
100
AcDbEntity
  8
LINEE VISIBILI 2D
100
AcDbVertex
100
AcDb2dVertex
 10
293.0905082570848
 20
117.5707463295335
 30
0.0
  0
VERTEX
  5
649
330
5FF
100
AcDbEntity
  8
LINEE VISIBILI 2D
100
AcDbVertex
100
AcDb2dVertex
 10
293.4848364687391
 20
117.6343552825516
 30
0.0
  0
SEQEND
  5
600
330
5FF
100
AcDbEntity
  8
LINEE VISIBILI 2D
  0
ARC
  5
64A
330
1F
100
AcDbEntity
  8
LINEE VISIBILI 2D
100
AcDbCircle
 10
291.6556064642628
 20
117.5328262217769
 30
0.0
 40
1.901501952320291
100
AcDbArc
 50
275.079808741917
 51
301.6691162145352
  0
POLYLINE
  5
64B
330
1F
100
AcDbEntity
  8
LINEE VISIBILI 2D
100
AcDb2dPolyline
 66
     1
 10
0.0
 20
0.0
 30
0.0
  0
VERTEX
  5
64D
330
64B
100
AcDbEntity
  8
LINEE VISIBILI 2D
100
AcDbVertex
100
AcDb2dVertex
 10
293.4848364687391
 20
117.6343552825516
 30
0.0
  0
VERTEX
  5
64E
330
64B
100
AcDbEntity
  8
LINEE VISIBILI 2D
100
AcDbVertex
100
AcDb2dVertex
 10
293.6599472227886
 20
117.6670551716139
 30
0.0
  0
VERTEX
  5
64F
330
64B
100
AcDbEntity
  8
LINEE VISIBILI 2D
100
AcDbVertex
100
AcDb2dVertex
 10
293.8238543963665
 20
117.7010344568914
 30
0.0
  0
VERTEX
  5
650
330
64B
100
AcDbEntity
  8
LINEE VISIBILI 2D
100
AcDbVertex
100
AcDb2dVertex
 10
293.9754110197862
 20
117.7362333369776
 30
0.0
  0
VERTEX
  5
651
330
64B
100
AcDbEntity
  8
LINEE VISIBILI 2D
100
AcDbVertex
100
AcDb2dVertex
 10
294.1134869925717
 20
117.7725792043734
 30
0.0
  0
VERTEX
  5
652
330
64B
100
AcDbEntity
  8
LINEE VISIBILI 2D
100
AcDbVertex
100
AcDb2dVertex
 10
294.1771249480279
 20
117.7911560365442
 30
0.0
  0
VERTEX
  5
653
330
64B
100
AcDbEntity
  8
LINEE VISIBILI 2D
100
AcDbVertex
100
AcDb2dVertex
 10
294.2369844213588
 20
117.8099865415902
 30
0.0
  0
VERTEX
  5
654
330
64B
100
AcDbEntity
  8
LINEE VISIBILI 2D
100
AcDbVertex
100
AcDb2dVertex
 10
294.292935856445
 20
117.8290580338573
 30
0.0
  0
VERTEX
  5
655
330
64B
100
AcDbEntity
  8
LINEE VISIBILI 2D
100
AcDbVertex
100
AcDb2dVertex
 10
294.3448537546207
 20
117.8483570508111
 30
0.0
  0
VERTEX
  5
656
330
64B
100
AcDbEntity
  8
LINEE VISIBILI 2D
100
AcDbVertex
100
AcDb2dVertex
 10
294.3926171974159
 20
117.8678693712534
 30
0.0
  0
VERTEX
  5
657
330
64B
100
AcDbEntity
  8
LINEE VISIBILI 2D
100
AcDbVertex
100
AcDb2dVertex
 10
294.414904591537
 20
117.8777008741591
 30
0.0
  0
VERTEX
  5
658
330
64B
100
AcDbEntity
  8
LINEE VISIBILI 2D
100
AcDbVertex
100
AcDb2dVertex
 10
294.4361103667039
 20
117.8875800378187
 30
0.0
  0
VERTEX
  5
659
330
64B
100
AcDbEntity
  8
LINEE VISIBILI 2D
100
AcDbVertex
100
AcDb2dVertex
 10
294.4562209269119
 20
117.8975048819329
 30
0.0
  0
VERTEX
  5
65A
330
64B
100
AcDbEntity
  8
LINEE VISIBILI 2D
100
AcDbVertex
100
AcDb2dVertex
 10
294.4752230586608
 20
117.907473383778
 30
0.0
  0
VERTEX
  5
65B
330
64B
100
AcDbEntity
  8
LINEE VISIBILI 2D
100
AcDbVertex
100
AcDb2dVertex
 10
294.4931039464176
 20
117.9174834792781
 30
0.0
  0
VERTEX
  5
65C
330
64B
100
AcDbEntity
  8
LINEE VISIBILI 2D
100
AcDbVertex
100
AcDb2dVertex
 10
294.5098511878334
 20
117.9275330641432
 30
0.0
  0
VERTEX
  5
65D
330
64B
100
AcDbEntity
  8
LINEE VISIBILI 2D
100
AcDbVertex
100
AcDb2dVertex
 10
294.5254528086886
 20
117.9376199950727
 30
0.0
  0
VERTEX
  5
65E
330
64B
100
AcDbEntity
  8
LINEE VISIBILI 2D
100
AcDbVertex
100
AcDb2dVertex
 10
294.5398972775351
 20
117.9477420910229
 30
0.0
  0
VERTEX
  5
65F
330
64B
100
AcDbEntity
  8
LINEE VISIBILI 2D
100
AcDbVertex
100
AcDb2dVertex
 10
294.5531735200049
 20
117.9578971345379
 30
0.0
  0
VERTEX
  5
660
330
64B
100
AcDbEntity
  8
LINEE VISIBILI 2D
100
AcDbVertex
100
AcDb2dVertex
 10
294.5652709327555
 20
117.9680828731426
 30
0.0
  0
VERTEX
  5
661
330
64B
100
AcDbEntity
  8
LINEE VISIBILI 2D
100
AcDbVertex
100
AcDb2dVertex
 10
294.5761793970263
 20
117.9782970207951
 30
0.0
  0
VERTEX
  5
662
330
64B
100
AcDbEntity
  8
LINEE VISIBILI 2D
100
AcDbVertex
100
AcDb2dVertex
 10
294.5858892917712
 20
117.9885372593999
 30
0.0
  0
VERTEX
  5
663
330
64B
100
AcDbEntity
  8
LINEE VISIBILI 2D
100
AcDbVertex
100
AcDb2dVertex
 10
294.5943915063443
 20
117.9988012403765
 30
0.0
  0
VERTEX
  5
664
330
64B
100
AcDbEntity
  8
LINEE VISIBILI 2D
100
AcDbVertex
100
AcDb2dVertex
 10
294.6016774527075
 20
118.0090865862841
 30
0.0
  0
VERTEX
  5
665
330
64B
100
AcDbEntity
  8
LINEE VISIBILI 2D
100
AcDbVertex
100
AcDb2dVertex
 10
294.6077390771352
 20
118.0193908924995
 30
0.0
  0
VERTEX
  5
666
330
64B
100
AcDbEntity
  8
LINEE VISIBILI 2D
100
AcDbVertex
100
AcDb2dVertex
 10
294.6125688713877
 20
118.0297117289461
 30
0.0
  0
VERTEX
  5
667
330
64B
100
AcDbEntity
  8
LINEE VISIBILI 2D
100
AcDbVertex
100
AcDb2dVertex
 10
294.6161598833289
 20
118.0400466418713
 30
0.0
  0
VERTEX
  5
668
330
64B
100
AcDbEntity
  8
LINEE VISIBILI 2D
100
AcDbVertex
100
AcDb2dVertex
 10
294.618505726963
 20
118.0503931556702
 30
0.0
  0
VERTEX
  5
669
330
64B
100
AcDbEntity
  8
LINEE VISIBILI 2D
100
AcDbVertex
100
AcDb2dVertex
 10
294.6196005918677
 20
118.0607487747525
 30
0.0
  0
VERTEX
  5
66A
330
64B
100
AcDbEntity
  8
LINEE VISIBILI 2D
100
AcDbVertex
100
AcDb2dVertex
 10
294.619439251999
 20
118.0711109854514
 30
0.0
  0
VERTEX
  5
66B
330
64B
100
AcDbEntity
  8
LINEE VISIBILI 2D
100
AcDbVertex
100
AcDb2dVertex
 10
294.6180170738498
 20
118.0814772579687
 30
0.0
  0
VERTEX
  5
66C
330
64B
100
AcDbEntity
  8
LINEE VISIBILI 2D
100
AcDbVertex
100
AcDb2dVertex
 10
294.6153300239384
 20
118.0918450483559
 30
0.0
  0
VERTEX
  5
66D
330
64B
100
AcDbEntity
  8
LINEE VISIBILI 2D
100
AcDbVertex
100
AcDb2dVertex
 10
294.6113746756104
 20
118.1022118005268
 30
0.0
  0
VERTEX
  5
66E
330
64B
100
AcDbEntity
  8
LINEE VISIBILI 2D
100
AcDbVertex
100
AcDb2dVertex
 10
294.6061482151371
 20
118.1125749482985
 30
0.0
  0
VERTEX
  5
66F
330
64B
100
AcDbEntity
  8
LINEE VISIBILI 2D
100
AcDbVertex
100
AcDb2dVertex
 10
294.5996484470923
 20
118.1229319174576
 30
0.0
  0
VERTEX
  5
670
330
64B
100
AcDbEntity
  8
LINEE VISIBILI 2D
100
AcDbVertex
100
AcDb2dVertex
 10
294.591873798995
 20
118.1332801278486
 30
0.0
  0
VERTEX
  5
671
330
64B
100
AcDbEntity
  8
LINEE VISIBILI 2D
100
AcDbVertex
100
AcDb2dVertex
 10
294.5828233252048
 20
118.1436169954799
 30
0.0
  0
VERTEX
  5
672
330
64B
100
AcDbEntity
  8
LINEE VISIBILI 2D
100
AcDbVertex
100
AcDb2dVertex
 10
294.5724967100582
 20
118.1539399346453
 30
0.0
  0
VERTEX
  5
673
330
64B
100
AcDbEntity
  8
LINEE VISIBILI 2D
100
AcDbVertex
100
AcDb2dVertex
 10
294.5608942702372
 20
118.1642463600563
 30
0.0
  0
VERTEX
  5
674
330
64B
100
AcDbEntity
  8
LINEE VISIBILI 2D
100
AcDbVertex
100
AcDb2dVertex
 10
294.5480169563627
 20
118.174533688982
 30
0.0
  0
VERTEX
  5
675
330
64B
100
AcDbEntity
  8
LINEE VISIBILI 2D
100
AcDbVertex
100
AcDb2dVertex
 10
294.5338663538052
 20
118.1847993433926
 30
0.0
  0
VERTEX
  5
676
330
64B
100
AcDbEntity
  8
LINEE VISIBILI 2D
100
AcDbVertex
100
AcDb2dVertex
 10
294.51844468271
 20
118.1950407521036
 30
0.0
  0
VERTEX
  5
677
330
64B
100
AcDbEntity
  8
LINEE VISIBILI 2D
100
AcDbVertex
100
AcDb2dVertex
 10
294.5017547972348
 20
118.2052553529155
 30
0.0
  0
VERTEX
  5
678
330
64B
100
AcDbEntity
  8
LINEE VISIBILI 2D
100
AcDbVertex
100
AcDb2dVertex
 10
294.4838001839976
 20
118.2154405947473
 30
0.0
  0
VERTEX
  5
679
330
64B
100
AcDbEntity
  8
LINEE VISIBILI 2D
100
AcDbVertex
100
AcDb2dVertex
 10
294.4645849597382
 20
118.2255939397577
 30
0.0
  0
VERTEX
  5
67A
330
64B
100
AcDbEntity
  8
LINEE VISIBILI 2D
100
AcDbVertex
100
AcDb2dVertex
 10
294.444113868194
 20
118.2357128654526
 30
0.0
  0
VERTEX
  5
67B
330
64B
100
AcDbEntity
  8
LINEE VISIBILI 2D
100
AcDbVertex
100
AcDb2dVertex
 10
294.4223922761975
 20
118.2457948667736
 30
0.0
  0
VERTEX
  5
67C
330
64B
100
AcDbEntity
  8
LINEE VISIBILI 2D
100
AcDbVertex
100
AcDb2dVertex
 10
294.3994261690008
 20
118.2558374581641
 30
0.0
  0
VERTEX
  5
67D
330
64B
100
AcDbEntity
  8
LINEE VISIBILI 2D
100
AcDbVertex
100
AcDb2dVertex
 10
294.3752221448359
 20
118.265838175611
 30
0.0
  0
VERTEX
  5
67E
330
64B
100
AcDbEntity
  8
LINEE VISIBILI 2D
100
AcDbVertex
100
AcDb2dVertex
 10
294.3497874087205
 20
118.2757945786558
 30
0.0
  0
VERTEX
  5
67F
330
64B
100
AcDbEntity
  8
LINEE VISIBILI 2D
100
AcDbVertex
100
AcDb2dVertex
 10
294.2952576123003
 20
118.2955648093184
 30
0.0
  0
VERTEX
  5
680
330
64B
100
AcDbEntity
  8
LINEE VISIBILI 2D
100
AcDbVertex
100
AcDb2dVertex
 10
294.2359062739813
 20
118.3151291718622
 30
0.0
  0
VERTEX
  5
681
330
64B
100
AcDbEntity
  8
LINEE VISIBILI 2D
100
AcDbVertex
100
AcDb2dVertex
 10
294.1718120784031
 20
118.3344691875156
 30
0.0
  0
VERTEX
  5
682
330
64B
100
AcDbEntity
  8
LINEE VISIBILI 2D
100
AcDbVertex
100
AcDb2dVertex
 10
294.1030625784297
 20
118.35356693432
 30
0.0
  0
VERTEX
  5
683
330
64B
100
AcDbEntity
  8
LINEE VISIBILI 2D
100
AcDbVertex
100
AcDb2dVertex
 10
294.0297538323308
 20
118.3724051011548
 30
0.0
  0
VERTEX
  5
684
330
64B
100
AcDbEntity
  8
LINEE VISIBILI 2D
100
AcDbVertex
100
AcDb2dVertex
 10
293.8698829245443
 20
118.4092368032706
 30
0.0
  0
VERTEX
  5
685
330
64B
100
AcDbEntity
  8
LINEE VISIBILI 2D
100
AcDbVertex
100
AcDb2dVertex
 10
293.69312187946
 20
118.4448398383766
 30
0.0
  0
VERTEX
  5
686
330
64B
100
AcDbEntity
  8
LINEE VISIBILI 2D
100
AcDbVertex
100
AcDb2dVertex
 10
293.5005004189585
 20
118.4791023257692
 30
0.0
  0
VERTEX
  5
687
330
64B
100
AcDbEntity
  8
LINEE VISIBILI 2D
100
AcDbVertex
100
AcDb2dVertex
 10
293.0722296170516
 20
118.5432266822264
 30
0.0
  0
VERTEX
  5
688
330
64B
100
AcDbEntity
  8
LINEE VISIBILI 2D
100
AcDbVertex
100
AcDb2dVertex
 10
292.5947954054071
 20
118.6009966471298
 30
0.0
  0
VERTEX
  5
689
330
64B
100
AcDbEntity
  8
LINEE VISIBILI 2D
100
AcDbVertex
100
AcDb2dVertex
 10
292.0785092565763
 20
118.6520329565118
 30
0.0
  0
VERTEX
  5
68A
330
64B
100
AcDbEntity
  8
LINEE VISIBILI 2D
100
AcDbVertex
100
AcDb2dVertex
 10
290.9703747569525
 20
118.7334889947162
 30
0.0
  0
VERTEX
  5
68B
330
64B
100
AcDbEntity
  8
LINEE VISIBILI 2D
100
AcDbVertex
100
AcDb2dVertex
 10
289.7331429328857
 20
118.791899139244
 30
0.0
  0
VERTEX
  5
68C
330
64B
100
AcDbEntity
  8
LINEE VISIBILI 2D
100
AcDbVertex
100
AcDb2dVertex
 10
288.3244983836888
 20
118.8267567425707
 30
0.0
  0
VERTEX
  5
68D
330
64B
100
AcDbEntity
  8
LINEE VISIBILI 2D
100
AcDbVertex
100
AcDb2dVertex
 10
286.803478553826
 20
118.8322684211963
 30
0.0
  0
VERTEX
  5
68E
330
64B
100
AcDbEntity
  8
LINEE VISIBILI 2D
100
AcDbVertex
100
AcDb2dVertex
 10
285.2529484309904
 20
118.80527490146
 30
0.0
  0
VERTEX
  5
68F
330
64B
100
AcDbEntity
  8
LINEE VISIBILI 2D
100
AcDbVertex
100
AcDb2dVertex
 10
283.7665253233288
 20
118.7463117894334
 30
0.0
  0
VERTEX
  5
690
330
64B
100
AcDbEntity
  8
LINEE VISIBILI 2D
100
AcDbVertex
100
AcDb2dVertex
 10
282.430671761435
 20
118.6597083463305
 30
0.0
  0
VERTEX
  5
691
330
64B
100
AcDbEntity
  8
LINEE VISIBILI 2D
100
AcDbVertex
100
AcDb2dVertex
 10
281.308689506484
 20
118.5526140006278
 30
0.0
  0
VERTEX
  5
692
330
64B
100
AcDbEntity
  8
LINEE VISIBILI 2D
100
AcDbVertex
100
AcDb2dVertex
 10
280.8391179211002
 20
118.4939904594964
 30
0.0
  0
VERTEX
  5
693
330
64B
100
AcDbEntity
  8
LINEE VISIBILI 2D
100
AcDbVertex
100
AcDb2dVertex
 10
280.4324627483341
 20
118.4333729971339
 30
0.0
  0
SEQEND
  5
64C
330
64B
100
AcDbEntity
  8
LINEE VISIBILI 2D
  0
POLYLINE
  5
694
330
1F
100
AcDbEntity
  8
LINEE VISIBILI 2D
100
AcDb2dPolyline
 66
     1
 10
0.0
 20
0.0
 30
0.0
  0
VERTEX
  5
696
330
694
100
AcDbEntity
  8
LINEE VISIBILI 2D
100
AcDbVertex
100
AcDb2dVertex
 10
504.0070688694751
 20
206.1381241786639
 30
0.0
  0
VERTEX
  5
697
330
694
100
AcDbEntity
  8
LINEE VISIBILI 2D
100
AcDbVertex
100
AcDb2dVertex
 10
503.8471940968695
 20
213.2103579224985
 30
0.0
  0
VERTEX
  5
698
330
694
100
AcDbEntity
  8
LINEE VISIBILI 2D
100
AcDbVertex
100
AcDb2dVertex
 10
503.8666493925592
 20
216.7472173974468
 30
0.0
  0
VERTEX
  5
699
330
694
100
AcDbEntity
  8
LINEE VISIBILI 2D
100
AcDbVertex
100
AcDb2dVertex
 10
503.9621899387515
 20
220.2829250300977
 30
0.0
  0
VERTEX
  5
69A
330
694
100
AcDbEntity
  8
LINEE VISIBILI 2D
100
AcDbVertex
100
AcDb2dVertex
 10
504.1146206104174
 20
223.3778213890525
 30
0.0
  0
VERTEX
  5
69B
330
694
100
AcDbEntity
  8
LINEE VISIBILI 2D
100
AcDbVertex
100
AcDb2dVertex
 10
504.3385834648423
 20
226.4682034913304
 30
0.0
  0
VERTEX
  5
69C
330
694
100
AcDbEntity
  8
LINEE VISIBILI 2D
100
AcDbVertex
100
AcDb2dVertex
 10
504.6415774024094
 20
229.5513886424479
 30
0.0
  0
VERTEX
  5
69D
330
694
100
AcDbEntity
  8
LINEE VISIBILI 2D
100
AcDbVertex
100
AcDb2dVertex
 10
505.0311013235015
 20
232.6246941479213
 30
0.0
  0
VERTEX
  5
69E
330
694
100
AcDbEntity
  8
LINEE VISIBILI 2D
100
AcDbVertex
100
AcDb2dVertex
 10
505.4258854458281
 20
235.1710908127587
 30
0.0
  0
VERTEX
  5
69F
330
694
100
AcDbEntity
  8
LINEE VISIBILI 2D
100
AcDbVertex
100
AcDb2dVertex
 10
505.887191168524
 20
237.7064406119414
 30
0.0
  0
VERTEX
  5
6A0
330
694
100
AcDbEntity
  8
LINEE VISIBILI 2D
100
AcDbVertex
100
AcDb2dVertex
 10
506.4165021445183
 20
240.2283858057832
 30
0.0
  0
VERTEX
  5
6A1
330
694
100
AcDbEntity
  8
LINEE VISIBILI 2D
100
AcDbVertex
100
AcDb2dVertex
 10
507.0153020267406
 20
242.7345686545979
 30
0.0
  0
VERTEX
  5
6A2
330
694
100
AcDbEntity
  8
LINEE VISIBILI 2D
100
AcDbVertex
100
AcDb2dVertex
 10
507.5959465890766
 20
244.9140559995524
 30
0.0
  0
VERTEX
  5
6A3
330
694
100
AcDbEntity
  8
LINEE VISIBILI 2D
100
AcDbVertex
100
AcDb2dVertex
 10
510.7990782901771
 20
255.4407913282219
 30
0.0
  0
VERTEX
  5
6A4
330
694
100
AcDbEntity
  8
LINEE VISIBILI 2D
100
AcDbVertex
100
AcDb2dVertex
 10
511.3185627945366
 20
257.3494458832407
 30
0.0
  0
VERTEX
  5
6A5
330
694
100
AcDbEntity
  8
LINEE VISIBILI 2D
100
AcDbVertex
100
AcDb2dVertex
 10
511.5552226006811
 20
258.3097365842919
 30
0.0
  0
VERTEX
  5
6A6
330
694
100
AcDbEntity
  8
LINEE VISIBILI 2D
100
AcDbVertex
100
AcDb2dVertex
 10
511.7746257446532
 20
259.2740598451074
 30
0.0
  0
VERTEX
  5
6A7
330
694
100
AcDbEntity
  8
LINEE VISIBILI 2D
100
AcDbVertex
100
AcDb2dVertex
 10
512.0205866343248
 20
260.4727220616214
 30
0.0
  0
VERTEX
  5
6A8
330
694
100
AcDbEntity
  8
LINEE VISIBILI 2D
100
AcDbVertex
100
AcDb2dVertex
 10
512.2381678274641
 20
261.6769131120761
 30
0.0
  0
VERTEX
  5
6A9
330
694
100
AcDbEntity
  8
LINEE VISIBILI 2D
100
AcDbVertex
100
AcDb2dVertex
 10
512.4275528717398
 20
262.8859230443442
 30
0.0
  0
VERTEX
  5
6AA
330
694
100
AcDbEntity
  8
LINEE VISIBILI 2D
100
AcDbVertex
100
AcDb2dVertex
 10
512.58892531482
 20
264.0990419062986
 30
0.0
  0
VERTEX
  5
6AB
330
694
100
AcDbEntity
  8
LINEE VISIBILI 2D
100
AcDbVertex
100
AcDb2dVertex
 10
512.7224687043738
 20
265.315559745812
 30
0.0
  0
VERTEX
  5
6AC
330
694
100
AcDbEntity
  8
LINEE VISIBILI 2D
100
AcDbVertex
100
AcDb2dVertex
 10
512.8283665880688
 20
266.5347666107575
 30
0.0
  0
VERTEX
  5
6AD
330
694
100
AcDbEntity
  8
LINEE VISIBILI 2D
100
AcDbVertex
100
AcDb2dVertex
 10
512.9068025135739
 20
267.7559525490078
 30
0.0
  0
VERTEX
  5
6AE
330
694
100
AcDbEntity
  8
LINEE VISIBILI 2D
100
AcDbVertex
100
AcDb2dVertex
 10
512.9579600285572
 20
268.9784076084356
 30
0.0
  0
VERTEX
  5
6AF
330
694
100
AcDbEntity
  8
LINEE VISIBILI 2D
100
AcDbVertex
100
AcDb2dVertex
 10
512.9843024614099
 20
270.7309271057743
 30
0.0
  0
VERTEX
  5
6B0
330
694
100
AcDbEntity
  8
LINEE VISIBILI 2D
100
AcDbVertex
100
AcDb2dVertex
 10
512.9568802935136
 20
272.4833561730797
 30
0.0
  0
VERTEX
  5
6B1
330
694
100
AcDbEntity
  8
LINEE VISIBILI 2D
100
AcDbVertex
100
AcDb2dVertex
 10
512.8775554558473
 20
274.2344563901959
 30
0.0
  0
VERTEX
  5
6B2
330
694
100
AcDbEntity
  8
LINEE VISIBILI 2D
100
AcDbVertex
100
AcDb2dVertex
 10
512.7481898793908
 20
275.9829893369672
 30
0.0
  0
VERTEX
  5
6B3
330
694
100
AcDbEntity
  8
LINEE VISIBILI 2D
100
AcDbVertex
100
AcDb2dVertex
 10
512.5706454951226
 20
277.7277165932377
 30
0.0
  0
VERTEX
  5
6B4
330
694
100
AcDbEntity
  8
LINEE VISIBILI 2D
100
AcDbVertex
100
AcDb2dVertex
 10
512.3467842340219
 20
279.4673997388517
 30
0.0
  0
VERTEX
  5
6B5
330
694
100
AcDbEntity
  8
LINEE VISIBILI 2D
100
AcDbVertex
100
AcDb2dVertex
 10
512.0784680270677
 20
281.2008003536535
 30
0.0
  0
VERTEX
  5
6B6
330
694
100
AcDbEntity
  8
LINEE VISIBILI 2D
100
AcDbVertex
100
AcDb2dVertex
 10
511.7675588052393
 20
282.9266800174869
 30
0.0
  0
VERTEX
  5
6B7
330
694
100
AcDbEntity
  8
LINEE VISIBILI 2D
100
AcDbVertex
100
AcDb2dVertex
 10
511.4310692486595
 20
284.5742063812402
 30
0.0
  0
VERTEX
  5
6B8
330
694
100
AcDbEntity
  8
LINEE VISIBILI 2D
100
AcDbVertex
100
AcDb2dVertex
 10
511.0590323242653
 20
286.213759955298
 30
0.0
  0
VERTEX
  5
6B9
330
694
100
AcDbEntity
  8
LINEE VISIBILI 2D
100
AcDbVertex
100
AcDb2dVertex
 10
510.6533795732453
 20
287.8454279287792
 30
0.0
  0
VERTEX
  5
6BA
330
694
100
AcDbEntity
  8
LINEE VISIBILI 2D
100
AcDbVertex
100
AcDb2dVertex
 10
510.216042536788
 20
289.4692974908027
 30
0.0
  0
VERTEX
  5
6BB
330
694
100
AcDbEntity
  8
LINEE VISIBILI 2D
100
AcDbVertex
100
AcDb2dVertex
 10
507.3406434170791
 20
298.7601467274958
 30
0.0
  0
VERTEX
  5
6BC
330
694
100
AcDbEntity
  8
LINEE VISIBILI 2D
100
AcDbVertex
100
AcDb2dVertex
 10
507.0112307940004
 20
299.9556531685803
 30
0.0
  0
VERTEX
  5
6BD
330
694
100
AcDbEntity
  8
LINEE VISIBILI 2D
100
AcDbVertex
100
AcDb2dVertex
 10
506.7220623164861
 20
301.1111450127803
 30
0.0
  0
VERTEX
  5
6BE
330
694
100
AcDbEntity
  8
LINEE VISIBILI 2D
100
AcDbVertex
100
AcDb2dVertex
 10
506.4660255807067
 20
302.2740863508901
 30
0.0
  0
VERTEX
  5
6BF
330
694
100
AcDbEntity
  8
LINEE VISIBILI 2D
100
AcDbVertex
100
AcDb2dVertex
 10
506.3525146351913
 20
302.858395360026
 30
0.0
  0
VERTEX
  5
6C0
330
694
100
AcDbEntity
  8
LINEE VISIBILI 2D
100
AcDbVertex
100
AcDb2dVertex
 10
506.2497862481784
 20
303.4446204784772
 30
0.0
  0
VERTEX
  5
6C1
330
694
100
AcDbEntity
  8
LINEE VISIBILI 2D
100
AcDbVertex
100
AcDb2dVertex
 10
506.1586736273568
 20
304.0327796181896
 30
0.0
  0
VERTEX
  5
6C2
330
694
100
AcDbEntity
  8
LINEE VISIBILI 2D
100
AcDbVertex
100
AcDb2dVertex
 10
506.0800099804167
 20
304.622890691109
 30
0.0
  0
VERTEX
  5
6C3
330
694
100
AcDbEntity
  8
LINEE VISIBILI 2D
100
AcDbVertex
100
AcDb2dVertex
 10
506.0079811858383
 20
305.2826922434844
 30
0.0
  0
VERTEX
  5
6C4
330
694
100
AcDbEntity
  8
LINEE VISIBILI 2D
100
AcDbVertex
100
AcDb2dVertex
 10
505.9532684339131
 20
305.9443296150532
 30
0.0
  0
VERTEX
  5
6C5
330
694
100
AcDbEntity
  8
LINEE VISIBILI 2D
100
AcDbVertex
100
AcDb2dVertex
 10
505.9166944879406
 20
306.6071925504527
 30
0.0
  0
VERTEX
  5
6C6
330
694
100
AcDbEntity
  8
LINEE VISIBILI 2D
100
AcDbVertex
100
AcDb2dVertex
 10
505.8990821112213
 20
307.2706707943201
 30
0.0
  0
VERTEX
  5
6C7
330
694
100
AcDbEntity
  8
LINEE VISIBILI 2D
100
AcDbVertex
100
AcDb2dVertex
 10
505.9012540670545
 20
307.9341540912925
 30
0.0
  0
VERTEX
  5
6C8
330
694
100
AcDbEntity
  8
LINEE VISIBILI 2D
100
AcDbVertex
100
AcDb2dVertex
 10
505.9240331187401
 20
308.5970321860073
 30
0.0
  0
VERTEX
  5
6C9
330
694
100
AcDbEntity
  8
LINEE VISIBILI 2D
100
AcDbVertex
100
AcDb2dVertex
 10
505.9682420295784
 20
309.2586948231016
 30
0.0
  0
VERTEX
  5
6CA
330
694
100
AcDbEntity
  8
LINEE VISIBILI 2D
100
AcDbVertex
100
AcDb2dVertex
 10
506.0347035628688
 20
309.9185317472128
 30
0.0
  0
VERTEX
  5
6CB
330
694
100
AcDbEntity
  8
LINEE VISIBILI 2D
100
AcDbVertex
100
AcDb2dVertex
 10
506.1189243403047
 20
310.5421498487461
 30
0.0
  0
VERTEX
  5
6CC
330
694
100
AcDbEntity
  8
LINEE VISIBILI 2D
100
AcDbVertex
100
AcDb2dVertex
 10
506.2237994968852
 20
311.1628142993394
 30
0.0
  0
VERTEX
  5
6CD
330
694
100
AcDbEntity
  8
LINEE VISIBILI 2D
100
AcDbVertex
100
AcDb2dVertex
 10
506.3492206348971
 20
311.7797632843127
 30
0.0
  0
VERTEX
  5
6CE
330
694
100
AcDbEntity
  8
LINEE VISIBILI 2D
100
AcDbVertex
100
AcDb2dVertex
 10
506.4950793566273
 20
312.3922349889852
 30
0.0
  0
VERTEX
  5
6CF
330
694
100
AcDbEntity
  8
LINEE VISIBILI 2D
100
AcDbVertex
100
AcDb2dVertex
 10
506.6612672643628
 20
312.9994675986771
 30
0.0
  0
VERTEX
  5
6D0
330
694
100
AcDbEntity
  8
LINEE VISIBILI 2D
100
AcDbVertex
100
AcDb2dVertex
 10
506.8476759603903
 20
313.6006992987079
 30
0.0
  0
VERTEX
  5
6D1
330
694
100
AcDbEntity
  8
LINEE VISIBILI 2D
100
AcDbVertex
100
AcDb2dVertex
 10
507.0541970469967
 20
314.1951682743975
 30
0.0
  0
VERTEX
  5
6D2
330
694
100
AcDbEntity
  8
LINEE VISIBILI 2D
100
AcDbVertex
100
AcDb2dVertex
 10
507.2807221264691
 20
314.7821127110656
 30
0.0
  0
SEQEND
  5
695
330
694
100
AcDbEntity
  8
LINEE VISIBILI 2D
  0
ARC
  5
6E3
330
1F
100
AcDbEntity
  8
LINEE VISIBILI 2D
100
AcDbCircle
 10
439.9927307009694
 20
17.06222845060076
 30
0.0
 40
12.08608820381448
100
AcDbArc
 50
52.86126397658332
 51
82.25474116557091
  0
ARC
  5
6E4
330
1F
100
AcDbEntity
  8
LINEE VISIBILI 2D
100
AcDbCircle
 10
576.1198582425201
 20
17.02414119057454
 30
0.0
 40
12.12595460340805
100
AcDbArc
 50
97.79465996303244
 51
127.0893348945453
  0
CIRCLE
  5
6E5
330
1F
100
AcDbEntity
  8
0
100
AcDbCircle
 10
508.0484285169491
 20
19.99995797318394
 30
0.0
 40
7.499999999999943
  0
ENDSEC
  0
SECTION
  2
OBJECTS
  0
DICTIONARY
  5
C
330
0
100
AcDbDictionary
281
     1
  3
ACAD_COLOR
350
6D5
  3
ACAD_GROUP
350
D
  3
ACAD_LAYOUT
350
1A
  3
ACAD_MATERIAL
350
6D4
  3
ACAD_MLINESTYLE
350
17
  3
ACAD_PLOTSETTINGS
350
19
  3
ACAD_PLOTSTYLENAME
350
E
  3
ACAD_TABLESTYLE
350
6D6
  3
AcDbVariableDictionary
350
6DC
  0
DICTIONARY
  5
6D5
102
{ACAD_REACTORS
330
C
102
}
330
C
100
AcDbDictionary
281
     1
  0
DICTIONARY
  5
D
102
{ACAD_REACTORS
330
C
102
}
330
C
100
AcDbDictionary
281
     1
  0
DICTIONARY
  5
1A
102
{ACAD_REACTORS
330
C
102
}
330
C
100
AcDbDictionary
281
     1
  3
Layout1
350
1E
  3
Layout2
350
26
  3
Model
350
22
  0
DICTIONARY
  5
6D4
102
{ACAD_REACTORS
330
C
102
}
330
C
100
AcDbDictionary
281
     1
  0
DICTIONARY
  5
17
102
{ACAD_REACTORS
330
C
102
}
330
C
100
AcDbDictionary
281
     1
  3
Standard
350
18
  0
DICTIONARY
  5
19
102
{ACAD_REACTORS
330
C
102
}
330
C
100
AcDbDictionary
281
     1
  0
ACDBDICTIONARYWDFLT
  5
E
102
{ACAD_REACTORS
330
C
102
}
330
C
100
AcDbDictionary
281
     1
  3
Normal
350
F
100
AcDbDictionaryWithDefault
340
F
  0
DICTIONARY
  5
6D6
102
{ACAD_REACTORS
330
C
102
}
330
C
100
AcDbDictionary
281
     1
  3
Standard
350
6D7
  0
DICTIONARY
  5
6DC
102
{ACAD_REACTORS
330
C
102
}
330
C
100
AcDbDictionary
281
     1
  3
CTABLESTYLE
350
6DD
  0
LAYOUT
  5
1E
102
{ACAD_REACTORS
330
1A
102
}
330
1A
100
AcDbPlotSettings
  1

  2
none_device
  4

  6

 40
0.0
 41
0.0
 42
0.0
 43
0.0
 44
0.0
 45
0.0
 46
0.0
 47
0.0
 48
0.0
 49
0.0
140
0.0
141
0.0
142
1.0
143
1.0
 70
   688
 72
     0
 73
     0
 74
     5
  7

 75
    16
147
1.0
 76
     0
 77
     2
 78
   300
148
0.0
149
0.0
100
AcDbLayout
  1
Layout1
 70
     1
 71
     1
 10
0.0
 20
0.0
 11
12.0
 21
9.0
 12
0.0
 22
0.0
 32
0.0
 14
1.000000000000000E+20
 24
1.000000000000000E+20
 34
1.000000000000000E+20
 15
-1.000000000000000E+20
 25
-1.000000000000000E+20
 35
-1.000000000000000E+20
146
0.0
 13
0.0
 23
0.0
 33
0.0
 16
1.0
 26
0.0
 36
0.0
 17
0.0
 27
1.0
 37
0.0
 76
     0
330
1B
  0
LAYOUT
  5
26
102
{ACAD_REACTORS
330
1A
102
}
330
1A
100
AcDbPlotSettings
  1

  2
none_device
  4

  6

 40
0.0
 41
0.0
 42
0.0
 43
0.0
 44
0.0
 45
0.0
 46
0.0
 47
0.0
 48
0.0
 49
0.0
140
0.0
141
0.0
142
1.0
143
1.0
 70
   688
 72
     0
 73
     0
 74
     5
  7

 75
    16
147
1.0
 76
     0
 77
     2
 78
   300
148
0.0
149
0.0
100
AcDbLayout
  1
Layout2
 70
     1
 71
     2
 10
0.0
 20
0.0
 11
0.0
 21
0.0
 12
0.0
 22
0.0
 32
0.0
 14
0.0
 24
0.0
 34
0.0
 15
0.0
 25
0.0
 35
0.0
146
0.0
 13
0.0
 23
0.0
 33
0.0
 16
1.0
 26
0.0
 36
0.0
 17
0.0
 27
1.0
 37
0.0
 76
     0
330
23
  0
LAYOUT
  5
22
102
{ACAD_REACTORS
330
1A
102
}
330
1A
100
AcDbPlotSettings
  1

  2
none_device
  4

  6

 40
0.0
 41
0.0
 42
0.0
 43
0.0
 44
0.0
 45
0.0
 46
0.0
 47
0.0
 48
0.0
 49
0.0
140
0.0
141
0.0
142
1.0
143
1.0
 70
  1712
 72
     0
 73
     0
 74
     0
  7

 75
     0
147
1.0
 76
     0
 77
     2
 78
   300
148
0.0
149
0.0
100
AcDbLayout
  1
Model
 70
     1
 71
     0
 10
0.0
 20
0.0
 11
12.0
 21
9.0
 12
0.0
 22
0.0
 32
0.0
 14
232.2633158611759
 24
-0.0241900667604091
 34
0.0
 15
575.0494286979552
 25
316.7821127176285
 35
0.0
146
0.0
 13
0.0
 23
0.0
 33
0.0
 16
1.0
 26
0.0
 36
0.0
 17
0.0
 27
1.0
 37
0.0
 76
     0
330
1F
  0
MLINESTYLE
  5
18
102
{ACAD_REACTORS
330
17
102
}
330
17
100
AcDbMlineStyle
  2
STANDARD
 70
     0
  3

 62
   256
 51
90.0
 52
90.0
 71
     2
 49
0.5
 62
   256
  6
BYLAYER
 49
-0.5
 62
   256
  6
BYLAYER
  0
ACDBPLACEHOLDER
  5
F
102
{ACAD_REACTORS
330
E
102
}
330
E
  0
TABLESTYLE
  5
6D7
102
{ACAD_REACTORS
330
6D6
102
}
330
6D6
100
AcDbTableStyle
  3
Standard
 70
     0
 71
     0
 40
0.06
 41
0.06
280
     0
281
     0
  7
Standard
140
0.18
170
     2
 62
     0
 63
     7
283
     0
274
    -2
284
     1
 64
     0
275
    -2
285
     1
 65
     0
276
    -2
286
     1
 66
     0
277
    -2
287
     1
 67
     0
278
    -2
288
     1
 68
     0
279
    -2
289
     1
 69
     0
  7
Standard
140
0.25
170
     5
 62
     0
 63
     7
283
     0
274
    -2
284
     1
 64
     0
275
    -2
285
     1
 65
     0
276
    -2
286
     1
 66
     0
277
    -2
287
     1
 67
     0
278
    -2
288
     1
 68
     0
279
    -2
289
     1
 69
     0
  7
Standard
140
0.18
170
     5
 62
     0
 63
     7
283
     0
274
    -2
284
     1
 64
     0
275
    -2
285
     1
 65
     0
276
    -2
286
     1
 66
     0
277
    -2
287
     1
 67
     0
278
    -2
288
     1
 68
     0
279
    -2
289
     1
 69
     0
  0
DICTIONARYVAR
  5
6DD
102
{ACAD_REACTORS
330
6DC
102
}
330
6DC
100
DictionaryVariables
280
     0
  1
STANDARD
  0
ENDSEC
  0
EOF
