  0
SECTION
  2
HEADER
  9
$ACADVER
  1
AC1015
  9
$ACADMAINTVER
 70
    20
  9
$DWGCODEPAGE
  3
ANSI_1252
  9
$INSBASE
 10
0.0
 20
0.0
 30
0.0
  9
$EXTMIN
 10
-91.16531352597718
 20
-615.6245693281683
 30
0.0
  9
$EXTMAX
 10
644.2943334183889
 20
506.175
 30
0.0
  9
$LIMMIN
 10
0.0
 20
0.0
  9
$LIMMAX
 10
0.0
 20
0.0
  9
$ORTHOMODE
 70
     0
  9
$REGENMODE
 70
     1
  9
$FILLMODE
 70
     1
  9
$QTEXTMODE
 70
     0
  9
$MIRRTEXT
 70
     1
  9
$LTSCALE
 40
1.0
  9
$ATTMODE
 70
     1
  9
$TEXTSIZE
 40
0.0
  9
$TRACEWID
 40
0.05
  9
$TEXTSTYLE
  7
STANDARD
  9
$CLAYER
  8
0
  9
$CELTYPE
  6
CONTINUOUS
  9
$CECOLOR
 62
   256
  9
$CELTSCALE
 40
1.0
  9
$DISPSILH
 70
     0
  9
$DIMSCALE
 40
1.0
  9
$DIMASZ
 40
6.0
  9
$DIMEXO
 40
1.0
  9
$DIMDLI
 40
0.38
  9
$DIMRND
 40
0.0
  9
$DIMDLE
 40
1.0
  9
$DIMEXE
 40
0.18
  9
$DIMTP
 40
0.0
  9
$DIMTM
 40
0.0
  9
$DIMTXT
 40
3.5
  9
$DIMCEN
 40
0.09
  9
$DIMTSZ
 40
0.0
  9
$DIMTOL
 70
     0
  9
$DIMLIM
 70
     0
  9
$DIMTIH
 70
     1
  9
$DIMTOH
 70
     1
  9
$DIMSE1
 70
     0
  9
$DIMSE2
 70
     0
  9
$DIMTAD
 70
     1
  9
$DIMZIN
 70
     0
  9
$DIMBLK
  1

  9
$DIMASO
 70
     1
  9
$DIMSHO
 70
     1
  9
$DIMPOST
  1

  9
$DIMAPOST
  1

  9
$DIMALT
 70
     0
  9
$DIMALTD
 70
     2
  9
$DIMALTF
 40
0.0394
  9
$DIMLFAC
 40
1.0
  9
$DIMTOFL
 70
     0
  9
$DIMTVP
 40
0.0
  9
$DIMTIX
 70
     0
  9
$DIMSOXD
 70
     0
  9
$DIMSAH
 70
     0
  9
$DIMBLK1
  1

  9
$DIMBLK2
  1

  9
$DIMSTYLE
  2
STANDARD
  9
$DIMCLRD
 70
     0
  9
$DIMCLRE
 70
     0
  9
$DIMCLRT
 70
     0
  9
$DIMTFAC
 40
1.0
  9
$DIMGAP
 40
1.0
  9
$DIMJUST
 70
     0
  9
$DIMSD1
 70
     0
  9
$DIMSD2
 70
     0
  9
$DIMTOLJ
 70
     1
  9
$DIMTZIN
 70
     0
  9
$DIMALTZ
 70
     0
  9
$DIMALTTZ
 70
     0
  9
$DIMUPT
 70
     0
  9
$DIMDEC
 70
     4
  9
$DIMTDEC
 70
     4
  9
$DIMALTU
 70
     2
  9
$DIMALTTD
 70
     2
  9
$DIMTXSTY
  7
STANDARD
  9
$DIMAUNIT
 70
     0
  9
$DIMADEC
 70
     0
  9
$DIMALTRND
 40
0.0
  9
$DIMAZIN
 70
     0
  9
$DIMDSEP
 70
    46
  9
$DIMATFIT
 70
     3
  9
$DIMFRAC
 70
     0
  9
$DIMLDRBLK
  1

  9
$DIMLUNIT
 70
     2
  9
$DIMLWD
 70
    -2
  9
$DIMLWE
 70
    -2
  9
$DIMTMOVE
 70
     0
  9
$LUNITS
 70
     2
  9
$LUPREC
 70
     2
  9
$SKETCHINC
 40
0.1
  9
$FILLETRAD
 40
0.0
  9
$AUNITS
 70
     0
  9
$AUPREC
 70
     2
  9
$MENU
  1
acad
  9
$ELEVATION
 40
0.0
  9
$PELEVATION
 40
0.0
  9
$THICKNESS
 40
0.0
  9
$LIMCHECK
 70
     0
  9
$CHAMFERA
 40
0.0
  9
$CHAMFERB
 40
0.0
  9
$CHAMFERC
 40
0.0
  9
$CHAMFERD
 40
0.0
  9
$SKPOLY
 70
     0
  9
$TDCREATE
 40
2444972.041666667
  9
$TDUCREATE
 40
2444972.000000000
  9
$TDUPDATE
 40
2453768.891805185
  9
$TDUUPDATE
 40
2453768.850138518
  9
$TDINDWG
 40
0.0008143519
  9
$TDUSRTIMER
 40
0.0008143519
  9
$USRTIMER
 70
     1
  9
$ANGBASE
 50
0.0
  9
$ANGDIR
 70
     0
  9
$PDMODE
 70
     0
  9
$PDSIZE
 40
-1.0
  9
$PLINEWID
 40
0.0
  9
$SPLFRAME
 70
     0
  9
$SPLINETYPE
 70
     6
  9
$SPLINESEGS
 70
     8
  9
$HANDSEED
  5
4BF
  9
$SURFTAB1
 70
     6
  9
$SURFTAB2
 70
     6
  9
$SURFTYPE
 70
     6
  9
$SURFU
 70
     6
  9
$SURFV
 70
     6
  9
$UCSBASE
  2

  9
$UCSNAME
  2

  9
$UCSORG
 10
0.0
 20
0.0
 30
0.0
  9
$UCSXDIR
 10
1.0
 20
0.0
 30
0.0
  9
$UCSYDIR
 10
0.0
 20
1.0
 30
0.0
  9
$UCSORTHOREF
  2

  9
$UCSORTHOVIEW
 70
     1
  9
$UCSORGTOP
 10
0.0
 20
0.0
 30
0.0
  9
$UCSORGBOTTOM
 10
0.0
 20
0.0
 30
0.0
  9
$UCSORGLEFT
 10
0.0
 20
0.0
 30
0.0
  9
$UCSORGRIGHT
 10
0.0
 20
0.0
 30
0.0
  9
$UCSORGFRONT
 10
0.0
 20
0.0
 30
0.0
  9
$UCSORGBACK
 10
0.0
 20
0.0
 30
0.0
  9
$PUCSBASE
  2

  9
$PUCSNAME
  2

  9
$PUCSORG
 10
0.0
 20
0.0
 30
0.0
  9
$PUCSXDIR
 10
1.0
 20
0.0
 30
0.0
  9
$PUCSYDIR
 10
0.0
 20
1.0
 30
0.0
  9
$PUCSORTHOREF
  2

  9
$PUCSORTHOVIEW
 70
     0
  9
$PUCSORGTOP
 10
0.0
 20
0.0
 30
0.0
  9
$PUCSORGBOTTOM
 10
0.0
 20
0.0
 30
0.0
  9
$PUCSORGLEFT
 10
0.0
 20
0.0
 30
0.0
  9
$PUCSORGRIGHT
 10
0.0
 20
0.0
 30
0.0
  9
$PUCSORGFRONT
 10
0.0
 20
0.0
 30
0.0
  9
$PUCSORGBACK
 10
0.0
 20
0.0
 30
0.0
  9
$USERI1
 70
     0
  9
$USERI2
 70
     0
  9
$USERI3
 70
     0
  9
$USERI4
 70
     0
  9
$USERI5
 70
     0
  9
$USERR1
 40
0.0
  9
$USERR2
 40
0.0
  9
$USERR3
 40
0.0
  9
$USERR4
 40
0.0
  9
$USERR5
 40
0.0
  9
$WORLDVIEW
 70
     1
  9
$SHADEDGE
 70
     3
  9
$SHADEDIF
 70
    70
  9
$TILEMODE
 70
     1
  9
$MAXACTVP
 70
    16
  9
$PINSBASE
 10
0.0
 20
0.0
 30
0.0
  9
$PLIMCHECK
 70
     0
  9
$PEXTMIN
 10
1.000000000000000E+20
 20
1.000000000000000E+20
 30
1.000000000000000E+20
  9
$PEXTMAX
 10
-1.000000000000000E+20
 20
-1.000000000000000E+20
 30
-1.000000000000000E+20
  9
$PLIMMIN
 10
0.0
 20
0.0
  9
$PLIMMAX
 10
12.0
 20
9.0
  9
$UNITMODE
 70
     0
  9
$VISRETAIN
 70
     0
  9
$PLINEGEN
 70
     1
  9
$PSLTSCALE
 70
     1
  9
$TREEDEPTH
 70
  3020
  9
$CMLSTYLE
  2
STANDARD
  9
$CMLJUST
 70
     0
  9
$CMLSCALE
 40
1.0
  9
$PROXYGRAPHICS
 70
     0
  9
$MEASUREMENT
 70
     0
  9
$CELWEIGHT
370
    -1
  9
$ENDCAPS
280
     0
  9
$JOINSTYLE
280
     0
  9
$LWDISPLAY
290
     0
  9
$INSUNITS
 70
     0
  9
$HYPERLINKBASE
  1

  9
$STYLESHEET
  1

  9
$XEDIT
290
     1
  9
$CEPSNTYPE
380
     0
  9
$PSTYLEMODE
290
     1
  9
$FINGERPRINTGUID
  2
{B43C6E78-E38C-4EAA-A94A-4EC4A8AC5896}
  9
$VERSIONGUID
  2
{9A5EE25A-56F6-4B87-92FB-676E9F10AC5E}
  9
$EXTNAMES
290
     1
  9
$PSVPSCALE
 40
0.0
  9
$OLESTARTUP
290
     0
  0
ENDSEC
  0
SECTION
  2
CLASSES
  0
CLASS
  1
IMAGE
  2
AcDbRasterImage
  3
ISM
 90
    32895
280
     0
281
     1
  0
CLASS
  1
DICTIONARYVAR
  2
AcDbDictionaryVar
  3
ObjectDBX Classes
 90
        0
280
     0
281
     0
  0
CLASS
  1
RASTERVARIABLES
  2
AcDbRasterVariables
  3
ISM
 90
    32768
280
     0
281
     0
  0
CLASS
  1
IMAGEDEF
  2
AcDbRasterImageDef
  3
ISM
 90
    32768
280
     0
281
     0
  0
CLASS
  1
IMAGEDEF_REACTOR
  2
AcDbRasterImageDefReactor
  3
ISM
 90
    32769
280
     0
281
     0
  0
CLASS
  1
IDBUFFER
  2
AcDbIdBuffer
  3
ObjectDBX Classes
 90
    32768
280
     0
281
     0
  0
CLASS
  1
SPATIAL_FILTER
  2
AcDbSpatialFilter
  3
ObjectDBX Classes
 90
    32768
280
     0
281
     0
  0
CLASS
  1
SORTENTSTABLE
  2
AcDbSortentsTable
  3
ObjectDBX Classes
 90
    32768
280
     0
281
     0
  0
CLASS
  1
LAYER_INDEX
  2
AcDbLayerIndex
  3
ObjectDBX Classes
 90
    32768
280
     0
281
     0
  0
CLASS
  1
SPATIAL_INDEX
  2
AcDbSpatialIndex
  3
ObjectDBX Classes
 90
    32768
280
     0
281
     0
  0
CLASS
  1
OBJECT_PTR
  2
CAseDLPNTableRecord
  3
ASE-LPNTableRecord
 90
    32769
280
     0
281
     0
  0
CLASS
  1
LAYOUT
  2
AcDbLayout
  3
ObjectDBX Classes
 90
        0
280
     0
281
     0
  0
CLASS
  1
PLOTSETTINGS
  2
AcDbPlotSettings
  3
ObjectDBX Classes
 90
    32768
280
     0
281
     0
  0
CLASS
  1
ACDBDICTIONARYWDFLT
  2
AcDbDictionaryWithDefault
  3
ObjectDBX Classes
 90
        0
280
     0
281
     0
  0
CLASS
  1
ACDBPLACEHOLDER
  2
AcDbPlaceHolder
  3
ObjectDBX Classes
 90
        0
280
     0
281
     0
  0
CLASS
  1
VBA_PROJECT
  2
AcDbVbaProject
  3
acad
 90
    32768
280
     0
281
     0
  0
CLASS
  1
WIPEOUT
  2
AcDbWipeout
  3
"WipeOut|Product Desc: Object Enabler for WipeOut entity^I^I^I^I^I^I|Company: Autodesk, Inc.^I^I^I^I^I^I|WEB Address: www.autodesk.com"
 90
    32895
280
     0
281
     1
  0
CLASS
  1
WIPEOUTVARIABLES
  2
AcDbWipeoutVariables
  3
"WipeOut|Product Desc:     WipeOut Dbx Application|Company:          Autodesk, Inc.|WEB Address:      www.autodesk.com"
 90
    32768
280
     0
281
     0
  0
CLASS
  1
RTEXT
  2
RText
  3
RText|AutoCAD Express Tool|expresstools@autodesk.com
 90
    32768
280
     0
281
     1
  0
CLASS
  1
ARCALIGNEDTEXT
  2
AcDbArcAlignedText
  3
ATEXT|AutoCAD Express Tool|expresstools@autodesk.com
 90
    32768
280
     0
281
     1
  0
ENDSEC
  0
SECTION
  2
TABLES
  0
TABLE
  2
VPORT
  5
7
330
0
100
AcDbSymbolTable
 70
     2
  0
VPORT
  5
4B7
330
7
100
AcDbSymbolTableRecord
100
AcDbViewportTableRecord
  2
*Active
 70
     0
 10
0.0
 20
0.0
 11
1.0
 21
1.0
 12
327.8364230381786
 22
-54.71884689113426
 13
0.0
 23
0.0
 14
1.0
 24
1.0
 15
0.0
 25
0.0
 16
0.0
 26
0.0
 36
1.0
 17
0.0
 27
0.0
 37
0.0
 40
1131.133239757095
 41
1.569570871261378
 42
50.0
 43
0.0
 44
0.0
 50
0.0
 51
0.0
 71
     0
 72
  2000
 73
     1
 74
     1
 75
     0
 76
     0
 77
     0
 78
     0
281
     0
 65
     1
110
0.0
120
0.0
130
0.0
111
1.0
121
0.0
131
0.0
112
0.0
122
1.0
132
0.0
 79
     1
146
0.0
  0
ENDTAB
  0
TABLE
  2
LTYPE
  5
4
330
0
100
AcDbSymbolTable
 70
     6
  0
LTYPE
  5
11
330
4
100
AcDbSymbolTableRecord
100
AcDbLinetypeTableRecord
  2
BYBLOCK
 70
     0
  3

 72
    65
 73
     0
 40
0.0
  0
LTYPE
  5
12
330
4
100
AcDbSymbolTableRecord
100
AcDbLinetypeTableRecord
  2
BYLAYER
 70
     0
  3

 72
    65
 73
     0
 40
0.0
  0
LTYPE
  5
13
330
4
100
AcDbSymbolTableRecord
100
AcDbLinetypeTableRecord
  2
CONTINUOUS
 70
     0
  3
Solid line
 72
    65
 73
     0
 40
0.0
  0
LTYPE
  5
1E
330
4
100
AcDbSymbolTableRecord
100
AcDbLinetypeTableRecord
  2
HIDDEN
 70
     0
  3
Hidden __ __ __ __ __ __ __ __ __ __ __ __ __ __
 72
    65
 73
     2
 40
1.905
 49
1.27
 74
     0
 49
-0.635
 74
     0
  0
LTYPE
  5
1F
330
4
100
AcDbSymbolTableRecord
100
AcDbLinetypeTableRecord
  2
PHANTOM
 70
     0
  3
Phantom ______  __  __  ______  __  __  ______
 72
    65
 73
     6
 40
12.7
 49
6.349999999999999
 74
     0
 49
-1.27
 74
     0
 49
1.27
 74
     0
 49
-1.27
 74
     0
 49
1.27
 74
     0
 49
-1.27
 74
     0
  0
LTYPE
  5
20
330
4
100
AcDbSymbolTableRecord
100
AcDbLinetypeTableRecord
  2
CENTER
 70
     0
  3
Center ____ _ ____ _ ____ _ ____ _ ____ _ ____
 72
    65
 73
     4
 40
10.16
 49
6.349999999999999
 74
     0
 49
-1.27
 74
     0
 49
1.27
 74
     0
 49
-1.27
 74
     0
  0
LTYPE
  5
21
330
4
100
AcDbSymbolTableRecord
100
AcDbLinetypeTableRecord
  2
CENTERX2
 70
     0
  3
Center (2x) ________  __  ________  __  _____
 72
    65
 73
     4
 40
20.32
 49
12.7
 74
     0
 49
-2.54
 74
     0
 49
2.54
 74
     0
 49
-2.54
 74
     0
  0
LTYPE
  5
22
330
4
100
AcDbSymbolTableRecord
100
AcDbLinetypeTableRecord
  2
DOT2
 70
     0
  3
Dot (.5x) ........................................
 72
    65
 73
     2
 40
0.635
 49
0.0
 74
     0
 49
-0.635
 74
     0
  0
ENDTAB
  0
TABLE
  2
LAYER
  5
2
330
0
100
AcDbSymbolTable
 70
     2
  0
LAYER
  5
14
330
2
100
AcDbSymbolTableRecord
100
AcDbLayerTableRecord
  2
0
 70
     0
 62
     7
  6
CONTINUOUS
370
    -3
390
49C
  0
LAYER
  5
26
330
2
100
AcDbSymbolTableRecord
100
AcDbLayerTableRecord
  2
DEFPOINTS
 70
     0
 62
     7
  6
CONTINUOUS
290
     0
370
    -3
390
49C
  0
ENDTAB
  0
TABLE
  2
STYLE
  5
3
330
0
100
AcDbSymbolTable
 70
     1
  0
STYLE
  5
17
330
3
100
AcDbSymbolTableRecord
100
AcDbTextStyleTableRecord
  2
STANDARD
 70
     0
 40
0.0
 41
1.0
 50
0.0
 71
     0
 42
0.0
  3
Century Gothic
  4

  0
ENDTAB
  0
TABLE
  2
VIEW
  5
5
330
0
100
AcDbSymbolTable
 70
     0
  0
ENDTAB
  0
TABLE
  2
UCS
  5
6
330
0
100
AcDbSymbolTable
 70
     0
  0
ENDTAB
  0
TABLE
  2
APPID
  5
8
330
0
100
AcDbSymbolTable
 70
     2
  0
APPID
  5
16
330
8
100
AcDbSymbolTableRecord
100
AcDbRegAppTableRecord
  2
ACAD
 70
     0
  0
APPID
  5
4A7
330
8
100
AcDbSymbolTableRecord
100
AcDbRegAppTableRecord
  2
DCO15
 70
     0
  0
ENDTAB
  0
TABLE
  2
DIMSTYLE
  5
9
330
0
100
AcDbSymbolTable
 70
     1
100
AcDbDimStyleTable
 71
     0
  0
DIMSTYLE
105
18
330
9
100
AcDbSymbolTableRecord
100
AcDbDimStyleTableRecord
  2
STANDARD
 70
     0
289
     0
340
17
  0
ENDTAB
  0
TABLE
  2
BLOCK_RECORD
  5
1
330
0
100
AcDbSymbolTable
 70
     0
  0
BLOCK_RECORD
  5
A
330
1
100
AcDbSymbolTableRecord
100
AcDbBlockTableRecord
  2
*MODEL_SPACE
340
4A1
  0
BLOCK_RECORD
  5
B
330
1
100
AcDbSymbolTableRecord
100
AcDbBlockTableRecord
  2
*PAPER_SPACE
340
4A2
  0
ENDTAB
  0
ENDSEC
  0
SECTION
  2
BLOCKS
  0
BLOCK
  5
D
330
A
100
AcDbEntity
  8
0
100
AcDbBlockBegin
  2
*MODEL_SPACE
 70
     0
 10
0.0
 20
0.0
 30
0.0
  3
*MODEL_SPACE
  1

  0
ENDBLK
  5
E
330
A
100
AcDbEntity
  8
0
100
AcDbBlockEnd
  0
BLOCK
  5
F
330
B
100
AcDbEntity
 67
     1
  8
0
100
AcDbBlockBegin
  2
*PAPER_SPACE
 70
     0
 10
0.0
 20
0.0
 30
0.0
  3
*PAPER_SPACE
  1

  0
ENDBLK
  5
10
330
B
100
AcDbEntity
 67
     1
  8
0
100
AcDbBlockEnd
  0
ENDSEC
  0
SECTION
  2
ENTITIES
  0
LWPOLYLINE
  5
27
330
A
100
AcDbEntity
  8
0
  6
Continuous
 62
     7
100
AcDbPolyline
 90
        9
 70
   128
 43
0.0
 10
85.34517400336536
 20
115.1238469052554
 10
85.36309732309323
 20
115.2613551048423
 10
85.18130317461221
 20
116.1346935962372
 10
84.78706421490043
 20
116.8325432284294
 10
84.23850322127909
 20
117.4009425859204
 10
83.49606653416646
 20
117.902629680032
 10
82.4184018753491
 20
118.3845779819559
 10
80.99702516166486
 20
118.7999826508743
 10
80.86470265684068
 20
118.8249680559571
  0
LWPOLYLINE
  5
32
330
A
100
AcDbEntity
  8
0
  6
Continuous
 62
     7
100
AcDbPolyline
 90
        8
 70
   128
 43
0.0
 10
69.86470265684068
 20
118.8254936195093
 10
69.74060405864237
 20
118.8019058225044
 10
68.41038334571128
 20
118.420077192507
 10
67.21022120789228
 20
117.8897477441487
 10
66.3897790790595
 20
117.3137834929793
 10
65.83492715071405
 20
116.6820088357441
 10
65.47502154590853
 20
115.9222787951898
 10
65.3794301286557
 20
115.1710381425474
  0
LINE
  5
3C
330
A
100
AcDbEntity
  8
0
  6
Continuous
 62
     7
100
AcDbLine
 10
65.36470269210379
 20
115.1700754480108
 30
0.0
 11
65.36470265684068
 21
114.0543383436637
 31
0.0
  0
LINE
  5
3D
330
A
100
AcDbEntity
  8
0
  6
Continuous
 62
     7
100
AcDbLine
 10
85.36470265684066
 20
114.0543383436637
 30
0.0
 11
85.36470265684066
 21
115.1698437579471
 31
0.0
  0
ARC
  5
3E
330
A
100
AcDbEntity
  8
0
  6
Continuous
 62
     7
100
AcDbCircle
 10
75.36470265684044
 20
155.6749999999999
 30
0.0
 40
5.5
100
AcDbArc
 50
0.0
 51
180.0000000000004
  0
LINE
  5
3F
330
A
100
AcDbEntity
  8
0
  6
Continuous
 62
     7
100
AcDbLine
 10
69.86470265684046
 20
155.6749999999999
 30
0.0
 11
69.86470265684068
 21
117.145454385889
 31
0.0
  0
LINE
  5
40
330
A
100
AcDbEntity
  8
0
  6
Continuous
 62
     7
100
AcDbLine
 10
80.86470265684068
 20
117.141457331404
 30
0.0
 11
80.86470265684045
 21
155.6749999999999
 31
0.0
  0
ARC
  5
41
330
A
100
AcDbEntity
  8
0
  6
Continuous
 62
     7
100
AcDbCircle
 10
75.36470265684044
 20
-32.32499999999988
 30
0.0
 40
150.0
100
AcDbArc
 50
174.3785475851932
 51
86.54501926364778
  0
ARC
  5
42
330
A
100
AcDbEntity
  8
0
  6
Continuous
 62
     7
100
AcDbCircle
 10
75.36470265684044
 20
-32.32499999999988
 30
0.0
 40
150.0
100
AcDbArc
 50
93.42219593514068
 51
115.6216758012629
  0
LINE
  5
43
330
A
100
AcDbEntity
  8
0
  6
Continuous
 62
     7
100
AcDbLine
 10
10.76316030917894
 20
104.533034738048
 30
0.0
 11
1.730927339020055
 21
102.940390214351
 31
0.0
  0
LINE
  5
44
330
A
100
AcDbEntity
  8
0
  6
Continuous
 62
     7
100
AcDbLine
 10
-76.9472355545367
 20
-9.424137501321149
 30
0.0
 11
-75.35459103083986
 21
-18.45637047148024
 31
0.0
  0
LINE
  5
45
330
A
100
AcDbEntity
  8
0
  6
Continuous
 62
     7
100
AcDbLine
 10
-75.35459103083986
 20
-18.45637047148024
 30
0.0
 11
-74.36978361634183
 21
-18.28272037401507
 31
0.0
  0
LINE
  5
46
330
A
100
AcDbEntity
  8
0
  6
Continuous
 62
     7
100
AcDbLine
 10
10.93681040664421
 20
103.54822732355
 30
0.0
 11
10.76316030917894
 21
104.533034738048
 31
0.0
  0
ARC
  5
47
330
A
100
AcDbEntity
  8
0
  6
Continuous
 62
     7
100
AcDbCircle
 10
2.078227533950482
 20
100.970775385355
 30
0.0
 40
2.000000000000058
100
AcDbArc
 50
100.0001116932273
 51
145.0001116932267
  0
ARC
  5
48
330
A
100
AcDbEntity
  8
0
  6
Continuous
 62
     7
100
AcDbCircle
 10
-74.97762072554062
 20
-9.076837306390805
 30
0.0
 40
1.999999999999998
100
AcDbArc
 50
145.0001116932284
 51
190.0001116932276
  0
LINE
  5
49
330
A
100
AcDbEntity
  8
0
  6
Continuous
 62
     7
100
AcDbLine
 10
-31.7786796863333
 20
56.10480350513075
 30
0.0
 11
-39.7246329876476
 21
60.4478238980522
 31
0.0
  0
LINE
  5
4A
330
A
100
AcDbEntity
  8
0
  6
Continuous
 62
     7
100
AcDbLine
 10
-51.19612977730803
 20
44.06476064953795
 30
0.0
 11
-44.39732615495972
 21
38.08343393176516
 31
0.0
  0
LINE
  5
4B
330
A
100
AcDbEntity
  8
0
  6
Continuous
 62
     7
100
AcDbLine
 10
-41.1585700863552
 20
58.39994099198792
 30
0.0
 11
-58.97557043357701
 21
67.82355487558416
 31
0.0
  0
LINE
  5
4C
330
A
100
AcDbEntity
  8
0
  6
Continuous
 62
     7
100
AcDbLine
 10
-64.71131882840722
 20
59.63202325132705
 30
0.0
 11
-49.76219267860043
 21
46.11264355560235
 31
0.0
  0
ARC
  5
4D
330
A
100
AcDbEntity
  8
0
  6
Continuous
 62
     7
100
AcDbCircle
 10
12.4024827095914
 20
497.1749999999999
 30
0.0
 40
1.0
100
AcDbArc
 50
90.0
 51
230.4115930898245
  0
ARC
  5
4E
330
A
100
AcDbEntity
  8
0
  6
Continuous
 62
     7
100
AcDbCircle
 10
151.3269226040895
 20
497.175
 30
0.0
 40
1.0
100
AcDbArc
 50
309.5884069101767
 51
90.0
  0
ARC
  5
4F
330
A
100
AcDbEntity
  8
0
  6
Continuous
 62
     7
100
AcDbCircle
 10
81.86470265684043
 20
581.1749999999999
 30
0.0
 40
109.9999999999999
100
AcDbArc
 50
230.411593089824
 51
260.845866715362
  0
ARC
  5
50
330
A
100
AcDbEntity
  8
0
  6
Continuous
 62
     7
100
AcDbCircle
 10
81.86470265684043
 20
581.1749999999999
 30
0.0
 40
109.9999999999999
100
AcDbArc
 50
263.475021155857
 51
268.9582011495455
  0
ARC
  5
51
330
A
100
AcDbEntity
  8
0
  6
Continuous
 62
     7
100
AcDbCircle
 10
81.86470265684043
 20
581.1749999999999
 30
0.0
 40
109.9999999999999
100
AcDbArc
 50
271.0417988504561
 51
309.5884069101777
  0
LINE
  5
52
330
A
100
AcDbEntity
  8
0
  6
Continuous
 62
     7
100
AcDbLine
 10
26.86470265684045
 20
506.175
 30
0.0
 11
26.86470265684045
 21
498.1749999999999
 31
0.0
  0
LINE
  5
53
330
A
100
AcDbEntity
  8
0
  6
Continuous
 62
     7
100
AcDbLine
 10
136.8647026568404
 20
498.1749999999999
 30
0.0
 11
136.8647026568403
 21
506.175
 31
0.0
  0
ARC
  5
54
330
A
100
AcDbEntity
  8
0
  6
Continuous
 62
     7
100
AcDbCircle
 10
75.36470265684046
 20
161.175
 30
0.0
 40
10.99999999999998
100
AcDbArc
 50
300.0000000000008
 51
40.00000000000105
  0
ARC
  5
55
330
A
100
AcDbEntity
  8
0
  6
Continuous
 62
     7
100
AcDbCircle
 10
75.36470265684046
 20
161.175
 30
0.0
 40
11.00000000000001
100
AcDbArc
 50
180.0000000000004
 51
240.0000000000009
  0
ARC
  5
56
330
A
100
AcDbEntity
  8
0
  6
Continuous
 62
     7
100
AcDbCircle
 10
75.36470265684046
 20
161.175
 30
0.0
 40
11.00000000000001
100
AcDbArc
 50
106.1276202131608
 51
180.0000000000004
  0
ARC
  5
57
330
A
100
AcDbEntity
  8
0
  6
Continuous
 62
     7
100
AcDbCircle
 10
75.36470265684046
 20
161.175
 30
0.0
 40
15.00000000000001
100
AcDbArc
 50
106.1276202131609
 51
248.4898117331133
  0
ARC
  5
58
330
A
100
AcDbEntity
  8
0
  6
Continuous
 62
     7
100
AcDbCircle
 10
75.36470265684046
 20
161.175
 30
0.0
 40
15.0
100
AcDbArc
 50
291.5101882668882
 51
0.0
  0
ARC
  5
59
330
A
100
AcDbEntity
  8
0
  6
Continuous
 62
     7
100
AcDbCircle
 10
75.36470265684046
 20
161.175
 30
0.0
 40
15.0
100
AcDbArc
 50
0.0
 51
40.00000000000116
  0
ARC
  5
5A
330
A
100
AcDbEntity
  8
0
  6
Continuous
 62
     7
100
AcDbCircle
 10
70.36470265684046
 20
178.4666164657906
 30
0.0
 40
3.0
100
AcDbArc
 50
286.1276202131609
 51
0.0
  0
ARC
  5
5B
330
A
100
AcDbEntity
  8
0
  6
Continuous
 62
     7
100
AcDbCircle
 10
70.36470265684046
 20
178.4666164657906
 30
0.0
 40
6.999999999999995
100
AcDbArc
 50
286.1276202131614
 51
0.0
  0
LINE
  5
5C
330
A
100
AcDbEntity
  8
0
  6
Continuous
 62
     7
100
AcDbLine
 10
73.36470265684043
 20
351.175
 30
0.0
 11
73.36470265684043
 21
326.175
 31
0.0
  0
LINE
  5
5D
330
A
100
AcDbEntity
  8
0
  6
Continuous
 62
     7
100
AcDbLine
 10
73.36470265684045
 20
316.175
 30
0.0
 11
73.36470265684045
 21
286.175
 31
0.0
  0
LINE
  5
5E
330
A
100
AcDbEntity
  8
0
  6
Continuous
 62
     7
100
AcDbLine
 10
73.36470265684045
 20
276.175
 30
0.0
 11
73.36470265684046
 21
178.4666164657906
 31
0.0
  0
LINE
  5
5F
330
A
100
AcDbEntity
  8
0
  6
Continuous
 62
     7
100
AcDbLine
 10
77.36470265684045
 20
178.4666164657906
 30
0.0
 11
77.36470265684045
 21
276.175
 31
0.0
  0
LINE
  5
60
330
A
100
AcDbEntity
  8
0
  6
Continuous
 62
     7
100
AcDbLine
 10
77.36470265684045
 20
286.175
 30
0.0
 11
77.36470265684044
 21
316.175
 31
0.0
  0
LINE
  5
61
330
A
100
AcDbEntity
  8
0
  6
Continuous
 62
     7
100
AcDbLine
 10
77.36470265684044
 20
326.175
 30
0.0
 11
77.36470265684044
 21
351.175
 31
0.0
  0
LINE
  5
62
330
A
100
AcDbEntity
  8
0
  6
Continuous
 62
     7
100
AcDbLine
 10
79.86470265684039
 20
462.8187610740747
 30
0.0
 11
79.86470265684042
 21
458.6866103302623
 31
0.0
  0
LINE
  5
63
330
A
100
AcDbEntity
  8
0
  6
Continuous
 62
     7
100
AcDbLine
 10
79.86470265684047
 20
471.9613636363638
 30
0.0
 11
79.86470265684046
 21
462.8187610740747
 31
0.0
  0
LINE
  5
64
330
A
100
AcDbEntity
  8
0
  6
Continuous
 62
     7
100
AcDbLine
 10
83.86470265684046
 20
462.8187610740747
 30
0.0
 11
83.86470265684048
 21
471.9613636363638
 31
0.0
  0
LINE
  5
65
330
A
100
AcDbEntity
  8
0
  6
Continuous
 62
     7
100
AcDbLine
 10
83.86470265684042
 20
458.6866103302623
 30
0.0
 11
83.86470265684041
 21
462.8187610740747
 31
0.0
  0
LINE
  5
66
330
A
100
AcDbEntity
  8
0
  6
Continuous
 62
     7
100
AcDbLine
 10
69.36470265684047
 20
326.175
 30
0.0
 11
69.36470265684047
 21
316.175
 31
0.0
  0
LINE
  5
67
330
A
100
AcDbEntity
  8
0
  6
Continuous
 62
     7
100
AcDbLine
 10
87.86470265684046
 20
316.175
 30
0.0
 11
87.86470265684046
 21
326.175
 31
0.0
  0
LINE
  5
68
330
A
100
AcDbEntity
  8
0
  6
Continuous
 62
     7
100
AcDbLine
 10
69.36470265684047
 20
286.175
 30
0.0
 11
69.36470265684047
 21
276.1750000000001
 31
0.0
  0
LINE
  5
69
330
A
100
AcDbEntity
  8
0
  6
Continuous
 62
     7
100
AcDbLine
 10
87.86470265684046
 20
276.1750000000001
 30
0.0
 11
87.86470265684046
 21
286.175
 31
0.0
  0
LINE
  5
6A
330
A
100
AcDbEntity
  8
0
  6
Continuous
 62
     7
100
AcDbLine
 10
83.86470265684042
 20
453.8833835342094
 30
0.0
 11
83.86470265684042
 21
458.6866103302623
 31
0.0
  0
LINE
  5
6B
330
A
100
AcDbEntity
  8
0
  6
Continuous
 62
     7
100
AcDbLine
 10
79.86470265684042
 20
458.6866103302623
 30
0.0
 11
79.86470265684042
 21
453.8833835342094
 31
0.0
  0
LINE
  5
6C
330
A
100
AcDbEntity
  8
0
  6
Continuous
 62
     7
100
AcDbLine
 10
83.86470265684042
 20
326.175
 30
0.0
 11
83.86470265684042
 21
453.8833835342094
 31
0.0
  0
LINE
  5
6D
330
A
100
AcDbEntity
  8
0
  6
Continuous
 62
     7
100
AcDbLine
 10
79.86470265684042
 20
453.8833835342094
 30
0.0
 11
79.86470265684042
 21
326.175
 31
0.0
  0
LINE
  5
6E
330
A
100
AcDbEntity
  8
0
  6
Continuous
 62
     7
100
AcDbLine
 10
83.86470265684042
 20
286.1750000000001
 30
0.0
 11
83.86470265684042
 21
316.175
 31
0.0
  0
LINE
  5
6F
330
A
100
AcDbEntity
  8
0
  6
Continuous
 62
     7
100
AcDbLine
 10
79.86470265684042
 20
316.175
 30
0.0
 11
79.86470265684042
 21
286.1750000000001
 31
0.0
  0
LINE
  5
70
330
A
100
AcDbEntity
  8
0
  6
Continuous
 62
     7
100
AcDbLine
 10
83.86470265684042
 20
246.175
 30
0.0
 11
83.86470265684042
 21
276.1750000000001
 31
0.0
  0
LINE
  5
71
330
A
100
AcDbEntity
  8
0
  6
Continuous
 62
     7
100
AcDbLine
 10
79.86470265684042
 20
276.1750000000001
 30
0.0
 11
79.86470265684042
 21
246.175
 31
0.0
  0
ARC
  5
72
330
A
100
AcDbEntity
  8
0
  6
Continuous
 62
     7
100
AcDbCircle
 10
-33.16470265684132
 20
104.6854471847409
 30
0.0
 40
47.50000000000021
100
AcDbArc
 50
180.0000000000004
 51
235.000111693229
  0
ARC
  5
73
330
A
100
AcDbEntity
  8
0
  6
Continuous
 62
     7
100
AcDbCircle
 10
-33.16470265684132
 20
104.6854471847409
 30
0.0
 40
47.5000000000002
100
AcDbArc
 50
110.3465935212059
 51
180.0000000000004
  0
ARC
  5
74
330
A
100
AcDbEntity
  8
0
  6
Continuous
 62
     7
100
AcDbCircle
 10
-33.16470265684132
 20
104.6854471847409
 30
0.0
 40
52.5000000000002
100
AcDbArc
 50
110.3465935212059
 51
235.000111693229
  0
ARC
  5
75
330
A
100
AcDbEntity
  8
0
  6
Continuous
 62
     7
100
AcDbCircle
 10
-113.1352973431595
 20
320.3349405426354
 30
0.0
 40
177.4999999999998
100
AcDbArc
 50
290.3465935212066
 51
360.0000000000008
  0
ARC
  5
76
330
A
100
AcDbEntity
  8
0
  6
Continuous
 62
     7
100
AcDbCircle
 10
-113.1352973431595
 20
320.3349405426354
 30
0.0
 40
182.4999999999998
100
AcDbArc
 50
290.3465935212066
 51
360.0000000000008
  0
LINE
  5
77
330
A
100
AcDbEntity
  8
0
  6
Continuous
 62
     7
100
AcDbLine
 10
64.36470265684033
 20
472.5759668551326
 30
0.0
 11
64.36470265684032
 21
320.3349405426354
 31
0.0
  0
LINE
  5
78
330
A
100
AcDbEntity
  8
0
  6
Continuous
 62
     7
100
AcDbLine
 10
69.36470265684029
 20
320.3349405426354
 30
0.0
 11
69.36470265684035
 21
471.887535028028
 31
0.0
  0
LWPOLYLINE
  5
79
330
A
100
AcDbEntity
  8
0
  6
Continuous
 62
     7
100
AcDbPolyline
 90
        9
 70
   128
 43
0.0
 10
79.15266794620656
 20
116.0261644091026
 10
77.62276144351949
 20
115.7417676555145
 10
75.83766469425512
 20
115.613202283012
 10
74.00181515918082
 20
115.6550371510764
 10
72.32043367668261
 20
115.862012874668
 10
70.97961811976134
 20
116.2110540464289
 10
70.1290485407027
 20
116.6638469077327
 10
69.86659522331151
 20
117.1704796339605
 10
69.87219950712082
 20
117.1783246273975
  0
LWPOLYLINE
  5
84
330
A
100
AcDbEntity
  8
0
  6
Continuous
 62
     7
100
AcDbPolyline
 90
        4
 70
   128
 43
0.0
 10
80.82208687127383
 20
117.1747195995564
 10
80.68113592617843
 20
116.7401572506667
 10
79.90977486778142
 20
116.2726976240204
 10
79.15266794620556
 20
116.0261644091031
  0
LINE
  5
8A
330
A
100
AcDbEntity
  8
0
  6
Continuous
 62
     7
100
AcDbLine
 10
10.76316030917894
 20
104.533034738048
 30
0.0
 11
-75.35459103083986
 21
-18.45637047148024
 31
0.0
  0
LINE
  5
8B
330
A
100
AcDbEntity
  8
0
  6
Continuous
 62
     7
100
AcDbLine
 10
10.93681040664421
 20
103.54822732355
 30
0.0
 11
-74.36978361634183
 21
-18.28272037401507
 31
0.0
  0
LINE
  5
8C
330
A
100
AcDbEntity
  8
0
  6
Continuous
 62
     7
100
AcDbLine
 10
0.4399211982631102
 20
102.1179250488456
 30
0.0
 11
-76.61592705039204
 21
-7.929687627424907
 31
0.0
  0
LINE
  5
8D
330
A
100
AcDbEntity
  8
0
  6
Continuous
 62
     7
100
AcDbLine
 10
-39.7246329876476
 20
60.4478238980522
 30
0.0
 11
-51.19612977730803
 21
44.06476064953795
 31
0.0
  0
LINE
  5
8E
330
A
100
AcDbEntity
  8
0
  6
Continuous
 62
     7
100
AcDbLine
 10
-58.97557043357701
 20
67.82355487558416
 30
0.0
 11
-64.71131882840722
 21
59.63202325132705
 31
0.0
  0
LINE
  5
8F
330
A
100
AcDbEntity
  8
0
  6
Continuous
 62
     7
100
AcDbLine
 10
12.4024827095914
 20
498.1749999999999
 30
0.0
 11
151.3269225908547
 21
498.1749999999999
 31
0.0
  0
LINE
  5
90
330
A
100
AcDbEntity
  8
0
  6
Continuous
 62
     7
100
AcDbLine
 10
26.86470265684045
 20
506.175
 30
0.0
 11
136.8647026568403
 21
506.175
 31
0.0
  0
LINE
  5
91
330
A
100
AcDbEntity
  8
0
  6
Continuous
 62
     7
100
AcDbLine
 10
83.79119153114908
 20
168.245663706552
 30
0.0
 11
86.85536930362493
 21
170.8168141452983
 31
0.0
  0
LINE
  5
92
330
A
100
AcDbEntity
  8
0
  6
Continuous
 62
     7
100
AcDbLine
 10
77.36470265684044
 20
351.175
 30
0.0
 11
73.36470265684043
 21
351.175
 31
0.0
  0
LWPOLYLINE
  5
93
330
A
100
AcDbEntity
  8
0
  6
Continuous
 62
     7
100
AcDbPolyline
 90
        9
 70
   128
 43
0.0
 10
83.86470265684048
 20
462.8187610740747
 10
83.71246172186305
 20
462.3267927365615
 10
83.27891621921358
 20
461.9097221187305
 10
82.63006952157065
 20
461.6310444413922
 10
81.86470265684045
 20
461.5331858547015
 10
81.09933579211029
 20
461.6310444413922
 10
80.45048909446736
 20
461.9097221187305
 10
80.01694359181788
 20
462.3267927365615
 10
79.86470265684045
 20
462.8187610740747
  0
LINE
  5
9E
330
A
100
AcDbEntity
  8
0
  6
Continuous
 62
     7
100
AcDbLine
 10
69.36470265684047
 20
316.175
 30
0.0
 11
72.36470265684046
 21
316.175
 31
0.0
  0
LINE
  5
9F
330
A
100
AcDbEntity
  8
0
  6
Continuous
 62
     7
100
AcDbLine
 10
69.36470265684047
 20
326.175
 30
0.0
 11
72.36470265684046
 21
326.175
 31
0.0
  0
LINE
  5
A0
330
A
100
AcDbEntity
  8
0
  6
Continuous
 62
     7
100
AcDbLine
 10
72.36470265684046
 20
316.175
 30
0.0
 11
84.86470265684046
 21
316.175
 31
0.0
  0
LINE
  5
A1
330
A
100
AcDbEntity
  8
0
  6
Continuous
 62
     7
100
AcDbLine
 10
72.36470265684046
 20
326.175
 30
0.0
 11
84.86470265684046
 21
326.175
 31
0.0
  0
LINE
  5
A2
330
A
100
AcDbEntity
  8
0
  6
Continuous
 62
     7
100
AcDbLine
 10
84.86470265684046
 20
316.175
 30
0.0
 11
87.86470265684046
 21
316.175
 31
0.0
  0
LINE
  5
A3
330
A
100
AcDbEntity
  8
0
  6
Continuous
 62
     7
100
AcDbLine
 10
84.86470265684046
 20
326.175
 30
0.0
 11
87.86470265684046
 21
326.175
 31
0.0
  0
LINE
  5
A4
330
A
100
AcDbEntity
  8
0
  6
Continuous
 62
     7
100
AcDbLine
 10
69.36470265684047
 20
276.1750000000001
 30
0.0
 11
72.36470265684046
 21
276.175
 31
0.0
  0
LINE
  5
A5
330
A
100
AcDbEntity
  8
0
  6
Continuous
 62
     7
100
AcDbLine
 10
69.36470265684047
 20
286.175
 30
0.0
 11
72.36470265684046
 21
286.175
 31
0.0
  0
LINE
  5
A6
330
A
100
AcDbEntity
  8
0
  6
Continuous
 62
     7
100
AcDbLine
 10
72.36470265684046
 20
276.175
 30
0.0
 11
84.86470265684046
 21
276.175
 31
0.0
  0
LINE
  5
A7
330
A
100
AcDbEntity
  8
0
  6
Continuous
 62
     7
100
AcDbLine
 10
72.36470265684046
 20
286.175
 30
0.0
 11
84.86470265684046
 21
286.175
 31
0.0
  0
LINE
  5
A8
330
A
100
AcDbEntity
  8
0
  6
Continuous
 62
     7
100
AcDbLine
 10
84.86470265684046
 20
276.175
 30
0.0
 11
87.86470265684046
 21
276.1750000000001
 31
0.0
  0
LINE
  5
A9
330
A
100
AcDbEntity
  8
0
  6
Continuous
 62
     7
100
AcDbLine
 10
84.86470265684046
 20
286.175
 30
0.0
 11
87.86470265684046
 21
286.175
 31
0.0
  0
LINE
  5
AA
330
A
100
AcDbEntity
  8
0
  6
Continuous
 62
     7
100
AcDbLine
 10
81.86470265684043
 20
246.175
 30
0.0
 11
83.86470265684042
 21
246.175
 31
0.0
  0
LINE
  5
AB
330
A
100
AcDbEntity
  8
0
  6
Continuous
 62
     7
100
AcDbLine
 10
79.86470265684042
 20
246.175
 30
0.0
 11
81.86470265684043
 21
246.175
 31
0.0
  0
LWPOLYLINE
  5
AC
330
A
100
AcDbEntity
  8
0
  6
PHANTOM
 62
     7
100
AcDbPolyline
 90
       10
 70
   128
 43
0.0
 10
75.36470265684073
 20
112.4109680183021
 10
73.47219021323664
 20
112.4608244970078
 10
71.64807810023745
 20
112.6085919900847
 10
69.95829448228474
 20
112.8489297953285
 10
68.4639125420196
 20
113.1731514782637
 10
67.21894313633734
 20
113.5695388225177
 10
66.26838270329551
 20
114.0237653566919
 10
65.64658697360527
 20
114.5194141503656
 10
65.3760292650106
 20
115.0385711647351
 10
65.36470269210379
 20
115.1700754480108
  0
LWPOLYLINE
  5
B8
330
A
100
AcDbEntity
  8
0
  6
PHANTOM
 62
     7
100
AcDbPolyline
 90
       10
 70
   128
 43
0.0
 10
85.36456249173282
 20
115.15523660509
 10
85.35337604867073
 20
115.0385711647351
 10
85.08281834007608
 20
114.5194141503656
 10
84.46102261038582
 20
114.0237653566918
 10
83.51046217734397
 20
113.5695388225176
 10
82.26549277166174
 20
113.1731514782637
 10
80.77111083139659
 20
112.8489297953285
 10
79.08132721344388
 20
112.6085919900847
 10
77.25721510044469
 20
112.4608244970078
 10
75.36470265684073
 20
112.4109680183021
  0
LWPOLYLINE
  5
C4
330
A
100
AcDbEntity
  8
0
  6
PHANTOM
 62
     7
100
AcDbPolyline
 90
       13
 70
   128
 43
0.0
 10
75.36470265684072
 20
114.8851229898163
 10
77.08446617852892
 20
114.9367237751425
 10
78.72381546932285
 20
115.0891133357496
 10
80.20609637839084
 20
115.3351661051523
 10
81.46199909786181
 20
115.6633769293215
 10
82.43279901240891
 20
116.058399034899
 10
83.07310259699448
 20
116.5017616272636
 10
83.35296996764968
 20
116.9727335643586
 10
83.25931483717289
 20
117.4492927218529
 10
82.79651641537498
 20
117.9091557231997
 10
81.98621464209576
 20
118.330819885557
 10
80.86629832766801
 20
118.694568661339
 10
80.86470265684063
 20
118.6949855506174
  0
LWPOLYLINE
  5
D3
330
A
100
AcDbEntity
  8
0
  6
PHANTOM
 62
     7
100
AcDbPolyline
 90
       13
 70
   128
 43
0.0
 10
69.86470265684063
 20
118.6949855506174
 10
69.86310698601319
 20
118.694568661339
 10
68.74319067158548
 20
118.330819885557
 10
67.93288889830629
 20
117.9091557231997
 10
67.47009047650845
 20
117.4492927218529
 10
67.37643534603169
 20
116.9727335643585
 10
67.65630271668694
 20
116.5017616272636
 10
68.29660630127256
 20
116.058399034899
 10
69.26740621581967
 20
115.6633769293215
 10
70.52330893529067
 20
115.3351661051523
 10
72.00558984435871
 20
115.0891133357496
 10
73.64493913515264
 20
114.9367237751425
 10
75.36470265684072
 20
114.8851229898163
  0
LINE
  5
E2
330
A
100
AcDbEntity
  8
0
  6
PHANTOM
 62
     7
100
AcDbLine
 10
1.730927339020055
 20
102.940390214351
 30
0.0
 11
-76.9472355545367
 21
-9.424137501321149
 31
0.0
  0
LINE
  5
E3
330
A
100
AcDbEntity
  8
0
  6
PHANTOM
 62
     7
100
AcDbLine
 10
151.964190677
 20
496.4043577981652
 30
0.0
 11
11.76521463668087
 21
496.4043577981652
 31
0.0
  0
LINE
  5
E4
330
A
100
AcDbEntity
  8
0
  6
PHANTOM
 62
     7
100
AcDbLine
 10
72.30914710128489
 20
171.7420989513165
 30
0.0
 11
71.19803599017377
 21
175.5846803881588
 31
0.0
  0
LINE
  5
E5
330
A
100
AcDbEntity
  8
0
  6
PHANTOM
 62
     7
100
AcDbLine
 10
77.36470265684045
 20
178.4666164657906
 30
0.0
 11
73.36470265684046
 21
178.4666164657906
 31
0.0
  0
LWPOLYLINE
  5
E6
330
A
100
AcDbEntity
  8
0
  6
PHANTOM
 62
     7
100
AcDbPolyline
 90
        5
 70
   128
 43
0.0
 10
81.86470265684041
 20
460.6079010486835
 10
82.63006952157059
 20
460.4616515010156
 10
83.27891621921351
 20
460.0451680258887
 10
83.71246172186298
 20
459.4218564569589
 10
83.86470265684041
 20
458.6866103302623
  0
LWPOLYLINE
  5
ED
330
A
100
AcDbEntity
  8
0
  6
PHANTOM
 62
     7
100
AcDbPolyline
 90
        5
 70
   128
 43
0.0
 10
79.86470265684044
 20
458.6866103302623
 10
80.01694359181788
 20
459.4218564569589
 10
80.45048909446736
 20
460.0451680258887
 10
81.09933579211029
 20
460.4616515010156
 10
81.86470265684041
 20
460.6079010486835
  0
LINE
  5
F4
330
A
100
AcDbEntity
  8
0
  6
PHANTOM
 62
     7
100
AcDbLine
 10
72.36470265684046
 20
316.175
 30
0.0
 11
72.36470265684046
 21
326.175
 31
0.0
  0
LINE
  5
F5
330
A
100
AcDbEntity
  8
0
  6
PHANTOM
 62
     7
100
AcDbLine
 10
84.86470265684046
 20
316.175
 30
0.0
 11
84.86470265684046
 21
326.175
 31
0.0
  0
LINE
  5
F6
330
A
100
AcDbEntity
  8
0
  6
PHANTOM
 62
     7
100
AcDbLine
 10
72.36470265684046
 20
276.175
 30
0.0
 11
72.36470265684046
 21
286.175
 31
0.0
  0
LINE
  5
F7
330
A
100
AcDbEntity
  8
0
  6
PHANTOM
 62
     7
100
AcDbLine
 10
84.86470265684046
 20
276.175
 30
0.0
 11
84.86470265684046
 21
286.175
 31
0.0
  0
LINE
  5
F8
330
A
100
AcDbEntity
  8
0
  6
PHANTOM
 62
     7
100
AcDbLine
 10
81.86470265684043
 20
453.8833835342094
 30
0.0
 11
83.86470265684042
 21
453.8833835342094
 31
0.0
  0
LINE
  5
F9
330
A
100
AcDbEntity
  8
0
  6
PHANTOM
 62
     7
100
AcDbLine
 10
79.86470265684042
 20
453.8833835342094
 30
0.0
 11
81.86470265684043
 21
453.8833835342094
 31
0.0
  0
LINE
  5
FA
330
A
100
AcDbEntity
  8
0
  6
PHANTOM
 62
     7
100
AcDbLine
 10
-51.41886013958799
 20
153.9097880599126
 30
0.0
 11
-49.68036895075497
 21
149.2217555956105
 31
0.0
  0
LINE
  5
FB
330
A
100
AcDbEntity
  8
0
  6
PHANTOM
 62
     7
100
AcDbLine
 10
64.36470265684032
 20
320.3349405426354
 30
0.0
 11
69.36470265684029
 21
320.3349405426354
 31
0.0
  0
ARC
  5
FC
330
A
100
AcDbEntity
  8
0
  6
Continuous
 62
     7
100
AcDbCircle
 10
75.36470265684044
 20
-465.6245693281682
 30
0.0
 40
150.0
100
AcDbArc
 50
90.0000000000004
 51
163.5517605203839
  0
ARC
  5
FD
330
A
100
AcDbEntity
  8
0
  6
Continuous
 62
     7
100
AcDbCircle
 10
75.36470265684044
 20
-465.6245693281682
 30
0.0
 40
150.0
100
AcDbArc
 50
196.4482394796179
 51
90.0000000000004
  0
LINE
  5
FE
330
A
100
AcDbEntity
  8
0
  6
Continuous
 62
     7
100
AcDbLine
 10
-2.145691124080959
 20
-519.2209730038996
 30
0.0
 11
-1.85045042384635
 21
-518.7161396294591
 31
0.0
  0
LINE
  5
FF
330
A
100
AcDbEntity
  8
0
  6
Continuous
 62
     7
100
AcDbLine
 10
-1.850450423847335
 20
-412.5329990268788
 30
0.0
 11
-2.145691124081944
 21
-412.0281656524383
 31
0.0
  0
LINE
  5
100
330
A
100
AcDbEntity
  8
0
  6
Continuous
 62
     7
100
AcDbLine
 10
-62.44573959758088
 20
-412.0281656524406
 30
0.0
 11
-65.15356119552326
 21
-416.6582817359825
 31
0.0
  0
LINE
  5
101
330
A
100
AcDbEntity
  8
0
  6
Continuous
 62
     7
100
AcDbLine
 10
-65.15356119552237
 20
-514.5908569203568
 30
0.0
 11
-62.4457395975799
 21
-519.2209730038986
 31
0.0
  0
LINE
  5
102
330
A
100
AcDbEntity
  8
0
  6
Continuous
 62
     7
100
AcDbLine
 10
-45.83689990746792
 20
-458.153352284999
 30
0.0
 11
-62.09445698098553
 21
-460.6437579660559
 31
0.0
  0
LINE
  5
103
330
A
100
AcDbEntity
  8
0
  6
Continuous
 62
     7
100
AcDbLine
 10
-62.09445698098544
 20
-470.6053806902833
 30
0.0
 11
-45.83689990746781
 21
-473.0957863713398
 31
0.0
  0
LINE
  5
104
330
A
100
AcDbEntity
  8
0
  6
Continuous
 62
     7
100
AcDbLine
 10
-38.57887151618922
 20
-454.6579109187951
 30
0.0
 11
-45.9066255602439
 21
-455.654879865102
 31
0.0
  0
LINE
  5
105
330
A
100
AcDbEntity
  8
0
  6
Continuous
 62
     7
100
AcDbLine
 10
-45.90662556024372
 20
-475.5942587912369
 30
0.0
 11
-38.578871516189
 21
-476.5912277375435
 31
0.0
  0
CIRCLE
  5
106
330
A
100
AcDbEntity
  8
0
  6
Continuous
 62
     7
100
AcDbCircle
 10
81.86470265684045
 20
-465.6245693281701
 30
0.0
 40
70.46221994724902
  0
LINE
  5
107
330
A
100
AcDbEntity
  8
0
  6
Continuous
 62
     7
100
AcDbLine
 10
11.44684668341208
 20
-463.1245693281691
 30
0.0
 11
-50.54961454517151
 21
-463.1245693281689
 31
0.0
  0
LINE
  5
108
330
A
100
AcDbEntity
  8
0
  6
Continuous
 62
     7
100
AcDbLine
 10
-50.54961454517151
 20
-468.1245693281689
 30
0.0
 11
11.44684668341208
 21
-468.1245693281691
 31
0.0
  0
ARC
  5
109
330
A
100
AcDbEntity
  8
0
  6
Continuous
 62
     7
100
AcDbCircle
 10
-83.16470265684152
 20
-465.6245693281688
 30
0.0
 40
2.5
100
AcDbArc
 50
90.0
 51
270.0000000000008
  0
LINE
  5
10A
330
A
100
AcDbEntity
  8
0
  6
Continuous
 62
     7
100
AcDbLine
 10
-50.54961454517151
 20
-463.1245693281689
 30
0.0
 11
-83.16470265684152
 21
-463.1245693281687
 31
0.0
  0
LINE
  5
10B
330
A
100
AcDbEntity
  8
0
  6
Continuous
 62
     7
100
AcDbLine
 10
-83.16470265684152
 20
-468.1245693281687
 30
0.0
 11
-50.54961454517151
 21
-468.1245693281689
 31
0.0
  0
LWPOLYLINE
  5
10C
330
A
100
AcDbEntity
  8
0
  6
Continuous
 62
     7
100
AcDbPolyline
 90
       36
 70
   128
 43
0.0
 10
-62.44573959758088
 20
-412.0281656524406
 10
-61.68568629285689
 20
-410.759933094496
 10
-59.46965269240809
 20
-407.391094421268
 10
-57.1269216521158
 20
-404.2937670897297
 10
-54.66841606553888
 20
-401.482392269686
 10
-52.10559862061464
 20
-398.9700778883315
 10
-49.45041835531633
 20
-396.7685375150439
 10
-46.71525494572226
 20
-394.8880357473163
 10
-43.91286098625108
 20
-393.3373403524651
 10
-41.05630253117996
 20
-392.1236813882511
 10
-38.15889817466786
 20
-391.2527174930138
 10
-35.23415695332155
 20
-390.728509502486
 10
-32.29571536083078
 20
-390.5535015163038
 10
-29.35727376834002
 20
-390.728509502486
 10
-26.43253254699368
 20
-391.2527174930139
 10
-23.53512819048158
 20
-392.1236813882512
 10
-20.67856973541045
 20
-393.3373403524652
 10
-17.87617577593928
 20
-394.8880357473165
 10
-15.14101236634517
 20
-396.7685375150442
 10
-12.48583210104684
 20
-398.9700778883317
 10
-9.923014656122566
 20
-401.4823922696862
 10
-7.46450906954564
 20
-404.29376708973
 10
-5.121778029253329
 20
-407.3910944212682
 10
-2.905744428804507
 20
-410.7599330944963
 10
-0.8267404398074468
 20
-414.3845760284
 10
1.105540661433521
 20
-418.2481234644177
 10
2.882089688446915
 20
-422.332561760916
 10
4.494623549580134
 20
-426.6188473811026
 10
5.935623867596468
 20
-431.0869956827859
 10
7.198372033820274
 20
-435.7161740960013
 10
8.276980533392167
 20
-440.4847992540704
 10
9.166420395581104
 20
-445.3706376252183
 10
9.862544641167216
 20
-450.3509091755637
 10
10.36210761757351
 20
-455.4023935801509
 10
10.66278013159626
 20
-460.5015384868251
 10
10.73927735860989
 20
-463.1245693281687
  0
LWPOLYLINE
  5
132
330
A
100
AcDbEntity
  8
0
  6
Continuous
 62
     7
100
AcDbPolyline
 90
       36
 70
   128
 43
0.0
 10
10.73927735860995
 20
-468.1245693281687
 10
10.66278013159628
 20
-470.7476001695143
 10
10.36210761757357
 20
-475.8467450761886
 10
9.862544641167314
 20
-480.8982294807758
 10
9.166420395581187
 20
-485.8785010311211
 10
8.276980533392306
 20
-490.7643394022691
 10
7.198372033820413
 20
-495.5329645603381
 10
5.93562386759662
 20
-500.1621429735535
 10
4.494623549580328
 20
-504.6302912752367
 10
2.882089688447137
 20
-508.9165768954234
 10
1.105540661433757
 20
-513.0010151919216
 10
-0.8267404398071832
 20
-516.8645626279392
 10
-2.905744428804215
 20
-520.4892055618428
 10
-5.121778029253051
 20
-523.8580442350708
 10
-7.464509069545322
 20
-526.955371566609
 10
-9.923014656122248
 20
-529.7667463866527
 10
-12.48583210104648
 20
-532.2790607680071
 10
-15.14101236634479
 20
-534.4806011412948
 10
-17.87617577593889
 20
-536.3611029090223
 10
-20.67856973541008
 20
-537.9117983038736
 10
-23.53512819048119
 20
-539.1254572680874
 10
-26.43253254699328
 20
-539.9964211633248
 10
-29.35727376833959
 20
-540.5206291538526
 10
-32.29571536083036
 20
-540.6956371400347
 10
-35.2341569533211
 20
-540.5206291538525
 10
-38.15889817466744
 20
-539.9964211633245
 10
-41.05630253117952
 20
-539.1254572680871
 10
-43.91286098625063
 20
-537.9117983038732
 10
-46.71525494572182
 20
-536.3611029090218
 10
-49.45041835531591
 20
-534.4806011412941
 10
-52.1055986206142
 20
-532.2790607680066
 10
-54.66841606553845
 20
-529.7667463866519
 10
-57.12692165211541
 20
-526.955371566608
 10
-59.46965269240767
 20
-523.8580442350698
 10
-61.68568629285651
 20
-520.4892055618418
 10
-62.4457395975799
 20
-519.2209730038986
  0
LWPOLYLINE
  5
158
330
A
100
AcDbEntity
  8
0
  6
Continuous
 62
     7
100
AcDbPolyline
 90
       14
 70
   128
 43
0.0
 10
-1.850450423847335
 20
-412.5329990268788
 10
-1.817478282716056
 20
-412.5894393578222
 10
0.2099646531877886
 20
-416.3121418121908
 10
2.085263509620835
 20
-420.2698404404295
 10
3.799481633525794
 20
-424.4436750062487
 10
5.344449994891545
 20
-428.8137552871885
 10
6.712806115901526
 20
-433.3592558605862
 10
7.898029156493069
 20
-438.0585153462003
 10
8.894470989130223
 20
-442.8891396325507
 10
9.697383114703292
 20
-447.8281085950587
 10
10.30293929128975
 20
-452.8518857974237
 10
10.70825376793941
 20
-457.936530653461
 10
10.91139503659184
 20
-463.0578125148968
 10
10.91270023172584
 20
-463.1245693281687
  0
LWPOLYLINE
  5
168
330
A
100
AcDbEntity
  8
0
  6
Continuous
 62
     7
100
AcDbPolyline
 90
       14
 70
   128
 43
0.0
 10
10.91270023172588
 20
-468.1245693281687
 10
10.91139503659184
 20
-468.1913261414425
 10
10.70825376793946
 20
-473.3126080028784
 10
10.30293929128983
 20
-478.3972528589156
 10
9.69738311470339
 20
-483.4210300612808
 10
8.894470989130335
 20
-488.3599990237887
 10
7.898029156493235
 20
-493.190623310139
 10
6.712806115901692
 20
-497.8898827957531
 10
5.344449994891781
 20
-502.4353833691508
 10
3.799481633526016
 20
-506.8054636500904
 10
2.085263509621113
 20
-510.9792982159096
 10
0.20996465318808
 20
-514.9369968441484
 10
-1.817478282715736
 20
-518.6596992985171
 10
-1.85045042384635
 20
-518.7161396294591
  0
LWPOLYLINE
  5
178
330
A
100
AcDbEntity
  8
0
  6
Continuous
 62
     7
100
AcDbPolyline
 90
       16
 70
   128
 43
0.0
 10
-76.92109286172599
 20
-463.1245693281683
 10
-76.84468767690844
 20
-460.6755728990099
 10
-76.53757868117428
 20
-455.752378245669
 10
-76.02750969143548
 20
-450.8806526254534
 10
-75.31713997122425
 20
-446.085794959963
 10
-74.4101730593351
 20
-441.3928034168745
 10
-73.31133746128834
 20
-436.8261450810699
 10
-72.02636199709193
 20
-432.4096283945855
 10
-70.56194593382639
 20
-428.1662790304187
 10
-68.92572405876837
 20
-424.1182198473311
 10
-67.12622687514496
 20
-420.2865555515069
 10
-65.17283612803979
 20
-416.6912626663862
 10
-63.07573589231818
 20
-413.3510853843223
 10
-60.84585947757656
 20
-410.283437843042
 10
-58.49483242692849
 20
-407.5043133363946
 10
-58.05794471637046
 20
-407.0339734820945
  0
LWPOLYLINE
  5
18A
330
A
100
AcDbEntity
  8
0
  6
Continuous
 62
     7
100
AcDbPolyline
 90
       16
 70
   128
 43
0.0
 10
-58.02218524734792
 20
-524.2530575237736
 10
-58.4948324269281
 20
-523.7448253199437
 10
-60.8458594775762
 20
-520.9657008132961
 10
-63.07573589231785
 20
-517.8980532720157
 10
-65.17283612803947
 20
-514.5578759899518
 10
-67.12622687514469
 20
-510.9625831048311
 10
-68.92572405876809
 20
-507.1309188090067
 10
-70.56194593382613
 20
-503.0828596259192
 10
-72.0263619970917
 20
-498.8395102617523
 10
-73.31133746128812
 20
-494.4229935752679
 10
-74.41017305933486
 20
-489.8563352394633
 10
-75.31713997122405
 20
-485.1633436963748
 10
-76.02750969143531
 20
-480.3684860308845
 10
-76.5375786811742
 20
-475.4967604106688
 10
-76.84468767690837
 20
-470.573565757328
 10
-76.92109286172599
 20
-468.1245693281684
  0
LWPOLYLINE
  5
19C
330
A
100
AcDbEntity
  8
0
  6
Continuous
 62
     7
100
AcDbPolyline
 90
       10
 70
   128
 43
0.0
 10
-38.57887151618922
 20
-454.6579109187951
 10
-37.80493620411252
 20
-454.6356455962149
 10
-36.68404642191488
 20
-454.9003622941693
 10
-35.60828095676574
 20
-455.5097638301034
 10
-34.61221579585777
 20
-456.444263537235
 10
-33.72786529302766
 20
-457.6738258260681
 10
-32.98365320108242
 20
-459.1589315529522
 10
-32.4034991089969
 20
-460.8518481978762
 10
-32.00604964664311
 20
-462.6981640269359
 10
-31.9437874237752
 20
-463.1245693281686
  0
LWPOLYLINE
  5
1A8
330
A
100
AcDbEntity
  8
0
  6
Continuous
 62
     7
100
AcDbPolyline
 90
       10
 70
   128
 43
0.0
 10
-31.94378742377496
 20
-468.1245693281685
 10
-32.00604964664311
 20
-468.5509746294028
 10
-32.40349910899688
 20
-470.3972904584626
 10
-32.98365320108238
 20
-472.0902071033866
 10
-33.72786529302761
 20
-473.5753128302707
 10
-34.6122157958577
 20
-474.8048751191038
 10
-35.60828095676569
 20
-475.7393748262353
 10
-36.68404642191482
 20
-476.3487763621695
 10
-37.80493620411244
 20
-476.6134930601238
 10
-38.578871516189
 20
-476.5912277375435
  0
LWPOLYLINE
  5
1B4
330
A
100
AcDbEntity
  8
0
  6
Continuous
 62
     7
100
AcDbPolyline
 90
       10
 70
   128
 43
0.0
 10
-64.32709654081122
 20
-463.1245693281687
 10
-64.29381199506178
 20
-463.0266495779923
 10
-63.80092117879349
 20
-461.9703895067789
 10
-63.1628532818341
 20
-461.1851432361576
 10
-62.42693088113473
 20
-460.7291488897579
 10
-61.64773397453426
 20
-460.6362254822168
 10
-60.88305203200658
 20
-460.9132647175754
 10
-60.18959801504187
 20
-461.5397198631174
 10
-59.61880223573737
 20
-462.4691296065392
 10
-59.35979272117306
 20
-463.1245693281687
  0
LWPOLYLINE
  5
1C0
330
A
100
AcDbEntity
  8
0
  6
Continuous
 62
     7
100
AcDbPolyline
 90
       10
 70
   128
 43
0.0
 10
-59.35979272117236
 20
-468.1245693281686
 10
-59.61880223573735
 20
-468.7800090497999
 10
-60.18959801504184
 20
-469.7094187932219
 10
-60.88305203200656
 20
-470.3358739387637
 10
-61.64773397453424
 20
-470.6129131741223
 10
-62.42693088113471
 20
-470.5199897665813
 10
-63.1628532818341
 20
-470.0639954201815
 10
-63.80092117879346
 20
-469.2787491495602
 10
-64.29381199506176
 20
-468.2224890783467
 10
-64.32709654081181
 20
-468.1245693281686
  0
LWPOLYLINE
  5
1CC
330
A
100
AcDbEntity
  8
0
  6
Continuous
 62
     7
100
AcDbPolyline
 90
        8
 70
   128
 43
0.0
 10
-45.83689990746792
 20
-458.153352284999
 10
-45.69327675099038
 20
-458.135568724286
 10
-44.76442576219794
 20
-458.2233704091079
 10
-43.86811688471065
 20
-458.6572439295435
 10
-43.04626052546407
 20
-459.4169018419927
 10
-42.33728577438886
 20
-460.4668233867687
 10
-41.77434350287639
 20
-461.7579153993418
 10
-41.40459479731376
 20
-463.1245693281686
  0
LWPOLYLINE
  5
1D6
330
A
100
AcDbEntity
  8
0
  6
Continuous
 62
     7
100
AcDbPolyline
 90
        8
 70
   128
 43
0.0
 10
-41.40459479731339
 20
-468.1245693281685
 10
-41.77434350287638
 20
-469.4912232569971
 10
-42.33728577438881
 20
-470.7823152695702
 10
-43.04626052546405
 20
-471.8322368143462
 10
-43.86811688471059
 20
-472.5918947267954
 10
-44.76442576219788
 20
-473.0257682472309
 10
-45.69327675099033
 20
-473.1135699320528
 10
-45.83689990746781
 20
-473.0957863713398
  0
LWPOLYLINE
  5
1E0
330
A
100
AcDbEntity
  8
0
  6
Continuous
 62
     7
100
AcDbPolyline
 90
       14
 70
   128
 43
0.0
 10
-49.61618113828588
 20
-458.7322795743193
 10
-49.61153772982302
 20
-458.7237792133483
 10
-48.78744187046105
 20
-457.478809807666
 10
-47.84309737649181
 20
-456.5282493746241
 10
-46.81263531839294
 20
-455.9064536449339
 10
-45.73329927978686
 20
-455.6358959363392
 10
-44.64409927729135
 20
-455.72635490936
 10
-43.58440183687956
 20
-456.1745611410226
 10
-42.59250718506274
 20
-456.964315290325
 10
-41.70426497891385
 20
-458.0670735846267
 10
-40.95177860605558
 20
-459.4429794659633
 10
-40.36224488458716
 20
-461.0423041108953
 10
-39.95697109921761
 20
-462.8072437597551
 10
-39.90676687967463
 20
-463.1245693281687
  0
LWPOLYLINE
  5
1F0
330
A
100
AcDbEntity
  8
0
  6
Continuous
 62
     7
100
AcDbPolyline
 90
       14
 70
   128
 43
0.0
 10
-39.90676687967437
 20
-468.1245693281686
 10
-39.9569710992176
 20
-468.4418948965838
 10
-40.36224488458715
 20
-470.2068345454436
 10
-40.95177860605555
 20
-471.8061591903755
 10
-41.7042649789138
 20
-473.1820650717121
 10
-42.59250718506272
 20
-474.2848233660139
 10
-43.58440183687953
 20
-475.0745775153162
 10
-44.64409927729132
 20
-475.5227837469788
 10
-45.73329927978678
 20
-475.6132427199996
 10
-46.81263531839291
 20
-475.3426850114049
 10
-47.84309737649175
 20
-474.7208892817146
 10
-48.78744187046099
 20
-473.7703288486728
 10
-49.61153772982296
 20
-472.5253594429905
 10
-49.61618113828575
 20
-472.5168590820196
  0
CIRCLE
  5
200
330
A
100
AcDbEntity
  8
0
  6
Continuous
 62
     7
100
AcDbCircle
 10
81.86470265684045
 20
-465.6245693281702
 30
0.0
 40
55.0
  0
LWPOLYLINE
  5
201
330
A
100
AcDbEntity
  8
0
  6
PHANTOM
 62
     7
100
AcDbPolyline
 90
       30
 70
   128
 43
0.0
 10
-58.05794471637046
 20
-407.0339734820945
 10
-56.03491190680615
 20
-405.0282009327231
 10
-53.47892280376996
 20
-402.8680099355717
 10
-50.84019086148842
 20
-401.0350025805532
 10
-48.13247320648098
 20
-399.5387353192688
 10
-45.36988662483035
 20
-398.3870089963931
 10
-42.56683396379649
 20
-397.5858281796831
 10
-39.73792904204007
 20
-397.1393698549416
 10
-36.89792045993856
 20
-397.0499616491475
 10
-34.06161470721307
 20
-397.3180696952867
 10
-31.24379896874699
 20
-397.9422962021502
 10
-28.45916403105081
 20
-398.9193867417705
 10
-25.72222769130371
 20
-400.2442472165022
 10
-23.04725906828138
 20
-401.9099704172877
 10
-20.44820420977775
 20
-403.907872034648
 10
-17.93861338436936
 20
-406.2275359346503
 10
-15.53157043658923
 20
-408.8568684638075
 10
-13.23962457381979
 20
-411.7821614997882
 10
-11.07472494053631
 20
-414.9881639192182
 10
-9.048158321000505
 20
-418.458161109977
 10
-7.170490295193496
 20
-422.1740621134451
 10
-5.451510154774144
 20
-426.1164939423863
 10
-3.900179866245107
 20
-430.2649025827316
 10
-2.524587347409124
 20
-434.5976601526925
 10
-1.331904300710715
 20
-439.0921776605215
 10
-0.3283488233002951
 20
-443.7250227730558
 10
0.4808470112451363
 20
-448.4720419810522
 10
1.091464430531013
 20
-453.3084865244006
 10
1.5003199580709
 20
-458.2091414206994
 10
1.704784646209378
 20
-463.1245693281687
  0
LWPOLYLINE
  5
221
330
A
100
AcDbEntity
  8
0
  6
PHANTOM
 62
     7
100
AcDbPolyline
 90
       30
 70
   128
 43
0.0
 10
1.70478464620942
 20
-468.1245693281687
 10
1.500319958070955
 20
-473.03999723564
 10
1.091464430531069
 20
-477.9406521319388
 10
0.4808470112452473
 20
-482.7770966752871
 10
-0.3283488233001703
 20
-487.5241158832835
 10
-1.331904300710576
 20
-492.1569609958178
 10
-2.524587347408943
 20
-496.6514785036469
 10
-3.900179866244885
 20
-500.9842360736079
 10
-5.451510154773908
 20
-505.1326447139531
 10
-7.170490295193232
 20
-509.075076542894
 10
-9.048158321000226
 20
-512.7909775463622
 10
-11.07472494053603
 20
-516.2609747371209
 10
-13.23962457381948
 20
-519.466977156551
 10
-15.5315704365889
 20
-522.3922701925316
 10
-17.93861338436903
 20
-525.0216027216888
 10
-20.4482042097774
 20
-527.341266621691
 10
-23.04725906828102
 20
-529.3391682390512
 10
-25.72222769130334
 20
-531.0048914398367
 10
-28.45916403105041
 20
-532.3297519145683
 10
-31.2437989687466
 20
-533.3068424541886
 10
-34.0616147072127
 20
-533.931068961052
 10
-36.89792045993814
 20
-534.1991770071912
 10
-39.73792904203968
 20
-534.109768801397
 10
-42.56683396379611
 20
-533.6633104766555
 10
-45.36988662482993
 20
-532.8621296599453
 10
-48.13247320648056
 20
-531.7104033370696
 10
-50.84019086148803
 20
-530.214136075785
 10
-53.47892280376957
 20
-528.3811287207665
 10
-56.03491190680578
 20
-526.2209377236151
 10
-58.02218524734792
 20
-524.2530575237736
  0
LWPOLYLINE
  5
241
330
A
100
AcDbEntity
  8
0
  6
PHANTOM
 62
     7
100
AcDbPolyline
 90
       44
 70
   128
 43
0.0
 10
-76.58923357817719
 20
-463.1245693281683
 10
-76.51549367209184
 20
-460.7776193758935
 10
-76.21471715032132
 20
-455.955939176357
 10
-75.71516559459476
 20
-451.1846667375092
 10
-75.01944343541333
 20
-446.4886772645757
 10
-74.13117784597064
 20
-441.8924534722569
 10
-73.05499983175129
 20
-437.4199579431891
 10
-71.7965200866123
 20
-433.0945081981351
 10
-70.36229974122351
 20
-428.9386551292269
 10
-68.75981615637034
 20
-424.9740654300567
 10
-66.99742393945671
 20
-421.2214086355686
 10
-65.08431138745077
 20
-417.7002493606743
 10
-63.0304525833589
 20
-414.4289452994099
 10
-60.84655539597528
 20
-411.4245515164197
 10
-58.54400565401207
 20
-408.7027315297459
 10
-56.13480778566077
 20
-406.2776756484987
 10
-53.63152223306178
 20
-404.1620269911549
 10
-51.04719996797532
 20
-402.3668155701929
 10
-48.39531445005754
 20
-400.9014007867139
 10
-45.68969138248071
 20
-399.7734226348596
 10
-42.9444366311185
 20
-398.9887618704192
 10
-40.17386268309305
 20
-398.5515093512925
 10
-37.39241402809417
 20
-398.4639447096506
 10
-34.6145918514984
 20
-398.7265244669893
 10
-31.85487843190316
 20
-399.3378796540379
 10
-29.12766163723184
 20
-400.2948229479303
 10
-26.44715991305254
 20
-401.5923652894315
 10
-23.82734815418661
 20
-403.2237418935815
 10
-21.2818848460779
 20
-405.1804475181521
 10
-18.82404085577401
 20
-407.4522808060419
 10
-16.46663024377035
 20
-410.027397470428
 10
-14.22194345743216
 20
-412.8923720453939
 10
-12.10168325429286
 20
-416.0322678800919
 10
-10.11690368929503
 20
-419.4307150115241
 10
-8.277952484066375
 20
-423.0699955099505
 10
-6.594417078690517
 20
-426.9311358519697
 10
-5.075074647233765
 20
-430.994005839685
 10
-3.727846337623658
 20
-435.2374235502352
 10
-2.559755974451419
 20
-439.6392657685321
 10
-1.576893440002849
 20
-444.1765833274605
 10
-0.7843829244319062
 20
-448.8257207542092
 10
-0.1863562106060035
 20
-453.5624395989526
 10
0.2140688670968227
 20
-458.362044802905
 10
0.4132277368841115
 20
-463.1245693281687
  0
LWPOLYLINE
  5
26F
330
A
100
AcDbEntity
  8
0
  6
PHANTOM
 62
     7
100
AcDbPolyline
 90
       44
 70
   128
 43
0.0
 10
0.413227736884167
 20
-468.1245693281687
 10
0.2140688670968782
 20
-472.8870938534345
 10
-0.186356210605948
 20
-477.6866990573869
 10
-0.784382924431823
 20
-482.4234179021301
 10
-1.57689344000271
 20
-487.0725553288788
 10
-2.559755974451266
 20
-491.6098728878073
 10
-3.727846337623491
 20
-496.0117151061042
 10
-5.075074647233584
 20
-500.2551328166543
 10
-6.594417078690309
 20
-504.3180028043696
 10
-8.277952484066139
 20
-508.1791431463888
 10
-10.11690368929477
 20
-511.8184236448151
 10
-12.10168325429259
 20
-515.2168707762473
 10
-14.22194345743186
 20
-518.3567666109452
 10
-16.46663024377003
 20
-521.2217411859111
 10
-18.82404085577367
 20
-523.7968578502972
 10
-21.28188484607757
 20
-526.0686911381868
 10
-23.82734815418626
 20
-528.0253967627575
 10
-26.44715991305217
 20
-529.6567733669073
 10
-29.12766163723146
 20
-530.9543157084084
 10
-31.85487843190279
 20
-531.9112590023009
 10
-34.61459185149801
 20
-532.5226141893494
 10
-37.39241402809376
 20
-532.7851939466881
 10
-40.17386268309265
 20
-532.6976293050461
 10
-42.9444366311181
 20
-532.2603767859193
 10
-45.6896913824803
 20
-531.4757160214789
 10
-48.39531445005718
 20
-530.3477378696244
 10
-51.04719996797494
 20
-528.8823230861454
 10
-53.63152223306144
 20
-527.0871116651833
 10
-56.1348077856604
 20
-524.9714630078395
 10
-58.54400565401174
 20
-522.5464071265922
 10
-60.84655539597491
 20
-519.8245871399184
 10
-63.03045258335856
 20
-516.820193356928
 10
-65.08431138745047
 20
-513.5488892956637
 10
-66.99742393945642
 20
-510.0277300207694
 10
-68.75981615637005
 20
-506.2750732262812
 10
-70.36229974122327
 20
-502.310483527111
 10
-71.79652008661205
 20
-498.1546304582028
 10
-73.05499983175106
 20
-493.8291807131488
 10
-74.13117784597048
 20
-489.356685184081
 10
-75.01944343541314
 20
-484.7604613917621
 10
-75.7151655945946
 20
-480.0644719188286
 10
-76.21471715032125
 20
-475.2931994799808
 10
-76.51549367209176
 20
-470.4715192804443
 10
-76.58923357817716
 20
-468.1245693281684
  0
CIRCLE
  5
29D
330
A
100
AcDbEntity
  8
0
  6
PHANTOM
 62
     7
100
AcDbCircle
 10
81.86470265684045
 20
-465.6245693281701
 30
0.0
 40
69.46221994724904
  0
LWPOLYLINE
  5
29E
330
A
100
AcDbEntity
  8
0
  6
PHANTOM
 62
     7
100
AcDbPolyline
 90
        5
 70
   128
 43
0.0
 10
-51.41886013958799
 20
-465.6245693281689
 10
-51.35269275857851
 20
-466.5812779090816
 10
-51.16426399949991
 20
-467.3923362811353
 10
-50.88226043281102
 20
-467.9342681594471
 10
-50.54961454517148
 20
-468.1245693281689
  0
LWPOLYLINE
  5
2A5
330
A
100
AcDbEntity
  8
0
  6
PHANTOM
 62
     7
100
AcDbPolyline
 90
        5
 70
   128
 43
0.0
 10
-50.54961454517148
 20
-463.1245693281689
 10
-50.88226043281102
 20
-463.3148704968907
 10
-51.16426399949994
 20
-463.8568023752026
 10
-51.35269275857851
 20
-464.6678607472562
 10
-51.41886013958799
 20
-465.6245693281689
  0
ARC
  5
2AC
330
A
100
AcDbEntity
  8
0
  6
Continuous
 62
     7
100
AcDbCircle
 10
446.2818303963493
 20
117.3769443496621
 30
0.0
 40
2.000000000000001
100
AcDbArc
 50
16.01491475121507
 51
106.0149147512172
  0
ARC
  5
2AD
330
A
100
AcDbEntity
  8
0
  6
Continuous
 62
     7
100
AcDbCircle
 10
430.9027918076668
 20
112.9627431662298
 30
0.0
 40
1.999999999999946
100
AcDbArc
 50
106.0149147512176
 51
196.0149147512163
  0
LINE
  5
2AE
330
A
100
AcDbEntity
  8
0
  6
Continuous
 62
     7
100
AcDbLine
 10
428.9804119840815
 20
112.4109680183009
 30
0.0
 11
429.1088558582338
 21
111.9634706762034
 31
0.0
  0
LINE
  5
2AF
330
A
100
AcDbEntity
  8
0
  6
Continuous
 62
     7
100
AcDbLine
 10
448.7170236383193
 20
116.1420820013816
 30
0.0
 11
448.2042102199346
 21
117.928719497591
 31
0.0
  0
LINE
  5
2B0
330
A
100
AcDbEntity
  8
0
  6
Continuous
 62
     7
100
AcDbLine
 10
492.0095313985334
 20
117.928719497592
 30
0.0
 11
491.4967179801484
 21
116.1420820013815
 31
0.0
  0
LINE
  5
2B1
330
A
100
AcDbEntity
  8
0
  6
Continuous
 62
     7
100
AcDbLine
 10
511.1048857602338
 20
111.9634706762034
 30
0.0
 11
511.2333296343865
 21
112.4109680183021
 31
0.0
  0
ARC
  5
2B2
330
A
100
AcDbEntity
  8
0
  6
Continuous
 62
     7
100
AcDbCircle
 10
509.3109498108011
 20
112.962743166231
 30
0.0
 40
2.000000000000032
100
AcDbArc
 50
343.9850852487826
 51
73.98508524878137
  0
ARC
  5
2B3
330
A
100
AcDbEntity
  8
0
  6
Continuous
 62
     7
100
AcDbCircle
 10
493.9319112221187
 20
117.3769443496631
 30
0.0
 40
2.000000000000001
100
AcDbArc
 50
73.9850852487845
 51
163.9850852487849
  0
ARC
  5
2B4
330
A
100
AcDbEntity
  8
0
  6
Continuous
 62
     7
100
AcDbCircle
 10
470.1068708092338
 20
123.175
 30
0.0
 40
26.99999999999995
100
AcDbArc
 50
95.3127747052714
 51
189.635948443394
  0
ARC
  5
2B5
330
A
100
AcDbEntity
  8
0
  6
Continuous
 62
     7
100
AcDbCircle
 10
470.1068708092338
 20
123.175
 30
0.0
 40
26.99999999999992
100
AcDbArc
 50
350.3445943527519
 51
84.68722529472861
  0
ARC
  5
2B6
330
A
100
AcDbEntity
  8
0
  6
Continuous
 62
     7
100
AcDbCircle
 10
470.1068708092338
 20
123.175
 30
0.0
 40
37.99999999999996
100
AcDbArc
 50
348.5198497922816
 51
86.22781631494291
  0
ARC
  5
2B7
330
A
100
AcDbEntity
  8
0
  6
Continuous
 62
     7
100
AcDbCircle
 10
470.1068708092338
 20
123.175
 30
0.0
 40
37.99999999999994
100
AcDbArc
 50
93.7721836850571
 51
191.4814640525441
  0
ARC
  5
2B8
330
A
100
AcDbEntity
  8
0
  6
Continuous
 62
     7
100
AcDbCircle
 10
470.1068708092338
 20
-32.32499999999988
 30
0.0
 40
150.0
100
AcDbArc
 50
0.0
 51
74.13807194243593
  0
ARC
  5
2B9
330
A
100
AcDbEntity
  8
0
  6
Continuous
 62
     7
100
AcDbCircle
 10
470.1068708092338
 20
-32.32499999999988
 30
0.0
 40
150.0
100
AcDbArc
 50
81.8017338786554
 51
89.04502612621509
  0
ARC
  5
2BA
330
A
100
AcDbEntity
  8
0
  6
Continuous
 62
     7
100
AcDbCircle
 10
470.1068708092338
 20
-32.32499999999988
 30
0.0
 40
150.0
100
AcDbArc
 50
90.95497387378491
 51
98.19826612134455
  0
ARC
  5
2BB
330
A
100
AcDbEntity
  8
0
  6
Continuous
 62
     7
100
AcDbCircle
 10
470.1068708092338
 20
-32.32499999999988
 30
0.0
 40
150.0
100
AcDbArc
 50
105.861928057564
 51
0.0
  0
LINE
  5
2BC
330
A
100
AcDbEntity
  8
0
  6
Continuous
 62
     7
100
AcDbLine
 10
477.4863939661043
 20
53.35305178317224
 30
0.0
 11
475.0265529138148
 21
64.45896206970697
 31
0.0
  0
LINE
  5
2BD
330
A
100
AcDbEntity
  8
0
  6
Continuous
 62
     7
100
AcDbLine
 10
465.1871887046556
 20
64.45896206970719
 30
0.0
 11
462.7273476523659
 21
53.35305178317245
 31
0.0
  0
LINE
  5
2BE
330
A
100
AcDbEntity
  8
0
  6
Continuous
 62
     7
100
AcDbLine
 10
480.9674948607493
 20
48.52396815289512
 30
0.0
 11
479.9801654015208
 21
53.55615539601982
 31
0.0
  0
LINE
  5
2BF
330
A
100
AcDbEntity
  8
0
  6
Continuous
 62
     7
100
AcDbLine
 10
460.2335762169493
 20
53.55615539602005
 30
0.0
 11
459.2462467577207
 21
48.52396815289544
 31
0.0
  0
ARC
  5
2C0
330
A
100
AcDbEntity
  8
0
  6
Continuous
 62
     7
100
AcDbCircle
 10
400.6446508619847
 20
497.175
 30
0.0
 40
1.0
100
AcDbArc
 50
90.0
 51
230.4115930898228
  0
ARC
  5
2C1
330
A
100
AcDbEntity
  8
0
  6
Continuous
 62
     7
100
AcDbCircle
 10
539.5690907564828
 20
497.175
 30
0.0
 40
1.0
100
AcDbArc
 50
309.5884069101746
 51
90.0
  0
ARC
  5
2C2
330
A
100
AcDbEntity
  8
0
  6
Continuous
 62
     7
100
AcDbCircle
 10
470.1068708092337
 20
581.1749999999999
 30
0.0
 40
109.9999999999999
100
AcDbArc
 50
230.411593089824
 51
262.1808729506831
  0
ARC
  5
2C3
330
A
100
AcDbEntity
  8
0
  6
Continuous
 62
     7
100
AcDbCircle
 10
470.1068708092337
 20
581.1749999999999
 30
0.0
 40
109.9999999999999
100
AcDbArc
 50
264.2680320348039
 51
268.6977110648227
  0
ARC
  5
2C4
330
A
100
AcDbEntity
  8
0
  6
Continuous
 62
     7
100
AcDbCircle
 10
470.1068708092337
 20
581.1749999999999
 30
0.0
 40
109.9999999999999
100
AcDbArc
 50
271.302288935179
 51
275.7319679651994
  0
ARC
  5
2C5
330
A
100
AcDbEntity
  8
0
  6
Continuous
 62
     7
100
AcDbCircle
 10
470.1068708092337
 20
581.1749999999999
 30
0.0
 40
109.9999999999999
100
AcDbArc
 50
277.8191270493202
 51
309.5884069101777
  0
LINE
  5
2C6
330
A
100
AcDbEntity
  8
0
  6
Continuous
 62
     7
100
AcDbLine
 10
415.1068708092338
 20
506.175
 30
0.0
 11
415.1068708092338
 21
498.1749999999999
 31
0.0
  0
LINE
  5
2C7
330
A
100
AcDbEntity
  8
0
  6
Continuous
 62
     7
100
AcDbLine
 10
525.1068708092337
 20
498.1749999999999
 30
0.0
 11
525.1068708092337
 21
506.175
 31
0.0
  0
ARC
  5
2C8
330
A
100
AcDbEntity
  8
0
  6
Continuous
 62
     7
100
AcDbCircle
 10
470.1068708092354
 20
471.175
 30
0.0
 40
11.00000000000005
100
AcDbArc
 50
177.1340160174007
 51
253.8723797868396
  0
ARC
  5
2C9
330
A
100
AcDbEntity
  8
0
  6
Continuous
 62
     7
100
AcDbCircle
 10
470.1068708092354
 20
471.175
 30
0.0
 40
11.0
100
AcDbArc
 50
360.0000000000008
 51
2.865983982599876
  0
ARC
  5
2CA
330
A
100
AcDbEntity
  8
0
  6
Continuous
 62
     7
100
AcDbCircle
 10
470.1068708092354
 20
471.175
 30
0.0
 40
11.0
100
AcDbArc
 50
319.9999999999993
 51
360.0000000000008
  0
ARC
  5
2CB
330
A
100
AcDbEntity
  8
0
  6
Continuous
 62
     7
100
AcDbCircle
 10
470.1068708092354
 20
471.175
 30
0.0
 40
15.0
100
AcDbArc
 50
319.9999999999992
 51
3.909563524659998
  0
ARC
  5
2CC
330
A
100
AcDbEntity
  8
0
  6
Continuous
 62
     7
100
AcDbCircle
 10
470.1068708092354
 20
471.175
 30
0.0
 40
15.00000000000006
100
AcDbArc
 50
176.0904364753399
 51
180.0000000000004
  0
ARC
  5
2CD
330
A
100
AcDbEntity
  8
0
  6
Continuous
 62
     7
100
AcDbCircle
 10
470.1068708092354
 20
471.175
 30
0.0
 40
15.00000000000006
100
AcDbArc
 50
180.0000000000004
 51
253.8723797868396
  0
ARC
  5
2CE
330
A
100
AcDbEntity
  8
0
  6
Continuous
 62
     7
100
AcDbCircle
 10
465.1068708092353
 20
453.8833835342095
 30
0.0
 40
2.999999999999955
100
AcDbArc
 50
33.55730976197051
 51
73.87237978683939
  0
ARC
  5
2CF
330
A
100
AcDbEntity
  8
0
  6
Continuous
 62
     7
100
AcDbCircle
 10
465.1068708092353
 20
453.8833835342095
 30
0.0
 40
6.999999999999959
100
AcDbArc
 50
69.07516757237451
 51
73.87237978683856
  0
LINE
  5
2D0
330
A
100
AcDbEntity
  8
0
  6
Continuous
 62
     7
100
AcDbLine
 10
467.6068708092342
 20
151.5657718277616
 30
0.0
 11
467.6068708092342
 21
63.72778906345544
 31
0.0
  0
LINE
  5
2D1
330
A
100
AcDbEntity
  8
0
  6
Continuous
 62
     7
100
AcDbLine
 10
472.6068708092342
 20
63.72778906345544
 30
0.0
 11
472.6068708092342
 21
151.5657718277616
 31
0.0
  0
LINE
  5
2D2
330
A
100
AcDbEntity
  8
0
  6
Continuous
 62
     7
100
AcDbLine
 10
467.6068708092338
 20
320.3349405426354
 30
0.0
 11
467.6068708092342
 21
151.5657718277616
 31
0.0
  0
LINE
  5
2D3
330
A
100
AcDbEntity
  8
0
  6
Continuous
 62
     7
100
AcDbLine
 10
472.6068708092342
 20
151.5657718277616
 30
0.0
 11
472.6068708092338
 21
320.3349405426354
 31
0.0
  0
LINE
  5
2D4
330
A
100
AcDbEntity
  8
0
  6
Continuous
 62
     7
100
AcDbLine
 10
467.6068708092338
 20
472.2312071524954
 30
0.0
 11
467.6068708092338
 21
320.3349405426354
 31
0.0
  0
LINE
  5
2D5
330
A
100
AcDbEntity
  8
0
  6
Continuous
 62
     7
100
AcDbLine
 10
472.6068708092338
 20
320.3349405426354
 30
0.0
 11
472.6068708092338
 21
472.2312071524954
 31
0.0
  0
LINE
  5
2D6
330
A
100
AcDbEntity
  8
0
  6
Continuous
 62
     7
100
AcDbLine
 10
430.3510175859663
 20
114.8851232556678
 30
0.0
 11
445.7300552484203
 21
119.2993241732473
 31
0.0
  0
LINE
  5
2D7
330
A
100
AcDbEntity
  8
0
  6
Continuous
 62
     7
100
AcDbLine
 10
494.4836872962761
 20
119.2993239073955
 30
0.0
 11
509.8627249587302
 21
114.8851229898163
 31
0.0
  0
LWPOLYLINE
  5
2D8
330
A
100
AcDbEntity
  8
0
  6
Continuous
 62
     7
100
AcDbPolyline
 90
        3
 70
   128
 43
0.0
 10
460.4924958576465
 20
102.3856463250055
 10
462.6914429017647
 20
102.6110473764513
 10
467.6068708092341
 20
102.9030544248148
  0
LWPOLYLINE
  5
2DD
330
A
100
AcDbEntity
  8
0
  6
Continuous
 62
     7
100
AcDbPolyline
 90
        3
 70
   128
 43
0.0
 10
472.606870809234
 20
102.9030544248149
 10
477.5222987167054
 20
102.6110473764512
 10
480.2833039474604
 20
102.3185161987905
  0
LWPOLYLINE
  5
2E2
330
A
100
AcDbEntity
  8
0
  6
Continuous
 62
     7
100
AcDbPolyline
 90
       47
 70
   128
 43
0.0
 10
470.1068708092354
 20
-18.45637047148024
 10
464.9838399678908
 20
-18.31301212614938
 10
459.8846950612164
 20
-17.88360549293971
 10
454.8332106566292
 20
-17.17015266379734
 10
449.852939106284
 20
-16.17598008515525
 10
444.9671007351359
 20
-14.90572304850374
 10
440.1984755770669
 20
-13.3653040785226
 10
435.5692971638514
 20
-11.56190531953621
 10
431.1011488621682
 20
-9.503935049042066
 10
426.8148632419816
 20
-7.200988474439117
 10
422.7304249454832
 20
-4.663802995742038
 10
418.8668775094655
 20
-1.904208142865238
 10
415.2422345755619
 20
1.064929579105922
 10
411.8733959023339
 20
4.229766679501423
 10
408.7760685707957
 20
7.575547226810696
 10
405.9646937507518
 20
11.08667164764643
 10
403.4523793693972
 20
14.74676945915726
 10
401.2508389961097
 20
18.53877559577554
 10
399.3703372283821
 20
22.44500997443055
 10
397.8196418335308
 20
26.44725992725733
 10
396.6059828693169
 20
30.52686511746145
 10
395.7350189740795
 20
34.66480454242321
 10
395.2108109835516
 20
38.84178521839233
 10
395.0358029973695
 20
43.03833213328417
 10
395.2108109835516
 20
47.23487904817602
 10
395.7350189740794
 20
51.41185972414514
 10
396.6059828693168
 20
55.5497991491069
 10
397.8196418335307
 20
59.62940433931102
 10
399.370337228382
 20
63.63165429213774
 10
401.2508389961096
 20
67.53788867079274
 10
403.4523793693971
 20
71.32989480741098
 10
405.9646937507517
 20
74.9899926189218
 10
408.7760685707955
 20
78.50111703975755
 10
411.8733959023337
 20
81.84689758706676
 10
415.2422345755617
 20
85.01173468746227
 10
418.8668775094654
 20
87.98087240943342
 10
422.7304249454831
 20
90.74046726231015
 10
426.8148632419813
 20
93.27765274100725
 10
431.1011488621679
 20
95.58059931561009
 10
435.5692971638512
 20
97.63856958610418
 10
440.1984755770667
 20
99.44196834509057
 10
444.9671007351356
 20
100.9823873150717
 10
449.8529391062837
 20
102.2526443517231
 10
454.833210656629
 20
103.2468169303652
 10
459.8846950612162
 20
103.9602697595075
 10
464.9838399678904
 20
104.3896763927172
 10
467.6068708092341
 20
104.49892620828
  0
LWPOLYLINE
  5
313
330
A
100
AcDbEntity
  8
0
  6
Continuous
 62
     7
100
AcDbPolyline
 90
       47
 70
   128
 43
0.0
 10
472.606870809234
 20
104.49892620828
 10
475.2299016505796
 20
104.3896763927171
 10
480.3290465572539
 20
103.9602697595074
 10
485.3805309618411
 20
103.246816930365
 10
490.3608025121863
 20
102.2526443517228
 10
495.2466408833344
 20
100.9823873150713
 10
500.0152660414034
 20
99.44196834509018
 10
504.6444444546188
 20
97.63856958610373
 10
509.112592756302
 20
95.5805993156096
 10
513.3988783764887
 20
93.27765274100668
 10
517.4833166729869
 20
90.74046726230955
 10
521.3468641090044
 20
87.98087240943274
 10
524.9715070429082
 20
85.01173468746159
 10
528.3403457161361
 20
81.84689758706598
 10
531.4376730476744
 20
78.50111703975676
 10
534.2490478677182
 20
74.98999261892098
 10
536.7613622490726
 20
71.32989480741014
 10
538.9629026223603
 20
67.53788867079186
 10
540.8434043900878
 20
63.63165429213685
 10
542.3940997849391
 20
59.62940433931013
 10
543.6077587491531
 20
55.54979914910601
 10
544.4787226443903
 20
51.41185972414425
 10
545.0029306349182
 20
47.23487904817508
 10
545.1779386211003
 20
43.03833213328328
 10
545.0029306349181
 20
38.84178521839149
 10
544.4787226443902
 20
34.66480454242232
 10
543.6077587491529
 20
30.52686511746056
 10
542.3940997849389
 20
26.4472599272565
 10
540.8434043900875
 20
22.44500997442977
 10
538.9629026223599
 20
18.53877559577482
 10
536.7613622490723
 20
14.74676945915659
 10
534.2490478677177
 20
11.08667164764576
 10
531.437673047674
 20
7.575547226810086
 10
528.3403457161357
 20
4.229766679500867
 10
524.9715070429076
 20
1.064929579105367
 10
521.3468641090039
 20
-1.904208142865793
 10
517.4833166729865
 20
-4.663802995742482
 10
513.398878376488
 20
-7.200988474439451
 10
509.1125927563013
 20
-9.503935049042288
 10
504.6444444546182
 20
-11.56190531953643
 10
500.0152660414027
 20
-13.36530407852271
 10
495.2466408833337
 20
-14.90572304850385
 10
490.3608025121856
 20
-16.17598008515525
 10
485.3805309618404
 20
-17.17015266379734
 10
480.3290465572531
 20
-17.88360549293949
 10
475.2299016505788
 20
-18.31301212614916
 10
470.1068708092354
 20
-18.45637047148024
  0
LWPOLYLINE
  5
344
330
A
100
AcDbEntity
  8
0
  6
Continuous
 62
     7
100
AcDbPolyline
 90
       11
 70
   128
 43
0.0
 10
470.1068708092351
 20
38.08343393176522
 10
468.1427449664501
 20
38.22823934329528
 10
466.2417477443402
 20
38.65800141281262
 10
464.4649787577701
 20
39.35890723379348
 10
462.8695448238982
 20
40.30842911644438
 10
461.5067245020866
 20
41.47604864618765
 10
460.4203199588108
 20
42.82423757061681
 10
459.6452491299883
 20
44.30966398840724
 10
459.2064234297877
 20
45.88458507227811
 10
459.1179470772805
 20
47.49838156274449
 10
459.2462467577207
 20
48.52396815289544
  0
LWPOLYLINE
  5
351
330
A
100
AcDbEntity
  8
0
  6
Continuous
 62
     7
100
AcDbPolyline
 90
       11
 70
   128
 43
0.0
 10
480.9674948607493
 20
48.52396815289512
 10
481.0957945411894
 20
47.49838156274438
 10
481.0073181886822
 20
45.88458507227799
 10
480.5684924884817
 20
44.30966398840713
 10
479.7934216596591
 20
42.82423757061676
 10
478.7070171163834
 20
41.47604864618759
 10
477.3441967945719
 20
40.30842911644428
 10
475.7487628606999
 20
39.35890723379343
 10
473.9719938741297
 20
38.65800141281256
 10
472.07099665202
 20
38.22823934329528
 10
470.1068708092351
 20
38.08343393176522
  0
LWPOLYLINE
  5
35E
330
A
100
AcDbEntity
  8
0
  6
Continuous
 62
     7
100
AcDbPolyline
 90
       11
 70
   128
 43
0.0
 10
470.1068708092352
 20
59.63202325132705
 10
468.7578869534501
 20
59.78390535802891
 10
467.5089510590581
 20
60.22828727709484
 10
466.4526909878445
 20
60.93221123449977
 10
465.6674447172234
 20
61.84347041056071
 10
465.2114503708236
 20
62.89448088092264
 10
465.1185269632825
 20
64.0072940070518
 10
465.3955661986411
 20
65.09937753016443
 10
466.022021344183
 20
66.08973661130097
 10
466.9514310876049
 20
66.90492084800492
 10
467.6068708092342
 20
67.27482630471032
  0
LWPOLYLINE
  5
36B
330
A
100
AcDbEntity
  8
0
  6
Continuous
 62
     7
100
AcDbPolyline
 90
       11
 70
   128
 43
0.0
 10
472.6068708092342
 20
67.27482630471121
 10
473.2623105308656
 20
66.90492084800486
 10
474.1917202742875
 20
66.08973661130097
 10
474.8181754198293
 20
65.09937753016437
 10
475.0952146551879
 20
64.00729400705174
 10
475.0022912476469
 20
62.89448088092258
 10
474.5462969012471
 20
61.84347041056065
 10
473.7610506306259
 20
60.93221123449971
 10
472.7047905594124
 20
60.22828727709484
 10
471.4558546650203
 20
59.78390535802891
 10
470.1068708092352
 20
59.63202325132705
  0
LWPOLYLINE
  5
378
330
A
100
AcDbEntity
  8
0
  6
Continuous
 62
     7
100
AcDbPolyline
 90
       10
 70
   128
 43
0.0
 10
470.1068708092351
 20
46.11264355560224
 10
468.4945925076524
 20
46.25627864854603
 10
466.9577025475332
 20
46.68046771007028
 10
465.5680641952819
 20
47.36537613111042
 10
464.3906553957778
 20
48.27897835511957
 10
463.4805304758899
 20
49.37855535749913
 10
462.8802458653408
 20
50.61269213970981
 10
462.6178702053516
 20
51.92368183745993
 10
462.7056718901735
 20
53.25022402954316
 10
462.7273476523659
 20
53.35305178317245
  0
LWPOLYLINE
  5
384
330
A
100
AcDbEntity
  8
0
  6
Continuous
 62
     7
100
AcDbPolyline
 90
       10
 70
   128
 43
0.0
 10
477.4863939661043
 20
53.35305178317224
 10
477.5080697282965
 20
53.2502240295431
 10
477.5958714131185
 20
51.92368183745988
 10
477.3334957531292
 20
50.6126921397097
 10
476.7332111425802
 20
49.37855535749902
 10
475.8230862226923
 20
48.27897835511952
 10
474.6456774231883
 20
47.36537613111035
 10
473.256039070937
 20
46.68046771007023
 10
471.7191491108177
 20
46.25627864854603
 10
470.1068708092351
 20
46.11264355560224
  0
LWPOLYLINE
  5
390
330
A
100
AcDbEntity
  8
0
  6
Continuous
 62
     7
100
AcDbPolyline
 90
       14
 70
   128
 43
0.0
 10
470.1068708092352
 20
44.06476064953795
 10
468.214358365631
 20
44.21279229740204
 10
466.3902462526318
 20
44.65153699154772
 10
464.7004626346791
 20
45.36513735559045
 10
463.2060806944139
 20
46.3278020131061
 10
461.9611112887317
 20
47.50473775517377
 10
461.0105508556898
 20
48.85340705759894
 10
460.3887551259996
 20
50.32506549786841
 10
460.1181974174049
 20
51.86652350558219
 10
460.2086563904257
 20
53.42206877211175
 10
460.6568626220883
 20
54.93547983859115
 10
461.4466167713906
 20
56.35205808592369
 10
462.5493750656924
 20
57.62060468539215
 10
463.9081414456636
 20
58.684205161174
  0
LWPOLYLINE
  5
3A0
330
A
100
AcDbEntity
  8
0
  6
Continuous
 62
     7
100
AcDbPolyline
 90
       14
 70
   128
 43
0.0
 10
476.3056001728067
 20
58.68420516117384
 10
477.6643665527777
 20
57.62060468539203
 10
478.7671248470795
 20
56.35205808592359
 10
479.5568789963819
 20
54.93547983859103
 10
480.0050852280445
 20
53.42206877211165
 10
480.0955442010653
 20
51.86652350558207
 10
479.8249864924706
 20
50.3250654978683
 10
479.2031907627803
 20
48.85340705759888
 10
478.2526303297384
 20
47.50473775517366
 10
477.0076609240562
 20
46.32780201310604
 10
475.5132789837911
 20
45.36513735559039
 10
473.8234953658383
 20
44.65153699154767
 10
471.9993832528391
 20
44.21279229740199
 10
470.1068708092352
 20
44.06476064953795
  0
LINE
  5
3B0
330
A
100
AcDbEntity
  8
0
  6
Continuous
 62
     7
100
AcDbLine
 10
470.106870809234
 20
498.1749999999999
 30
0.0
 11
539.5690907564828
 21
498.1749999999999
 31
0.0
  0
LINE
  5
3B1
330
A
100
AcDbEntity
  8
0
  6
Continuous
 62
     7
100
AcDbLine
 10
400.6446508619848
 20
498.1749999999999
 30
0.0
 11
470.106870809234
 21
498.1749999999999
 31
0.0
  0
LINE
  5
3B2
330
A
100
AcDbEntity
  8
0
  6
Continuous
 62
     7
100
AcDbLine
 10
470.106870809234
 20
506.175
 30
0.0
 11
525.1068708092337
 21
506.175
 31
0.0
  0
LINE
  5
3B3
330
A
100
AcDbEntity
  8
0
  6
Continuous
 62
     7
100
AcDbLine
 10
415.1068708092338
 20
506.175
 30
0.0
 11
470.106870809234
 21
506.175
 31
0.0
  0
LINE
  5
3B4
330
A
100
AcDbEntity
  8
0
  6
Continuous
 62
     7
100
AcDbLine
 10
473.1068708092338
 20
276.175
 30
0.0
 11
473.1068708092339
 21
286.175
 31
0.0
  0
LINE
  5
3B5
330
A
100
AcDbEntity
  8
0
  6
Continuous
 62
     7
100
AcDbLine
 10
467.1068708092337
 20
276.175
 30
0.0
 11
467.6068708092338
 21
276.1750000000001
 31
0.0
  0
LINE
  5
3B6
330
A
100
AcDbEntity
  8
0
  6
Continuous
 62
     7
100
AcDbLine
 10
472.6068708092338
 20
276.175
 30
0.0
 11
473.1068708092338
 21
276.175
 31
0.0
  0
LINE
  5
3B7
330
A
100
AcDbEntity
  8
0
  6
Continuous
 62
     7
100
AcDbLine
 10
467.1068708092337
 20
276.175
 30
0.0
 11
467.1068708092339
 21
286.175
 31
0.0
  0
LINE
  5
3B8
330
A
100
AcDbEntity
  8
0
  6
Continuous
 62
     7
100
AcDbLine
 10
467.1068708092339
 20
286.175
 30
0.0
 11
467.6068708092338
 21
286.1750000000001
 31
0.0
  0
LINE
  5
3B9
330
A
100
AcDbEntity
  8
0
  6
Continuous
 62
     7
100
AcDbLine
 10
472.6068708092338
 20
286.175
 30
0.0
 11
473.1068708092339
 21
286.175
 31
0.0
  0
LINE
  5
3BA
330
A
100
AcDbEntity
  8
0
  6
Continuous
 62
     7
100
AcDbLine
 10
473.106870809234
 20
316.175
 30
0.0
 11
473.1068708092341
 21
326.175
 31
0.0
  0
LINE
  5
3BB
330
A
100
AcDbEntity
  8
0
  6
Continuous
 62
     7
100
AcDbLine
 10
467.1068708092341
 20
316.175
 30
0.0
 11
467.6068708092338
 21
316.1750000000001
 31
0.0
  0
LINE
  5
3BC
330
A
100
AcDbEntity
  8
0
  6
Continuous
 62
     7
100
AcDbLine
 10
472.6068708092338
 20
316.175
 30
0.0
 11
473.106870809234
 21
316.175
 31
0.0
  0
LINE
  5
3BD
330
A
100
AcDbEntity
  8
0
  6
Continuous
 62
     7
100
AcDbLine
 10
467.1068708092341
 20
316.175
 30
0.0
 11
467.1068708092342
 21
326.1750000000001
 31
0.0
  0
LINE
  5
3BE
330
A
100
AcDbEntity
  8
0
  6
Continuous
 62
     7
100
AcDbLine
 10
467.1068708092342
 20
326.1750000000001
 30
0.0
 11
467.6068708092338
 21
326.175
 31
0.0
  0
LINE
  5
3BF
330
A
100
AcDbEntity
  8
0
  6
Continuous
 62
     7
100
AcDbLine
 10
472.6068708092338
 20
326.175
 30
0.0
 11
473.1068708092341
 21
326.175
 31
0.0
  0
LINE
  5
3C0
330
A
100
AcDbEntity
  8
0
  6
Continuous
 62
     7
100
AcDbLine
 10
481.5975374560198
 20
461.5331858547015
 30
0.0
 11
478.5333596835441
 21
464.1043362934478
 31
0.0
  0
LWPOLYLINE
  5
3C1
330
A
100
AcDbEntity
  8
0
  6
Continuous
 62
     7
100
AcDbPolyline
 90
        5
 70
   128
 43
0.0
 10
470.1068708092343
 20
61.67990615739116
 10
471.063579390147
 20
61.83579196156291
 10
471.8746377622006
 20
62.27971717350139
 10
472.4165696405125
 20
62.94409820388096
 10
472.6068708092343
 20
63.72778906345544
  0
LWPOLYLINE
  5
3C8
330
A
100
AcDbEntity
  8
0
  6
Continuous
 62
     7
100
AcDbPolyline
 90
        5
 70
   128
 43
0.0
 10
467.6068708092342
 20
63.72778906345544
 10
467.7971719779561
 20
62.94409820388096
 10
468.3391038562679
 20
62.27971717350134
 10
469.1501622283216
 20
61.83579196156291
 10
470.1068708092343
 20
61.67990615739116
  0
LINE
  5
3CF
330
A
100
AcDbEntity
  8
0
  6
PHANTOM
 62
     7
100
AcDbLine
 10
448.2042102199346
 20
117.928719497591
 30
0.0
 11
428.9804119840815
 21
112.4109680183009
 31
0.0
  0
LINE
  5
3D0
330
A
100
AcDbEntity
  8
0
  6
PHANTOM
 62
     7
100
AcDbLine
 10
511.2333296343865
 20
112.4109680183021
 30
0.0
 11
492.0095313985334
 21
117.928719497592
 31
0.0
  0
LWPOLYLINE
  5
3D1
330
A
100
AcDbEntity
  8
0
  6
PHANTOM
 62
     7
100
AcDbPolyline
 90
       44
 70
   128
 43
0.0
 10
470.1068708092354
 20
-7.929687627424907
 10
465.2599208569595
 20
-7.786253303280032
 10
460.438240657423
 20
-7.356698130996319
 10
455.6669682185751
 20
-6.643261612342577
 10
450.9709787456417
 20
-5.649663274980342
 10
446.3747549533228
 20
-4.381083280568908
 10
441.9022594242551
 20
-2.844135417801096
 10
437.576809679201
 20
-1.046832621171278
 10
433.4209566102928
 20
1.001454804754609
 10
429.4563669111226
 20
3.290048037768389
 10
425.7037101166345
 20
5.807015412454042
 10
422.1825508417403
 20
8.539234626365965
 10
418.9112467804759
 20
11.47246115363865
 10
415.9068529974856
 20
14.59140250934798
 10
413.1850330108117
 20
17.87979797744715
 10
410.7599771295644
 20
21.32050338661057
 10
408.6443284722208
 20
24.89558049200502
 10
406.8491170512587
 20
28.58639049699208
 10
405.3837022677797
 20
32.37369122718315
 10
404.2557241159253
 20
36.23773745022735
 10
403.4710633514849
 20
40.15838381830977
 10
403.0338108323581
 20
44.11518989666723
 10
402.9462461907162
 20
48.0875267305505
 10
403.2088259480549
 20
52.05468439504223
 10
403.8201811351035
 20
55.99597996701616
 10
404.7771244289959
 20
59.89086535632143
 10
406.074666770497
 20
63.71903443400989
 10
407.706043374647
 20
67.46052889909027
 10
409.6627489992177
 20
71.09584233186777
 10
411.9345822871073
 20
74.60602189138466
 10
414.5096989514934
 20
77.97276712675667
 10
417.3746735264593
 20
81.17852538725045
 10
420.5145693611573
 20
84.20658333367702
 10
423.9130164925896
 20
87.04115407400326
 10
427.5522969910158
 20
89.66745946889703
 10
431.4134373330351
 20
92.07180717810315
 10
435.4763073207504
 20
94.24166204596501
 10
439.7197250313006
 20
96.16571145392239
 10
444.1215672495975
 20
97.83392429926607
 10
448.658884808526
 20
99.2376032926629
 10
453.3080222352746
 20
100.3694303017951
 10
458.044741080018
 20
101.2235045047134
 10
462.8443462839704
 20
101.7953731539912
 10
467.6068708092341
 20
102.0798026770128
  0
LWPOLYLINE
  5
3FF
330
A
100
AcDbEntity
  8
0
  6
PHANTOM
 62
     7
100
AcDbPolyline
 90
       44
 70
   128
 43
0.0
 10
472.606870809234
 20
102.0798026770128
 10
477.3693953344999
 20
101.795373153991
 10
482.1690005384521
 20
101.2235045047133
 10
486.9057193831955
 20
100.3694303017948
 10
491.5548568099442
 20
99.23760329266269
 10
496.0921743688726
 20
97.83392429926578
 10
500.4940165871695
 20
96.16571145392207
 10
504.7374342977197
 20
94.24166204596463
 10
508.8003042854349
 20
92.0718071781027
 10
512.6614446274542
 20
89.66745946889654
 10
516.3007251258805
 20
87.04115407400271
 10
519.6991722573127
 20
84.20658333367642
 10
522.8390680920106
 20
81.17852538724985
 10
525.7040426669765
 20
77.972767126756
 10
528.2791593313627
 20
74.60602189138393
 10
530.5509926192524
 20
71.09584233186706
 10
532.507698243823
 20
67.46052889908954
 10
534.139074847973
 20
63.71903443400917
 10
535.436617189474
 20
59.89086535632065
 10
536.3935604833665
 20
55.99597996701539
 10
537.0049156704151
 20
52.05468439504146
 10
537.2674954277536
 20
48.08752673054972
 10
537.1799307861119
 20
44.11518989666646
 10
536.742678266985
 20
40.15838381830899
 10
535.9580175025445
 20
36.23773745022657
 10
534.8300393506901
 20
32.37369122718242
 10
533.3646245672111
 20
28.58639049699135
 10
531.5694131462492
 20
24.89558049200436
 10
529.4537644889053
 20
21.3205033866099
 10
527.0287086076581
 20
17.87979797744648
 10
524.3068886209843
 20
14.59140250934743
 10
521.3024948379939
 20
11.47246115363809
 10
518.0311907767295
 20
8.539234626365466
 10
514.5100315018352
 20
5.807015412453486
 10
510.7573747073471
 20
3.290048037768056
 10
506.792785008177
 20
1.001454804754275
 10
502.6369319392688
 20
-1.0468326211715
 10
498.3114821942146
 20
-2.844135417801318
 10
493.8389866651469
 20
-4.38108328056913
 10
489.2427628728281
 20
-5.649663274980454
 10
484.5467733998947
 20
-6.643261612342687
 10
479.7755009610468
 20
-7.356698130996319
 10
474.9538207615103
 20
-7.786253303280032
 10
470.1068708092354
 20
-7.929687627424907
  0
LWPOLYLINE
  5
42D
330
A
100
AcDbEntity
  8
0
  6
PHANTOM
 62
     7
100
AcDbPolyline
 90
       43
 70
   128
 43
0.0
 10
470.1068708092354
 20
-9.424137501321149
 10
465.1578743800759
 20
-9.277683346646304
 10
460.234679726735
 20
-8.839084426770781
 10
455.3629541065194
 20
-8.110627393375702
 10
450.568096441029
 20
-7.096110084131412
 10
445.8751048979404
 20
-5.800821722530436
 10
441.3084465621359
 20
-4.231515342325076
 10
436.8919298756514
 20
-2.396372580336592
 10
432.6485805114846
 20
-0.3049610211889875
 10
428.6005213283972
 20
2.031815683646909
 10
424.7688570325728
 20
4.601774662443657
 10
421.1735641474521
 20
7.391517339069009
 10
417.8333868653882
 20
10.38649928695817
 10
414.7657393241078
 20
13.57110605701889
 10
411.9866148174604
 20
16.92873458413946
 10
409.510502413789
 20
20.44187974788187
 10
407.3503114166374
 20
24.09222563607483
 10
405.5173040616191
 20
27.86074103549835
 10
404.0210368003346
 20
31.72777865181792
 10
402.8693104774588
 20
35.6731775414792
 10
402.0681296607488
 20
39.67636822153276
 10
401.6216713360072
 20
43.71647990939393
 10
401.532263130213
 20
47.77244933343888
 10
401.8003711763523
 20
51.8231305471501
 10
402.4245976832158
 20
55.8474051742901
 10
403.4016882228361
 20
59.82429251033661
 10
404.7265486975677
 20
63.73305890616116
 10
406.3922718983532
 20
67.55332586367496
 10
408.3901735157136
 20
71.26517627988232
 10
410.7098374157157
 20
74.84925828543321
 10
413.339169944873
 20
78.28688613630923
 10
416.2644629808536
 20
81.56013763264104
 10
419.4704654002836
 20
84.65194755675975
 10
422.9404625910424
 20
87.54619664333995
 10
426.6563635945106
 20
90.22779561778548
 10
430.5987954234516
 20
92.68276386472019
 10
434.747204063797
 20
94.89830231644292
 10
439.0799616337578
 20
96.86286018134026
 10
443.5744791415869
 20
98.5661951643655
 10
448.2073242541211
 20
99.9994268656223
 10
452.9543434621175
 20
101.1550830786581
 10
457.7907880054659
 20
102.0271387470885
 10
460.4924958576465
 20
102.3856463250055
  0
LWPOLYLINE
  5
45A
330
A
100
AcDbEntity
  8
0
  6
PHANTOM
 62
     7
100
AcDbPolyline
 90
       43
 70
   128
 43
0.0
 10
480.2833039474604
 20
102.3185161987905
 10
482.4229536130042
 20
102.0271387470884
 10
487.2593981563525
 20
101.1550830786579
 10
492.0064173643489
 20
99.99942686562206
 10
496.6392624768833
 20
98.56619516436522
 10
501.1337799847122
 20
96.86286018133989
 10
505.4665375546732
 20
94.89830231644253
 10
509.6149461950184
 20
92.68276386471969
 10
513.5573780239594
 20
90.22779561778499
 10
517.2732790274277
 20
87.5461966433394
 10
520.7432762181863
 20
84.65194755675915
 10
523.9492786376164
 20
81.56013763264041
 10
526.8745716735971
 20
78.28688613630858
 10
529.5039042027542
 20
74.84925828543248
 10
531.8235681027565
 20
71.2651762798816
 10
533.8214697201167
 20
67.55332586367419
 10
535.4871929209023
 20
63.73305890616038
 10
536.8120533956338
 20
59.82429251033583
 10
537.7891439352542
 20
55.84740517428932
 10
538.4133704421176
 20
51.82313054714926
 10
538.6814784882568
 20
47.77244933343804
 10
538.5920702824627
 20
43.71647990939314
 10
538.1456119577211
 20
39.67636822153198
 10
537.344431141011
 20
35.67317754147842
 10
536.1927048181354
 20
31.72777865181714
 10
534.6964375568508
 20
27.86074103549763
 10
532.8634302018324
 20
24.09222563607411
 10
530.7032392046809
 20
20.4418797478812
 10
528.2271268010094
 20
16.92873458413879
 10
525.4480022943619
 20
13.57110605701833
 10
522.3803547530816
 20
10.38649928695762
 10
519.0401774710177
 20
7.391517339068509
 10
515.4448845858969
 20
4.601774662443103
 10
511.6132202900727
 20
2.031815683646465
 10
507.5651611069851
 20
-0.3049610211894316
 10
503.3218117428183
 20
-2.396372580336925
 10
498.9052950563339
 20
-4.231515342325298
 10
494.3386367205293
 20
-5.800821722530546
 10
489.6456451774408
 20
-7.096110084131524
 10
484.8507875119504
 20
-8.110627393375702
 10
479.9790618917348
 20
-8.839084426770781
 10
475.0558672383939
 20
-9.277683346646304
 10
470.1068708092354
 20
-9.424137501321149
  0
LINE
  5
487
330
A
100
AcDbEntity
  8
0
  6
PHANTOM
 62
     7
100
AcDbLine
 10
470.106870809234
 20
496.4043577981652
 30
0.0
 11
400.0073827890743
 21
496.4043577981652
 31
0.0
  0
LINE
  5
488
330
A
100
AcDbEntity
  8
0
  6
PHANTOM
 62
     7
100
AcDbLine
 10
540.2063588293933
 20
496.4043577981652
 30
0.0
 11
470.106870809234
 21
496.4043577981652
 31
0.0
  0
LINE
  5
489
330
A
100
AcDbEntity
  8
0
  6
PHANTOM
 62
     7
100
AcDbLine
 10
465.9402041425686
 20
456.7653196118412
 30
0.0
 11
467.0513152536797
 21
460.6079010486835
 31
0.0
  0
LWPOLYLINE
  5
48A
330
A
100
AcDbEntity
  8
0
  6
PHANTOM
 62
     7
100
AcDbPolyline
 90
        5
 70
   128
 43
0.0
 10
470.1068708092343
 20
153.9097880599126
 10
471.0635793901469
 20
153.7313604485201
 10
471.8746377622006
 20
153.2232416007269
 10
472.4165696405124
 20
152.4627880050006
 10
472.6068708092342
 20
151.5657718277616
  0
LWPOLYLINE
  5
491
330
A
100
AcDbEntity
  8
0
  6
PHANTOM
 62
     7
100
AcDbPolyline
 90
        5
 70
   128
 43
0.0
 10
467.6068708092342
 20
151.5657718277616
 10
467.797171977956
 20
152.4627880050007
 10
468.3391038562679
 20
153.2232416007269
 10
469.1501622283215
 20
153.7313604485201
 10
470.1068708092343
 20
153.9097880599126
  0
LINE
  5
498
330
A
100
AcDbEntity
  8
0
  6
PHANTOM
 62
     7
100
AcDbLine
 10
470.1068708092338
 20
320.3349405426354
 30
0.0
 11
472.6068708092338
 21
320.3349405426354
 31
0.0
  0
LINE
  5
499
330
A
100
AcDbEntity
  8
0
  6
PHANTOM
 62
     7
100
AcDbLine
 10
467.6068708092338
 20
320.3349405426354
 30
0.0
 11
470.1068708092338
 21
320.3349405426354
 31
0.0
  0
ENDSEC
  0
SECTION
  2
OBJECTS
  0
DICTIONARY
  5
19
330
0
100
AcDbDictionary
281
     1
  3
ACAD_COLOR
350
49E
  3
ACAD_GROUP
350
1A
  3
ACAD_LAYOUT
350
49F
  3
ACAD_MATERIAL
350
49D
  3
ACAD_MLINESTYLE
350
1B
  3
ACAD_PLOTSETTINGS
350
4A0
  3
ACAD_PLOTSTYLENAME
350
49B
  3
ACDBHEADERROUNDTRIPXREC
350
4B8
  3
AcDbVariableDictionary
350
4B1
  3
ASE_INDEX_DICTIONARY
350
4A6
  0
DICTIONARY
  5
49E
102
{ACAD_REACTORS
330
19
102
}
330
19
100
AcDbDictionary
281
     1
  0
DICTIONARY
  5
1A
102
{ACAD_REACTORS
330
19
102
}
330
19
100
AcDbDictionary
281
     1
  0
DICTIONARY
  5
49F
102
{ACAD_REACTORS
330
19
102
}
330
19
100
AcDbDictionary
281
     1
  3
Layout1
350
4A2
  3
Model
350
4A1
  0
DICTIONARY
  5
49D
102
{ACAD_REACTORS
330
19
102
}
330
19
100
AcDbDictionary
281
     1
  0
DICTIONARY
  5
1B
102
{ACAD_REACTORS
330
19
102
}
330
19
100
AcDbDictionary
281
     1
  3
STANDARD
350
1C
  0
DICTIONARY
  5
4A0
102
{ACAD_REACTORS
330
19
102
}
330
19
100
AcDbDictionary
281
     1
  0
ACDBDICTIONARYWDFLT
  5
49B
102
{ACAD_REACTORS
330
19
102
}
330
19
100
AcDbDictionary
281
     1
  3
Normal
350
49C
100
AcDbDictionaryWithDefault
340
49C
  0
DICTIONARY
  5
4B8
102
{ACAD_REACTORS
330
19
102
}
330
19
100
AcDbDictionary
281
     1
  3
COLORDICT
350
4BA
  3
MATERIALDICT
350
4B9
  0
DICTIONARY
  5
4B1
102
{ACAD_REACTORS
330
19
102
}
330
19
100
AcDbDictionary
281
     1
  3
DIMASSOC
350
4B2
  3
PROJECTNAME
350
4B3
  0
DICTIONARY
  5
4A6
102
{ACAD_REACTORS
330
19
102
}
330
19
100
AcDbDictionary
281
     1
  3
ASEBlockHierarchyIndexRecord
350
4A8
1001
DCO15
1040
1522042202.109
  0
LAYOUT
  5
4A2
102
{ACAD_XDICTIONARY
360
4BD
102
}
102
{ACAD_REACTORS
330
49F
102
}
330
49F
100
AcDbPlotSettings
  1

  2
ProgeSOFT PDF Wizard
  4

  6

 40
0.0
 41
0.0
 42
0.0
 43
0.0
 44
0.0
 45
0.0
 46
0.0
 47
0.0
 48
0.0
 49
0.0
140
0.0
141
0.0
142
1.0
143
1.0
 70
   688
 72
     0
 73
     0
 74
     5
  7

 75
    16
147
1.0
148
0.0
149
0.0
100
AcDbLayout
  1
Layout1
 70
     1
 71
     1
 10
0.0
 20
0.0
 11
12.0
 21
9.0
 12
0.0
 22
0.0
 32
0.0
 14
1.000000000000000E+20
 24
1.000000000000000E+20
 34
1.000000000000000E+20
 15
-1.000000000000000E+20
 25
-1.000000000000000E+20
 35
-1.000000000000000E+20
146
0.0
 13
0.0
 23
0.0
 33
0.0
 16
1.0
 26
0.0
 36
0.0
 17
0.0
 27
1.0
 37
0.0
 76
     0
330
B
  0
LAYOUT
  5
4A1
102
{ACAD_XDICTIONARY
360
4BB
102
}
102
{ACAD_REACTORS
330
49F
102
}
330
49F
100
AcDbPlotSettings
  1

  2
ProgeSOFT PDF Wizard
  4

  6

 40
0.0
 41
0.0
 42
0.0
 43
0.0
 44
0.0
 45
0.0
 46
0.0
 47
0.0
 48
0.0
 49
0.0
140
0.0
141
0.0
142
1.0
143
1.0
 70
  1712
 72
     0
 73
     0
 74
     0
  7

 75
     0
147
1.0
148
0.0
149
0.0
100
AcDbLayout
  1
Model
 70
     1
 71
     0
 10
0.0
 20
0.0
 11
12.0
 21
9.0
 12
0.0
 22
0.0
 32
0.0
 14
0.0
 24
0.0
 34
0.0
 15
0.0
 25
0.0
 35
0.0
146
0.0
 13
0.0
 23
0.0
 33
0.0
 16
1.0
 26
0.0
 36
0.0
 17
0.0
 27
1.0
 37
0.0
 76
     0
330
A
  0
MLINESTYLE
  5
1C
102
{ACAD_REACTORS
330
1B
102
}
330
1B
100
AcDbMlineStyle
  2
STANDARD
 70
     0
  3

 62
     0
 51
90.0
 52
90.0
 71
     2
 49
0.5
 62
   256
  6
BYLAYER
 49
-0.5
 62
   256
  6
BYLAYER
  0
ACDBPLACEHOLDER
  5
49C
102
{ACAD_REACTORS
330
49B
102
}
330
49B
  0
XRECORD
  5
4BA
102
{ACAD_REACTORS
330
4B8
102
}
330
4B8
100
AcDbXrecord
280
     1
340
49E
  0
XRECORD
  5
4B9
102
{ACAD_REACTORS
330
4B8
102
}
330
4B8
100
AcDbXrecord
280
     1
340
49D
  0
DICTIONARYVAR
  5
4B2
102
{ACAD_REACTORS
330
4B1
102
}
330
4B1
100
DictionaryVariables
280
     0
  1
1
  0
DICTIONARYVAR
  5
4B3
102
{ACAD_REACTORS
330
4B1
102
}
330
4B1
100
DictionaryVariables
280
     0
  1

  0
XRECORD
  5
4A8
102
{ACAD_REACTORS
330
4A6
102
}
330
4A6
100
AcDbXrecord
280
     1
  0
DICTIONARY
  5
4BD
330
4A2
100
AcDbDictionary
280
     1
281
     1
  3
ACAD_XREC_ROUNDTRIP
360
4BE
  0
DICTIONARY
  5
4BB
330
4A1
100
AcDbDictionary
280
     1
281
     1
  3
ACAD_XREC_ROUNDTRIP
360
4BC
  0
XRECORD
  5
4BE
102
{ACAD_REACTORS
330
4BD
102
}
330
4BD
100
AcDbXrecord
280
     1
102
SHADEPLOT
 70
     0
102
SHADEPLOTRESLEVEL
 70
     2
102
SHADEPLOTCUSTOMDPI
 70
   300
  0
XRECORD
  5
4BC
102
{ACAD_REACTORS
330
4BB
102
}
330
4BB
100
AcDbXrecord
280
     1
102
SHADEPLOT
 70
     0
102
SHADEPLOTRESLEVEL
 70
     2
102
SHADEPLOTCUSTOMDPI
 70
   300
  0
ENDSEC
  0
EOF
