  0
SECTION
  2
HEADER
  9
$ACADVER
  1
AC1015
  9
$ACADMAINTVER
 70
    20
  9
$DWGCODEPAGE
  3
ANSI_1252
  9
$INSBASE
 10
0.0
 20
0.0
 30
0.0
  9
$EXTMIN
 10
-196.6111228170741
 20
-1480.456899016522
 30
0.0
  9
$EXTMAX
 10
1033.651310524788
 20
1064.019250834573
 30
0.0
  9
$LIMMIN
 10
0.0
 20
0.0
  9
$LIMMAX
 10
0.0
 20
0.0
  9
$ORTHOMODE
 70
     0
  9
$REGENMODE
 70
     1
  9
$FILLMODE
 70
     1
  9
$QTEXTMODE
 70
     0
  9
$MIRRTEXT
 70
     1
  9
$LTSCALE
 40
1.0
  9
$ATTMODE
 70
     1
  9
$TEXTSIZE
 40
0.0
  9
$TRACEWID
 40
0.05
  9
$TEXTSTYLE
  7
STANDARD
  9
$CLAYER
  8
0
  9
$CELTYPE
  6
CONTINUOUS
  9
$CECOLOR
 62
   256
  9
$CELTSCALE
 40
1.0
  9
$DISPSILH
 70
     0
  9
$DIMSCALE
 40
1.0
  9
$DIMASZ
 40
6.0
  9
$DIMEXO
 40
1.0
  9
$DIMDLI
 40
0.38
  9
$DIMRND
 40
0.0
  9
$DIMDLE
 40
1.0
  9
$DIMEXE
 40
0.18
  9
$DIMTP
 40
0.0
  9
$DIMTM
 40
0.0
  9
$DIMTXT
 40
3.5
  9
$DIMCEN
 40
0.09
  9
$DIMTSZ
 40
0.0
  9
$DIMTOL
 70
     0
  9
$DIMLIM
 70
     0
  9
$DIMTIH
 70
     1
  9
$DIMTOH
 70
     1
  9
$DIMSE1
 70
     0
  9
$DIMSE2
 70
     0
  9
$DIMTAD
 70
     1
  9
$DIMZIN
 70
     0
  9
$DIMBLK
  1

  9
$DIMASO
 70
     1
  9
$DIMSHO
 70
     1
  9
$DIMPOST
  1

  9
$DIMAPOST
  1

  9
$DIMALT
 70
     0
  9
$DIMALTD
 70
     2
  9
$DIMALTF
 40
0.0394
  9
$DIMLFAC
 40
1.0
  9
$DIMTOFL
 70
     0
  9
$DIMTVP
 40
0.0
  9
$DIMTIX
 70
     0
  9
$DIMSOXD
 70
     0
  9
$DIMSAH
 70
     0
  9
$DIMBLK1
  1

  9
$DIMBLK2
  1

  9
$DIMSTYLE
  2
STANDARD
  9
$DIMCLRD
 70
     0
  9
$DIMCLRE
 70
     0
  9
$DIMCLRT
 70
     0
  9
$DIMTFAC
 40
1.0
  9
$DIMGAP
 40
1.0
  9
$DIMJUST
 70
     0
  9
$DIMSD1
 70
     0
  9
$DIMSD2
 70
     0
  9
$DIMTOLJ
 70
     1
  9
$DIMTZIN
 70
     0
  9
$DIMALTZ
 70
     0
  9
$DIMALTTZ
 70
     0
  9
$DIMUPT
 70
     0
  9
$DIMDEC
 70
     4
  9
$DIMTDEC
 70
     4
  9
$DIMALTU
 70
     2
  9
$DIMALTTD
 70
     2
  9
$DIMTXSTY
  7
STANDARD
  9
$DIMAUNIT
 70
     0
  9
$DIMADEC
 70
     0
  9
$DIMALTRND
 40
0.0
  9
$DIMAZIN
 70
     0
  9
$DIMDSEP
 70
    46
  9
$DIMATFIT
 70
     3
  9
$DIMFRAC
 70
     0
  9
$DIMLDRBLK
  1

  9
$DIMLUNIT
 70
     2
  9
$DIMLWD
 70
    -2
  9
$DIMLWE
 70
    -2
  9
$DIMTMOVE
 70
     0
  9
$LUNITS
 70
     2
  9
$LUPREC
 70
     2
  9
$SKETCHINC
 40
0.1
  9
$FILLETRAD
 40
0.0
  9
$AUNITS
 70
     0
  9
$AUPREC
 70
     2
  9
$MENU
  1
acad
  9
$ELEVATION
 40
0.0
  9
$PELEVATION
 40
0.0
  9
$THICKNESS
 40
0.0
  9
$LIMCHECK
 70
     0
  9
$CHAMFERA
 40
0.0
  9
$CHAMFERB
 40
0.0
  9
$CHAMFERC
 40
0.0
  9
$CHAMFERD
 40
0.0
  9
$SKPOLY
 70
     0
  9
$TDCREATE
 40
2444972.041666667
  9
$TDUCREATE
 40
2444972.000000000
  9
$TDUPDATE
 40
2453768.759984618
  9
$TDUUPDATE
 40
2453768.718317952
  9
$TDINDWG
 40
0.0024517245
  9
$TDUSRTIMER
 40
0.0024517245
  9
$USRTIMER
 70
     1
  9
$ANGBASE
 50
0.0
  9
$ANGDIR
 70
     0
  9
$PDMODE
 70
     0
  9
$PDSIZE
 40
-1.0
  9
$PLINEWID
 40
0.0
  9
$SPLFRAME
 70
     0
  9
$SPLINETYPE
 70
     6
  9
$SPLINESEGS
 70
     8
  9
$HANDSEED
  5
A75
  9
$SURFTAB1
 70
     6
  9
$SURFTAB2
 70
     6
  9
$SURFTYPE
 70
     6
  9
$SURFU
 70
     6
  9
$SURFV
 70
     6
  9
$UCSBASE
  2

  9
$UCSNAME
  2

  9
$UCSORG
 10
0.0
 20
0.0
 30
0.0
  9
$UCSXDIR
 10
1.0
 20
0.0
 30
0.0
  9
$UCSYDIR
 10
0.0
 20
1.0
 30
0.0
  9
$UCSORTHOREF
  2

  9
$UCSORTHOVIEW
 70
     1
  9
$UCSORGTOP
 10
0.0
 20
0.0
 30
0.0
  9
$UCSORGBOTTOM
 10
0.0
 20
0.0
 30
0.0
  9
$UCSORGLEFT
 10
0.0
 20
0.0
 30
0.0
  9
$UCSORGRIGHT
 10
0.0
 20
0.0
 30
0.0
  9
$UCSORGFRONT
 10
0.0
 20
0.0
 30
0.0
  9
$UCSORGBACK
 10
0.0
 20
0.0
 30
0.0
  9
$PUCSBASE
  2

  9
$PUCSNAME
  2

  9
$PUCSORG
 10
0.0
 20
0.0
 30
0.0
  9
$PUCSXDIR
 10
1.0
 20
0.0
 30
0.0
  9
$PUCSYDIR
 10
0.0
 20
1.0
 30
0.0
  9
$PUCSORTHOREF
  2

  9
$PUCSORTHOVIEW
 70
     0
  9
$PUCSORGTOP
 10
0.0
 20
0.0
 30
0.0
  9
$PUCSORGBOTTOM
 10
0.0
 20
0.0
 30
0.0
  9
$PUCSORGLEFT
 10
0.0
 20
0.0
 30
0.0
  9
$PUCSORGRIGHT
 10
0.0
 20
0.0
 30
0.0
  9
$PUCSORGFRONT
 10
0.0
 20
0.0
 30
0.0
  9
$PUCSORGBACK
 10
0.0
 20
0.0
 30
0.0
  9
$USERI1
 70
     0
  9
$USERI2
 70
     0
  9
$USERI3
 70
     0
  9
$USERI4
 70
     0
  9
$USERI5
 70
     0
  9
$USERR1
 40
0.0
  9
$USERR2
 40
0.0
  9
$USERR3
 40
0.0
  9
$USERR4
 40
0.0
  9
$USERR5
 40
0.0
  9
$WORLDVIEW
 70
     1
  9
$SHADEDGE
 70
     3
  9
$SHADEDIF
 70
    70
  9
$TILEMODE
 70
     1
  9
$MAXACTVP
 70
    16
  9
$PINSBASE
 10
0.0
 20
0.0
 30
0.0
  9
$PLIMCHECK
 70
     0
  9
$PEXTMIN
 10
1.000000000000000E+20
 20
1.000000000000000E+20
 30
1.000000000000000E+20
  9
$PEXTMAX
 10
-1.000000000000000E+20
 20
-1.000000000000000E+20
 30
-1.000000000000000E+20
  9
$PLIMMIN
 10
0.0
 20
0.0
  9
$PLIMMAX
 10
12.0
 20
9.0
  9
$UNITMODE
 70
     0
  9
$VISRETAIN
 70
     0
  9
$PLINEGEN
 70
     1
  9
$PSLTSCALE
 70
     1
  9
$TREEDEPTH
 70
  3020
  9
$CMLSTYLE
  2
STANDARD
  9
$CMLJUST
 70
     0
  9
$CMLSCALE
 40
1.0
  9
$PROXYGRAPHICS
 70
     0
  9
$MEASUREMENT
 70
     0
  9
$CELWEIGHT
370
    -1
  9
$ENDCAPS
280
     0
  9
$JOINSTYLE
280
     0
  9
$LWDISPLAY
290
     0
  9
$INSUNITS
 70
     0
  9
$HYPERLINKBASE
  1

  9
$STYLESHEET
  1

  9
$XEDIT
290
     1
  9
$CEPSNTYPE
380
     0
  9
$PSTYLEMODE
290
     1
  9
$FINGERPRINTGUID
  2
{10222A38-BE0F-4EBB-A7C5-E3732B511029}
  9
$VERSIONGUID
  2
{0D5034E7-0284-4B7E-B7C1-D7A3EE12B869}
  9
$EXTNAMES
290
     1
  9
$PSVPSCALE
 40
0.0
  9
$OLESTARTUP
290
     0
  0
ENDSEC
  0
SECTION
  2
CLASSES
  0
CLASS
  1
IMAGE
  2
AcDbRasterImage
  3
ISM
 90
    32895
280
     0
281
     1
  0
CLASS
  1
DICTIONARYVAR
  2
AcDbDictionaryVar
  3
ObjectDBX Classes
 90
        0
280
     0
281
     0
  0
CLASS
  1
RASTERVARIABLES
  2
AcDbRasterVariables
  3
ISM
 90
    32768
280
     0
281
     0
  0
CLASS
  1
IMAGEDEF
  2
AcDbRasterImageDef
  3
ISM
 90
    32768
280
     0
281
     0
  0
CLASS
  1
IMAGEDEF_REACTOR
  2
AcDbRasterImageDefReactor
  3
ISM
 90
    32769
280
     0
281
     0
  0
CLASS
  1
IDBUFFER
  2
AcDbIdBuffer
  3
ObjectDBX Classes
 90
    32768
280
     0
281
     0
  0
CLASS
  1
SPATIAL_FILTER
  2
AcDbSpatialFilter
  3
ObjectDBX Classes
 90
    32768
280
     0
281
     0
  0
CLASS
  1
SORTENTSTABLE
  2
AcDbSortentsTable
  3
ObjectDBX Classes
 90
    32768
280
     0
281
     0
  0
CLASS
  1
LAYER_INDEX
  2
AcDbLayerIndex
  3
ObjectDBX Classes
 90
    32768
280
     0
281
     0
  0
CLASS
  1
SPATIAL_INDEX
  2
AcDbSpatialIndex
  3
ObjectDBX Classes
 90
    32768
280
     0
281
     0
  0
CLASS
  1
OBJECT_PTR
  2
CAseDLPNTableRecord
  3
ASE-LPNTableRecord
 90
    32769
280
     0
281
     0
  0
CLASS
  1
LAYOUT
  2
AcDbLayout
  3
ObjectDBX Classes
 90
        0
280
     0
281
     0
  0
CLASS
  1
PLOTSETTINGS
  2
AcDbPlotSettings
  3
ObjectDBX Classes
 90
    32768
280
     0
281
     0
  0
CLASS
  1
ACDBDICTIONARYWDFLT
  2
AcDbDictionaryWithDefault
  3
ObjectDBX Classes
 90
        0
280
     0
281
     0
  0
CLASS
  1
ACDBPLACEHOLDER
  2
AcDbPlaceHolder
  3
ObjectDBX Classes
 90
        0
280
     0
281
     0
  0
CLASS
  1
VBA_PROJECT
  2
AcDbVbaProject
  3
acad
 90
    32768
280
     0
281
     0
  0
CLASS
  1
WIPEOUT
  2
AcDbWipeout
  3
"WipeOut|Product Desc: Object Enabler for WipeOut entity^I^I^I^I^I^I|Company: Autodesk, Inc.^I^I^I^I^I^I|WEB Address: www.autodesk.com"
 90
    32895
280
     0
281
     1
  0
CLASS
  1
WIPEOUTVARIABLES
  2
AcDbWipeoutVariables
  3
"WipeOut|Product Desc:     WipeOut Dbx Application|Company:          Autodesk, Inc.|WEB Address:      www.autodesk.com"
 90
    32768
280
     0
281
     0
  0
CLASS
  1
RTEXT
  2
RText
  3
RText|AutoCAD Express Tool|expresstools@autodesk.com
 90
    32768
280
     0
281
     1
  0
CLASS
  1
ARCALIGNEDTEXT
  2
AcDbArcAlignedText
  3
ATEXT|AutoCAD Express Tool|expresstools@autodesk.com
 90
    32768
280
     0
281
     1
  0
ENDSEC
  0
SECTION
  2
TABLES
  0
TABLE
  2
VPORT
  5
7
330
0
100
AcDbSymbolTable
 70
     2
  0
VPORT
  5
A6D
330
7
100
AcDbSymbolTableRecord
100
AcDbViewportTableRecord
  2
*Active
 70
     0
 10
0.0
 20
0.0
 11
1.0
 21
1.0
 12
556.009821329723
 22
-208.2188240909743
 13
0.0
 23
0.0
 14
1.0
 24
1.0
 15
0.0
 25
0.0
 16
0.0
 26
0.0
 36
1.0
 17
0.0
 27
0.0
 37
0.0
 40
2566.059500764863
 41
1.569570871261378
 42
50.0
 43
0.0
 44
0.0
 50
0.0
 51
0.0
 71
     0
 72
  2000
 73
     1
 74
     1
 75
     0
 76
     0
 77
     0
 78
     0
281
     0
 65
     1
110
0.0
120
0.0
130
0.0
111
1.0
121
0.0
131
0.0
112
0.0
122
1.0
132
0.0
 79
     1
146
0.0
  0
ENDTAB
  0
TABLE
  2
LTYPE
  5
4
330
0
100
AcDbSymbolTable
 70
     6
  0
LTYPE
  5
11
330
4
100
AcDbSymbolTableRecord
100
AcDbLinetypeTableRecord
  2
BYBLOCK
 70
     0
  3

 72
    65
 73
     0
 40
0.0
  0
LTYPE
  5
12
330
4
100
AcDbSymbolTableRecord
100
AcDbLinetypeTableRecord
  2
BYLAYER
 70
     0
  3

 72
    65
 73
     0
 40
0.0
  0
LTYPE
  5
13
330
4
100
AcDbSymbolTableRecord
100
AcDbLinetypeTableRecord
  2
CONTINUOUS
 70
     0
  3
Solid line
 72
    65
 73
     0
 40
0.0
  0
LTYPE
  5
1E
330
4
100
AcDbSymbolTableRecord
100
AcDbLinetypeTableRecord
  2
HIDDEN
 70
     0
  3
Hidden __ __ __ __ __ __ __ __ __ __ __ __ __ __
 72
    65
 73
     2
 40
1.905
 49
1.27
 74
     0
 49
-0.635
 74
     0
  0
LTYPE
  5
1F
330
4
100
AcDbSymbolTableRecord
100
AcDbLinetypeTableRecord
  2
PHANTOM
 70
     0
  3
Phantom ______  __  __  ______  __  __  ______
 72
    65
 73
     6
 40
12.7
 49
6.349999999999999
 74
     0
 49
-1.27
 74
     0
 49
1.27
 74
     0
 49
-1.27
 74
     0
 49
1.27
 74
     0
 49
-1.27
 74
     0
  0
LTYPE
  5
20
330
4
100
AcDbSymbolTableRecord
100
AcDbLinetypeTableRecord
  2
CENTER
 70
     0
  3
Center ____ _ ____ _ ____ _ ____ _ ____ _ ____
 72
    65
 73
     4
 40
10.16
 49
6.349999999999999
 74
     0
 49
-1.27
 74
     0
 49
1.27
 74
     0
 49
-1.27
 74
     0
  0
LTYPE
  5
21
330
4
100
AcDbSymbolTableRecord
100
AcDbLinetypeTableRecord
  2
CENTERX2
 70
     0
  3
Center (2x) ________  __  ________  __  _____
 72
    65
 73
     4
 40
20.32
 49
12.7
 74
     0
 49
-2.54
 74
     0
 49
2.54
 74
     0
 49
-2.54
 74
     0
  0
LTYPE
  5
22
330
4
100
AcDbSymbolTableRecord
100
AcDbLinetypeTableRecord
  2
DOT2
 70
     0
  3
Dot (.5x) ........................................
 72
    65
 73
     2
 40
0.635
 49
0.0
 74
     0
 49
-0.635
 74
     0
  0
ENDTAB
  0
TABLE
  2
LAYER
  5
2
330
0
100
AcDbSymbolTable
 70
     2
  0
LAYER
  5
14
330
2
100
AcDbSymbolTableRecord
100
AcDbLayerTableRecord
  2
0
 70
     0
 62
     7
  6
CONTINUOUS
370
    -3
390
A52
  0
LAYER
  5
26
330
2
100
AcDbSymbolTableRecord
100
AcDbLayerTableRecord
  2
DEFPOINTS
 70
     0
 62
     7
  6
CONTINUOUS
290
     0
370
    -3
390
A52
  0
ENDTAB
  0
TABLE
  2
STYLE
  5
3
330
0
100
AcDbSymbolTable
 70
     1
  0
STYLE
  5
17
330
3
100
AcDbSymbolTableRecord
100
AcDbTextStyleTableRecord
  2
STANDARD
 70
     0
 40
0.0
 41
1.0
 50
0.0
 71
     0
 42
0.0
  3
Century Gothic
  4

  0
ENDTAB
  0
TABLE
  2
VIEW
  5
5
330
0
100
AcDbSymbolTable
 70
     0
  0
ENDTAB
  0
TABLE
  2
UCS
  5
6
330
0
100
AcDbSymbolTable
 70
     0
  0
ENDTAB
  0
TABLE
  2
APPID
  5
8
330
0
100
AcDbSymbolTable
 70
     2
  0
APPID
  5
16
330
8
100
AcDbSymbolTableRecord
100
AcDbRegAppTableRecord
  2
ACAD
 70
     0
  0
APPID
  5
A5D
330
8
100
AcDbSymbolTableRecord
100
AcDbRegAppTableRecord
  2
DCO15
 70
     0
  0
ENDTAB
  0
TABLE
  2
DIMSTYLE
  5
9
330
0
100
AcDbSymbolTable
 70
     1
100
AcDbDimStyleTable
 71
     0
  0
DIMSTYLE
105
18
330
9
100
AcDbSymbolTableRecord
100
AcDbDimStyleTableRecord
  2
STANDARD
 70
     0
289
     0
340
17
  0
ENDTAB
  0
TABLE
  2
BLOCK_RECORD
  5
1
330
0
100
AcDbSymbolTable
 70
     0
  0
BLOCK_RECORD
  5
A
330
1
100
AcDbSymbolTableRecord
100
AcDbBlockTableRecord
  2
*MODEL_SPACE
340
A57
  0
BLOCK_RECORD
  5
B
330
1
100
AcDbSymbolTableRecord
100
AcDbBlockTableRecord
  2
*PAPER_SPACE
340
A58
  0
ENDTAB
  0
ENDSEC
  0
SECTION
  2
BLOCKS
  0
BLOCK
  5
D
330
A
100
AcDbEntity
  8
0
100
AcDbBlockBegin
  2
*MODEL_SPACE
 70
     0
 10
0.0
 20
0.0
 30
0.0
  3
*MODEL_SPACE
  1

  0
ENDBLK
  5
E
330
A
100
AcDbEntity
  8
0
100
AcDbBlockEnd
  0
BLOCK
  5
F
330
B
100
AcDbEntity
 67
     1
  8
0
100
AcDbBlockBegin
  2
*PAPER_SPACE
 70
     0
 10
0.0
 20
0.0
 30
0.0
  3
*PAPER_SPACE
  1

  0
ENDBLK
  5
10
330
B
100
AcDbEntity
 67
     1
  8
0
100
AcDbBlockEnd
  0
ENDSEC
  0
SECTION
  2
ENTITIES
  0
ARC
  5
27
330
A
100
AcDbEntity
  8
0
  6
Continuous
 62
     7
100
AcDbCircle
 10
65.36507759769854
 20
1264.213840548279
 30
0.0
 40
250.9999999999999
100
AcDbArc
 50
248.7431291678446
 51
259.4271554967412
  0
ARC
  5
28
330
A
100
AcDbEntity
  8
0
  6
Continuous
 62
     7
100
AcDbCircle
 10
65.36507759769854
 20
1264.213840548279
 30
0.0
 40
250.9999999999998
100
AcDbArc
 50
259.8883934033872
 51
280.1108404045856
  0
ARC
  5
29
330
A
100
AcDbEntity
  8
0
  6
Continuous
 62
     7
100
AcDbCircle
 10
65.36507759769854
 20
1264.213840548279
 30
0.0
 40
250.9999999999999
100
AcDbArc
 50
280.5720821327163
 51
291.256870832157
  0
LINE
  5
2A
330
A
100
AcDbEntity
  8
0
  6
Continuous
 62
     7
100
AcDbLine
 10
-25.63492240230142
 20
1036.975764754467
 30
0.0
 11
-25.63492240230142
 21
1030.290776272864
 31
0.0
  0
LINE
  5
2B
330
A
100
AcDbEntity
  8
0
  6
Continuous
 62
     7
100
AcDbLine
 10
156.3650775976985
 20
1030.290776272864
 30
0.0
 11
156.3650775976986
 21
1036.975764754467
 31
0.0
  0
LINE
  5
2C
330
A
100
AcDbEntity
  8
0
  6
Continuous
 62
     7
100
AcDbLine
 10
-0.6349224023014245
 20
1063.975764754467
 30
0.0
 11
-0.6349224023014245
 21
1036.975764754467
 31
0.0
  0
LINE
  5
2D
330
A
100
AcDbEntity
  8
0
  6
Continuous
 62
     7
100
AcDbLine
 10
131.3650775976986
 20
1036.975764754467
 30
0.0
 11
131.3650775976986
 21
1063.975764754467
 31
0.0
  0
LINE
  5
2E
330
A
100
AcDbEntity
  8
0
  6
Continuous
 62
     7
100
AcDbLine
 10
64.36507759769857
 20
1013.215832588057
 30
0.0
 11
64.36507759769857
 21
-437.0242352455325
 31
0.0
  0
LINE
  5
2F
330
A
100
AcDbEntity
  8
0
  6
Continuous
 62
     7
100
AcDbLine
 10
66.36507759769857
 20
-437.0242352455325
 30
0.0
 11
66.36507759769857
 21
1013.215832588057
 31
0.0
  0
LINE
  5
30
330
A
100
AcDbEntity
  8
0
  6
Continuous
 62
     7
100
AcDbLine
 10
21.06451713543
 20
1064.013433709786
 30
0.0
 11
21.06309717745272
 21
1063.975764754467
 31
0.0
  0
LINE
  5
31
330
A
100
AcDbEntity
  8
0
  6
Continuous
 62
     7
100
AcDbLine
 10
19.36157803634793
 20
1018.837493392418
 30
0.0
 11
-36.83751181517121
 21
-472.0242352455325
 31
0.0
  0
LINE
  5
32
330
A
100
AcDbEntity
  8
0
  6
Continuous
 62
     7
100
AcDbLine
 10
-34.83609135312383
 20
-472.0242352455325
 30
0.0
 11
21.34928955069774
 21
1018.473819434064
 31
0.0
  0
LINE
  5
33
330
A
100
AcDbEntity
  8
0
  6
Continuous
 62
     7
100
AcDbLine
 10
109.3776647188921
 20
1018.473050841047
 30
0.0
 11
165.4571297835915
 21
-472.0242352455325
 31
0.0
  0
LINE
  5
34
330
A
100
AcDbEntity
  8
0
  6
Continuous
 62
     7
100
AcDbLine
 10
167.4585448985719
 20
-472.0242352455325
 30
0.0
 11
111.3653975515997
 21
1018.836702751268
 31
0.0
  0
LINE
  5
35
330
A
100
AcDbEntity
  8
0
  6
Continuous
 62
     7
100
AcDbLine
 10
109.6670553444106
 20
1063.975764754467
 30
0.0
 11
109.6656407297139
 21
1064.013362819353
 31
0.0
  0
LINE
  5
36
330
A
100
AcDbEntity
  8
0
  6
Continuous
 62
     7
100
AcDbLine
 10
-5.093869241296303
 20
-482.0242352455324
 30
0.0
 11
-5.093869241296303
 21
-472.0242352455325
 31
0.0
  0
LINE
  5
37
330
A
100
AcDbEntity
  8
0
  6
Continuous
 62
     7
100
AcDbLine
 10
-65.09386924129632
 20
-472.0242352455325
 30
0.0
 11
-65.09386924129632
 21
-482.0242352455324
 31
0.0
  0
LINE
  5
38
330
A
100
AcDbEntity
  8
0
  6
Continuous
 62
     7
100
AcDbLine
 10
195.8240244366934
 20
-482.0242352455324
 30
0.0
 11
195.8240244366934
 21
-472.0242352455325
 31
0.0
  0
LINE
  5
39
330
A
100
AcDbEntity
  8
0
  6
Continuous
 62
     7
100
AcDbLine
 10
135.8240244366934
 20
-472.0242352455325
 30
0.0
 11
135.8240244366934
 21
-482.0242352455324
 31
0.0
  0
LINE
  5
3A
330
A
100
AcDbEntity
  8
0
  6
Continuous
 62
     7
100
AcDbLine
 10
144.8240244366934
 20
-482.0242352455324
 30
0.0
 11
144.8240244366934
 21
-485.0372131873503
 31
0.0
  0
LINE
  5
3B
330
A
100
AcDbEntity
  8
0
  6
Continuous
 62
     7
100
AcDbLine
 10
186.8240244366934
 20
-485.0372131873509
 30
0.0
 11
186.8240244366934
 21
-482.0242352455324
 31
0.0
  0
LINE
  5
3C
330
A
100
AcDbEntity
  8
0
  6
Continuous
 62
     7
100
AcDbLine
 10
-56.0938692412963
 20
-482.0242352455324
 30
0.0
 11
-56.0938692412963
 21
-485.0372131873503
 31
0.0
  0
LINE
  5
3D
330
A
100
AcDbEntity
  8
0
  6
Continuous
 62
     7
100
AcDbLine
 10
-14.09386924129632
 20
-485.03721318735
 30
0.0
 11
-14.09386924129632
 21
-482.0242352455324
 31
0.0
  0
LINE
  5
3E
330
A
100
AcDbEntity
  8
0
  6
Continuous
 62
     7
100
AcDbLine
 10
135.3650775976986
 20
-462.5768392616481
 30
0.0
 11
134.3288361959652
 21
-462.0242352455325
 31
0.0
  0
LINE
  5
3F
330
A
100
AcDbEntity
  8
0
  6
Continuous
 62
     7
100
AcDbLine
 10
-3.598681000568024
 20
-462.0242352455325
 30
0.0
 11
-4.634922402301428
 21
-462.5768392616481
 31
0.0
  0
LINE
  5
40
330
A
100
AcDbEntity
  8
0
  6
Continuous
 62
     7
100
AcDbLine
 10
130.3650775976986
 20
-462.0242352455325
 30
0.0
 11
130.3650775976986
 21
-437.0242352455325
 31
0.0
  0
LINE
  5
41
330
A
100
AcDbEntity
  8
0
  6
Continuous
 62
     7
100
AcDbLine
 10
0.3650775976985765
 20
-437.0242352455325
 30
0.0
 11
0.3650775976985765
 21
-462.0242352455325
 31
0.0
  0
LINE
  5
42
330
A
100
AcDbEntity
  8
0
  6
Continuous
 62
     7
100
AcDbLine
 10
135.3650775976986
 20
-465.3118404866426
 30
0.0
 11
135.3650775976986
 21
-462.5768392616481
 31
0.0
  0
LINE
  5
43
330
A
100
AcDbEntity
  8
0
  6
Continuous
 62
     7
100
AcDbLine
 10
-4.634922402301428
 20
-462.5768392616481
 30
0.0
 11
-4.634922402301428
 21
-465.3118404866426
 31
0.0
  0
LINE
  5
44
330
A
100
AcDbEntity
  8
0
  6
Continuous
 62
     7
100
AcDbLine
 10
44.36507759769857
 20
-482.0242352455324
 30
0.0
 11
44.36507759769857
 21
-485.0372131873498
 31
0.0
  0
LINE
  5
45
330
A
100
AcDbEntity
  8
0
  6
Continuous
 62
     7
100
AcDbLine
 10
86.36507759769857
 20
-485.0372131873498
 30
0.0
 11
86.36507759769857
 21
-482.0242352455324
 31
0.0
  0
LWPOLYLINE
  5
46
330
A
100
AcDbEntity
  8
0
  6
Continuous
 62
     7
100
AcDbPolyline
 90
       26
 70
   128
 43
0.0
 10
283.4610395607567
 20
-705.0370831873504
 10
283.1405092885432
 20
-686.7006497034408
 10
282.8393813709167
 20
-669.3941694550086
 10
282.5610891762713
 20
-653.1176424420533
 10
282.3089869693311
 20
-637.8710686645753
 10
282.0854348831609
 20
-623.6544481225744
 10
281.8945542548186
 20
-610.6942252214046
 10
281.731501024364
 20
-598.727499940553
 10
281.594354104681
 20
-587.7542722800201
 10
281.4798121163367
 20
-577.7661365688321
 10
281.3695208616153
 20
-567.5039795583699
 10
281.2775202861889
 20
-558.3713146507594
 10
281.2021850857054
 20
-550.368141846001
 10
281.1419258818897
 20
-543.4944611440945
 10
281.1245368477669
 20
-541.4078178896398
 10
281.1078236056541
 20
-539.3512861662653
 10
281.0917603498796
 20
-537.3248572204418
 10
281.076320746307
 20
-535.3285310521693
 10
281.0608214047146
 20
-533.2747979829807
 10
281.0392809965303
 20
-530.3382617464648
 10
281.0109805784783
 20
-526.315164101406
 10
280.9770877642305
 20
-521.2055050478043
 10
280.9391206962533
 20
-515.0092845856597
 10
280.8989845578878
 20
-507.7265027149721
 10
280.8590173035606
 20
-499.3571594357416
 10
280.8305966768456
 20
-492.0882697661627
  0
LWPOLYLINE
  5
62
330
A
100
AcDbEntity
  8
0
  6
Continuous
 62
     7
100
AcDbPolyline
 90
        9
 70
   128
 43
0.0
 10
273.8533443693942
 20
-485.0372131903021
 10
275.236491137502
 20
-485.1732642487508
 10
276.5669313618071
 20
-485.5764171699522
 10
277.7932516628303
 20
-486.2312018898474
 10
278.8683947662258
 20
-487.1124925223394
 10
279.7511044814739
 20
-488.1864715280493
 10
280.4075088150964
 20
-489.4119273860794
 10
280.8124197319748
 20
-490.741835993132
 10
280.95029968936
 20
-492.1251651073669
  0
LWPOLYLINE
  5
6D
330
A
100
AcDbEntity
  8
0
  6
Continuous
 62
     7
100
AcDbPolyline
 90
        7
 70
   128
 43
0.0
 10
51.36886195709219
 20
-705.0370831873497
 10
53.18167519104766
 20
-617.1752325509535
 10
53.63584626733409
 20
-595.7158564159149
 10
53.79639335568103
 20
-588.2028505702898
 10
54.0196848704952
 20
-577.8249160034143
 10
54.44745395497155
 20
-558.2020728425204
 10
55.9752400590067
 20
-492.311077684893
  0
LWPOLYLINE
  5
76
330
A
100
AcDbEntity
  8
0
  6
Continuous
 62
     7
100
AcDbPolyline
 90
        9
 70
   128
 43
0.0
 10
48.94787394970324
 20
-485.0376116245213
 10
50.33990840872458
 20
-485.190658490143
 10
51.67476533011233
 20
-485.6142893468794
 10
52.90042483447046
 20
-486.2919951399226
 10
53.96912250706979
 20
-487.1973654180433
 10
54.83921079516612
 20
-488.2951175588709
 10
55.47678202889205
 20
-489.5424717460389
 10
55.8569898159838
 20
-490.8908181148184
 10
55.9650173150909
 20
-492.2876110969437
  0
LWPOLYLINE
  5
81
330
A
100
AcDbEntity
  8
0
  6
Continuous
 62
     7
100
AcDbPolyline
 90
       40
 70
   128
 43
0.0
 10
-173.906417841835
 20
-491.8640189026154
 10
-174.1434390717753
 20
-498.0885360487397
 10
-174.424357696431
 20
-505.2969159952139
 10
-174.6726575736202
 20
-511.5263945873928
 10
-174.8864588540409
 20
-516.7769718252755
 10
-175.0637642118662
 20
-521.0486477088628
 10
-175.2253814559412
 20
-524.8749435500555
 10
-175.3972759015969
 20
-528.8707495640848
 10
-175.6518012360227
 20
-534.6430040103506
 10
-175.9294184831612
 20
-540.7371777141668
 10
-176.2102202275545
 20
-546.6839194891181
 10
-176.4623265273507
 20
-551.831189736885
 10
-176.6606326905033
 20
-555.7478096727403
 10
-176.8599807696388
 20
-559.5669714104255
 10
-177.1055101973779
 20
-564.1119170830989
 10
-177.4036042827829
 20
-569.3911274046457
 10
-177.7563860081644
 20
-575.2896252312763
 10
-178.1231889196665
 20
-581.01994071159
 10
-178.4955668232355
 20
-586.4330949413435
 10
-178.8728987655969
 20
-591.5290879205373
 10
-179.3473078484411
 20
-597.4293530702929
 10
-179.7788087925517
 20
-602.3520270090545
 10
-180.2200738512052
 20
-606.9912943463264
 10
-180.8287450339518
 20
-612.8180250924397
 10
-181.6604126295389
 20
-619.899449265785
 10
-182.6255885320313
 20
-627.1727789053253
 10
-183.7192102475252
 20
-634.5858371522267
 10
-184.2977485380304
 20
-638.2641806452086
 10
-184.7595051732251
 20
-641.1164911422933
 10
-185.0934846104204
 20
-643.142768643481
 10
-185.2945964618583
 20
-644.3503221284956
 10
-185.6060739465164
 20
-646.2039763146009
 10
-186.0459287481473
 20
-648.7902953191005
 10
-186.6187164653308
 20
-652.109279141995
 10
-187.598350032519
 20
-657.6742917344676
 10
-188.8371313614547
 20
-664.5418195596419
 10
-190.3483981427374
 20
-672.7118626175171
 10
-192.143592904696
 20
-682.1844209080937
 10
-194.2300853264451
 20
-692.9594944313715
 10
-196.6111228170741
 20
-705.0370831873506
  0
LWPOLYLINE
  5
AB
330
A
100
AcDbEntity
  8
0
  6
Continuous
 62
     7
100
AcDbPolyline
 90
        9
 70
   128
 43
0.0
 10
-173.7772958704939
 20
-491.8401039440362
 10
-173.592644752157
 20
-490.4882619903689
 10
-173.1563954706731
 20
-489.1972826472424
 10
-172.4846815425616
 20
-488.0149093435696
 10
-171.6023445164863
 20
-486.9848690034654
 10
-170.5420152748118
 20
-486.1452549225476
 10
-169.3429072674226
 20
-485.5271179889658
 10
-168.0493663068319
 20
-485.1533183490906
 10
-166.7212802499238
 20
-485.0375502745202
  0
LINE
  5
B6
330
A
100
AcDbEntity
  8
0
  6
Continuous
 62
     7
100
AcDbLine
 10
65.36507759769857
 20
1030.290776272864
 30
0.0
 11
156.3650775976985
 21
1030.290776272864
 31
0.0
  0
LINE
  5
B7
330
A
100
AcDbEntity
  8
0
  6
Continuous
 62
     7
100
AcDbLine
 10
-25.63492240230142
 20
1030.290776272864
 30
0.0
 11
65.36507759769857
 21
1030.290776272864
 31
0.0
  0
LINE
  5
B8
330
A
100
AcDbEntity
  8
0
  6
Continuous
 62
     7
100
AcDbLine
 10
65.36507759769857
 20
1036.975764754467
 30
0.0
 11
156.3650775976986
 21
1036.975764754467
 31
0.0
  0
LINE
  5
B9
330
A
100
AcDbEntity
  8
0
  6
Continuous
 62
     7
100
AcDbLine
 10
-25.63492240230142
 20
1036.975764754467
 30
0.0
 11
65.36507759769857
 21
1036.975764754467
 31
0.0
  0
LINE
  5
BA
330
A
100
AcDbEntity
  8
0
  6
Continuous
 62
     7
100
AcDbLine
 10
65.36507759769857
 20
1063.975764754467
 30
0.0
 11
131.3650775976986
 21
1063.975764754467
 31
0.0
  0
LINE
  5
BB
330
A
100
AcDbEntity
  8
0
  6
Continuous
 62
     7
100
AcDbLine
 10
-0.6349224023014245
 20
1063.975764754467
 30
0.0
 11
65.36507759769857
 21
1063.975764754467
 31
0.0
  0
LWPOLYLINE
  5
BC
330
A
100
AcDbEntity
  8
0
  6
Continuous
 62
     7
100
AcDbPolyline
 90
        5
 70
   128
 43
0.0
 10
65.36507759769857
 20
1064.019250834573
 10
65.74776103006366
 20
1064.015940653826
 10
66.07218437888512
 20
1064.006514056597
 10
66.28895713020987
 20
1063.992406156862
 10
66.36507759769857
 20
1063.975764754467
  0
LWPOLYLINE
  5
C3
330
A
100
AcDbEntity
  8
0
  6
Continuous
 62
     7
100
AcDbPolyline
 90
        5
 70
   128
 43
0.0
 10
64.36507759769857
 20
1063.975764754467
 10
64.44119806518729
 20
1063.992406156862
 10
64.65797081651203
 20
1064.006514056597
 10
64.9823941653335
 20
1064.015940653826
 10
65.36507759769857
 20
1064.019250834573
  0
LWPOLYLINE
  5
CA
330
A
100
AcDbEntity
  8
0
  6
Continuous
 62
     7
100
AcDbPolyline
 90
        7
 70
   128
 43
0.0
 10
22.56380740847648
 20
1063.975764754467
 10
22.44697593217378
 20
1063.981423162072
 10
22.06462644608066
 20
1063.997492362898
 10
21.68215226893687
 20
1064.010253732302
 10
21.35778162707554
 20
1064.017764467474
 10
21.14089701029284
 20
1064.018881127069
 10
21.06451713543
 20
1064.013433709786
  0
LWPOLYLINE
  5
D3
330
A
100
AcDbEntity
  8
0
  6
Continuous
 62
     7
100
AcDbPolyline
 90
        7
 70
   128
 43
0.0
 10
109.6656407297139
 20
1064.013362819353
 10
109.5892618299572
 20
1064.018800014513
 10
109.3723776333848
 20
1064.017685481447
 10
109.0480067928648
 20
1064.010188897711
 10
108.6655318284371
 20
1063.997451550221
 10
108.2831810862919
 20
1063.981412584669
 10
108.1663477869203
 20
1063.975764754467
  0
LINE
  5
DC
330
A
100
AcDbEntity
  8
0
  6
Continuous
 62
     7
100
AcDbLine
 10
-5.093869241296303
 20
-472.0242352455325
 30
0.0
 11
-65.09386924129632
 21
-472.0242352455325
 31
0.0
  0
LINE
  5
DD
330
A
100
AcDbEntity
  8
0
  6
Continuous
 62
     7
100
AcDbLine
 10
-65.09386924129632
 20
-482.0242352455324
 30
0.0
 11
-5.093869241296303
 21
-482.0242352455324
 31
0.0
  0
LINE
  5
DE
330
A
100
AcDbEntity
  8
0
  6
Continuous
 62
     7
100
AcDbLine
 10
195.8240244366934
 20
-472.0242352455325
 30
0.0
 11
135.8240244366934
 21
-472.0242352455325
 31
0.0
  0
LINE
  5
DF
330
A
100
AcDbEntity
  8
0
  6
Continuous
 62
     7
100
AcDbLine
 10
135.8240244366934
 20
-482.0242352455324
 30
0.0
 11
195.8240244366934
 21
-482.0242352455324
 31
0.0
  0
LINE
  5
E0
330
A
100
AcDbEntity
  8
0
  6
Continuous
 62
     7
100
AcDbLine
 10
135.3650775976986
 20
-462.5768392616481
 30
0.0
 11
131.089444484255
 21
-462.5768392616481
 31
0.0
  0
LINE
  5
E1
330
A
100
AcDbEntity
  8
0
  6
Continuous
 62
     7
100
AcDbLine
 10
131.089444484255
 20
-462.5768392616481
 30
0.0
 11
145.8585783096312
 21
-472.0242352455325
 31
0.0
  0
LINE
  5
E2
330
A
100
AcDbEntity
  8
0
  6
Continuous
 62
     7
100
AcDbLine
 10
135.7968252254091
 20
-472.0242352455325
 30
0.0
 11
119.089444484255
 21
-462.5768392616481
 31
0.0
  0
LINE
  5
E3
330
A
100
AcDbEntity
  8
0
  6
Continuous
 62
     7
100
AcDbLine
 10
119.089444484255
 20
-462.5768392616481
 30
0.0
 11
11.64071071114211
 21
-462.5768392616481
 31
0.0
  0
LINE
  5
E4
330
A
100
AcDbEntity
  8
0
  6
Continuous
 62
     7
100
AcDbLine
 10
11.64071071114211
 20
-462.5768392616481
 30
0.0
 11
-5.066670030011918
 21
-472.0242352455325
 31
0.0
  0
LINE
  5
E5
330
A
100
AcDbEntity
  8
0
  6
Continuous
 62
     7
100
AcDbLine
 10
-15.12842311423408
 20
-472.0242352455325
 30
0.0
 11
-0.3592892888578808
 21
-462.5768392616481
 31
0.0
  0
LINE
  5
E6
330
A
100
AcDbEntity
  8
0
  6
Continuous
 62
     7
100
AcDbLine
 10
-0.3592892888578808
 20
-462.5768392616481
 30
0.0
 11
-4.634922402301428
 21
-462.5768392616481
 31
0.0
  0
LINE
  5
E7
330
A
100
AcDbEntity
  8
0
  6
Continuous
 62
     7
100
AcDbLine
 10
134.3288361959652
 20
-462.0242352455325
 30
0.0
 11
-3.598681000568024
 21
-462.0242352455325
 31
0.0
  0
LINE
  5
E8
330
A
100
AcDbEntity
  8
0
  6
Continuous
 62
     7
100
AcDbLine
 10
11.64071071114211
 20
-462.5768392616481
 30
0.0
 11
11.64071071114211
 21
-482.0242352455324
 31
0.0
  0
LINE
  5
E9
330
A
100
AcDbEntity
  8
0
  6
Continuous
 62
     7
100
AcDbLine
 10
119.089444484255
 20
-462.5768392616481
 30
0.0
 11
119.089444484255
 21
-482.0242352455324
 31
0.0
  0
LINE
  5
EA
330
A
100
AcDbEntity
  8
0
  6
Continuous
 62
     7
100
AcDbLine
 10
11.64071071114211
 20
-482.0242352455324
 30
0.0
 11
119.089444484255
 21
-482.0242352455324
 31
0.0
  0
LINE
  5
EB
330
A
100
AcDbEntity
  8
0
  6
Continuous
 62
     7
100
AcDbLine
 10
65.36507759769857
 20
-437.0242352455325
 30
0.0
 11
130.3650775976986
 21
-437.0242352455325
 31
0.0
  0
LINE
  5
EC
330
A
100
AcDbEntity
  8
0
  6
Continuous
 62
     7
100
AcDbLine
 10
0.3650775976985765
 20
-437.0242352455325
 30
0.0
 11
65.36507759769857
 21
-437.0242352455325
 31
0.0
  0
LINE
  5
ED
330
A
100
AcDbEntity
  8
0
  6
Continuous
 62
     7
100
AcDbLine
 10
135.8240244366934
 20
-472.0242352455325
 30
0.0
 11
135.7968252254091
 21
-472.0242352455325
 31
0.0
  0
LINE
  5
EE
330
A
100
AcDbEntity
  8
0
  6
Continuous
 62
     7
100
AcDbLine
 10
119.089444484255
 20
-482.0242352455324
 30
0.0
 11
135.8240244366934
 21
-482.0242352455324
 31
0.0
  0
LINE
  5
EF
330
A
100
AcDbEntity
  8
0
  6
Continuous
 62
     7
100
AcDbLine
 10
-5.066670030011918
 20
-472.0242352455325
 30
0.0
 11
-5.093869241296303
 21
-472.0242352455325
 31
0.0
  0
LINE
  5
F0
330
A
100
AcDbEntity
  8
0
  6
Continuous
 62
     7
100
AcDbLine
 10
-5.093869241296303
 20
-482.0242352455324
 30
0.0
 11
11.64071071114211
 21
-482.0242352455324
 31
0.0
  0
LINE
  5
F1
330
A
100
AcDbEntity
  8
0
  6
Continuous
 62
     7
100
AcDbLine
 10
105.4437510809258
 20
-492.7277341642416
 30
0.0
 11
127.3992882221676
 21
-705.0370831873513
 31
0.0
  0
LINE
  5
F2
330
A
100
AcDbEntity
  8
0
  6
Continuous
 62
     7
100
AcDbLine
 10
222.3159074295981
 20
-491.1843710209665
 30
0.0
 11
222.3158811223245
 21
-491.1841686233763
 31
0.0
  0
LINE
  5
F3
330
A
100
AcDbEntity
  8
0
  6
Continuous
 62
     7
100
AcDbLine
 10
222.3159074295982
 20
-491.1843710209668
 30
0.0
 11
250.1120970094179
 21
-705.0370831873494
 31
0.0
  0
LINE
  5
F4
330
A
100
AcDbEntity
  8
0
  6
Continuous
 62
     7
100
AcDbLine
 10
250.1120970094182
 20
-705.0370831873504
 30
0.0
 11
127.3992882221713
 21
-705.0370831873508
 31
0.0
  0
LWPOLYLINE
  5
F5
330
A
100
AcDbEntity
  8
0
  6
Continuous
 62
     7
100
AcDbPolyline
 90
        7
 70
   128
 43
0.0
 10
106.6549946864788
 20
-485.0372131873511
 10
106.5978461002625
 20
-485.0450606920922
 10
106.2900628594126
 20
-485.3645825883558
 10
105.9268389704568
 20
-486.4514146608854
 10
105.6457091402817
 20
-488.1789125430718
 10
105.4783685105057
 20
-490.3523142329317
 10
105.4436323031273
 20
-492.726585586693
  0
LWPOLYLINE
  5
FE
330
A
100
AcDbEntity
  8
0
  6
Continuous
 62
     7
100
AcDbPolyline
 90
        5
 70
   128
 43
0.0
 10
225.0117398668127
 20
-485.0372131873505
 10
224.0842369145113
 20
-485.4624478731991
 10
223.2315811647
 20
-486.7677164296668
 10
222.6203080385918
 20
-488.7513581448871
 10
222.3158811223246
 20
-491.1841686233765
  0
LINE
  5
105
330
A
100
AcDbEntity
  8
0
  6
Continuous
 62
     7
100
AcDbLine
 10
105.4437510809259
 20
-492.7277341642414
 30
0.0
 11
105.4436323031277
 21
-492.726585586693
 31
0.0
  0
LINE
  5
106
330
A
100
AcDbEntity
  8
0
  6
Continuous
 62
     7
100
AcDbLine
 10
106.6549946864788
 20
-485.0372131873511
 30
0.0
 11
225.0117398668127
 21
-485.0372131873503
 31
0.0
  0
LWPOLYLINE
  5
107
330
A
100
AcDbEntity
  8
0
  6
Continuous
 62
     7
100
AcDbPolyline
 90
        3
 70
   128
 43
0.0
 10
280.8914090698851
 20
-492.1327550959317
 10
280.8911257627169
 20
-492.1005707665042
 10
280.7975156819566
 20
-492.0885398846487
  0
LINE
  5
10C
330
A
100
AcDbEntity
  8
0
  6
Continuous
 62
     7
100
AcDbLine
 10
250.1120970094182
 20
-705.0370831873504
 30
0.0
 11
283.3738841228468
 21
-705.0370831873504
 31
0.0
  0
LINE
  5
10D
330
A
100
AcDbEntity
  8
0
  6
Continuous
 62
     7
100
AcDbLine
 10
266.1871566535317
 20
-492.6957488419344
 30
0.0
 11
266.1870639651665
 21
-492.6967968564956
 31
0.0
  0
LWPOLYLINE
  5
10E
330
A
100
AcDbEntity
  8
0
  6
Continuous
 62
     7
100
AcDbPolyline
 90
        7
 70
   128
 43
0.0
 10
266.1871566535317
 20
-492.6957488419344
 10
265.9818994092849
 20
-490.3223827545951
 10
265.0306407704646
 20
-488.1532608748076
 10
263.4406278340581
 20
-486.4329348930892
 10
261.3911219338705
 20
-485.3553582791402
 10
259.700093236595
 20
-485.0457241208689
 10
259.3650292676823
 20
-485.0372131873511
  0
LINE
  5
117
330
A
100
AcDbEntity
  8
0
  6
Continuous
 62
     7
100
AcDbLine
 10
225.0117398668127
 20
-485.0372131873503
 30
0.0
 11
273.802362711632
 21
-485.0372131873503
 31
0.0
  0
LINE
  5
118
330
A
100
AcDbEntity
  8
0
  6
Continuous
 62
     7
100
AcDbLine
 10
127.3992882221713
 20
-705.0370831873508
 30
0.0
 11
51.63086464060509
 21
-705.0370831873492
 31
0.0
  0
LINE
  5
119
330
A
100
AcDbEntity
  8
0
  6
Continuous
 62
     7
100
AcDbLine
 10
49.13229338211861
 20
-485.0372131873506
 30
0.0
 11
106.6549946864788
 21
-485.0372131873511
 31
0.0
  0
LINE
  5
11A
330
A
100
AcDbEntity
  8
0
  6
Continuous
 62
     7
100
AcDbLine
 10
-56.43572120540871
 20
-705.0370831873501
 30
0.0
 11
-55.1066304990374
 21
-492.6967968564956
 31
0.0
  0
LINE
  5
11B
330
A
100
AcDbEntity
  8
0
  6
Continuous
 62
     7
100
AcDbLine
 10
-55.10665681202131
 20
-492.6957488419344
 30
0.0
 11
-55.1066304990374
 21
-492.6967968564956
 31
0.0
  0
LINE
  5
11C
330
A
100
AcDbEntity
  8
0
  6
Continuous
 62
     7
100
AcDbLine
 10
55.9320386535579
 20
-492.3101749511506
 30
0.0
 11
55.91616695285758
 21
-492.293694903933
 31
0.0
  0
LINE
  5
11D
330
A
100
AcDbEntity
  8
0
  6
Continuous
 62
     7
100
AcDbLine
 10
-56.43572120540779
 20
-705.0370831873501
 30
0.0
 11
51.36703945020531
 21
-705.0370831873497
 31
0.0
  0
LWPOLYLINE
  5
11E
330
A
100
AcDbEntity
  8
0
  6
Continuous
 62
     7
100
AcDbPolyline
 90
        7
 70
   128
 43
0.0
 10
-55.10665681202131
 20
-492.6957488419344
 10
-54.95523175313205
 20
-490.3223827545951
 10
-54.25345678761938
 20
-488.1532608748076
 10
-53.08045164491112
 20
-486.4329348930892
 10
-51.56846333874408
 20
-485.3553582791402
 10
-50.32093552168309
 20
-485.0457241208689
 10
-50.07374774601125
 20
-485.0372131873511
  0
LINE
  5
127
330
A
100
AcDbEntity
  8
0
  6
Continuous
 62
     7
100
AcDbLine
 10
-50.07374774601129
 20
-485.0372131873511
 30
0.0
 11
48.78229338211859
 21
-485.0372131873498
 31
0.0
  0
LWPOLYLINE
  5
128
330
A
100
AcDbEntity
  8
0
  6
Continuous
 62
     7
100
AcDbPolyline
 90
        3
 70
   128
 43
0.0
 10
-173.6983738045542
 20
-491.8564626945597
 10
-173.8793987037486
 20
-491.8589415098316
 10
-173.8334584803465
 20
-491.866753903951
  0
LINE
  5
12D
330
A
100
AcDbEntity
  8
0
  6
Continuous
 62
     7
100
AcDbLine
 10
-56.43572120540779
 20
-705.0370831873501
 30
0.0
 11
-196.5431809142538
 21
-705.0370831873506
 31
0.0
  0
LINE
  5
12E
330
A
100
AcDbEntity
  8
0
  6
Continuous
 62
     7
100
AcDbLine
 10
-166.7686100029998
 20
-485.0372131873527
 30
0.0
 11
-50.07374774601129
 21
-485.0372131873511
 31
0.0
  0
LWPOLYLINE
  5
12F
330
A
100
AcDbEntity
  8
0
  6
PHANTOM
 62
     7
100
AcDbPolyline
 90
       48
 70
   128
 43
0.0
 10
222.3158811223246
 20
-491.1841686233765
 10
222.315841862889
 20
-491.184167527865
 10
216.755210420416
 20
-491.0254514390964
 10
210.9865128639281
 20
-490.8665801120878
 10
207.1489291103563
 20
-490.777711705549
 10
203.3269677726172
 20
-490.7184410162837
 10
199.4928871488104
 20
-490.694294020506
 10
195.910393205401
 20
-490.7117958319301
 10
192.6365730880913
 20
-490.779270633192
 10
189.7853744477622
 20
-490.8781416717692
 10
186.1837633148598
 20
-491.0478578422043
 10
183.3025990179984
 20
-491.2229117857217
 10
180.5594414912394
 20
-491.4327060496121
 10
178.146259474266
 20
-491.6304250291844
 10
175.5929842571019
 20
-491.7868994309279
 10
173.8292542798452
 20
-491.8471414430085
 10
171.7552757099441
 20
-491.8970840564655
 10
169.2520141068382
 20
-491.9648998681211
 10
166.449865909966
 20
-492.0663517165478
 10
163.1486338342881
 20
-492.1839602669099
 10
159.8973252447826
 20
-492.2742911463205
 10
156.4760512177612
 20
-492.3532921342545
 10
151.2721718281296
 20
-492.4678772768583
 10
146.0100933832126
 20
-492.5924825957499
 10
139.1520319164148
 20
-492.8022080162607
 10
134.9449254657191
 20
-492.9719670638924
 10
130.9058617409634
 20
-493.1694686144036
 10
128.7129876137035
 20
-493.2887043559669
 10
126.745483874771
 20
-493.3861612868958
 10
125.1128586367808
 20
-493.438056284306
 10
123.7958003521318
 20
-493.4526165642719
 10
122.4706875563395
 20
-493.4436182407368
 10
121.5209390666541
 20
-493.4217095227141
 10
120.7543062378771
 20
-493.3939089883238
 10
120.2476073618002
 20
-493.3671226638542
 10
119.6277684718186
 20
-493.3168021325104
 10
119.4342485693327
 20
-493.2720450564994
 10
119.260618630346
 20
-493.228906810411
 10
118.724363290128
 20
-493.1906447154389
 10
117.4429671839481
 20
-493.1605160927771
 10
116.4387419448512
 20
-493.1467427171557
 10
114.9534481130458
 20
-493.1159774930392
 10
113.8083136952662
 20
-493.0805574485536
 10
112.4208480926558
 20
-493.0207664274973
 10
110.8091465068645
 20
-492.9386433775589
 10
109.0398729900792
 20
-492.8543058079898
 10
105.4437930268191
 20
-492.7277353189985
 10
105.4437510809258
 20
-492.7277341642414
  0
LWPOLYLINE
  5
161
330
A
100
AcDbEntity
  8
0
  6
PHANTOM
 62
     7
100
AcDbPolyline
 90
       20
 70
   128
 43
0.0
 10
280.7975156819566
 20
-492.0885398846487
 10
280.3020850240162
 20
-492.0248665316843
 10
279.0529610897189
 20
-491.9698752014617
 10
276.836512028967
 20
-491.9241137930746
 10
274.8222653424079
 20
-491.8954017836
 10
272.1272865957636
 20
-491.8667520301062
 10
270.8992454025495
 20
-491.8565368974523
 10
269.3852268437631
 20
-491.8501421378182
 10
267.304794490463
 20
-491.8589415098316
 10
265.0282618248901
 20
-491.8929516708599
 10
264.0918753126475
 20
-491.9046822129381
 10
261.1791306637646
 20
-491.9234120531369
 10
258.2757190784942
 20
-491.9201672601944
 10
254.732109846472
 20
-491.8941921712471
 10
251.2898799672491
 20
-491.8490401407814
 10
241.5677584560161
 20
-491.6680650314947
 10
232.0359363453745
 20
-491.4445533054442
 10
222.3159466868352
 20
-491.1843721131942
 10
222.3159074295982
 20
-491.1843710209668
 10
222.3159074295982
 20
-491.1843710209668
  0
LWPOLYLINE
  5
177
330
A
100
AcDbEntity
  8
0
  6
PHANTOM
 62
     7
100
AcDbPolyline
 90
       12
 70
   128
 43
0.0
 10
105.4436323031273
 20
-492.726585586693
 10
105.4435903451147
 20
-492.7265843663351
 10
100.9047587388864
 20
-492.6253552523785
 10
96.33396450391536
 20
-492.5672560106041
 10
89.71519678472242
 20
-492.5153274561319
 10
83.16631610470336
 20
-492.4636710806175
 10
78.14167337419227
 20
-492.4114534182865
 10
73.37318160073586
 20
-492.3604988402193
 10
69.38617947813125
 20
-492.3212719444479
 10
65.94481829382049
 20
-492.2688976977721
 10
57.00524816029856
 20
-492.0726722178454
 10
55.90545402535552
 20
-492.0907921328788
  0
LINE
  5
185
330
A
100
AcDbEntity
  8
0
  6
PHANTOM
 62
     7
100
AcDbLine
 10
-55.10662393741244
 20
-492.695748547809
 30
0.0
 11
-55.10665381935184
 21
-492.6957488151594
 31
0.0
  0
LWPOLYLINE
  5
186
330
A
100
AcDbEntity
  8
0
  6
PHANTOM
 62
     7
100
AcDbPolyline
 90
       44
 70
   128
 43
0.0
 10
55.91616695285758
 20
-492.293694903933
 10
55.87691519424087
 20
-492.2529386644106
 10
55.39734979142544
 20
-492.1818881449459
 10
53.93210393902726
 20
-492.0813561509269
 10
52.70094302545881
 20
-492.0069063312762
 10
51.17825538701143
 20
-491.9240954589555
 10
47.77035816059406
 20
-491.7901303514776
 10
44.07605766007588
 20
-491.6941464119059
 10
39.62891053074679
 20
-491.6212729797481
 10
35.42665417761931
 20
-491.5853890661586
 10
31.68813899072737
 20
-491.5816140201919
 10
29.38198816259891
 20
-491.6050063384108
 10
27.53168042725121
 20
-491.6691483180727
 10
26.24564130035031
 20
-491.765362966125
 10
25.4725933379715
 20
-491.8623448436348
 10
25.0664653125241
 20
-491.9437723610261
 10
24.73695435556106
 20
-492.0520731663262
 10
24.37860866237061
 20
-492.0883481714563
 10
23.78014618003535
 20
-492.06570711415
 10
22.61574731743012
 20
-491.9772460973942
 10
21.51899058257176
 20
-491.8819512633009
 10
20.10134231177825
 20
-491.7813582720635
 10
18.22495825995154
 20
-491.7018838102491
 10
16.12823892983084
 20
-491.6511779457307
 10
12.88089694256236
 20
-491.6037000093963
 10
9.460882131628933
 20
-491.5710527476816
 10
4.723468051174267
 20
-491.5280788409511
 10
-0.053879493629172
 20
-491.4934003777053
 10
-4.845587050950686
 20
-491.4924284190687
 10
-9.626081168959549
 20
-491.5505740261662
 10
-17.36470684955707
 20
-491.8143102644435
 10
-25.00446157642547
 20
-492.1701752738728
 10
-29.05132237720859
 20
-492.3389789120134
 10
-33.11952065662215
 20
-492.4740609045627
 10
-36.29803454536418
 20
-492.5512552128897
 10
-38.17868958180861
 20
-492.5756989211978
 10
-40.00497335825772
 20
-492.5730893445977
 10
-41.6450497433532
 20
-492.555119006382
 10
-43.15751653079605
 20
-492.5418025531022
 10
-46.04127883865844
 20
-492.5456622074809
 10
-48.74393629192581
 20
-492.5979273213728
 10
-55.10659402923935
 20
-492.6957487105225
 10
-55.10662393741244
 20
-492.695748547809
 10
-55.10662393741244
 20
-492.695748547809
  0
LWPOLYLINE
  5
1B4
330
A
100
AcDbEntity
  8
0
  6
PHANTOM
 62
     7
100
AcDbPolyline
 90
       32
 70
   128
 43
0.0
 10
-55.1066304990374
 20
-492.6967968564956
 10
-55.10666046237503
 20
-492.6967966064857
 10
-58.9658281886949
 20
-492.5997144609167
 10
-62.14791088563839
 20
-492.4389756714503
 10
-64.99283280984361
 20
-492.30242859465
 10
-67.12592226705361
 20
-492.247930740934
 10
-69.57071378827379
 20
-492.2121667994414
 10
-72.41752355820129
 20
-492.181290593613
 10
-75.98442892635905
 20
-492.142994403442
 10
-80.00952849404738
 20
-492.1059734553284
 10
-83.13637464818626
 20
-492.0870884188111
 10
-86.43303546274273
 20
-492.0834109812802
 10
-89.81226312434529
 20
-492.0946176796006
 10
-93.16649840889532
 20
-492.1126258372711
 10
-98.50656805007609
 20
-492.1529648595947
 10
-103.63783738128
 20
-492.2026293701608
 10
-108.640431166795
 20
-492.2569630686478
 10
-113.2428289465937
 20
-492.3009523434017
 10
-116.2258211389168
 20
-492.3164066123003
 10
-119.332610849718
 20
-492.3085513472437
 10
-121.7162119209836
 20
-492.276851736717
 10
-124.0658949086016
 20
-492.2323728701329
 10
-128.162366477979
 20
-492.1595023548278
 10
-132.8497805340006
 20
-492.1005707665042
 10
-142.565294136861
 20
-492.0248665316843
 10
-151.9083212144727
 20
-491.9698752014617
 10
-160.6142019384592
 20
-491.9241137930746
 10
-165.9327219207392
 20
-491.8954017836
 10
-170.7017650403613
 20
-491.8667520301062
 10
-172.1193075155533
 20
-491.8565368974523
 10
-173.2367911445049
 20
-491.8501421378182
 10
-173.6983738045542
 20
-491.8564626945597
  0
LINE
  5
1D6
330
A
100
AcDbEntity
  8
0
  6
Continuous
 62
     7
100
AcDbLine
 10
66.36507759769857
 20
-1193.393611082624
 30
0.0
 11
66.36507759769857
 21
-1167.530252034968
 31
0.0
  0
LINE
  5
1D7
330
A
100
AcDbEntity
  8
0
  6
Continuous
 62
     7
100
AcDbLine
 10
64.36507759769857
 20
-1167.530252034968
 30
0.0
 11
64.36507759769857
 21
-1193.393611082624
 31
0.0
  0
LINE
  5
1D8
330
A
100
AcDbEntity
  8
0
  6
Continuous
 62
     7
100
AcDbLine
 10
-13.93847562168537
 20
-1329.019343671764
 30
0.0
 11
-36.33680158414745
 21
-1341.951023195586
 31
0.0
  0
LINE
  5
1D9
330
A
100
AcDbEntity
  8
0
  6
Continuous
 62
     7
100
AcDbLine
 10
-35.33680158414759
 20
-1343.683074003155
 30
0.0
 11
-12.93847562168544
 21
-1330.751394479333
 31
0.0
  0
LINE
  5
1DA
330
A
100
AcDbEntity
  8
0
  6
Continuous
 62
     7
100
AcDbLine
 10
143.6686308170819
 20
-1330.751394479334
 30
0.0
 11
165.9578373410818
 21
-1343.620073865987
 31
0.0
  0
LINE
  5
1DB
330
A
100
AcDbEntity
  8
0
  6
Continuous
 62
     7
100
AcDbLine
 10
166.9578373410816
 20
-1341.888023058418
 30
0.0
 11
144.6686308170819
 21
-1329.019343671765
 31
0.0
  0
LWPOLYLINE
  5
1DC
330
A
100
AcDbEntity
  8
0
  6
Continuous
 62
     7
100
AcDbPolyline
 90
       12
 70
   128
 43
0.0
 10
266.2139367317252
 20
-1291.928639872476
 10
268.3095454505867
 20
-1283.565340591178
 10
269.2203628626026
 20
-1280.170919202311
 10
269.7870891868604
 20
-1277.851866400588
 10
270.0968774448149
 20
-1275.971625719427
 10
270.2066494279078
 20
-1274.288719485033
 10
270.0435532025127
 20
-1272.530583697065
 10
269.6284932752152
 20
-1270.923143955611
 10
268.99386579146
 20
-1269.412526495425
 10
268.1640006069103
 20
-1267.98798187582
 10
267.1592617035066
 20
-1266.630243300584
 10
267.0221130988925
 20
-1266.471768195754
  0
LWPOLYLINE
  5
1EA
330
A
100
AcDbEntity
  8
0
  6
Continuous
 62
     7
100
AcDbPolyline
 90
        7
 70
   128
 43
0.0
 10
85.14447167339993
 20
-1394.627022934139
 10
86.27473986032841
 20
-1394.829718050498
 10
90.04140721204908
 20
-1395.262121547672
 10
94.3224862189648
 20
-1395.544071751033
 10
99.41050795535586
 20
-1395.767067519563
 10
103.8635255207471
 20
-1396.192315791244
 10
105.4289098162074
 20
-1396.421128360754
  0
LWPOLYLINE
  5
1F3
330
A
100
AcDbEntity
  8
0
  6
Continuous
 62
     7
100
AcDbPolyline
 90
        5
 70
   128
 43
0.0
 10
261.356912705291
 20
-1302.812585923987
 10
262.9355580651405
 20
-1300.12000103235
 10
264.3423149589491
 20
-1297.273584288593
 10
265.5934595400005
 20
-1294.027607594823
 10
266.2654144219173
 20
-1291.950729659445
  0
LWPOLYLINE
  5
1FA
330
A
100
AcDbEntity
  8
0
  6
Continuous
 62
     7
100
AcDbPolyline
 90
       34
 70
   128
 43
0.0
 10
105.4384307881012
 20
-1396.329304086992
 10
106.9309474743568
 20
-1396.634129482077
 10
108.9709467468105
 20
-1397.252330727905
 10
110.8186637880747
 20
-1398.117298080721
 10
112.4036704661905
 20
-1399.206867945006
 10
113.7347302528758
 20
-1400.49602352786
 10
114.8635516215796
 20
-1402.04646309388
 10
115.8488810372614
 20
-1403.892369221095
 10
116.7343380693356
 20
-1406.160460426417
 10
117.4875070945976
 20
-1408.856602438577
 10
118.1345962298074
 20
-1412.041614136641
 10
118.6871714564983
 20
-1416.056808402494
 10
119.0487023765311
 20
-1420.571065718988
 10
119.2506840366552
 20
-1425.91052737131
 10
119.369641962015
 20
-1432.859743444686
 10
119.5768454806089
 20
-1439.715731188181
 10
119.9345822505543
 20
-1444.820161392295
 10
120.51842060315
 20
-1449.580518279498
 10
121.1211789882805
 20
-1453.068162865214
 10
121.7790864577543
 20
-1455.838821009987
 10
122.536897302512
 20
-1458.066860712118
 10
123.4754967851672
 20
-1460.069245495687
 10
124.5994135768184
 20
-1461.853893766472
 10
125.9118959433735
 20
-1463.430534134317
 10
127.5880451171779
 20
-1464.936652819418
 10
129.2649062460478
 20
-1466.067852823855
 10
131.1544464925435
 20
-1467.021531771329
 10
133.1756868099431
 20
-1467.754984433916
 10
135.3509926933036
 20
-1468.29024799293
 10
137.720008890078
 20
-1468.649225310105
 10
140.3535847571252
 20
-1468.865903436342
 10
143.7633430519876
 20
-1469.010895744102
 10
148.0803170141435
 20
-1468.97158672031
 10
150.5923875846852
 20
-1468.784665538113
  0
LWPOLYLINE
  5
21E
330
A
100
AcDbEntity
  8
0
  6
Continuous
 62
     7
100
AcDbPolyline
 90
        3
 70
   128
 43
0.0
 10
177.3923269715503
 20
-1221.088471646445
 10
171.7787563818632
 20
-1221.898833113739
 10
166.2709592793133
 20
-1222.694031270989
  0
LWPOLYLINE
  5
223
330
A
100
AcDbEntity
  8
0
  6
Continuous
 62
     7
100
AcDbPolyline
 90
        3
 70
   128
 43
0.0
 10
164.6198272864151
 20
-1464.758694607012
 10
171.1468976851961
 20
-1460.48318918234
 10
178.7336104729321
 20
-1455.517368889884
  0
LWPOLYLINE
  5
228
330
A
100
AcDbEntity
  8
0
  6
Continuous
 62
     7
100
AcDbPolyline
 90
        3
 70
   128
 43
0.0
 10
282.0098160012365
 20
-1380.885367828385
 10
281.227323003381
 20
-1375.531910775772
 10
280.9548846869865
 20
-1369.90355957335
  0
LWPOLYLINE
  5
22D
330
A
100
AcDbEntity
  8
0
  6
Continuous
 62
     7
100
AcDbPolyline
 90
        6
 70
   128
 43
0.0
 10
258.1081990594912
 20
-1343.918921264541
 10
257.9389636104838
 20
-1343.756552458865
 10
257.7524262560241
 20
-1343.55855942812
 10
257.5720430714828
 20
-1343.354948988741
 10
257.3928276077938
 20
-1343.146319164138
 10
257.286505693697
 20
-1343.021341341003
  0
LWPOLYLINE
  5
235
330
A
100
AcDbEntity
  8
0
  6
Continuous
 62
     7
100
AcDbPolyline
 90
        4
 70
   128
 43
0.0
 10
250.8326993079044
 20
-1329.148677016579
 10
250.82118541314
 20
-1329.024521262449
 10
250.8050747462862
 20
-1327.251384436532
 10
250.9042152588736
 20
-1325.788190469091
  0
LWPOLYLINE
  5
23B
330
A
100
AcDbEntity
  8
0
  6
Continuous
 62
     7
100
AcDbPolyline
 90
        3
 70
   128
 43
0.0
 10
54.81847973369799
 20
-1374.629950895677
 10
55.00151166424128
 20
-1375.234097893729
 10
55.5908972656613
 20
-1377.391559586795
  0
LWPOLYLINE
  5
240
330
A
100
AcDbEntity
  8
0
  6
Continuous
 62
     7
100
AcDbPolyline
 90
        7
 70
   128
 43
0.0
 10
149.5912816844106
 20
-1197.720483494974
 10
149.2016867109367
 20
-1196.640294973825
 10
147.6928254483138
 20
-1193.162063611043
 10
145.7964619835686
 20
-1189.313565333765
 10
143.445571115857
 20
-1184.795711370778
 10
141.5873381393526
 20
-1180.72666089981
 10
141.0028034895231
 20
-1179.256592048501
  0
LWPOLYLINE
  5
249
330
A
100
AcDbEntity
  8
0
  6
Continuous
 62
     7
100
AcDbPolyline
 90
       12
 70
   128
 43
0.0
 10
-29.88285950373673
 20
-1092.258918435635
 10
-38.17349350022382
 20
-1094.625717689358
 10
-41.56855736013965
 20
-1095.534137366777
 10
-43.86027916127831
 20
-1096.202864373837
 10
-45.64350948536982
 20
-1096.874700213235
 10
-47.15583502808864
 20
-1097.62108800445
 10
-48.59687717107449
 20
-1098.641401372888
 10
-49.78143085857735
 20
-1099.804573684747
 10
-50.77235021262112
 20
-1101.109485937712
 10
-51.59110944974862
 20
-1102.540442579051
 10
-52.26457609589916
 20
-1104.089441281187
 10
-52.33324526024241
 20
-1104.287453009291
  0
LWPOLYLINE
  5
257
330
A
100
AcDbEntity
  8
0
  6
Continuous
 62
     7
100
AcDbPolyline
 90
        5
 70
   128
 43
0.0
 10
-18.02857371649167
 20
-1091.023251603564
 10
-21.14974331442014
 20
-1091.002397064186
 10
-24.31819097117563
 20
-1091.207318229077
 10
-27.75486153859877
 20
-1091.746783584965
 10
-29.8894680321535
 20
-1092.203292554716
  0
LWPOLYLINE
  5
25E
330
A
100
AcDbEntity
  8
0
  6
Continuous
 62
     7
100
AcDbPolyline
 90
       34
 70
   128
 43
0.0
 10
140.918520849814
 20
-1179.294258781854
 10
140.4362490425483
 20
-1177.849288718442
 10
139.9516273898598
 20
-1175.773496901881
 10
139.7768525702114
 20
-1173.740843328732
 10
139.9279444128211
 20
-1171.823402348174
 10
140.3788560036611
 20
-1170.026092967521
 10
141.1571653705151
 20
-1168.273285202879
 10
142.2631022618435
 20
-1166.497011834195
 10
143.784598347716
 20
-1164.596137947798
 10
145.7429413098256
 20
-1162.595803432498
 10
148.1776977840948
 20
-1160.442901953861
 10
151.3786704061082
 20
-1157.956760637118
 10
155.1073664613945
 20
-1155.38653701787
 10
159.6304850647763
 20
-1152.541884942943
 10
165.5892037580272
 20
-1148.964256320912
 10
171.4230615526316
 20
-1145.356818938309
 10
175.6647593962666
 20
-1142.494794705611
 10
179.495430215367
 20
-1139.608997416958
 10
182.2144398334034
 20
-1137.343171050233
 10
184.2849464372418
 20
-1135.388077395943
 10
185.8355799975483
 20
-1133.617774102054
 10
187.1003963469427
 20
-1131.803730714311
 10
188.0839886904377
 20
-1129.938066085608
 10
188.7931581183455
 20
-1128.01310283023
 10
189.2594205738549
 20
-1125.808455722633
 10
189.4006379500237
 20
-1123.790651384195
 10
189.2817780223425
 20
-1121.677422055519
 10
188.9063465019168
 20
-1119.560250262204
 10
188.2822454000632
 20
-1117.408748326705
 10
187.4086207777315
 20
-1115.177631459734
 10
186.2794816059733
 20
-1112.788548792959
 10
184.7001694804162
 20
-1109.763115334963
 10
182.5076398861364
 20
-1106.044160728156
 10
181.0897261085771
 20
-1103.962104389067
  0
LWPOLYLINE
  5
282
330
A
100
AcDbEntity
  8
0
  6
Continuous
 62
     7
100
AcDbPolyline
 90
        3
 70
   128
 43
0.0
 10
-46.82143991575618
 20
-1204.600773005989
 10
-43.31286100398766
 20
-1209.057087008949
 10
-39.87030064749279
 20
-1213.429380140023
  0
LWPOLYLINE
  5
287
330
A
100
AcDbEntity
  8
0
  6
Continuous
 62
     7
100
AcDbPolyline
 90
        3
 70
   128
 43
0.0
 10
170.5894131564817
 20
-1093.826970722864
 10
163.6231816453069
 20
-1090.312114657566
 10
155.5292987275444
 20
-1086.224738798398
  0
LWPOLYLINE
  5
28C
330
A
100
AcDbEntity
  8
0
  6
Continuous
 62
     7
100
AcDbPolyline
 90
        3
 70
   128
 43
0.0
 10
39.25798710886725
 20
-1034.100921735172
 10
35.01300380216282
 20
-1037.455309075905
 10
30.27492783764144
 20
-1040.505423180078
  0
LWPOLYLINE
  5
291
330
A
100
AcDbEntity
  8
0
  6
Continuous
 62
     7
100
AcDbPolyline
 90
        5
 70
   128
 43
0.0
 10
143.7730041113356
 20
-1238.269617932537
 10
144.7291979498454
 20
-1237.016080206111
 10
146.2848322392115
 20
-1235.210640208627
 10
147.8679959503074
 20
-1233.521515128368
 10
149.4417197834849
 20
-1231.93236137838
  0
LWPOLYLINE
  5
298
330
A
100
AcDbEntity
  8
0
  6
Continuous
 62
     7
100
AcDbPolyline
 90
        7
 70
   128
 43
0.0
 10
-53.52953949265543
 20
-1241.834136887686
 10
-54.27021270611004
 20
-1242.711630292476
 10
-56.52801879520774
 20
-1245.757458158085
 10
-58.91273433737831
 20
-1249.324006232002
 10
-61.64986520605772
 20
-1253.618864426458
 10
-64.24464979494453
 20
-1257.262666625745
 10
-65.22549944057543
 20
-1258.503922907544
  0
LWPOLYLINE
  5
2A1
330
A
100
AcDbEntity
  8
0
  6
Continuous
 62
     7
100
AcDbPolyline
 90
       12
 70
   128
 43
0.0
 10
-55.12486336283331
 20
-1449.994085008686
 10
-48.92983808520781
 20
-1455.990585036261
 10
-46.44559163730785
 20
-1458.47658674771
 10
-44.72059616042708
 20
-1460.126912542372
 10
-43.24715409429003
 20
-1461.335317384135
 10
-41.84460053466419
 20
-1462.271835827314
 10
-40.24046216628319
 20
-1463.009658246845
 10
-38.64084855148284
 20
-1463.453925676439
 10
-37.01530171368383
 20
-1463.65963088366
 10
-35.36667729200671
 20
-1463.653218861927
 10
-33.6884717424524
 20
-1463.461958735027
 10
-33.48265397349515
 20
-1463.422422111752
  0
LWPOLYLINE
  5
2AF
330
A
100
AcDbEntity
  8
0
  6
Continuous
 62
     7
100
AcDbPolyline
 90
        5
 70
   128
 43
0.0
 10
-62.12212512364423
 20
-1440.345805789247
 10
-60.57960088556511
 20
-1443.059245220261
 10
-58.81791012261835
 20
-1445.700740799127
 10
-56.63238413624655
 20
-1448.40725213701
 10
-55.16973252460871
 20
-1450.027621102636
  0
LWPOLYLINE
  5
2B6
330
A
100
AcDbEntity
  8
0
  6
Continuous
 62
     7
100
AcDbPolyline
 90
       34
 70
   128
 43
0.0
 10
-65.15073777276001
 20
-1258.558080447954
 10
-66.16098265174999
 20
-1259.698225116281
 10
-67.71636027151508
 20
-1261.155815687013
 10
-69.3893024931308
 20
-1262.323501907345
 10
-71.12540101385636
 20
-1263.15137302362
 10
-72.90737239138173
 20
-1263.659526821418
 10
-74.81450312693951
 20
-1263.86189502004
 10
-76.90576943394962
 20
-1263.792262261509
 10
-79.31272255189634
 20
-1263.425044942584
 10
-82.02423453926781
 20
-1262.729237445724
 10
-85.10608014874692
 20
-1261.697127226297
 10
-88.85962799745117
 20
-1260.168074277186
 10
-92.94985497277016
 20
-1258.224040579941
 10
-97.67495523627603
 20
-1255.729231002547
 10
-103.7526318548867
 20
-1252.357643551202
 10
-109.7936931680849
 20
-1249.10909319031
 10
-114.3931277816653
 20
-1246.866687218893
 10
-118.8076369533614
 20
-1244.992127620343
 10
-122.1294049565283
 20
-1243.770309401352
 10
-124.8578190298403
 20
-1242.95474491087
 10
-127.1662634349046
 20
-1242.497008502628
 10
-129.3696792669542
 20
-1242.308667106802
 10
-131.4771884021004
 20
-1242.389683464719
 10
-133.4988401965633
 20
-1242.738006352252
 10
-135.641251825877
 20
-1243.436534774749
 10
-137.4593303309157
 20
-1244.32313910875
 10
-139.2300106497303
 20
-1245.482689489952
 10
-140.8758194467041
 20
-1246.866408620679
 10
-142.4270242282109
 20
-1248.482646997164
 10
-143.9224158026536
 20
-1250.35478654696
 10
-145.4268524979426
 20
-1252.527191087498
 10
-147.2572986672479
 20
-1255.407632237734
 10
-149.381743035124
 20
-1259.165895868332
 10
-150.4758998281065
 20
-1261.434873389619
  0
LWPOLYLINE
  5
2DA
330
A
100
AcDbEntity
  8
0
  6
Continuous
 62
     7
100
AcDbPolyline
 90
        3
 70
   128
 43
0.0
 10
50.6353268093601
 20
-1408.492398664362
 10
52.7403184872787
 20
-1403.225723194109
 10
54.80555523333372
 20
-1398.058231905786
  0
LWPOLYLINE
  5
2DF
330
A
100
AcDbEntity
  8
0
  6
Continuous
 62
     7
100
AcDbPolyline
 90
        3
 70
   128
 43
0.0
 10
-154.0030265777409
 20
-1275.595977986922
 10
-153.563865465347
 20
-1283.386339476892
 10
-153.0566953353206
 20
-1292.439535628514
  0
LWPOLYLINE
  5
2E4
330
A
100
AcDbEntity
  8
0
  6
Continuous
 62
     7
100
AcDbPolyline
 90
        3
 70
   128
 43
0.0
 10
-140.0615892449479
 20
-1419.195353753239
 10
-135.034112940388
 20
-1421.194423465119
 10
-130.0235986594722
 20
-1423.772660563369
  0
LWPOLYLINE
  5
2E9
330
A
100
AcDbEntity
  8
0
  6
Continuous
 62
     7
100
AcDbPolyline
 90
        7
 70
   128
 43
0.0
 10
-9.666015717926136
 20
-1226.708292012167
 10
-12.13233904568975
 20
-1226.831504047269
 10
-14.64170314749308
 20
-1226.709340053446
 10
-17.06751261665966
 20
-1226.397026561578
 10
-19.40888666417249
 20
-1225.95252774673
 10
-21.66329374939381
 20
-1225.426030294701
 10
-23.82640318399133
 20
-1224.857722351622
  0
CIRCLE
  5
2F2
330
A
100
AcDbEntity
  8
0
  6
Continuous
 62
     7
100
AcDbCircle
 10
65.36507759769857
 20
-1284.388116411242
 30
0.0
 40
66.00000000000022
  0
CIRCLE
  5
2F3
330
A
100
AcDbEntity
  8
0
  6
Continuous
 62
     7
100
AcDbCircle
 10
65.36507759769857
 20
-1284.388116411242
 30
0.0
 40
91.0
  0
LWPOLYLINE
  5
2F4
330
A
100
AcDbEntity
  8
0
  6
Continuous
 62
     7
100
AcDbPolyline
 90
        5
 70
   128
 43
0.0
 10
65.36507759769857
 20
-1233.389062378251
 10
65.74776103006366
 20
-1233.465110838289
 10
66.07218437888512
 20
-1233.681678529742
 10
66.28895713020987
 20
-1234.005794984779
 10
66.36507759769857
 20
-1234.388116411242
  0
LWPOLYLINE
  5
2FB
330
A
100
AcDbEntity
  8
0
  6
Continuous
 62
     7
100
AcDbPolyline
 90
        5
 70
   128
 43
0.0
 10
64.36507759769857
 20
-1234.388116411242
 10
64.44119806518729
 20
-1234.005794984779
 10
64.65797081651203
 20
-1233.681678529742
 10
64.9823941653335
 20
-1233.465110838289
 10
65.36507759769857
 20
-1233.389062378251
  0
LWPOLYLINE
  5
302
330
A
100
AcDbEntity
  8
0
  6
Continuous
 62
     7
100
AcDbPolyline
 90
       10
 70
   128
 43
0.0
 10
22.56380740847634
 20
-1310.254141815027
 10
22.44697593217378
 20
-1310.311777531389
 10
22.06462644608066
 20
-1310.387880003403
 10
21.68215226893687
 20
-1310.311777531389
 10
21.35778162707554
 20
-1310.095056026842
 10
21.14089701029284
 20
-1309.770709374244
 10
21.06451713543
 20
-1309.388116411242
 10
21.14027014604959
 20
-1309.00552344824
 10
21.35662333298753
 20
-1308.681176795642
 10
21.56380740847648
 20
-1308.522091007458
  0
LWPOLYLINE
  5
30E
330
A
100
AcDbEntity
  8
0
  6
Continuous
 62
     7
100
AcDbPolyline
 90
       20
 70
   128
 43
0.0
 10
-35.33680158414754
 20
-1343.683074003155
 10
-35.49492383357088
 20
-1343.756823430648
 10
-35.66343386544701
 20
-1343.802018275443
 10
-35.83721158772755
 20
-1343.817285315048
 10
-36.0109768522568
 20
-1343.802160668192
 10
-36.17944988940146
 20
-1343.757103889615
 10
-36.3375117311794
 20
-1343.683484006735
 10
-36.48035974851134
 20
-1343.58353792244
 10
-36.60365357667522
 20
-1343.460302447926
 10
-36.70364699509199
 20
-1343.317522030725
 10
-36.77730175434215
 20
-1343.159534981565
 10
-36.822379891837
 20
-1342.991141656988
 10
-36.83751173117939
 20
-1342.817458602951
 10
-36.82223749908798
 20
-1342.643763091162
 10
-36.77702129537575
 20
-1342.475332771854
 10
-36.70323699151196
 20
-1342.317285315048
 10
-36.60312648623289
 20
-1342.174422912744
 10
-36.47973158658306
 20
-1342.051086366744
 10
-36.3368015841475
 20
-1341.951023195586
 10
-36.33680158414745
 20
-1341.951023195586
  0
LWPOLYLINE
  5
324
330
A
100
AcDbEntity
  8
0
  6
Continuous
 62
     7
100
AcDbPolyline
 90
       20
 70
   128
 43
0.0
 10
166.9578373410817
 20
-1341.888023058418
 10
167.1007668075692
 20
-1341.988085920145
 10
167.2241611875554
 20
-1342.111422166118
 10
167.3242712052451
 20
-1342.254284286912
 10
167.3980550684089
 20
-1342.41233148928
 10
167.4432708917009
 20
-1342.580761588952
 10
167.4585448152109
 20
-1342.754456922581
 10
167.4434127485019
 20
-1342.928139845348
 10
167.3983344717635
 20
-1343.096533089533
 10
167.324679665624
 20
-1343.254520111622
 10
167.2246862940966
 20
-1343.397300555894
 10
167.1013926051762
 20
-1343.5205361108
 10
166.9585448152109
 20
-1343.620482326366
 10
166.8004832820144
 20
-1343.694102387405
 10
166.6320106252899
 20
-1343.739159385618
 10
166.4582458014606
 20
-1343.754284286912
 10
166.2844685667695
 20
-1343.739017528817
 10
166.1159590545569
 20
-1343.69382298405
 10
165.9578373410817
 20
-1343.620073865987
 10
165.9578373410818
 20
-1343.620073865987
  0
LWPOLYLINE
  5
33A
330
A
100
AcDbEntity
  8
0
  6
Continuous
 62
     7
100
AcDbPolyline
 90
        7
 70
   128
 43
0.0
 10
109.6656407297139
 20
-1309.388116411243
 10
109.5892618299572
 20
-1309.770709714318
 10
109.3723776333848
 20
-1310.095056655218
 10
109.0480067928648
 20
-1310.3117783524
 10
108.6655318284371
 20
-1310.387880892059
 10
108.2831810862919
 20
-1310.3117783524
 10
108.1663477869205
 20
-1310.254141815027
  0
LWPOLYLINE
  5
343
330
A
100
AcDbEntity
  8
0
  6
Continuous
 62
     7
100
AcDbPolyline
 90
        4
 70
   128
 43
0.0
 10
109.1663477869203
 20
-1308.522091007458
 10
109.3735315729382
 20
-1308.681176167268
 10
109.5898863375433
 20
-1309.005523108167
 10
109.6656407297139
 20
-1309.388116411243
  0
ARC
  5
349
330
A
100
AcDbEntity
  8
0
  6
Continuous
 62
     7
100
AcDbCircle
 10
65.36507759769857
 20
-1168.388116411237
 30
0.0
 40
30.00000000000011
100
AcDbArc
 50
299.209071162042
 51
240.7909288379597
  0
ARC
  5
34A
330
A
100
AcDbEntity
  8
0
  6
Continuous
 62
     7
100
AcDbCircle
 10
165.8240244366934
 20
-1342.388116411237
 30
0.0
 40
30.0
100
AcDbArc
 50
179.2090711620671
 51
120.7909288379371
  0
ARC
  5
34B
330
A
100
AcDbEntity
  8
0
  6
Continuous
 62
     7
100
AcDbCircle
 10
-35.09386924129632
 20
-1342.388116411237
 30
0.0
 40
30.00000000000001
100
AcDbArc
 50
59.20907116206298
 51
0.7909288379323915
  0
LWPOLYLINE
  5
34C
330
A
100
AcDbEntity
  8
0
  6
Continuous
 62
     7
100
AcDbPolyline
 90
       14
 70
   128
 43
0.0
 10
146.9409056992397
 20
-1244.412890419564
 10
147.4453012902868
 20
-1243.21895690978
 10
149.6378825424651
 20
-1238.067722091744
 10
152.1883961186671
 20
-1233.149981951098
 10
155.4299586812307
 20
-1228.719239569344
 10
157.3146675136947
 20
-1226.883566806674
 10
159.4278275364172
 20
-1225.318354800103
 10
161.8310015913575
 20
-1224.020342113663
 10
164.3983869651517
 20
-1223.091815905808
 10
168.2863811513088
 20
-1222.539001590445
 10
170.4131698261216
 20
-1222.732721746261
 10
172.4717605289214
 20
-1223.302442085747
 10
176.0706336805982
 20
-1225.159732464933
 10
176.2436141628687
 20
-1225.280626703013
  0
LWPOLYLINE
  5
35C
330
A
100
AcDbEntity
  8
0
  6
Continuous
 62
     7
100
AcDbPolyline
 90
        9
 70
   128
 43
0.0
 10
203.8865304346829
 20
-1234.127390511533
 10
206.6802572156237
 20
-1233.234499122528
 10
210.0092506837837
 20
-1231.781460097191
 10
216.7502771741148
 20
-1228.270013117791
 10
221.7254365198812
 20
-1225.811385495104
 10
225.1775261234223
 20
-1224.509365583785
 10
228.7757013511269
 20
-1223.776490141017
 10
230.9978628282984
 20
-1223.759950206201
 10
233.0138433906224
 20
-1224.10390568357
  0
LWPOLYLINE
  5
367
330
A
100
AcDbEntity
  8
0
  6
Continuous
 62
     7
100
AcDbPolyline
 90
        6
 70
   128
 43
0.0
 10
255.6197994679263
 20
-1253.479842008818
 10
256.0593850382865
 20
-1254.189699971018
 10
261.0097139696114
 20
-1260.15325512614
 10
263.9321591691862
 20
-1263.138892948884
 10
266.7815597690804
 20
-1266.191341488979
 10
266.9943673911179
 20
-1266.481665943137
  0
LINE
  5
36F
330
A
100
AcDbEntity
  8
0
  6
Continuous
 62
     7
100
AcDbLine
 10
266.139170807131
 20
-1291.909905624402
 30
0.0
 11
259.3650292676825
 21
-1290.050332518336
 31
0.0
  0
LWPOLYLINE
  5
370
330
A
100
AcDbEntity
  8
0
  6
Continuous
 62
     7
100
AcDbPolyline
 90
        7
 70
   128
 43
0.0
 10
85.15004974488098
 20
-1394.570282564396
 10
83.16631610470333
 20
-1394.280030986622
 10
78.14167337419224
 20
-1392.898744560296
 10
73.37318160073583
 20
-1390.820461392758
 10
69.38617947813122
 20
-1388.152195573277
 10
65.94481829382044
 20
-1384.807470702307
 10
60.50972475209441
 20
-1378.111128993206
  0
LWPOLYLINE
  5
379
330
A
100
AcDbEntity
  8
0
  6
Continuous
 62
     7
100
AcDbPolyline
 90
        7
 70
   128
 43
0.0
 10
106.6549946864788
 20
-1389.343638499008
 10
106.5978461002625
 20
-1389.67235786161
 10
106.2900628594126
 20
-1391.442730788853
 10
105.9268389704568
 20
-1393.531998968734
 10
105.6457091402817
 20
-1395.149061114514
 10
105.4783685105057
 20
-1396.111606410142
 10
105.4521022136889
 20
-1396.262461313444
  0
LWPOLYLINE
  5
382
330
A
100
AcDbEntity
  8
0
  6
Continuous
 62
     7
100
AcDbPolyline
 90
       37
 70
   128
 43
0.0
 10
261.0618752857493
 20
-1302.97722868246
 10
261.0331053370349
 20
-1303.029311028473
 10
257.7165942734203
 20
-1308.229132461348
 10
255.4229564136281
 20
-1312.016444441774
 10
253.4447280849748
 20
-1315.981577185618
 10
251.9516174452395
 20
-1320.130837789398
 10
251.0001037694817
 20
-1324.798902015194
 10
250.8171653255107
 20
-1329.552306212905
 10
251.2525568639613
 20
-1332.911503728591
 10
252.2511178268352
 20
-1336.141640305296
 10
253.860414170425
 20
-1339.114508628277
 10
255.950416948347
 20
-1341.780982250758
 10
260.0456396387537
 20
-1345.582785617714
 10
264.6076775664904
 20
-1348.873971251392
 10
269.3421248761976
 20
-1351.917034560095
 10
273.6026923819375
 20
-1354.771585957925
 10
276.0779208621239
 20
-1356.78697481904
 10
278.2182203638878
 20
-1359.138684077243
 10
279.4397677492828
 20
-1361.18576880573
 10
280.2581977134236
 20
-1363.426428256443
 10
280.8916445164616
 20
-1367.790905500807
 10
280.8911257627169
 20
-1373.203764537516
 10
280.3020850240163
 20
-1384.762356154422
 10
279.052961089719
 20
-1396.27193659075
 10
276.8365120289671
 20
-1407.604289211673
 10
274.8222653424079
 20
-1414.908512965292
 10
272.1272865957637
 20
-1421.971276327909
 10
270.8992454025495
 20
-1424.317123300667
 10
269.3852268437631
 20
-1426.48160127112
 10
267.3047944904632
 20
-1428.424758744954
 10
265.0282618248901
 20
-1429.508181951236
 10
264.0918753126476
 20
-1429.729396003066
 10
261.1791306637646
 20
-1429.877144201143
 10
258.2757190784942
 20
-1429.455784624517
 10
254.732109846472
 20
-1428.454985946486
 10
251.2898799672491
 20
-1427.132763179748
 10
250.4364088493038
 20
-1426.724652056581
  0
LINE
  5
3A9
330
A
100
AcDbEntity
  8
0
  6
Continuous
 62
     7
100
AcDbLine
 10
222.3159074295981
 20
-1412.770228679372
 30
0.0
 11
222.3158811223246
 21
-1412.770188169724
 31
0.0
  0
LWPOLYLINE
  5
3AA
330
A
100
AcDbEntity
  8
0
  6
Continuous
 62
     7
100
AcDbPolyline
 90
        5
 70
   128
 43
0.0
 10
225.0117398668128
 20
-1406.274470915084
 10
224.0842369145113
 20
-1408.509308558598
 10
223.2315811647
 20
-1410.563801939858
 10
222.6203080385917
 20
-1412.036679371372
 10
222.3158811223246
 20
-1412.770188169724
  0
LWPOLYLINE
  5
3B1
330
A
100
AcDbEntity
  8
0
  6
Continuous
 62
     7
100
AcDbPolyline
 90
       11
 70
   128
 43
0.0
 10
175.6367730402185
 20
-1448.912354279639
 10
175.5929842571019
 20
-1449.030945500512
 10
173.8292542798452
 20
-1453.050583040626
 10
171.7552757099441
 20
-1456.922102411438
 10
169.2520141068382
 20
-1460.50334245951
 10
166.449865909966
 20
-1463.369576920627
 10
163.1486338342881
 20
-1465.629861031425
 10
159.8973252447826
 20
-1467.040049221142
 10
156.4760512177612
 20
-1467.987480630181
 10
151.2721718281296
 20
-1468.74506402378
 10
150.6002599959288
 20
-1468.775633570958
  0
LWPOLYLINE
  5
3BE
330
A
100
AcDbEntity
  8
0
  6
Continuous
 62
     7
100
AcDbPolyline
 90
       30
 70
   128
 43
0.0
 10
177.3928093207102
 20
-1221.100088233865
 10
180.8224806614745
 20
-1220.956714099487
 10
184.6123182830103
 20
-1221.294858127047
 10
192.0158727937561
 20
-1222.268692402015
 10
198.9828490640349
 20
-1222.87565523764
 10
205.8874848784903
 20
-1222.754834238397
 10
212.8751208180479
 20
-1221.710067793434
 10
219.7992861779185
 20
-1219.730970532389
 10
226.5562495783848
 20
-1217.000206836228
 10
230.5706152951775
 20
-1215.329614738352
 10
234.5944448400785
 20
-1213.884775879889
 10
238.6599116345889
 20
-1212.870115974105
 10
242.7991891002097
 20
-1212.490060734268
 10
247.0263586537493
 20
-1212.930003967572
 10
251.1859032514108
 20
-1214.196930176852
 10
255.0295571972691
 20
-1216.200256808918
 10
258.3120938253949
 20
-1218.848060306012
 10
260.9564950830121
 20
-1222.033725010546
 10
263.1123150024954
 20
-1225.630845435918
 10
265.0680136369156
 20
-1229.796295851509
 10
266.8564700644616
 20
-1234.130179781007
 10
268.6812856095515
 20
-1238.475307124667
 10
270.7121013964446
 20
-1242.69071296269
 10
272.7366433483844
 20
-1246.817900170864
 10
274.3022180742172
 20
-1251.013236867825
 10
274.988863010413
 20
-1255.41606966581
 10
274.6164007185998
 20
-1260.74425143606
 10
273.2066744023458
 20
-1266.045077384114
 10
271.0007884694081
 20
-1271.071572033326
 10
270.0528252364277
 20
-1272.630533862151
  0
LWPOLYLINE
  5
3DE
330
A
100
AcDbEntity
  8
0
  6
Continuous
 62
     7
100
AcDbPolyline
 90
       21
 70
   128
 43
0.0
 10
250.1120970094183
 20
-1455.57260714171
 10
248.0104080085604
 20
-1455.067965958901
 10
242.698567894078
 20
-1453.323412870205
 10
237.7845011785343
 20
-1451.128352818341
 10
233.1378534628356
 20
-1448.630588058168
 10
228.6274699400008
 20
-1445.977793928562
 10
224.1221958030491
 20
-1443.317645768402
 10
219.4908762449994
 20
-1440.797818916563
 10
214.6223261356748
 20
-1438.592449185115
 10
209.5109761506364
 20
-1437.015616774002
 10
205.9829474290028
 20
-1436.491444036521
 10
202.3697642907261
 20
-1436.51243563391
 10
198.7393181124229
 20
-1437.132476051385
 10
195.2450749894693
 20
-1438.32910239491
 10
192.0473591499073
 20
-1440.07373313561
 10
189.3064948217785
 20
-1442.337786744609
 10
186.9167234552678
 20
-1445.448173424086
 10
184.8972047520567
 20
-1448.869196968626
 10
182.5743416868975
 20
-1452.179287243269
 10
179.4860289675571
 20
-1454.999314339057
 10
178.6882104332202
 20
-1455.449968800125
  0
LINE
  5
3F5
330
A
100
AcDbEntity
  8
0
  6
Continuous
 62
     7
100
AcDbLine
 10
222.3159074295982
 20
-1412.770228679372
 30
0.0
 11
250.1120970094181
 21
-1455.57260714171
 31
0.0
  0
LWPOLYLINE
  5
3F6
330
A
100
AcDbEntity
  8
0
  6
Continuous
 62
     7
100
AcDbPolyline
 90
       18
 70
   128
 43
0.0
 10
281.9247981514136
 20
-1380.892413527762
 10
282.7294732824885
 20
-1385.244488086561
 10
283.3594752525808
 20
-1392.272960406538
 10
283.3738841228469
 20
-1401.143649388772
 10
282.6794417830795
 20
-1409.814771933387
 10
281.4048239282634
 20
-1418.458000117801
 10
279.6685163331781
 20
-1427.297392413012
 10
278.4825499104764
 20
-1432.664382440554
 10
277.1815764720321
 20
-1438.18833666827
 10
275.5901169062741
 20
-1443.599137412995
 10
273.9624085675519
 20
-1447.501545789043
 10
271.8613590000278
 20
-1450.877280952012
 10
269.1574079076682
 20
-1453.525033410007
 10
266.0078073074288
 20
-1455.20805538231
 10
262.3722480255333
 20
-1456.165321654929
 10
258.4069579539323
 20
-1456.485834314565
 10
254.2681649845772
 20
-1456.258595447924
 10
250.1120970094182
 20
-1455.57260714171
  0
LWPOLYLINE
  5
40A
330
A
100
AcDbEntity
  8
0
  6
Continuous
 62
     7
100
AcDbPolyline
 90
        8
 70
   128
 43
0.0
 10
72.66499316042703
 20
-1390.346512558291
 10
69.2531981769003
 20
-1389.190832078214
 10
65.7706095675504
 20
-1387.601476642916
 10
62.43365851672535
 20
-1385.685912039205
 10
59.48160769275258
 20
-1383.426318368245
 10
57.15899828926124
 20
-1380.804160139875
 10
55.7065281675019
 20
-1377.80176555877
 10
55.63479938826207
 20
-1377.37280951838
  0
LWPOLYLINE
  5
414
330
A
100
AcDbEntity
  8
0
  6
Continuous
 62
     7
100
AcDbPolyline
 90
        7
 70
   128
 43
0.0
 10
149.5393540470528
 20
-1197.744022928239
 10
150.2798556273003
 20
-1199.607112443862
 10
151.5959478574547
 20
-1204.649223906588
 10
152.1803477248374
 20
-1209.818000503907
 10
151.8630628024199
 20
-1214.604978536766
 10
150.6871266876453
 20
-1219.257647181462
 10
147.6054714260052
 20
-1227.312747115092
  0
LINE
  5
41D
330
A
100
AcDbEntity
  8
0
  6
Continuous
 62
     7
100
AcDbLine
 10
144.2618002612161
 20
-1235.484658735802
 30
0.0
 11
143.3399792447759
 21
-1237.508205109502
 31
0.0
  0
LWPOLYLINE
  5
41E
330
A
100
AcDbEntity
  8
0
  6
Continuous
 62
     7
100
AcDbPolyline
 90
        7
 70
   128
 43
0.0
 10
134.2604750390884
 20
-1181.733516334523
 10
134.5737286509257
 20
-1181.618648780676
 10
136.2608082005157
 20
-1181.00001042249
 10
138.2517794640882
 20
-1180.269937447647
 10
139.7927612769195
 20
-1179.70487194945
 10
140.7100202701149
 20
-1179.368520538107
 10
140.8537975970686
 20
-1179.315840366763
  0
LWPOLYLINE
  5
427
330
A
100
AcDbEntity
  8
0
  6
Continuous
 62
     7
100
AcDbPolyline
 90
       16
 70
   128
 43
0.0
 10
3.186982981332533
 20
-1218.174192902887
 10
-0.2704379210383412
 20
-1218.23800400315
 10
-7.154709416727341
 20
-1218.782142245938
 10
-12.68236463899953
 20
-1219.470415382082
 10
-18.23975547836655
 20
-1220.147201726852
 10
-23.7739001574778
 20
-1220.397262247487
 10
-29.23181689898273
 20
-1219.805357911227
 10
-31.76391056072195
 20
-1219.090988564911
 10
-34.17600393208247
 20
-1218.043544306258
 10
-36.50170292044426
 20
-1216.611340868184
 10
-38.58952289142303
 20
-1214.852183017101
 10
-41.01227122518193
 20
-1211.761488439804
 10
-41.90789898642623
 20
-1209.822775341027
 10
-42.44380205077868
 20
-1207.755123326665
 10
-42.634777976038
 20
-1203.709762562723
 10
-42.61657073582446
 20
-1203.499509951677
  0
LWPOLYLINE
  5
439
330
A
100
AcDbEntity
  8
0
  6
Continuous
 62
     7
100
AcDbPolyline
 90
        9
 70
   128
 43
0.0
 10
-48.77650667227261
 20
-1175.13666032134
 10
-50.94663668844077
 20
-1173.163667652314
 10
-53.86950213115333
 20
-1171.007194252524
 10
-60.28101766452143
 20
-1166.925017554013
 10
-64.89783131709734
 20
-1163.845716984047
 10
-67.75145843830313
 20
-1161.5071296469
 10
-70.18523480340255
 20
-1158.757456213824
 10
-71.31063954571567
 20
-1156.84127789069
 10
-72.02075564570495
 20
-1154.923409771497
  0
LWPOLYLINE
  5
444
330
A
100
AcDbEntity
  8
0
  6
Continuous
 62
     7
100
AcDbPolyline
 90
        6
 70
   128
 43
0.0
 10
-57.88342656673813
 20
-1120.658109369093
 10
-57.48846432357468
 20
-1119.922488116925
 10
-54.79903852803103
 20
-1112.653599927747
 10
-53.67462292682273
 20
-1108.629869232375
 10
-52.45582524730333
 20
-1104.635991657261
 10
-52.31080070568157
 20
-1104.306532623379
  0
LINE
  5
44C
330
A
100
AcDbEntity
  8
0
  6
Continuous
 62
     7
100
AcDbLine
 10
-29.86170087619257
 20
-1092.333034749709
 30
0.0
 11
-28.08506765651608
 21
-1099.129399964736
 31
0.0
  0
LWPOLYLINE
  5
44D
330
A
100
AcDbEntity
  8
0
  6
Continuous
 62
     7
100
AcDbPolyline
 90
       37
 70
   128
 43
0.0
 10
-17.7384701953346
 20
-1091.196440124717
 10
-17.67898058624134
 20
-1091.195314458163
 10
-11.51754759842148
 20
-1091.467586574748
 10
-7.090820281419205
 20
-1091.560279238197
 10
-2.667800431545755
 20
-1091.290908853375
 10
1.672119978117087
 20
-1090.509350296156
 10
6.190539022032669
 20
-1088.999353198513
 10
10.39857703369202
 20
-1086.781080439465
 10
13.09003164938038
 20
-1084.724421548731
 10
15.38813150106292
 20
-1082.244574099302
 10
17.15806281907568
 20
-1079.364448422045
 10
18.42229532570378
 20
-1076.221216111145
 10
19.66714227647793
 20
-1070.77374754362
 10
20.2363736799452
 20
-1065.177313988333
 10
20.50452015575307
 20
-1059.555630690896
 10
20.84635042981197
 20
-1054.438595297472
 10
21.35411414194856
 20
-1051.287290122902
 10
22.32060435098595
 20
-1048.257881753566
 10
23.48265803685658
 20
-1046.176448321644
 10
25.01391106033374
 20
-1044.347337456123
 10
28.47693582667337
 20
-1041.616517810564
 10
33.16486863643957
 20
-1038.910537546131
 10
43.46942297800064
 20
-1033.641365981257
 10
54.06157398990969
 20
-1028.968348822669
 10
64.98390377464819
 20
-1025.221673705013
 10
72.31667044348738
 20
-1023.313950628253
 10
79.78069230975376
 20
-1022.116489004198
 10
82.42627597816001
 20
-1022.007080388036
 10
85.057778165898
 20
-1022.236019936519
 10
87.78081807844168
 20
-1023.066148468415
 10
89.85735643091761
 20
-1024.495971986206
 10
90.51712667559744
 20
-1025.196299467654
 10
92.10145269293757
 20
-1027.644936229285
 10
93.18825038808688
 20
-1030.370044208084
 10
94.09333792484865
 20
-1033.939299163116
 10
94.669374359003
 20
-1037.581469067558
 10
94.74267531774561
 20
-1038.524652298679
  0
LINE
  5
474
330
A
100
AcDbEntity
  8
0
  6
Continuous
 62
     7
100
AcDbLine
 10
96.7180408877725
 20
-1069.854932583904
 30
0.0
 11
96.71801895902433
 21
-1069.854975621496
 31
0.0
  0
LWPOLYLINE
  5
475
330
A
100
AcDbEntity
  8
0
  6
Continuous
 62
     7
100
AcDbPolyline
 90
        5
 70
   128
 43
0.0
 10
89.7446334284611
 20
-1070.768152091075
 10
92.14381107722893
 20
-1070.453974388096
 10
94.34938241221246
 20
-1070.165149237485
 10
95.9305682476187
 20
-1069.958088577589
 10
96.71801895902435
 20
-1069.854975621496
  0
LWPOLYLINE
  5
47C
330
A
100
AcDbEntity
  8
0
  6
Continuous
 62
     7
100
AcDbPolyline
 90
       11
 70
   128
 43
0.0
 10
151.3576069990609
 20
-1092.209185991642
 10
151.482204400561
 20
-1092.187812579785
 10
155.8451776129338
 20
-1091.705428775449
 10
160.2350010242511
 20
-1091.565787218481
 10
164.5880766844849
 20
-1091.943055335053
 10
168.47138263945
 20
-1092.936669628155
 10
172.0794621370103
 20
-1094.665478414081
 10
174.9263752281751
 20
-1096.776100153277
 10
177.4575119102567
 20
-1099.265294669466
 10
180.7155380694147
 20
-1103.393194722318
 10
181.0779679899529
 20
-1103.959802664518
  0
LWPOLYLINE
  5
489
330
A
100
AcDbEntity
  8
0
  6
Continuous
 62
     7
100
AcDbPolyline
 90
       30
 70
   128
 43
0.0
 10
-46.81162083052438
 20
-1204.594546985653
 10
-48.6506221435241
 20
-1201.696051545109
 10
-50.25269963628641
 20
-1198.244883874861
 10
-53.11111167046098
 20
-1191.346300452768
 10
-56.06895457079637
 20
-1185.009240597331
 10
-59.62590653267885
 20
-1179.090061077754
 10
-64.02451878481693
 20
-1173.560974064181
 10
-69.2005499693781
 20
-1168.554019593052
 10
-74.94394240221876
 20
-1164.067699483886
 10
-78.39790045673727
 20
-1161.426452842001
 10
-81.66108238499154
 20
-1158.66413366485
 10
-84.57253703685669
 20
-1155.650666095453
 10
-86.97131326220777
 20
-1152.255974276832
 10
-88.70389602271265
 20
-1148.37516644071
 10
-89.68647803958667
 20
-1144.139432046321
 10
-89.87337325706842
 20
-1139.809066769818
 10
-89.22157647841913
 20
-1135.642404912462
 10
-87.78491054516207
 20
-1131.759453893299
 10
-85.74762283605958
 20
-1128.093898864356
 10
-83.11808627516311
 20
-1124.317488957006
 10
-80.25906090893808
 20
-1120.601698292441
 10
-77.40847801919514
 20
-1116.848798001342
 10
-74.77323736965158
 20
-1112.982357020474
 10
-72.21125937716877
 20
-1109.16545865498
 10
-69.36077858308781
 20
-1105.711962822406
 10
-65.89113599951591
 20
-1102.915894465288
 10
-61.09056408459121
 20
-1100.574365386825
 10
-55.79505099440996
 20
-1099.144811215057
 10
-50.33903596973667
 20
-1098.541917146226
 10
-48.51495380595345
 20
-1098.583396473429
  0
LWPOLYLINE
  5
4A9
330
A
100
AcDbEntity
  8
0
  6
Continuous
 62
     7
100
AcDbPolyline
 90
       21
 70
   128
 43
0.0
 10
119.8878931886435
 20
-1024.381537048202
 10
120.5017056049642
 20
-1026.453973705204
 10
121.6467983691446
 20
-1031.926438729535
 10
122.2028539591694
 20
-1037.279675367019
 10
122.363050082031
 20
-1042.552672711338
 10
122.3208547361998
 20
-1047.785176487726
 10
122.2697359201462
 20
-1053.01693242142
 10
122.4031616323406
 20
-1058.287686237654
 10
122.9275304748319
 20
-1063.60665917765
 10
124.1176285418158
 20
-1068.821634317884
 10
125.4276959960034
 20
-1072.13908318484
 10
127.252466821746
 20
-1075.257695772419
 10
129.6046606638038
 20
-1078.091734181164
 10
132.3880910376111
 20
-1080.519524320878
 10
135.4978434990616
 20
-1082.416512101673
 10
138.8290036040488
 20
-1083.65814343366
 10
142.7175631673244
 20
-1084.172552806555
 10
146.6900158154463
 20
-1084.210995534684
 10
150.7180696146861
 20
-1084.567608821304
 10
154.7044410786691
 20
-1085.832152543189
 10
155.4936285574512
 20
-1086.297756431001
  0
LINE
  5
4C0
330
A
100
AcDbEntity
  8
0
  6
Continuous
 62
     7
100
AcDbLine
 10
96.71804088777262
 20
-1069.854932583904
 30
0.0
 11
119.8878931886437
 21
-1024.381537048202
 31
0.0
  0
LWPOLYLINE
  5
4C1
330
A
100
AcDbEntity
  8
0
  6
Continuous
 62
     7
100
AcDbPolyline
 90
       18
 70
   128
 43
0.0
 10
39.30659778842688
 20
-1034.171026503205
 10
42.67326734997293
 20
-1031.298120118501
 10
48.44510194382252
 20
-1027.238286247979
 10
56.12013951637553
 20
-1022.790463309171
 10
63.97677308922311
 20
-1019.056306744566
 10
72.09933719504005
 20
-1015.838544094747
 10
80.62262927425123
 20
-1012.922534433269
 10
85.86356219131161
 20
-1011.266116469593
 10
91.29793360107838
 20
-1009.630815403077
 10
96.77955428370474
 20
-1008.303659443757
 10
100.9729932426651
 20
-1007.762092027018
 10
104.9469904340062
 20
-1007.89378674562
 10
108.591986871742
 20
-1008.911600853197
 10
111.6243269550041
 20
-1010.797723998627
 10
114.2711235062255
 20
-1013.467577557404
 10
116.5313406475059
 20
-1016.741363162966
 10
118.4039425009453
 20
-1020.439282448752
 10
119.8878931886436
 20
-1024.381537048202
  0
LWPOLYLINE
  5
4D5
330
A
100
AcDbEntity
  8
0
  6
Continuous
 62
     7
100
AcDbPolyline
 90
        8
 70
   128
 43
0.0
 10
152.1239902142492
 20
-1210.668284101112
 10
152.8290390516094
 20
-1214.20082546939
 10
153.1939111736725
 20
-1218.011513393667
 10
153.2034590896819
 20
-1221.859180076722
 10
152.7226189803864
 20
-1225.545527919025
 10
151.6130680436208
 20
-1228.868045779702
 10
149.7391531250789
 20
-1231.627119093936
 10
149.4035306866139
 20
-1231.903716059136
  0
LWPOLYLINE
  5
4DF
330
A
100
AcDbEntity
  8
0
  6
Continuous
 62
     7
100
AcDbPolyline
 90
        7
 70
   128
 43
0.0
 10
-53.48318992677871
 20
-1241.867337824164
 10
-52.23995786684851
 20
-1240.294499886316
 10
-48.53140736649191
 20
-1236.633674849916
 10
-44.34731546041817
 20
-1233.543181420134
 10
-40.04302841539615
 20
-1231.424469206756
 10
-35.42573111631081
 20
-1230.116525433031
 10
-26.90898231294475
 20
-1228.757767208502
  0
LWPOLYLINE
  5
4E8
330
A
100
AcDbEntity
  8
0
  6
Continuous
 62
     7
100
AcDbPolyline
 90
        3
 70
   128
 43
0.0
 10
-18.16006366953424
 20
-1227.567515568756
 10
-7.303642053873016
 20
-1226.52053699062
 10
-4.658106598172145
 20
-1226.537102048729
  0
LWPOLYLINE
  5
4ED
330
A
100
AcDbEntity
  8
0
  6
Continuous
 62
     7
100
AcDbPolyline
 90
        7
 70
   128
 43
0.0
 10
-59.70925586041204
 20
-1263.104488483268
 10
-59.96536088603299
 20
-1262.890636674513
 10
-61.34465719477322
 20
-1261.738902105456
 10
-62.97240456938983
 20
-1260.379706900419
 10
-64.2322565520461
 20
-1259.327710252836
 10
-64.98217491546554
 20
-1258.70151636855
 10
-65.09968594560233
 20
-1258.603341636592
  0
LWPOLYLINE
  5
4F6
330
A
100
AcDbEntity
  8
0
  6
Continuous
 62
     7
100
AcDbPolyline
 90
       13
 70
   128
 43
0.0
 10
48.07540006276951
 20
-1373.662631456997
 10
49.80808680105572
 20
-1375.966719498202
 10
52.79171790396499
 20
-1380.634399118213
 10
55.00807208290625
 20
-1385.657045836226
 10
55.65545691218145
 20
-1388.207087945212
 10
55.95439026081941
 20
-1390.819744210437
 10
55.87691519424093
 20
-1393.549960334951
 10
55.39734979142547
 20
-1396.237644393889
 10
53.93210393902732
 20
-1399.881153286549
 10
52.70094302545887
 20
-1401.62614622951
 10
51.1782553870115
 20
-1403.124077904386
 10
47.7703581605941
 20
-1405.312148289143
 10
47.57917043811
 20
-1405.401506662108
  0
LWPOLYLINE
  5
505
330
A
100
AcDbEntity
  8
0
  6
Continuous
 62
     7
100
AcDbPolyline
 90
        9
 70
   128
 43
0.0
 10
26.09619010274417
 20
-1424.917592483925
 10
25.47259333797154
 20
-1427.783476541955
 10
25.06646531252414
 20
-1431.392988967083
 10
24.73695435556111
 20
-1438.986612644993
 10
24.37860866237067
 20
-1444.524540837646
 10
23.78014618003541
 20
-1448.165148086112
 10
22.61574731743019
 20
-1451.647696961956
 10
21.51899058257181
 20
-1453.580415219906
 10
20.21312612023701
 20
-1455.15432786173
  0
LWPOLYLINE
  5
510
330
A
100
AcDbEntity
  8
0
  6
Continuous
 62
     7
100
AcDbPolyline
 90
        6
 70
   128
 43
0.0
 10
-16.5301590360334
 20
-1460.043691938886
 10
-17.36470684955705
 20
-1460.069455228855
 10
-25.00446157642547
 20
-1461.37478826291
 10
-29.0513223772086
 20
-1462.412881135538
 10
-33.11952065662217
 20
-1463.354310170558
 10
-33.47735282028141
 20
-1463.393444750282
  0
LINE
  5
518
330
A
100
AcDbEntity
  8
0
  6
Continuous
 62
     7
100
AcDbLine
 10
-55.07125606578327
 20
-1449.938702942687
 30
0.0
 11
-50.07374774601125
 21
-1445.001910833726
 31
0.0
  0
LWPOLYLINE
  5
519
330
A
100
AcDbEntity
  8
0
  6
Continuous
 62
     7
100
AcDbPolyline
 90
       37
 70
   128
 43
0.0
 10
-62.11719122525952
 20
-1440.007974509621
 10
-62.14791088563842
 20
-1439.957017830162
 10
-64.99283280984363
 20
-1434.484924280702
 10
-67.12592226705364
 20
-1430.604919636827
 10
-69.57071378827381
 20
-1426.909157277805
 10
-72.41752355820132
 20
-1423.541455231244
 10
-75.98442892635907
 20
-1420.383388103091
 10
-80.00952849404741
 20
-1417.848256664427
 10
-83.13637464818629
 20
-1416.545718039475
 10
-86.43303546274273
 20
-1415.7954289122
 10
-89.81226312434529
 20
-1415.702686266475
 10
-93.16649840889535
 20
-1416.179444954895
 10
-98.50656805007613
 20
-1417.825110155464
 10
-103.63783738128
 20
-1420.130358077073
 10
-108.6404311667951
 20
-1422.708978065806
 10
-113.2428289465938
 20
-1424.971462061401
 10
-116.2258211389168
 20
-1426.107378374856
 10
-119.3326108497181
 20
-1426.785077485989
 10
-121.7162119209836
 20
-1426.819426189424
 10
-124.0658949086017
 20
-1426.407877604232
 10
-128.1623664779791
 20
-1424.774220005426
 10
-132.8497805340006
 20
-1422.067341233151
 10
-142.565294136861
 20
-1415.777921181119
 10
-151.9083212144727
 20
-1408.941357903378
 10
-160.6142019384592
 20
-1401.355680400111
 10
-165.9327219207392
 20
-1395.959179723253
 10
-170.7017650403613
 20
-1390.093877984692
 10
-172.1193075155534
 20
-1387.857439628095
 10
-173.236791144505
 20
-1385.464022109158
 10
-173.8793987037487
 20
-1382.690736103429
 10
-173.6794043906516
 20
-1380.177489379357
 10
-173.4027881230888
 20
-1379.255947846079
 10
-172.0743694915461
 20
-1376.65956288637
 10
-170.257755601425
 20
-1374.355814484197
 10
-167.6192339061645
 20
-1371.787358207196
 10
-164.753040461096
 20
-1369.467411069492
 10
-163.9728703018933
 20
-1368.932338961539
  0
LINE
  5
540
330
A
100
AcDbEntity
  8
0
  6
Continuous
 62
     7
100
AcDbLine
 10
-137.8277344522147
 20
-1351.556482053522
 30
0.0
 11
-137.8276862161931
 21
-1351.556479525579
 31
0.0
  0
LWPOLYLINE
  5
541
330
A
100
AcDbEntity
  8
0
  6
Continuous
 62
     7
100
AcDbPolyline
 90
        5
 70
   128
 43
0.0
 10
-133.550159430118
 20
-1357.13902031064
 10
-135.0218341265845
 20
-1355.218360370105
 10
-136.3747497117566
 20
-1353.452692139456
 10
-137.3446624210546
 20
-1352.186875367838
 10
-137.8276862161931
 20
-1351.556479525579
  0
LWPOLYLINE
  5
548
330
A
100
AcDbEntity
  8
0
  6
Continuous
 62
     7
100
AcDbPolyline
 90
       11
 70
   128
 43
0.0
 10
-145.7881661741235
 20
-1293.060103045518
 10
-145.8689747925071
 20
-1292.962885236502
 10
-148.4682180276232
 20
-1289.425631500724
 10
-150.7840628690394
 20
-1285.693753686879
 10
-152.6338769261672
 20
-1281.735245522235
 10
-153.7150346842601
 20
-1277.875396768017
 10
-154.0218821061425
 20
-1273.886303871293
 10
-153.6174866078018
 20
-1270.36549394238
 10
-152.727349262862
 20
-1266.928868017152
 10
-150.7814960323885
 20
-1262.043384570701
 10
-150.4720141207258
 20
-1261.446207081323
  0
LWPOLYLINE
  5
555
330
A
100
AcDbEntity
  8
0
  6
Continuous
 62
     7
100
AcDbPolyline
 90
       30
 70
   128
 43
0.0
 10
50.62502537496848
 20
-1408.487008097277
 10
49.03435534720387
 20
-1411.5288776722
 10
46.8465952184304
 20
-1414.641901314888
 10
42.30145274185921
 20
-1420.566650462012
 10
38.29231937191586
 20
-1426.296747481825
 10
34.94463551934293
 20
-1432.336748000644
 10
32.35561183192343
 20
-1438.91060145918
 10
30.60747765661405
 20
-1445.896653191355
 10
29.5939066889884
 20
-1453.113736996681
 10
29.03349902671422
 20
-1457.425575736443
 10
28.27285141006754
 20
-1461.632733772057
 10
27.1188392674223
 20
-1465.660861247237
 10
25.3783380271525
 20
-1469.435608305696
 10
22.88375123411787
 20
-1472.876472908512
 10
19.70678865333039
 20
-1475.845281093622
 10
16.05002992495389
 20
-1478.172319738058
 10
12.11569651817883
 20
-1479.691178098321
 10
8.034629327304573
 20
-1480.38846441295
 10
3.841521698718805
 20
-1480.456899016522
 10
-0.7437134965977144
 20
-1480.06785850828
 10
-5.391195290368688
 20
-1479.449765243348
 10
-10.06659372520152
 20
-1478.857538190786
 10
-14.73265016163827
 20
-1478.50857333363
 10
-19.31917010606081
 20
-1478.19828449095
 10
-23.73522562597445
 20
-1477.456443626564
 10
-27.89151314574212
 20
-1475.849679185697
 10
-32.3196227688537
 20
-1472.86302649391
 10
-36.20540954278086
 20
-1468.991754717624
 10
-39.45553863451642
 20
-1464.568154137243
 10
-40.33165756531764
 20
-1462.967712981217
  0
LWPOLYLINE
  5
575
330
A
100
AcDbEntity
  8
0
  6
Continuous
 62
     7
100
AcDbPolyline
 90
       21
 70
   128
 43
0.0
 10
-188.7937763329055
 20
-1354.227499126884
 10
-187.3058997483683
 20
-1352.659703652691
 10
-183.1391523980663
 20
-1348.931791717056
 10
-178.7811412725475
 20
-1345.773615131436
 10
-174.2946896797104
 20
-1342.998382547291
 10
-169.7421108110445
 20
-1340.418672900508
 10
-165.1857178580392
 20
-1337.847065126975
 10
-160.6878240121841
 20
-1335.096138162579
 10
-156.3436427453507
 20
-1331.982534954031
 10
-152.4223908272962
 20
-1328.344392224911
 10
-150.2044295598502
 20
-1325.551116095435
 10
-148.4160172473162
 20
-1322.411511910468
 10
-147.1377649110708
 20
-1318.957433084248
 10
-146.4269521619245
 20
-1315.333016601009
 10
-146.3389887838129
 20
-1311.691398079514
 10
-146.9292845606714
 20
-1308.185713138528
 10
-148.4280727574364
 20
-1304.560917086155
 10
-150.3810067023471
 20
-1301.101450813486
 10
-152.0861974364277
 20
-1297.434747252224
 10
-152.9842561810704
 20
-1293.350176434551
 10
-152.9756251255154
 20
-1292.433918085671
  0
LINE
  5
58C
330
A
100
AcDbEntity
  8
0
  6
Continuous
 62
     7
100
AcDbLine
 10
-137.827734452215
 20
-1351.556482053522
 30
0.0
 11
-188.7937763329055
 21
-1354.227499126884
 31
0.0
  0
LWPOLYLINE
  5
58D
330
A
100
AcDbEntity
  8
0
  6
Continuous
 62
     7
100
AcDbPolyline
 90
       18
 70
   128
 43
0.0
 10
-140.0251820746847
 20
-1419.118203285828
 10
-144.1965267673056
 20
-1417.639035111734
 10
-150.5983633312474
 20
-1414.670396662279
 10
-158.2878097740665
 20
-1410.247530618852
 10
-165.4500010071466
 20
-1405.310564638843
 10
-172.2979472581473
 20
-1399.885099104247
 10
-179.0849317422732
 20
-1393.961716470515
 10
-183.1398982366318
 20
-1390.251144406648
 10
-187.2732962079543
 20
-1386.362491245449
 10
-191.1634573248225
 20
-1382.278846460044
 10
-193.7291879450607
 20
-1378.918005500735
 10
-195.6021355688778
 20
-1375.410575619164
 10
-196.5431809142538
 20
-1371.745009053593
 10
-196.4259203972767
 20
-1368.175863935859
 10
-195.4371576666024
 20
-1364.548744104464
 10
-193.7320847362819
 20
-1360.954445839265
 10
-191.4658936203661
 20
-1357.483765420119
 10
-188.7937763329055
 20
-1354.227499126884
  0
LWPOLYLINE
  5
5A1
330
A
100
AcDbEntity
  8
0
  6
Continuous
 62
     7
100
AcDbPolyline
 90
        8
 70
   128
 43
0.0
 10
-43.58276950952544
 20
-1233.166846657396
 10
-40.87602336335474
 20
-1230.789985769192
 10
-37.75830687606796
 20
-1228.568653280215
 10
-34.43090374125232
 20
-1226.63655120087
 10
-30.99801280798405
 20
-1225.209797029527
 10
-27.56585246772721
 20
-1224.50943739722
 10
-24.23946742742599
 20
-1224.752758664091
 10
-23.83211620972114
 20
-1224.905117739282
  0
LWPOLYLINE
  5
5AB
330
A
100
AcDbEntity
  8
0
  6
PHANTOM
 62
     7
100
AcDbPolyline
 90
        9
 70
   128
 43
0.0
 10
176.2436141628687
 20
-1225.280626703013
 10
179.4131175698822
 20
-1227.495759268575
 10
183.5351130801086
 20
-1230.251047235636
 10
187.9259967004094
 20
-1232.568317068839
 10
192.5741963259954
 20
-1234.201543262803
 10
196.0901508735605
 20
-1234.834519561131
 10
199.6561141243564
 20
-1234.912261056537
 10
203.2169858879783
 20
-1234.341380857469
 10
203.8865304346829
 20
-1234.127390511533
  0
LWPOLYLINE
  5
5B6
330
A
100
AcDbEntity
  8
0
  6
PHANTOM
 62
     7
100
AcDbPolyline
 90
       11
 70
   128
 43
0.0
 10
233.0138433906224
 20
-1224.10390568357
 10
233.1864141217629
 20
-1224.133348749302
 10
235.4833188344667
 20
-1224.97389186997
 10
237.6302630825919
 20
-1226.1554359697
 10
240.4157472571647
 20
-1228.296943472688
 10
242.837956811786
 20
-1230.847573077743
 10
245.5622441425077
 20
-1234.744999643228
 10
247.8354714354204
 20
-1238.948957035745
 10
249.8962471592186
 20
-1243.292154913065
 10
251.9831797825967
 20
-1247.607302932961
 10
255.6197994679263
 20
-1253.479842008818
  0
LWPOLYLINE
  5
5C3
330
A
100
AcDbEntity
  8
0
  6
PHANTOM
 62
     7
100
AcDbPolyline
 90
       43
 70
   128
 43
0.0
 10
259.365029267662
 20
-1290.050332518348
 10
261.4936821926888
 20
-1281.503363272874
 10
262.3934668612944
 20
-1278.286313557478
 10
263.0605525942896
 20
-1275.024343628748
 10
263.0790689448769
 20
-1273.522634957714
 10
262.6035169197511
 20
-1272.4260470411
 10
261.3885376645816
 20
-1270.791754965998
 10
258.6436303584692
 20
-1267.866844058512
 10
255.8294808834631
 20
-1265.003824138014
 10
252.0223372433197
 20
-1260.592964692432
 10
248.6087625761236
 20
-1255.859387724512
 10
245.6858318005998
 20
-1250.827114507757
 10
243.7852453793149
 20
-1246.843137734731
 10
241.9252356163148
 20
-1242.824868899432
 10
239.8675605188428
 20
-1238.936230538802
 10
237.3739780941415
 20
-1235.341145189785
 10
235.7204323764399
 20
-1233.591237198273
 10
233.8180708492231
 20
-1232.12186152504
 10
231.3555931874613
 20
-1230.980822357031
 10
229.4351776781419
 20
-1230.840813809398
 10
226.9570312643079
 20
-1231.378454749807
 10
224.5805335225167
 20
-1232.308345013507
 10
220.067042255943
 20
-1234.543489392817
 10
213.0807165459469
 20
-1238.176306595115
 10
208.9136219167851
 20
-1239.963955196487
 10
204.5718783602886
 20
-1241.296635295788
 10
200.1150887496224
 20
-1241.978902074062
 10
195.4419918000673
 20
-1241.881354979156
 10
190.8354829258336
 20
-1241.059816255923
 10
185.3393564416816
 20
-1239.153257237327
 10
180.1368845292911
 20
-1236.459299687468
 10
175.2584025626802
 20
-1233.232398637823
 10
172.7199941025716
 20
-1231.405850799475
 10
169.9848707462196
 20
-1229.945895313027
 10
168.3014317256488
 20
-1229.635560496573
 10
166.2802418850799
 20
-1229.934364525166
 10
163.2304216948
 20
-1231.307065989103
 10
160.6882205950999
 20
-1233.471624260359
 10
157.7968413687432
 20
-1237.475937147079
 10
155.5695718246432
 20
-1241.940044274066
 10
153.6668509409065
 20
-1246.616081749634
 10
151.7491176956394
 20
-1251.256185682093
 10
150.733537928376
 20
-1253.379797511181
  0
LINE
  5
5F0
330
A
100
AcDbEntity
  8
0
  6
PHANTOM
 62
     7
100
AcDbLine
 10
60.50972475209441
 20
-1378.111128993206
 30
0.0
 11
58.0609778867001
 21
-1375.094134778868
 31
0.0
  0
LWPOLYLINE
  5
5F1
330
A
100
AcDbEntity
  8
0
  6
PHANTOM
 62
     7
100
AcDbPolyline
 90
       10
 70
   128
 43
0.0
 10
67.33586371880218
 20
-1375.265716835886
 10
71.33022372652281
 20
-1380.187584249893
 10
73.84031095839896
 20
-1382.631674472694
 10
76.74875869151097
 20
-1384.582006904975
 10
80.59041652529028
 20
-1386.244024139108
 10
84.63834693828394
 20
-1387.345438312865
 10
90.57721244396388
 20
-1388.20435695498
 10
96.57966826319922
 20
-1388.544336367723
 10
101.6350462192131
 20
-1388.772541630856
 10
106.6549946864788
 20
-1389.343638499008
  0
LWPOLYLINE
  5
5FD
330
A
100
AcDbEntity
  8
0
  6
PHANTOM
 62
     7
100
AcDbPolyline
 90
        6
 70
   128
 43
0.0
 10
250.4364088493038
 20
-1426.724652056581
 10
241.5677584560161
 20
-1422.483858435236
 10
232.0359363453745
 20
-1417.420108714107
 10
222.3159466868353
 20
-1412.770245134936
 10
222.3159074295982
 20
-1412.770228679372
 10
222.3159074295982
 20
-1412.770228679372
  0
LWPOLYLINE
  5
605
330
A
100
AcDbEntity
  8
0
  6
PHANTOM
 62
     7
100
AcDbPolyline
 90
       39
 70
   128
 43
0.0
 10
225.0117398668127
 20
-1406.274470915083
 10
234.7497799182615
 20
-1410.899075619001
 10
244.2950242919165
 20
-1415.948631749986
 10
254.0257655399968
 20
-1420.590754159123
 10
256.8595805370958
 20
-1421.688924276167
 10
259.7764929708544
 20
-1422.522812324976
 10
261.2970957025957
 20
-1422.785920672063
 10
262.8226602811928
 20
-1422.750810279585
 10
263.0308527577139
 20
-1422.702566236305
 10
263.2774350726168
 20
-1422.587904058737
 10
263.9336535914662
 20
-1421.946854556436
 10
264.9106635610075
 20
-1420.519705956546
 10
265.7002185591615
 20
-1418.973689232529
 10
268.1373310059279
 20
-1412.538349207562
 10
269.9547757429061
 20
-1405.883299682549
 10
272.0650128247945
 20
-1395.045005588805
 10
273.2433983773694
 20
-1384.036500189155
 10
273.7979038500199
 20
-1372.981884073599
 10
273.8056915764769
 20
-1368.181756031466
 10
273.3975328917662
 20
-1365.239089865264
 10
272.5164015446994
 20
-1363.36040559146
 10
271.0722083979118
 20
-1361.813589359398
 10
269.4046397260387
 20
-1360.491080658694
 10
265.532497433128
 20
-1357.903332174373
 10
260.2815739402286
 20
-1354.498911851213
 10
255.2359649207754
 20
-1350.80069014587
 10
250.6965522689175
 20
-1346.551788705304
 10
247.8763786969055
 20
-1342.928088971802
 10
245.7079285242714
 20
-1338.889050110128
 10
244.3361297719313
 20
-1334.497052534134
 10
243.730477533372
 20
-1329.929421612441
 10
243.9473325241729
 20
-1324.0157985651
 10
245.1203706289775
 20
-1318.208346338825
 10
246.8401412978647
 20
-1313.386753180279
 10
249.1118399252818
 20
-1308.773491233681
 10
251.7617006989694
 20
-1304.372318608616
 10
254.7218328243601
 20
-1299.801462014762
 10
257.4127588401602
 20
-1295.072368871639
 10
259.365029267662
 20
-1290.050332518348
  0
LWPOLYLINE
  5
62E
330
A
100
AcDbEntity
  8
0
  6
PHANTOM
 62
     7
100
AcDbPolyline
 90
       43
 70
   128
 43
0.0
 10
106.6549946864788
 20
-1389.343638499008
 10
111.5076548902617
 20
-1390.623840586816
 10
114.3288450835934
 20
-1391.927705818872
 10
116.8950222759221
 20
-1393.674058512702
 10
119.1099921992908
 20
-1395.859327952567
 10
120.9399166554305
 20
-1398.380176344034
 10
122.9152556855192
 20
-1402.390653157999
 10
124.25858045484
 20
-1406.666340521046
 10
125.6110618915197
 20
-1414.259265250104
 10
126.2000955072797
 20
-1421.978366632764
 10
126.408366283886
 20
-1429.752473815124
 10
126.6185592031049
 20
-1437.510415943284
 10
127.1967786792818
 20
-1445.84271498046
 10
128.2904979266354
 20
-1452.377549528821
 10
128.9729330258467
 20
-1454.678019673753
 10
129.9325504942477
 20
-1456.870914729476
 10
131.4675580027992
 20
-1458.937646382992
 10
133.6746093461625
 20
-1460.300644598258
 10
136.6998268657376
 20
-1461.230596128686
 10
139.8455771016377
 20
-1461.692115540998
 10
145.9069419722099
 20
-1461.903277307447
 10
150.4695877686409
 20
-1461.701801293935
 10
154.9813129447391
 20
-1461.053376108769
 10
157.4518028128281
 20
-1460.379782488336
 10
159.7999716572997
 20
-1459.373016111752
 10
161.9375349082553
 20
-1457.894370710838
 10
163.7511605526085
 20
-1456.022699041543
 10
165.8423041410501
 20
-1453.005286297722
 10
167.5603048111425
 20
-1449.73716026051
 10
169.0307075810381
 20
-1446.351355583058
 10
171.6335225042272
 20
-1439.343251907972
 10
174.1047201400144
 20
-1432.28357104222
 10
176.9131209013921
 20
-1425.364863132815
 10
180.285425712031
 20
-1419.023992301592
 10
184.4922560084875
 20
-1413.220101308266
 10
188.1514702331697
 20
-1409.542392649789
 10
192.3425055977175
 20
-1406.496848630619
 10
197.0550174787551
 20
-1404.260844925845
 10
202.094661028311
 20
-1402.89790451618
 10
206.9261005936807
 20
-1402.405224214194
 10
211.7801783403081
 20
-1402.617137110894
 10
218.5158607687322
 20
-1403.983203065956
 10
225.0117398668128
 20
-1406.274470915084
  0
LWPOLYLINE
  5
65B
330
A
100
AcDbEntity
  8
0
  6
PHANTOM
 62
     7
100
AcDbPolyline
 90
       15
 70
   128
 43
0.0
 10
222.3158811223246
 20
-1412.770188169724
 10
222.315841862889
 20
-1412.770171719624
 10
216.755210420416
 20
-1410.767619341649
 10
210.9865128639281
 20
-1409.554566677335
 10
207.1489291103564
 20
-1409.367242066062
 10
203.3269677726172
 20
-1409.742011827055
 10
199.4928871488104
 20
-1410.767546575216
 10
195.910393205401
 20
-1412.464403035726
 10
192.6365730880912
 20
-1414.871972371103
 10
189.7853744477622
 20
-1417.777502290016
 10
186.1837633148598
 20
-1422.817120897818
 10
183.3025990179984
 20
-1428.315907478711
 10
180.5594414912394
 20
-1435.147455945358
 10
178.146259474266
 20
-1442.11602337485
 10
175.6367730402185
 20
-1448.912354279639
  0
LWPOLYLINE
  5
66C
330
A
100
AcDbEntity
  8
0
  6
PHANTOM
 62
     7
100
AcDbPolyline
 90
        3
 70
   128
 43
0.0
 10
147.6054714260052
 20
-1227.312747115092
 10
145.6184607801916
 20
-1232.506569253619
 10
144.2618002612161
 20
-1235.484658735802
  0
LWPOLYLINE
  5
671
330
A
100
AcDbEntity
  8
0
  6
PHANTOM
 62
     7
100
AcDbPolyline
 90
       11
 70
   128
 43
0.0
 10
138.6591369629726
 20
-1230.668578589103
 10
139.0813761228092
 20
-1229.741133023354
 10
143.9934849409043
 20
-1216.90369249327
 10
144.855085547053
 20
-1213.507848073349
 10
145.0898991126766
 20
-1210.013892234755
 10
144.6084193420738
 20
-1205.855910340988
 10
143.5383067901391
 20
-1201.799592683705
 10
141.3127194011549
 20
-1196.22692496507
 10
138.6059222997362
 20
-1190.858656034147
 10
136.2758648768799
 20
-1186.36646766694
 10
134.2604750390884
 20
-1181.733516334523
  0
LWPOLYLINE
  5
67E
330
A
100
AcDbEntity
  8
0
  6
PHANTOM
 62
     7
100
AcDbPolyline
 90
        9
 70
   128
 43
0.0
 10
-42.61657073582446
 20
-1203.499509951677
 10
-42.28296136480381
 20
-1199.647073201041
 10
-41.95780974570114
 20
-1194.699676391369
 10
-42.14643701287439
 20
-1189.738424714526
 10
-43.05612145156839
 20
-1184.896352659926
 10
-44.26592517100501
 20
-1181.534958554018
 10
-45.98158068645324
 20
-1178.407873042164
 10
-48.25641332317419
 20
-1175.609507734783
 10
-48.77650667227261
 20
-1175.13666032134
  0
LWPOLYLINE
  5
689
330
A
100
AcDbEntity
  8
0
  6
PHANTOM
 62
     7
100
AcDbPolyline
 90
       11
 70
   128
 43
0.0
 10
-72.02075564570495
 20
-1154.923409771497
 10
-72.0815425683866
 20
-1154.759237601514
 10
-72.50206322926366
 20
-1152.349788209907
 10
-72.55228814726816
 20
-1149.899707900656
 10
-72.09043033457248
 20
-1146.416654092143
 10
-71.09262507826031
 20
-1143.043644282024
 10
-69.07949832852733
 20
-1138.735628963668
 10
-66.57537807663658
 20
-1134.664977683171
 10
-63.84444624311322
 20
-1130.7086946162
 10
-61.1508847484824
 20
-1126.74378393842
 10
-57.88342656673813
 20
-1120.658109369093
  0
LWPOLYLINE
  5
696
330
A
100
AcDbEntity
  8
0
  6
PHANTOM
 62
     7
100
AcDbPolyline
 90
       45
 70
   128
 43
0.0
 10
-28.08506765649567
 20
-1099.129399964748
 10
-36.55128661095356
 20
-1101.559417078571
 10
-39.78722572402647
 20
-1102.38870555532
 10
-42.94571741518503
 20
-1103.441977328409
 10
-44.25549344867784
 20
-1104.176796033933
 10
-44.96739042938616
 20
-1105.13693012682
 10
-45.77523925604263
 20
-1107.006279064418
 10
-46.93583275267621
 20
-1110.845893976289
 10
-48.00820599786484
 20
-1114.714528871939
 10
-49.92455051018958
 20
-1120.21704170295
 10
-52.3171610815792
 20
-1125.540072566417
 10
-55.21377213831191
 20
-1130.587541479902
 10
-57.71370402119634
 20
-1134.225485989335
 10
-60.26362203030108
 20
-1137.84543611303
 10
-62.6024440880013
 20
-1141.571754200491
 10
-64.46908811667229
 20
-1145.52880260122
 10
-65.15778003275707
 20
-1147.835769194826
 10
-65.47911592987121
 20
-1150.217950441194
 10
-65.23604600519909
 20
-1152.921038236536
 10
-64.39708920953683
 20
-1154.654171127244
 10
-62.69240529011111
 20
-1156.531488405718
 10
-60.69884782811932
 20
-1158.124650690295
 10
-56.50641038122333
 20
-1160.915876597252
 10
-49.86713554173051
 20
-1165.149803540072
 10
-46.23543912532214
 20
-1167.864789048214
 10
-42.910432525961
 20
-1170.958509215207
 10
-40.09117735848443
 20
-1174.477068848229
 10
-37.83910714596085
 20
-1178.572863068344
 10
-36.2473261133564
 20
-1182.972986137806
 10
-35.15039141519874
 20
-1188.686050804792
 10
-34.88219113389883
 20
-1194.538502418327
 10
-35.23752843508464
 20
-1200.376842258138
 10
-35.55016103426713
 20
-1203.488442388948
 10
-35.44695789574944
 20
-1206.587106441257
 10
-34.8739962201919
 20
-1208.20017480702
 10
-33.60462942039265
 20
-1209.801174540527
 10
-30.89092498567135
 20
-1211.756045570316
 10
-27.74526198494202
 20
-1212.875377168557
 10
-22.8317356871628
 20
-1213.377228587197
 10
-17.85207073792651
 20
-1213.074047029969
 10
-12.85114305316893
 20
-1212.383832913813
 10
-7.873828548825956
 20
-1211.724586655667
 10
-0.3635036884597487
 20
-1211.14124385088
 10
7.195803809556998
 20
-1211.032410942922
 10
11.39003763539532
 20
-1211.339189564789
  0
LWPOLYLINE
  5
6C5
330
A
100
AcDbEntity
  8
0
  6
PHANTOM
 62
     7
100
AcDbPolyline
 90
        6
 70
   128
 43
0.0
 10
94.74267531774561
 20
-1038.524652298679
 10
95.50436550609786
 20
-1048.325525647221
 10
95.88494066451511
 20
-1059.112200599955
 10
96.71803551009055
 20
-1069.854890358358
 10
96.71804088777262
 20
-1069.854932583904
 10
96.71804088777262
 20
-1069.854932583904
  0
LWPOLYLINE
  5
6CD
330
A
100
AcDbEntity
  8
0
  6
PHANTOM
 62
     7
100
AcDbPolyline
 90
       39
 70
   128
 43
0.0
 10
89.74463342846105
 20
-1070.768152091075
 10
88.88063855879002
 20
-1060.022459671491
 10
88.48106025923083
 20
-1049.231257493083
 10
87.63588556898072
 20
-1038.483127170024
 10
87.17002128946813
 20
-1035.479886334389
 10
86.43373330677039
 20
-1032.536822041734
 10
85.90129045342417
 20
-1031.088387273439
 10
85.10810167230332
 20
-1029.784764789499
 10
84.96222486698064
 20
-1029.628586837595
 10
84.73963335090271
 20
-1029.472371377549
 10
83.85635893740168
 20
-1029.224594220942
 10
82.13190701015038
 20
-1029.092053067514
 10
80.39823975339988
 20
-1029.181286743436
 10
73.60651558640357
 20
-1030.288355465141
 10
66.93435126581007
 20
-1032.041926915449
 10
56.49299470599723
 20
-1035.633555041398
 10
46.37015659591451
 20
-1040.11729591724
 10
36.51932547443222
 20
-1045.164388149166
 10
32.35839878529863
 20
-1047.557707801282
 10
30.01405447286632
 20
-1049.382516674118
 10
28.82763183959523
 20
-1051.084940941651
 10
28.21014626103711
 20
-1053.109057010771
 10
27.89860446543812
 20
-1055.214468193521
 10
27.59361968586648
 20
-1059.86171602841
 10
27.27076694729961
 20
-1066.111359328169
 10
26.59081751137218
 20
-1072.330095769251
 10
25.18086725159437
 20
-1078.385793164303
 10
23.45273801270124
 20
-1082.639984987498
 10
21.03905283793536
 20
-1086.537437354677
 10
17.92137073993495
 20
-1089.921448711081
 10
14.26851244591696
 20
-1092.729774396378
 10
9.038737163114582
 20
-1095.498783989078
 10
3.422816951493726
 20
-1097.386629303847
 10
-1.612690544964004
 20
-1098.30806079518
 10
-6.743741898738663
 20
-1098.647343047394
 10
-11.88019958532944
 20
-1098.553082613421
 10
-17.31874357535826
 20
-1098.274961291201
 10
-22.75972138206499
 20
-1098.309097573375
 10
-28.08506765649567
 20
-1099.129399964748
  0
LWPOLYLINE
  5
6F6
330
A
100
AcDbEntity
  8
0
  6
PHANTOM
 62
     7
100
AcDbPolyline
 90
       43
 70
   128
 43
0.0
 10
134.2604750390884
 20
-1181.733516334523
 10
132.9428324672165
 20
-1176.89088827821
 10
132.6614177846223
 20
-1173.795733285849
 10
132.8907149852823
 20
-1170.700182299765
 10
133.675728872635
 20
-1167.689327357577
 10
134.9438853906645
 20
-1164.84414209582
 10
137.4293906778031
 20
-1161.128209907693
 10
140.460582168181
 20
-1157.827012850406
 10
146.3600071542289
 20
-1152.859267203565
 10
152.7504282381198
 20
-1148.489598437304
 10
159.3788671614836
 20
-1144.422177062717
 10
165.9923456659506
 20
-1140.361173590898
 10
172.9192185659847
 20
-1135.694271316978
 10
178.031691670717
 20
-1131.479665389981
 10
179.6827397072701
 20
-1129.738424185164
 10
181.1020337991586
 20
-1127.810923551752
 10
182.1243721596331
 20
-1125.448202227589
 10
182.2012375676855
 20
-1122.855340589146
 10
181.4939904575361
 20
-1119.770449600007
 10
180.3208028749883
 20
-1116.8153902756
 10
177.4729918937551
 20
-1111.460513432854
 10
175.0171856495846
 20
-1107.60988427143
 10
172.199770378728
 20
-1104.026828246619
 10
170.3811762575616
 20
-1102.224118071277
 10
168.3352065775287
 20
-1100.693927387881
 10
165.9858804716696
 20
-1099.582066010815
 10
163.4581524363399
 20
-1098.947255964498
 10
159.7994245522676
 20
-1098.644978865857
 10
156.1101440462266
 20
-1098.791209660444
 10
152.4427497983531
 20
-1099.210705846646
 10
145.0721465217791
 20
-1100.460653839357
 10
137.7226847315332
 20
-1101.85037434187
 10
130.3267075399349
 20
-1102.877581893212
 10
123.1491999126606
 20
-1103.127515673506
 10
116.0194677234169
 20
-1102.386239264027
 10
111.0048714851165
 20
-1101.056121116801
 10
106.2718353138971
 20
-1098.949350032529
 10
101.9791433620888
 20
-1095.986196880301
 10
98.27898056869649
 20
-1092.3032077452
 10
95.43658712854732
 20
-1088.365398495733
 10
93.19307020716571
 20
-1084.055687406859
 10
91.00827681328196
 20
-1077.539382334489
 10
89.74463342846117
 20
-1070.768152091075
  0
LWPOLYLINE
  5
723
330
A
100
AcDbEntity
  8
0
  6
PHANTOM
 62
     7
100
AcDbPolyline
 90
       15
 70
   128
 43
0.0
 10
96.71801895902426
 20
-1069.854975621496
 10
96.71802434253825
 20
-1069.855017846214
 10
97.76407883203905
 20
-1075.671942125466
 10
99.59789318685819
 20
-1081.274307088291
 10
101.3544571915277
 20
-1084.691414413671
 10
103.5899979939878
 20
-1087.813945143938
 10
106.3951774502621
 20
-1090.621588990232
 10
109.6559452233444
 20
-1092.875691523873
 10
113.3778714878083
 20
-1094.507118245196
 10
117.3197335292069
 20
-1095.5235637395
 10
123.4849768353989
 20
-1096.122841171246
 10
129.6876478528722
 20
-1095.868609354358
 10
136.975521135553
 20
-1094.82847922579
 10
144.2170685659646
 20
-1093.434072441699
 10
151.3576069990609
 20
-1092.209185991642
  0
LWPOLYLINE
  5
734
330
A
100
AcDbEntity
  8
0
  6
PHANTOM
 62
     7
100
AcDbPolyline
 90
        3
 70
   128
 43
0.0
 10
-26.90898231294475
 20
-1228.757767208502
 10
-21.41749507533522
 20
-1227.881657836103
 10
-18.16006366953424
 20
-1227.567515568756
  0
LWPOLYLINE
  5
739
330
A
100
AcDbEntity
  8
0
  6
PHANTOM
 62
     7
100
AcDbPolyline
 90
       11
 70
   128
 43
0.0
 10
-10.20840746199895
 20
-1233.926531258636
 10
-20.54389077459928
 20
-1234.925657331218
 10
-34.11749480227213
 20
-1237.090366573636
 10
-37.48918264029703
 20
-1238.042120770756
 10
-40.63244393903263
 20
-1239.58574417707
 10
-43.99262200220902
 20
-1242.081708836703
 10
-46.97043986326801
 20
-1245.036612320229
 10
-50.68371797996372
 20
-1249.750361396749
 10
-53.97937669778036
 20
-1254.778650914929
 10
-56.70469723093795
 20
-1259.042634019003
 10
-59.70925586041204
 20
-1263.104488483268
  0
LWPOLYLINE
  5
746
330
A
100
AcDbEntity
  8
0
  6
PHANTOM
 62
     7
100
AcDbPolyline
 90
        9
 70
   128
 43
0.0
 10
47.57917043811
 20
-1405.401506662108
 10
44.07605766007592
 20
-1407.038810847182
 10
39.62891053074684
 20
-1409.230919689793
 10
35.42665417761936
 20
-1411.874901533433
 10
31.68813899072741
 20
-1415.08374739407
 10
29.38198816259895
 20
-1417.812165201648
 10
27.53168042725127
 20
-1420.861509218096
 10
26.24564130035037
 20
-1424.230754724545
 10
26.09619010274417
 20
-1424.917592483925
  0
LWPOLYLINE
  5
751
330
A
100
AcDbEntity
  8
0
  6
PHANTOM
 62
     7
100
AcDbPolyline
 90
       11
 70
   128
 43
0.0
 10
20.21312612023701
 20
-1455.15432786173
 10
20.10134231177828
 20
-1455.289056965981
 10
18.22495825995156
 20
-1456.857963236921
 10
16.12823892983087
 20
-1458.126499446441
 10
12.88089694256236
 20
-1459.468045751967
 10
9.460882131628933
 20
-1460.290425957031
 10
4.723468051174281
 20
-1460.701014709901
 10
-0.0538794936291581
 20
-1460.567708597881
 10
-4.845587050950658
 20
-1460.180793787533
 10
-9.626081168959506
 20
-1459.830556445416
 10
-16.5301590360334
 20
-1460.043691938886
  0
LWPOLYLINE
  5
75E
330
A
100
AcDbEntity
  8
0
  6
PHANTOM
 62
     7
100
AcDbPolyline
 90
       43
 70
   128
 43
0.0
 10
-50.07374774601129
 20
-1445.001910833703
 10
-43.73618171658017
 20
-1451.118862965353
 10
-41.40002727211288
 20
-1453.506624203999
 10
-38.90862131394957
 20
-1455.71532235964
 10
-37.61736163104403
 20
-1456.482212325151
 10
-36.42991262520997
 20
-1456.618666148878
 10
-34.40708454338395
 20
-1456.383609286381
 10
-30.50158374063798
 20
-1455.468905281998
 10
-26.61506102044341
 20
-1454.463290306844
 10
-20.89157286797527
 20
-1453.371636921415
 10
-15.08538762938957
 20
-1452.782183025868
 10
-9.265845797133188
 20
-1452.766987329139
 10
-4.86532749296381
 20
-1453.113019592731
 10
-0.4553997208590899
 20
-1453.511338304335
 10
3.941097434313229
 20
-1453.673658577505
 10
8.301323887685466
 20
-1453.311695525792
 10
10.64356152147179
 20
-1452.7546369237
 10
12.86725894580275
 20
-1451.841831350564
 10
15.08666668289232
 20
-1450.279782723231
 10
16.16812539654949
 20
-1448.686658380156
 10
16.94158789095776
 20
-1446.271700161273
 10
17.32452817075719
 20
-1443.748647612996
 10
17.64558199043492
 20
-1438.722277326728
 10
17.99263286093813
 20
-1430.855533181611
 10
18.52803107369158
 20
-1426.352899072097
 10
19.54476803082701
 20
-1421.926498805803
 10
21.18230247401656
 20
-1417.725672394506
 10
23.60332921104808
 20
-1413.727425269297
 10
26.61805705267724
 20
-1410.148840923069
 10
31.0172488386716
 20
-1406.342335274679
 10
35.95152046976215
 20
-1403.183841211003
 10
41.18533973755873
 20
-1400.572402420837
 10
44.03638079684986
 20
-1399.287350128375
 10
46.66830101468414
 20
-1397.648641562514
 10
47.7787783596974
 20
-1396.345908013205
 10
48.53060140046704
 20
-1394.446104251104
 10
48.86671715602564
 20
-1391.118531757379
 10
48.26325525499632
 20
-1387.834641887882
 10
46.2411081835739
 20
-1383.328477582522
 10
43.48871277843762
 20
-1379.167552012763
 10
40.39050597741684
 20
-1375.181728653352
 10
37.33092471834094
 20
-1371.200870979039
 10
37.06304777317802
 20
-1370.810251858196
  0
LWPOLYLINE
  5
78B
330
A
100
AcDbEntity
  8
0
  6
PHANTOM
 62
     7
100
AcDbPolyline
 90
        6
 70
   128
 43
0.0
 10
-163.9728703018933
 20
-1368.932338961539
 10
-155.8659100969579
 20
-1363.372259234341
 10
-146.7146631447337
 20
-1357.649334002736
 10
-137.82776833177
 20
-1351.556507823504
 10
-137.827734452215
 20
-1351.556482053522
 10
-137.827734452215
 20
-1351.556482053522
  0
LWPOLYLINE
  5
793
330
A
100
AcDbEntity
  8
0
  6
PHANTOM
 62
     7
100
AcDbPolyline
 90
       39
 70
   128
 43
0.0
 10
-133.5501594301179
 20
-1357.13902031064
 10
-142.4242046118957
 20
-1363.260108026306
 10
-151.5698706859914
 20
-1369.00175407373
 10
-160.4554372438215
 20
-1375.107761987652
 10
-162.8233879614079
 20
-1377.012832706243
 10
-165.0040124124687
 20
-1379.122008950088
 10
-165.9921722908638
 20
-1380.307335371296
 10
-166.72454808834
 20
-1381.646068247714
 10
-166.7868637595384
 20
-1381.850490242898
 10
-166.8108545583634
 20
-1382.121367880512
 10
-166.5837986637117
 20
-1383.01019453942
 10
-165.8363567060019
 20
-1384.569884292739
 10
-164.8922444474053
 20
-1386.026667340833
 10
-160.5376327271755
 20
-1391.354938644096
 10
-155.6829131435601
 20
-1396.2564167188
 10
-147.3517936656358
 20
-1403.503082686595
 10
-138.407341108128
 20
-1410.027847210402
 10
-129.1110154592963
 20
-1416.035371094034
 10
-124.9578764966198
 20
-1418.442179484049
 10
-122.2053734994768
 20
-1419.560036777415
 10
-120.1378195191389
 20
-1419.736296783687
 10
-118.0761407937932
 20
-1419.258996946628
 10
-116.0970303263212
 20
-1418.476094464583
 10
-111.9199032538389
 20
-1416.416595114015
 10
-106.3461270223726
 20
-1413.571372137416
 10
-100.620568566992
 20
-1411.050857401677
 10
-94.67120565535642
 20
-1409.244061447191
 10
-90.12290284445128
 20
-1408.613569357497
 10
-85.5407674970513
 20
-1408.755155851993
 10
-81.0512866467109
 20
-1409.763142071583
 10
-76.79277611413363
 20
-1411.522447307979
 10
-71.77985582213224
 20
-1414.66706076262
 10
-67.33697371531596
 20
-1418.586667674126
 10
-64.0212368877455
 20
-1422.486829341338
 10
-61.16188416138793
 20
-1426.760809035723
 10
-58.67528724848479
 20
-1431.256242094761
 10
-56.19687538384672
 20
-1436.105220010835
 10
-53.44682359294012
 20
-1440.800176871783
 10
-50.07374774601129
 20
-1445.001910833703
  0
LWPOLYLINE
  5
7BC
330
A
100
AcDbEntity
  8
0
  6
PHANTOM
 62
     7
100
AcDbPolyline
 90
       43
 70
   128
 43
0.0
 10
-59.70925586041204
 20
-1263.104488483268
 10
-63.24427349232303
 20
-1266.666914451773
 10
-65.78404900306044
 20
-1268.458204212079
 10
-68.57952339604928
 20
-1269.807402504332
 10
-71.57950720677058
 20
-1270.632988006655
 10
-74.67758818093969
 20
-1270.957324876945
 10
-79.13843249816705
 20
-1270.662780251106
 10
-83.51294875786571
 20
-1269.688289945348
 10
-90.76485518059326
 20
-1267.06311086313
 10
-97.74430988024402
 20
-1263.713678246731
 10
-104.5810195802141
 20
-1260.006992438958
 10
-111.4046910039
 20
-1256.310053782617
 10
-118.9097833801108
 20
-1252.644657019361
 10
-125.1159757321968
 20
-1250.324428397997
 10
-127.4494588679611
 20
-1249.765199457882
 10
-129.8283704282506
 20
-1249.499805035571
 10
-132.3857162972765
 20
-1249.795794706219
 10
-134.6696330486923
 20
-1251.025658129395
 10
-136.9876034581179
 20
-1253.180597588107
 10
-138.9601661114703
 20
-1255.674137500201
 10
-142.1737200008092
 20
-1260.817852576498
 10
-144.2805595530696
 20
-1264.869957751434
 10
-145.9748694583112
 20
-1269.101438961412
 10
-146.6267652052338
 20
-1271.577742757186
 10
-146.9289643696726
 20
-1274.114699817165
 10
-146.7172015147691
 20
-1276.705206595146
 10
-146.0030991237925
 20
-1279.211688310758
 10
-144.4355148281619
 20
-1282.53137815322
 10
-142.4642349922133
 20
-1285.653273395845
 10
-140.2672435142354
 20
-1288.619581887095
 10
-135.4994551608505
 20
-1294.377737569469
 10
-130.6211910063919
 20
-1300.047697932709
 10
-126.0336145761713
 20
-1305.939198290773
 10
-122.2284117595359
 20
-1312.030135341702
 10
-119.3055098667487
 20
-1318.575302744506
 10
-117.9501278531306
 20
-1323.583129550209
 10
-117.4081270464589
 20
-1328.735444653651
 10
-117.8279469756882
 20
-1333.934601510652
 10
-119.1674277318518
 20
-1338.980531055419
 10
-121.1564738570723
 20
-1343.411020606871
 10
-123.7670346823181
 20
-1347.508818799045
 10
-128.3179237168584
 20
-1352.659057916354
 10
-133.5501594301182
 20
-1357.13902031064
  0
LWPOLYLINE
  5
7E9
330
A
100
AcDbEntity
  8
0
  6
PHANTOM
 62
     7
100
AcDbPolyline
 90
       15
 70
   128
 43
0.0
 10
-137.8276862161931
 20
-1351.556479525579
 10
-137.8276523402715
 20
-1351.55645375096
 10
-133.3130753872993
 20
-1347.742081849683
 10
-129.3781921856305
 20
-1343.352769551173
 10
-127.2971724367284
 20
-1340.122986837066
 10
-125.7107519014493
 20
-1336.625686345805
 10
-124.6818507339169
 20
-1332.79250775135
 10
-124.3601245635897
 20
-1328.841548757199
 10
-124.8082307107438
 20
-1324.802552700499
 10
-125.8988941118134
 20
-1320.880577287282
 10
-128.462526285103
 20
-1315.241681247736
 10
-131.7840330057149
 20
-1309.99712648373
 10
-136.3287487616366
 20
-1304.205708145651
 10
-141.1571141750748
 20
-1298.63154750025
 10
-145.7881661741235
 20
-1293.060103045518
  0
ARC
  5
7FA
330
A
100
AcDbEntity
  8
0
  6
Continuous
 62
     7
100
AcDbCircle
 10
837.5539672004887
 20
1264.213840548279
 30
0.0
 40
250.9999999999999
100
AcDbArc
 50
248.7431291678446
 51
257.8182286514702
  0
ARC
  5
7FB
330
A
100
AcDbEntity
  8
0
  6
Continuous
 62
     7
100
AcDbCircle
 10
837.5539672004887
 20
1264.213840548279
 30
0.0
 40
250.9999999999998
100
AcDbArc
 50
258.2810615699864
 51
275.7334738881798
  0
ARC
  5
7FC
330
A
100
AcDbEntity
  8
0
  6
Continuous
 62
     7
100
AcDbCircle
 10
837.5539672004887
 20
1264.213840548279
 30
0.0
 40
250.9999999999999
100
AcDbArc
 50
276.1915674534295
 51
291.256870832157
  0
LINE
  5
7FD
330
A
100
AcDbEntity
  8
0
  6
Continuous
 62
     7
100
AcDbLine
 10
746.5539672004886
 20
1036.975764754467
 30
0.0
 11
746.5539672004886
 21
1030.290776272864
 31
0.0
  0
LINE
  5
7FE
330
A
100
AcDbEntity
  8
0
  6
Continuous
 62
     7
100
AcDbLine
 10
928.5539672004885
 20
1030.290776272864
 30
0.0
 11
928.5539672004885
 21
1036.975764754467
 31
0.0
  0
LINE
  5
7FF
330
A
100
AcDbEntity
  8
0
  6
Continuous
 62
     7
100
AcDbLine
 10
771.5539672004887
 20
1063.975764754467
 30
0.0
 11
771.5539672004886
 21
1036.975764754467
 31
0.0
  0
LINE
  5
800
330
A
100
AcDbEntity
  8
0
  6
Continuous
 62
     7
100
AcDbLine
 10
903.5539672004885
 20
1036.975764754467
 30
0.0
 11
903.5539672004885
 21
1063.975764754467
 31
0.0
  0
LINE
  5
801
330
A
100
AcDbEntity
  8
0
  6
Continuous
 62
     7
100
AcDbLine
 10
786.5549131674969
 20
1064.019250834573
 30
0.0
 11
786.5530203377796
 21
1063.975764754467
 31
0.0
  0
LINE
  5
802
330
A
100
AcDbEntity
  8
0
  6
Continuous
 62
     7
100
AcDbLine
 10
784.589498151543
 20
1018.865588020646
 30
0.0
 11
719.6951559615103
 21
-472.0242352455325
 31
0.0
  0
LINE
  5
803
330
A
100
AcDbEntity
  8
0
  6
Continuous
 62
     7
100
AcDbLine
 10
721.6970496869288
 20
-472.0242352455325
 30
0.0
 11
786.573117600416
 21
1018.445752762141
 31
0.0
  0
LINE
  5
804
330
A
100
AcDbEntity
  8
0
  6
Continuous
 62
     7
100
AcDbLine
 10
862.5423468824065
 20
1018.55059510702
 30
0.0
 11
894.9826625889135
 21
-472.0242352455325
 31
0.0
  0
LINE
  5
805
330
A
100
AcDbEntity
  8
0
  6
Continuous
 62
     7
100
AcDbLine
 10
896.9831361883313
 20
-472.0242352455325
 30
0.0
 11
864.538248670099
 21
1018.760661727463
 31
0.0
  0
LINE
  5
806
330
A
100
AcDbEntity
  8
0
  6
Continuous
 62
     7
100
AcDbLine
 10
863.5542040001974
 20
1063.975764754467
 30
0.0
 11
863.5537304568403
 21
1063.997523229794
 31
0.0
  0
LINE
  5
807
330
A
100
AcDbEntity
  8
0
  6
Continuous
 62
     7
100
AcDbLine
 10
862.629136684235
 20
1014.469499520577
 30
0.0
 11
894.1593719229112
 21
-437.0242352455325
 31
0.0
  0
LINE
  5
808
330
A
100
AcDbEntity
  8
0
  6
Continuous
 62
     7
100
AcDbLine
 10
863.5542031085988
 20
1063.975764754467
 30
0.0
 11
863.5537304568403
 21
1063.997523229794
 31
0.0
  0
LINE
  5
809
330
A
100
AcDbEntity
  8
0
  6
Continuous
 62
     7
100
AcDbLine
 10
925.5539672004889
 20
-482.0242352455324
 30
0.0
 11
925.5539672004889
 21
-472.0242352455325
 31
0.0
  0
LINE
  5
80A
330
A
100
AcDbEntity
  8
0
  6
Continuous
 62
     7
100
AcDbLine
 10
865.553967200489
 20
-472.0242352455325
 30
0.0
 11
865.553967200489
 21
-482.0242352455324
 31
0.0
  0
LINE
  5
80B
330
A
100
AcDbEntity
  8
0
  6
Continuous
 62
     7
100
AcDbLine
 10
874.5539672004891
 20
-482.0242352455324
 30
0.0
 11
874.5539672004891
 21
-485.0372131873509
 31
0.0
  0
LINE
  5
80C
330
A
100
AcDbEntity
  8
0
  6
Continuous
 62
     7
100
AcDbLine
 10
916.5539672004889
 20
-485.0372131873511
 30
0.0
 11
916.5539672004889
 21
-482.0242352455324
 31
0.0
  0
LINE
  5
80D
330
A
100
AcDbEntity
  8
0
  6
Continuous
 62
     7
100
AcDbLine
 10
907.5539672004886
 20
-462.5768392616481
 30
0.0
 11
906.5177257987553
 21
-462.0242352455325
 31
0.0
  0
LINE
  5
80E
330
A
100
AcDbEntity
  8
0
  6
Continuous
 62
     7
100
AcDbLine
 10
768.590208602222
 20
-462.0242352455325
 30
0.0
 11
749.8382384479506
 21
-472.0242352455325
 31
0.0
  0
LINE
  5
80F
330
A
100
AcDbEntity
  8
0
  6
Continuous
 62
     7
100
AcDbLine
 10
902.5539672004885
 20
-462.0242352455325
 30
0.0
 11
902.5539672004885
 21
-437.0242352455325
 31
0.0
  0
LINE
  5
810
330
A
100
AcDbEntity
  8
0
  6
Continuous
 62
     7
100
AcDbLine
 10
772.5539672004885
 20
-437.0242352455325
 30
0.0
 11
772.5539672004885
 21
-462.0242352455325
 31
0.0
  0
LINE
  5
811
330
A
100
AcDbEntity
  8
0
  6
Continuous
 62
     7
100
AcDbLine
 10
907.5539672004886
 20
-472.0242352455325
 30
0.0
 11
907.5539672004886
 21
-462.5768392616481
 31
0.0
  0
LINE
  5
812
330
A
100
AcDbEntity
  8
0
  6
Continuous
 62
     7
100
AcDbLine
 10
691.5539672004887
 20
-472.0242352455325
 30
0.0
 11
691.5539672004887
 21
-482.0242352455324
 31
0.0
  0
LINE
  5
813
330
A
100
AcDbEntity
  8
0
  6
Continuous
 62
     7
100
AcDbLine
 10
700.5539672004887
 20
-482.0242352455324
 30
0.0
 11
700.5539672004887
 21
-485.0372131873503
 31
0.0
  0
LINE
  5
814
330
A
100
AcDbEntity
  8
0
  6
Continuous
 62
     7
100
AcDbLine
 10
742.5539672004887
 20
-485.0372131873511
 30
0.0
 11
742.5539672004887
 21
-482.0242352455324
 31
0.0
  0
LWPOLYLINE
  5
815
330
A
100
AcDbEntity
  8
0
  6
Continuous
 62
     7
100
AcDbPolyline
 90
        9
 70
   128
 43
0.0
 10
1015.096862902366
 20
-485.0372453253856
 10
1016.537482907936
 20
-485.1894410479257
 10
1017.917183070579
 20
-485.6310122929809
 10
1019.178471989502
 20
-486.343559012398
 10
1020.268792399929
 20
-487.2973897484676
 10
1021.142711207476
 20
-488.452758861794
 10
1021.763812661977
 20
-489.7615227117807
 10
1022.106215783185
 20
-491.1691457775344
 10
1022.155652807996
 20
-492.6169731251545
  0
LWPOLYLINE
  5
820
330
A
100
AcDbEntity
  8
0
  6
Continuous
 62
     7
100
AcDbPolyline
 90
        8
 70
   128
 43
0.0
 10
1018.86439489362
 20
-549.9025153921031
 10
1019.062175584387
 20
-546.0672860990244
 10
1019.424502716778
 20
-539.1453672978466
 10
1019.846975879069
 20
-531.2142202957602
 10
1020.335096589613
 20
-522.2738450927645
 10
1020.901950360635
 20
-512.3242416888597
 10
1021.573296344401
 20
-501.3654100840457
 10
1022.163611130094
 20
-492.6440181917254
  0
LWPOLYLINE
  5
82A
330
A
100
AcDbEntity
  8
0
  6
Continuous
 62
     7
100
AcDbPolyline
 90
       21
 70
   128
 43
0.0
 10
771.2544083062622
 20
-705.0370831873479
 10
771.2517137118501
 20
-690.7026621026091
 10
771.2494684202008
 20
-677.679488634789
 10
771.2471904667105
 20
-665.9675627846414
 10
771.2443011180019
 20
-655.5668845521658
 10
771.2401601557445
 20
-646.4774539373628
 10
771.2340580858169
 20
-638.6992709402321
 10
771.225164436061
 20
-632.2323355607734
 10
771.2124301556471
 20
-627.0766477989872
 10
771.201967642642
 20
-623.1845095865883
 10
771.2047238052884
 20
-620.4949614363465
 10
771.2105801391493
 20
-619.6010750980713
 10
771.2182663257682
 20
-619.0077805843598
 10
771.2265937956652
 20
-618.6907721835269
 10
771.2351671096878
 20
-618.1671760462196
 10
771.2295575936756
 20
-616.8550849066202
 10
771.1745871184215
 20
-614.8413218167089
 10
771.0497210336609
 20
-612.1258867764852
 10
770.872272952507
 20
-608.7087797859497
 10
770.7167859163357
 20
-604.5900008451025
 10
770.7024655722267
 20
-599.7695499539432
  0
LWPOLYLINE
  5
841
330
A
100
AcDbEntity
  8
0
  6
Continuous
 62
     7
100
AcDbPolyline
 90
        9
 70
   128
 43
0.0
 10
766.4602224635395
 20
-485.0372502292988
 10
767.8948347277303
 20
-485.1885022990382
 10
769.2692226772647
 20
-485.6267354346473
 10
770.5265978298167
 20
-486.3338422344386
 10
771.6150065673023
 20
-487.2806056771069
 10
772.4894768129701
 20
-488.4279063429507
 10
773.1138762374383
 20
-489.7283387933465
 10
773.462405214267
 20
-491.1281703211272
 10
773.5206628374765
 20
-492.5695611380426
  0
LINE
  5
84C
330
A
100
AcDbEntity
  8
0
  6
Continuous
 62
     7
100
AcDbLine
 10
605.6432207647692
 20
-485.0372131873505
 30
0.0
 11
582.2493656820017
 21
-485.0372303277627
 31
0.0
  0
LWPOLYLINE
  5
84D
330
A
100
AcDbEntity
  8
0
  6
Continuous
 62
     7
100
AcDbPolyline
 90
        9
 70
   128
 43
0.0
 10
575.1737547048366
 20
-491.854868787911
 10
575.3559508977099
 20
-490.5126434204781
 10
575.7898423033333
 20
-489.2294834372713
 10
576.4596222640837
 20
-488.0521343378959
 10
577.340890705691
 20
-487.0234869329912
 10
578.4015430315902
 20
-486.1810148326207
 10
579.6029396929096
 20
-485.5554092831998
 10
580.9013138266768
 20
-485.1694610858335
 10
582.2493656820017
 20
-485.0372303277627
  0
LWPOLYLINE
  5
858
330
A
100
AcDbEntity
  8
0
  6
Continuous
 62
     7
100
AcDbPolyline
 90
       41
 70
   128
 43
0.0
 10
575.3065839327596
 20
-491.8672778360729
 10
574.8437329699867
 20
-501.4941719095769
 10
574.381163020863
 20
-512.1401072405346
 10
573.9867962208907
 20
-521.8390607408422
 10
573.6393704393025
 20
-530.5910324105
 10
573.325274296751
 20
-538.3960222495075
 10
573.0439210375817
 20
-545.1398700384374
 10
572.789996870195
 20
-551.0089144266003
 10
572.5437987275125
 20
-556.6802225810672
 10
572.2952575716748
 20
-562.4010921617164
 10
572.0935355917844
 20
-567.0134720530874
 10
571.8884980472636
 20
-571.6575712572148
 10
571.6796253979291
 20
-576.3333897740989
 10
571.4698356376601
 20
-580.9681519350141
 10
571.2844610865109
 20
-585.0092229221387
 10
571.1322001780987
 20
-588.2887138916555
 10
571.0104222918819
 20
-590.8849977987726
 10
570.8914701443505
 20
-593.3975954303178
 10
570.7202538322961
 20
-596.9727810184483
 10
570.5366438989661
 20
-600.7506160645878
 10
570.3127914275077
 20
-605.2733707604771
 10
570.0460000101228
 20
-610.5366519533893
 10
569.7697510144355
 20
-615.8335037933471
 10
569.5107890131983
 20
-620.6512042059127
 10
569.2703834868943
 20
-624.9897531910865
 10
569.0497903607454
 20
-628.8491507488679
 10
568.7813787723142
 20
-633.3734579507791
 10
568.5479862167897
 20
-637.1403341332254
 10
568.3046944286553
 20
-640.8838728579577
 10
568.0415251531352
 20
-644.7081135375437
 10
567.7676280814445
 20
-648.4403829858027
 10
567.4455115751035
 20
-652.5211242107381
 10
567.1035506340042
 20
-656.5218712181801
 10
566.7823988437585
 20
-660.0089703010957
 10
566.4678116672417
 20
-663.2102931497243
 10
566.073792022171
 20
-666.9786606945477
 10
565.5073397715589
 20
-672.028133890617
 10
564.738020872329
 20
-678.3587127379316
 10
563.732293550978
 20
-685.9703972364924
 10
562.4589707223226
 20
-694.8631873862986
 10
560.898447965306
 20
-705.0370831873506
  0
LWPOLYLINE
  5
883
330
A
100
AcDbEntity
  8
0
  6
Continuous
 62
     7
100
AcDbPolyline
 90
        3
 70
   128
 43
0.0
 10
975.5708599726066
 20
-705.0370831873504
 10
977.3499618472833
 20
-608.7117890957615
 10
980.0320883354944
 20
-492.2888544552651
  0
LWPOLYLINE
  5
888
330
A
100
AcDbEntity
  8
0
  6
Continuous
 62
     7
100
AcDbPolyline
 90
       34
 70
   128
 43
0.0
 10
795.6859369959804
 20
-493.4554563033594
 10
797.4924179077403
 20
-503.0320781936153
 10
799.8305260773621
 20
-515.5383233068445
 10
801.9379941203832
 20
-526.9160856180109
 10
803.818604835822
 20
-537.1653651271148
 10
805.4765095707724
 20
-546.2861618341557
 10
806.9160552885755
 20
-554.2784757391342
 10
808.1416227376191
 20
-561.1423068420499
 10
809.158574782271
 20
-566.8838729797604
 10
809.9544562708153
 20
-571.4089755721486
 10
810.6760609342806
 20
-575.5375857676986
 10
811.3243994280741
 20
-579.2697035664101
 10
811.9005044260644
 20
-582.6053289682834
 10
812.445376411844
 20
-585.7776416224728
 10
813.1124823261009
 20
-589.6862631623994
 10
813.9137517395298
 20
-594.4204783966463
 10
814.9689598406265
 20
-600.7281590251018
 10
816.0236353603961
 20
-607.12509662627
 10
817.033178188479
 20
-613.3451931197889
 10
817.9980112231531
 20
-619.3884485056587
 10
818.8984735985762
 20
-625.1245377400805
 10
819.6580126296911
 20
-630.041578398403
 10
820.2741932225295
 20
-634.0875057522724
 10
820.5703299411407
 20
-636.0511222030677
 10
820.9173436680837
 20
-638.3682656113657
 10
821.3786375994335
 20
-641.4762705377227
 10
821.9505452893946
 20
-645.3751369821386
 10
822.6284886673607
 20
-650.0648649446133
 10
823.4070259116121
 20
-655.5454544251472
 10
824.4652756279462
 20
-663.1660990056254
 10
825.6476375713901
 20
-671.9255841721088
 10
826.941878373357
 20
-681.8239099245969
 10
828.3364684528024
 20
-692.8610762630898
 10
829.8222834310662
 20
-705.037083187351
  0
LWPOLYLINE
  5
8AC
330
A
100
AcDbEntity
  8
0
  6
Continuous
 62
     7
100
AcDbPolyline
 90
        9
 70
   128
 43
0.0
 10
972.8891559859237
 20
-485.0372994455241
 10
974.2415768928692
 20
-485.1613308351968
 10
975.6042448359806
 20
-485.5660487288779
 10
976.8587902758369
 20
-486.235724746722
 10
977.9546033885239
 20
-487.1433433783579
 10
978.8474777970433
 20
-488.2522902312977
 10
979.5013939080375
 20
-489.5178290981678
 10
979.8899719841285
 20
-490.888906667407
 10
979.9975363332427
 20
-492.3102120733048
  0
LINE
  5
8B7
330
A
100
AcDbEntity
  8
0
  6
Continuous
 62
     7
100
AcDbLine
 10
972.8257983466734
 20
-489.0387812579598
 30
0.0
 11
972.8891595693669
 21
-489.0374108269806
 31
0.0
  0
LWPOLYLINE
  5
8B8
330
A
100
AcDbEntity
  8
0
  6
Continuous
 62
     7
100
AcDbPolyline
 90
        9
 70
   128
 43
0.0
 10
795.6972630493818
 20
-493.4546325752988
 10
795.5767233632907
 20
-491.9154917594711
 10
795.7917151650893
 20
-490.3866911178106
 10
796.3320639014934
 20
-488.9405816118882
 10
797.1721974020073
 20
-487.6456008197883
 10
798.2723560897747
 20
-486.5630341066334
 10
799.5804746158087
 20
-485.7441142757904
 10
801.0346458676787
 20
-485.2275969606597
 10
802.5660507426884
 20
-485.0379265023797
  0
LINE
  5
8C3
330
A
100
AcDbEntity
  8
0
  6
Continuous
 62
     7
100
AcDbLine
 10
824.1324105214854
 20
-485.0372132163388
 30
0.0
 11
824.1317669213302
 21
-485.0372131873506
 31
0.0
  0
LWPOLYLINE
  5
8C4
330
A
100
AcDbEntity
  8
0
  6
Continuous
 62
     7
100
AcDbPolyline
 90
       23
 70
   128
 43
0.0
 10
779.7763394119182
 20
-492.1953226940407
 10
779.9870367816295
 20
-506.6377479965506
 10
780.0426092949075
 20
-521.7893044565657
 10
779.9936820813027
 20
-535.8147017962223
 10
779.9056084129477
 20
-548.7139400155201
 10
779.8171443707521
 20
-560.4870191144593
 10
779.7379574966805
 20
-570.953690960709
 10
779.6575937837358
 20
-580.3340645483218
 10
779.564717845413
 20
-588.628139877298
 10
779.4517384219626
 20
-595.8359169476374
 10
779.369296523135
 20
-599.8570908660009
 10
779.2813785268958
 20
-603.5488160790715
 10
779.1894110261552
 20
-607.7729782683855
 10
779.0927359569042
 20
-612.7124714704575
 10
778.9906269723219
 20
-618.3672956852871
 10
778.8823205793635
 20
-624.737450912875
 10
778.7670085648239
 20
-631.8229371532205
 10
778.64384321068
 20
-639.6237544063239
 10
778.4765265706511
 20
-650.4453902185302
 10
778.2937349700128
 20
-662.3975410027356
 10
778.0939507725697
 20
-675.4802067589409
 10
777.8760234071456
 20
-689.6933874871453
 10
777.6394089967403
 20
-705.0370831873488
  0
LWPOLYLINE
  5
8DD
330
A
100
AcDbEntity
  8
0
  6
Continuous
 62
     7
100
AcDbPolyline
 90
        9
 70
   128
 43
0.0
 10
779.5879096870898
 20
-492.3134043873897
 10
779.692734578748
 20
-490.9057303189917
 10
780.0740812732576
 20
-489.546649094609
 10
780.7168627141013
 20
-488.2899294646693
 10
781.5956488134727
 20
-487.1852904915262
 10
782.6756725319865
 20
-486.2764345354172
 10
783.9142053522188
 20
-485.5993182766357
 10
785.2622477288056
 20
-485.1807301767364
 10
786.6664676365435
 20
-485.0372306580636
  0
LINE
  5
8E8
330
A
100
AcDbEntity
  8
0
  6
Continuous
 62
     7
100
AcDbLine
 10
787.0212548460025
 20
-485.03721318735
 30
0.0
 11
786.6664676365435
 21
-485.0372306580636
 31
0.0
  0
LWPOLYLINE
  5
8E9
330
A
100
AcDbEntity
  8
0
  6
Continuous
 62
     7
100
AcDbPolyline
 90
       26
 70
   128
 43
0.0
 10
1033.651310524788
 20
-705.0370831873497
 10
1031.42384832144
 20
-683.9741325997692
 10
1029.369604307527
 20
-663.9009160183177
 10
1027.483626817014
 20
-644.8174334437488
 10
1025.753151657847
 20
-626.7236848760627
 10
1024.1638448795
 20
-609.6196703152595
 10
1022.701856317331
 20
-593.505389761339
 10
1021.35509214207
 20
-578.3808432143013
 10
1020.619521829593
 20
-570.0256012310465
 10
1019.953410411568
 20
-562.41673122747
 10
1019.373064344808
 20
-555.7590170129579
 10
1018.877382215105
 20
-550.0524585875098
 10
1018.465493281703
 20
-545.297055951126
 10
1018.136724424278
 20
-541.4928091038063
 10
1017.944386431453
 20
-539.2638199548899
 10
1017.798358859089
 20
-537.5698559373222
 10
1017.742673475986
 20
-536.9235083527939
 10
1017.671401428416
 20
-536.0959303280789
 10
1017.541646329599
 20
-534.588385307262
 10
1017.352999478675
 20
-532.3946218967068
 10
1017.010174813489
 20
-528.4021531874848
 10
1016.563491303309
 20
-523.189740674283
 10
1016.013506911081
 20
-516.7573843571019
 10
1015.360724465691
 20
-509.1050842359414
 10
1014.605467320089
 20
-500.2328403108013
 10
1013.864821980125
 20
-491.5184188643132
  0
LWPOLYLINE
  5
905
330
A
100
AcDbEntity
  8
0
  6
Continuous
 62
     7
100
AcDbPolyline
 90
        7
 70
   128
 43
0.0
 10
1016.160248050984
 20
-495.1674850790308
 10
1016.177621129608
 20
-495.1772876740213
 10
1016.533597756655
 20
-494.8624979807502
 10
1016.650276967681
 20
-494.4690108641613
 10
1016.739309198392
 20
-493.9181289009368
 10
1016.811382615741
 20
-493.2098520910766
 10
1016.861182349034
 20
-492.5461438381049
  0
LWPOLYLINE
  5
90E
330
A
100
AcDbEntity
  8
0
  6
Continuous
 62
     7
100
AcDbPolyline
 90
        9
 70
   128
 43
0.0
 10
1009.765123840464
 20
-485.0372271382354
 10
1011.188534927476
 20
-485.1788119850523
 10
1012.567982153932
 20
-485.6091709813617
 10
1013.831622692337
 20
-486.3104770488257
 10
1014.926983047353
 20
-487.2536079968027
 10
1015.80857766772
 20
-488.3993996991845
 10
1016.439797763363
 20
-489.7002724102076
 10
1016.79443150921
 20
-491.102206544347
 10
1016.857752508281
 20
-492.5469858747439
  0
LINE
  5
919
330
A
100
AcDbEntity
  8
0
  6
Continuous
 62
     7
100
AcDbLine
 10
746.5539672004886
 20
1030.290776272864
 30
0.0
 11
928.5539672004885
 21
1030.290776272864
 31
0.0
  0
LINE
  5
91A
330
A
100
AcDbEntity
  8
0
  6
Continuous
 62
     7
100
AcDbLine
 10
746.5539672004886
 20
1036.975764754467
 30
0.0
 11
928.5539672004885
 21
1036.975764754467
 31
0.0
  0
LINE
  5
91B
330
A
100
AcDbEntity
  8
0
  6
Continuous
 62
     7
100
AcDbLine
 10
771.5539672004887
 20
1063.975764754467
 30
0.0
 11
903.5539672004885
 21
1063.975764754467
 31
0.0
  0
LINE
  5
91C
330
A
100
AcDbEntity
  8
0
  6
Continuous
 62
     7
100
AcDbLine
 10
787.5539672004888
 20
1063.975764754467
 30
0.0
 11
786.5549131674969
 21
1064.019250834573
 31
0.0
  0
LWPOLYLINE
  5
91D
330
A
100
AcDbEntity
  8
0
  6
Continuous
 62
     7
100
AcDbPolyline
 90
        8
 70
   128
 43
0.0
 10
863.5537304568403
 20
1063.997523229794
 10
863.4776283206353
 20
1064.010253732302
 10
863.2609068160883
 20
1064.017764467474
 10
862.93656016349
 20
1064.018881127069
 10
862.5539672004883
 20
1064.013433709786
 10
862.1713742374868
 20
1064.002251535526
 10
861.8470275848885
 20
1063.987036988953
 10
861.6879417967039
 20
1063.975764754467
  0
LINE
  5
927
330
A
100
AcDbEntity
  8
0
  6
Continuous
 62
     7
100
AcDbLine
 10
925.5539672004889
 20
-472.0242352455325
 30
0.0
 11
865.553967200489
 21
-472.0242352455325
 31
0.0
  0
LINE
  5
928
330
A
100
AcDbEntity
  8
0
  6
Continuous
 62
     7
100
AcDbLine
 10
865.553967200489
 20
-482.0242352455324
 30
0.0
 11
925.5539672004889
 21
-482.0242352455324
 31
0.0
  0
LINE
  5
929
330
A
100
AcDbEntity
  8
0
  6
Continuous
 62
     7
100
AcDbLine
 10
861.643541654209
 20
-462.5768392616481
 30
0.0
 11
861.643541654209
 21
-482.0242352455324
 31
0.0
  0
LINE
  5
92A
330
A
100
AcDbEntity
  8
0
  6
Continuous
 62
     7
100
AcDbLine
 10
872.4085998011481
 20
-472.0242352455325
 30
0.0
 11
861.643541654209
 21
-462.5768392616481
 31
0.0
  0
LINE
  5
92B
330
A
100
AcDbEntity
  8
0
  6
Continuous
 62
     7
100
AcDbLine
 10
861.643541654209
 20
-482.0242352455324
 30
0.0
 11
865.553967200489
 21
-482.0242352455324
 31
0.0
  0
LINE
  5
92C
330
A
100
AcDbEntity
  8
0
  6
Continuous
 62
     7
100
AcDbLine
 10
768.590208602222
 20
-462.5768392616481
 30
0.0
 11
750.4172344440846
 21
-472.0242352455325
 31
0.0
  0
LINE
  5
92D
330
A
100
AcDbEntity
  8
0
  6
Continuous
 62
     7
100
AcDbLine
 10
907.5539672004886
 20
-462.5768392616481
 30
0.0
 11
896.7775265791518
 21
-462.5768392616481
 31
0.0
  0
LINE
  5
92E
330
A
100
AcDbEntity
  8
0
  6
Continuous
 62
     7
100
AcDbLine
 10
894.7770529797342
 20
-462.5768392616481
 30
0.0
 11
882.4281513450355
 21
-462.5768392616481
 31
0.0
  0
LINE
  5
92F
330
A
100
AcDbEntity
  8
0
  6
Continuous
 62
     7
100
AcDbLine
 10
882.4281513450355
 20
-462.5768392616481
 30
0.0
 11
889.8360673562338
 21
-472.0242352455325
 31
0.0
  0
LINE
  5
930
330
A
100
AcDbEntity
  8
0
  6
Continuous
 62
     7
100
AcDbLine
 10
861.643541654209
 20
-462.5768392616481
 30
0.0
 11
768.590208602222
 21
-462.5768392616481
 31
0.0
  0
LINE
  5
931
330
A
100
AcDbEntity
  8
0
  6
Continuous
 62
     7
100
AcDbLine
 10
906.5177257987553
 20
-462.0242352455325
 30
0.0
 11
896.7029090394399
 21
-462.0242352455325
 31
0.0
  0
LINE
  5
932
330
A
100
AcDbEntity
  8
0
  6
Continuous
 62
     7
100
AcDbLine
 10
894.7024372232197
 20
-462.0242352455325
 30
0.0
 11
768.590208602222
 21
-462.0242352455325
 31
0.0
  0
LINE
  5
933
330
A
100
AcDbEntity
  8
0
  6
Continuous
 62
     7
100
AcDbLine
 10
768.590208602222
 20
-462.5768392616481
 30
0.0
 11
768.590208602222
 21
-482.0242352455324
 31
0.0
  0
LINE
  5
934
330
A
100
AcDbEntity
  8
0
  6
Continuous
 62
     7
100
AcDbLine
 10
768.590208602222
 20
-482.0242352455324
 30
0.0
 11
861.643541654209
 21
-482.0242352455324
 31
0.0
  0
LINE
  5
935
330
A
100
AcDbEntity
  8
0
  6
Continuous
 62
     7
100
AcDbLine
 10
772.5539672004885
 20
-437.0242352455325
 30
0.0
 11
894.1593719229112
 21
-437.0242352455325
 31
0.0
  0
LINE
  5
936
330
A
100
AcDbEntity
  8
0
  6
Continuous
 62
     7
100
AcDbLine
 10
896.1598437391312
 20
-437.0242352455325
 30
0.0
 11
902.5539672004885
 21
-437.0242352455325
 31
0.0
  0
LINE
  5
937
330
A
100
AcDbEntity
  8
0
  6
Continuous
 62
     7
100
AcDbLine
 10
749.8382384479506
 20
-472.0242352455325
 30
0.0
 11
749.8382384479506
 21
-482.0242352455324
 31
0.0
  0
LINE
  5
938
330
A
100
AcDbEntity
  8
0
  6
Continuous
 62
     7
100
AcDbLine
 10
749.8382384479506
 20
-472.0242352455325
 30
0.0
 11
691.5539672004887
 21
-472.0242352455325
 31
0.0
  0
LINE
  5
939
330
A
100
AcDbEntity
  8
0
  6
Continuous
 62
     7
100
AcDbLine
 10
691.5539672004887
 20
-482.0242352455324
 30
0.0
 11
749.8382384479506
 21
-482.0242352455324
 31
0.0
  0
LINE
  5
93A
330
A
100
AcDbEntity
  8
0
  6
Continuous
 62
     7
100
AcDbLine
 10
750.4172344440846
 20
-472.0242352455325
 30
0.0
 11
749.8382384479506
 21
-472.0242352455325
 31
0.0
  0
LINE
  5
93B
330
A
100
AcDbEntity
  8
0
  6
Continuous
 62
     7
100
AcDbLine
 10
749.8382384479506
 20
-482.0242352455324
 30
0.0
 11
768.590208602222
 21
-482.0242352455324
 31
0.0
  0
LINE
  5
93C
330
A
100
AcDbEntity
  8
0
  6
Continuous
 62
     7
100
AcDbLine
 10
1022.125682740161
 20
-492.6122620633734
 30
0.0
 11
1022.092880089799
 21
-492.6385966480567
 31
0.0
  0
LINE
  5
93D
330
A
100
AcDbEntity
  8
0
  6
Continuous
 62
     7
100
AcDbLine
 10
1009.725494345769
 20
-485.0372131873503
 30
0.0
 11
1015.048576058158
 21
-485.0372131873503
 31
0.0
  0
LINE
  5
93E
330
A
100
AcDbEntity
  8
0
  6
Continuous
 62
     7
100
AcDbLine
 10
656.9800654062368
 20
-705.0370831873501
 30
0.0
 11
645.4508109727145
 21
-492.6967968564956
 31
0.0
  0
LINE
  5
93F
330
A
100
AcDbEntity
  8
0
  6
Continuous
 62
     7
100
AcDbLine
 10
645.4507422672535
 20
-492.6957488419344
 30
0.0
 11
645.4508109727145
 21
-492.6967968564956
 31
0.0
  0
LWPOLYLINE
  5
940
330
A
100
AcDbEntity
  8
0
  6
Continuous
 62
     7
100
AcDbPolyline
 90
        6
 70
   128
 43
0.0
 10
771.3038614128484
 20
-492.1635517819026
 10
771.4038547924015
 20
-492.1918138128841
 10
771.9479930351897
 20
-492.3287168438509
 10
772.636266171334
 20
-492.4696314722786
 10
773.313052516104
 20
-492.5619113566791
 10
773.5462936435757
 20
-492.577788497904
  0
LINE
  5
948
330
A
100
AcDbEntity
  8
0
  6
Continuous
 62
     7
100
AcDbLine
 10
773.0040587774429
 20
-492.5197800301469
 30
0.0
 11
770.7024655722267
 21
-599.7695499539429
 31
0.0
  0
LINE
  5
949
330
A
100
AcDbEntity
  8
0
  6
Continuous
 62
     7
100
AcDbLine
 10
651.7077679354787
 20
-705.0370831873494
 30
0.0
 11
771.2235467461351
 21
-705.0370831873476
 31
0.0
  0
LWPOLYLINE
  5
94A
330
A
100
AcDbEntity
  8
0
  6
Continuous
 62
     7
100
AcDbPolyline
 90
        7
 70
   128
 43
0.0
 10
645.4507422672535
 20
-492.6957488419344
 10
645.6566728909844
 20
-490.3223827545951
 10
646.6110522874255
 20
-488.1532608748076
 10
648.2062815191782
 20
-486.4329348930892
 10
650.2625111579344
 20
-485.3553582791402
 10
651.9590875525154
 20
-485.0457241208689
 10
652.2952507539874
 20
-485.0372131873511
  0
LINE
  5
953
330
A
100
AcDbEntity
  8
0
  6
Continuous
 62
     7
100
AcDbLine
 10
652.2952507539992
 20
-485.0372131873511
 30
0.0
 11
766.4826268772099
 21
-485.0372131873496
 31
0.0
  0
LWPOLYLINE
  5
954
330
A
100
AcDbEntity
  8
0
  6
Continuous
 62
     7
100
AcDbPolyline
 90
        5
 70
   128
 43
0.0
 10
773.0087589163782
 20
-492.3007638266581
 10
772.6749312193227
 20
-489.9429406562983
 10
771.6041682255276
 20
-487.8321409117006
 10
769.9171902697528
 20
-486.2063411009513
 10
768.0710571374325
 20
-485.3697678424996
  0
LWPOLYLINE
  5
95B
330
A
100
AcDbEntity
  8
0
  6
Continuous
 62
     7
100
AcDbPolyline
 90
        3
 70
   128
 43
0.0
 10
575.3191836152659
 20
-491.8676335334392
 10
575.282339793449
 20
-491.8667520301062
 10
575.1891293505373
 20
-491.8580492690946
  0
LINE
  5
960
330
A
100
AcDbEntity
  8
0
  6
Continuous
 62
     7
100
AcDbLine
 10
656.980065406237
 20
-705.0370831873499
 30
0.0
 11
560.92794281627
 21
-705.0370831873504
 31
0.0
  0
LINE
  5
961
330
A
100
AcDbEntity
  8
0
  6
Continuous
 62
     7
100
AcDbLine
 10
766.1384783548045
 20
-485.0372131873509
 30
0.0
 11
786.2445176472524
 21
-485.0372131873511
 31
0.0
  0
LINE
  5
962
330
A
100
AcDbEntity
  8
0
  6
Continuous
 62
     7
100
AcDbLine
 10
777.3252781864723
 20
-705.0370831873499
 30
0.0
 11
771.2544083062622
 21
-705.0370831873499
 31
0.0
  0
LINE
  5
963
330
A
100
AcDbEntity
  8
0
  6
Continuous
 62
     7
100
AcDbLine
 10
904.7223328427739
 20
-491.1843710209668
 30
0.0
 11
907.3933499161372
 21
-705.0370831873494
 31
0.0
  0
LINE
  5
964
330
A
100
AcDbEntity
  8
0
  6
Continuous
 62
     7
100
AcDbLine
 10
977.7788710503982
 20
-705.0370831873501
 30
0.0
 11
1003.139432548746
 21
-492.6967968564956
 31
0.0
  0
LINE
  5
965
330
A
100
AcDbEntity
  8
0
  6
Continuous
 62
     7
100
AcDbLine
 10
977.7788710503996
 20
-705.0370831873499
 30
0.0
 11
975.5708599726066
 21
-705.0370831873499
 31
0.0
  0
LINE
  5
966
330
A
100
AcDbEntity
  8
0
  6
Continuous
 62
     7
100
AcDbLine
 10
907.3933499161372
 20
-705.0370831873504
 30
0.0
 11
975.5210241026597
 21
-705.0370831873501
 31
0.0
  0
LWPOLYLINE
  5
967
330
A
100
AcDbEntity
  8
0
  6
Continuous
 62
     7
100
AcDbPolyline
 90
        3
 70
   128
 43
0.0
 10
795.7177451833985
 20
-493.449469906544
 10
795.6953533032583
 20
-493.4526165642719
 10
795.701739891398
 20
-493.4524489975004
  0
LINE
  5
96C
330
A
100
AcDbEntity
  8
0
  6
Continuous
 62
     7
100
AcDbLine
 10
904.7223328427739
 20
-491.1843710209665
 30
0.0
 11
904.7223303148312
 21
-491.1841686233763
 31
0.0
  0
LINE
  5
96D
330
A
100
AcDbEntity
  8
0
  6
Continuous
 62
     7
100
AcDbLine
 10
907.3933499161372
 20
-705.0370831873504
 30
0.0
 11
829.8684066787007
 21
-705.0370831873499
 31
0.0
  0
LINE
  5
96E
330
A
100
AcDbEntity
  8
0
  6
Continuous
 62
     7
100
AcDbLine
 10
1003.139524384242
 20
-492.6957488419344
 30
0.0
 11
1003.139432548746
 21
-492.6967968564956
 31
0.0
  0
LWPOLYLINE
  5
96F
330
A
100
AcDbEntity
  8
0
  6
Continuous
 62
     7
100
AcDbPolyline
 90
        5
 70
   128
 43
0.0
 10
910.3048710998923
 20
-485.0372131873505
 10
908.3842111593568
 20
-485.4624478731991
 10
906.6185429287076
 20
-486.7677164296668
 10
905.3527261570899
 20
-488.7513581448874
 10
904.7223303148312
 20
-491.1841686233765
  0
LINE
  5
976
330
A
100
AcDbEntity
  8
0
  6
Continuous
 62
     7
100
AcDbLine
 10
910.3048710998923
 20
-485.0372131873503
 30
0.0
 11
972.9021475729389
 21
-485.0372131873503
 31
0.0
  0
LINE
  5
977
330
A
100
AcDbEntity
  8
0
  6
Continuous
 62
     7
100
AcDbLine
 10
973.2521575729391
 20
-485.0372131873487
 30
0.0
 11
998.1677616229546
 21
-485.0372131873511
 31
0.0
  0
LWPOLYLINE
  5
978
330
A
100
AcDbEntity
  8
0
  6
Continuous
 62
     7
100
AcDbPolyline
 90
        7
 70
   128
 43
0.0
 10
1003.139524384242
 20
-492.6957488419344
 10
1002.989939032316
 20
-490.3223827545951
 10
1002.296690135182
 20
-488.1532608748076
 10
1001.137936176387
 20
-486.4329348930892
 10
999.6443174656057
 20
-485.3553582791402
 10
998.4119462394485
 20
-485.0457241208689
 10
998.1677616229783
 20
-485.0372131873511
  0
LINE
  5
981
330
A
100
AcDbEntity
  8
0
  6
Continuous
 62
     7
100
AcDbLine
 10
972.8564748908123
 20
-489.0372131873503
 30
0.0
 11
972.9021475729391
 21
-489.0372131873503
 31
0.0
  0
LINE
  5
982
330
A
100
AcDbEntity
  8
0
  6
Continuous
 62
     7
100
AcDbLine
 10
802.6656558248236
 20
-485.0372131873503
 30
0.0
 11
910.3048710998923
 21
-485.0372131873503
 31
0.0
  0
LWPOLYLINE
  5
983
330
A
100
AcDbEntity
  8
0
  6
Continuous
 62
     7
100
AcDbPolyline
 90
        3
 70
   128
 43
0.0
 10
779.8163116906445
 20
-492.1954092678145
 10
779.6863877798719
 20
-492.20836127986
 10
779.70998732869
 20
-492.2963375595312
  0
LINE
  5
988
330
A
100
AcDbEntity
  8
0
  6
Continuous
 62
     7
100
AcDbLine
 10
829.8222834310662
 20
-705.037083187351
 30
0.0
 11
777.6752881864722
 21
-705.0370831873488
 31
0.0
  0
LINE
  5
989
330
A
100
AcDbEntity
  8
0
  6
Continuous
 62
     7
100
AcDbLine
 10
787.0212548460023
 20
-485.0372131873487
 30
0.0
 11
801.7840707432906
 21
-485.0372131873527
 31
0.0
  0
LINE
  5
98A
330
A
100
AcDbEntity
  8
0
  6
Continuous
 62
     7
100
AcDbLine
 10
977.7788710503996
 20
-705.0370831873499
 30
0.0
 11
1033.622749805774
 21
-705.0370831873504
 31
0.0
  0
LINE
  5
98B
330
A
100
AcDbEntity
  8
0
  6
Continuous
 62
     7
100
AcDbLine
 10
998.1677616229546
 20
-485.0372131873511
 30
0.0
 11
1009.78451693813
 21
-485.0372131873511
 31
0.0
  0
LWPOLYLINE
  5
98C
330
A
100
AcDbEntity
  8
0
  6
Continuous
 62
     7
100
AcDbPolyline
 90
        3
 70
   128
 43
0.0
 10
975.9440649746684
 20
-491.9700697176391
 10
976.0978473979749
 20
-491.9716944319546
 10
979.9526786086897
 20
-492.0120192728697
  0
LWPOLYLINE
  5
991
330
A
100
AcDbEntity
  8
0
  6
PHANTOM
 62
     7
100
AcDbPolyline
 90
        7
 70
   128
 43
0.0
 10
1022.092880089799
 20
-492.6385966480567
 10
1021.889083957411
 20
-492.8022080162607
 10
1021.22091501056
 20
-492.9719670638924
 10
1019.918313043176
 20
-493.1694686144036
 10
1018.757409436926
 20
-493.2887043559669
 10
1017.251138415504
 20
-493.3861612868958
 10
1016.792116247553
 20
-493.3991857219711
  0
LINE
  5
99A
330
A
100
AcDbEntity
  8
0
  6
PHANTOM
 62
     7
100
AcDbLine
 10
645.4507540536163
 20
-492.695748547809
 30
0.0
 11
645.4507433401998
 21
-492.6957488151594
 31
0.0
  0
LWPOLYLINE
  5
99B
330
A
100
AcDbEntity
  8
0
  6
PHANTOM
 62
     7
100
AcDbPolyline
 90
       48
 70
   128
 43
0.0
 10
773.5462936435757
 20
-492.577788497904
 10
773.5631130367392
 20
-492.578933424116
 10
772.9712087004793
 20
-492.4940746016523
 10
772.2568393541633
 20
-492.4169597304543
 10
771.2093950955096
 20
-492.3333832733089
 10
769.7771916574358
 20
-492.2529386644106
 10
768.0180338063527
 20
-492.1818881449459
 10
764.927339229056
 20
-492.0813561509269
 10
762.988626130279
 20
-492.0069063312762
 10
760.9209741159169
 20
-491.9240954589555
 10
756.8756133519744
 20
-491.7901303514776
 10
752.8129239902928
 20
-491.6941464119059
 10
747.8655271806211
 20
-491.6212729797483
 10
742.9042755037782
 20
-491.5853890661593
 10
738.0622034491774
 20
-491.5816140201928
 10
734.7008093432704
 20
-491.6050063384117
 10
731.5737238314163
 20
-491.6691483180736
 10
728.7753585240348
 20
-491.7653629661259
 10
726.3295184415662
 20
-491.8623448436355
 10
724.173045041776
 20
-491.9437723610266
 10
720.0908683432653
 20
-492.0520731663265
 10
717.0115677732995
 20
-492.0883481714567
 10
714.6729804361521
 20
-492.0657071141504
 10
711.9233070030762
 20
-491.9772460973947
 10
710.0071286799424
 20
-491.8819512633013
 10
707.9250883907665
 20
-491.7813582720639
 10
705.5156389991587
 20
-491.7018838102495
 10
703.0655586899083
 20
-491.6511779457311
 10
699.582504881395
 20
-491.6037000093965
 10
696.2094950712757
 20
-491.5710527476816
 10
691.9014797529206
 20
-491.528078840951
 10
687.8308284724234
 20
-491.4934003777051
 10
683.8745454054517
 20
-491.4924284190686
 10
679.9096347276718
 20
-491.5505740261657
 10
673.0883389061764
 20
-491.8143102644431
 10
665.8194507169986
 20
-492.1701752738724
 10
661.7957200216271
 20
-492.3389789120133
 10
657.8018424465129
 20
-492.4740609045627
 10
654.8753584092543
 20
-492.5512552128897
 10
653.3015205666865
 20
-492.5756989211978
 10
651.9405988739999
 20
-492.5730893445977
 10
650.9023287702184
 20
-492.555119006382
 10
650.0933613531582
 20
-492.5418025531022
 10
648.8586731019316
 20
-492.5456622074809
 10
647.8848630081573
 20
-492.5979273213728
 10
645.4507648007794
 20
-492.6957487105225
 10
645.4507540536162
 20
-492.695748547809
 10
645.4507540536162
 20
-492.695748547809
  0
LWPOLYLINE
  5
9CD
330
A
100
AcDbEntity
  8
0
  6
PHANTOM
 62
     7
100
AcDbPolyline
 90
       29
 70
   128
 43
0.0
 10
645.4508109727145
 20
-492.6967968564956
 10
645.4508001502119
 20
-492.6967966064857
 10
644.477766929235
 20
-492.5997144609167
 10
644.3611652474149
 20
-492.4389756714503
 10
644.6334373639997
 20
-492.30242859465
 10
644.7261300274485
 20
-492.2479307409338
 10
644.4567596426261
 20
-492.2121667994411
 10
643.6752010854079
 20
-492.1812905936126
 10
642.1652039877645
 20
-492.1429944034413
 10
639.9469312287164
 20
-492.1059734553275
 10
637.8902723379824
 20
-492.0870884188103
 10
635.410424888554
 20
-492.0834109812793
 10
632.5302992112972
 20
-492.0946176796005
 10
629.3870669003966
 20
-492.1126258372711
 10
623.9395983328717
 20
-492.1529648595948
 10
618.3431647775846
 20
-492.2026293701608
 10
612.7214814801477
 20
-492.2569630686478
 10
607.6044460867235
 20
-492.3009523434017
 10
604.4531409121539
 20
-492.3164066123003
 10
601.4237325428174
 20
-492.3085513472437
 10
599.3422991108958
 20
-492.276851736717
 10
597.5131882453747
 20
-492.2323728701329
 10
594.782368599816
 20
-492.1595023548278
 10
592.0763883353827
 20
-492.1005707665042
 10
586.8072167705082
 20
-492.0248665316843
 10
582.1341996119212
 20
-491.9698752014617
 10
578.3875244942648
 20
-491.9241137930746
 10
576.4798014175045
 20
-491.8954017836
 10
575.3191836152659
 20
-491.8676335334392
  0
LWPOLYLINE
  5
9EC
330
A
100
AcDbEntity
  8
0
  6
PHANTOM
 62
     7
100
AcDbPolyline
 90
        4
 70
   128
 43
0.0
 10
779.6948444047735
 20
-492.6299249327804
 10
776.7166234723529
 20
-492.5169485213417
 10
774.5929137022553
 20
-492.4067279047087
 10
773.5216558837036
 20
-492.3350715608401
  0
LWPOLYLINE
  5
9F2
330
A
100
AcDbEntity
  8
0
  6
PHANTOM
 62
     7
100
AcDbPolyline
 90
        9
 70
   128
 43
0.0
 10
1003.139432548746
 20
-492.6967968564956
 10
1003.139402295728
 20
-492.6967966064857
 10
998.4011941607656
 20
-492.5997144609167
 10
993.1228686194138
 20
-492.4389756714503
 10
987.6507750699541
 20
-492.30242859465
 10
983.770770426079
 20
-492.2479307409338
 10
980.0750080670571
 20
-492.2121667994411
 10
976.7073060204955
 20
-492.1812905936126
 10
975.9211290817312
 20
-492.1717570465621
  0
LWPOLYLINE
  5
9FD
330
A
100
AcDbEntity
  8
0
  6
PHANTOM
 62
     7
100
AcDbPolyline
 90
       24
 70
   128
 43
0.0
 10
979.9737016296214
 20
-492.2875343541099
 10
979.9852769786761
 20
-492.276851736717
 10
979.5737283934839
 20
-492.2323728701329
 10
977.9400707946786
 20
-492.1595023548278
 10
975.2331920224031
 20
-492.1005707665042
 10
968.9437719703711
 20
-492.0248665316843
 10
962.1072086926307
 20
-491.9698752014617
 10
954.5215311893638
 20
-491.9241137930746
 10
949.1250305125054
 20
-491.8954017836
 10
943.2597287739438
 20
-491.8667520301062
 10
941.0232904173479
 20
-491.8565368974523
 10
938.6298728984108
 20
-491.8501421378182
 10
935.856586892681
 20
-491.8589415098316
 10
933.343340168609
 20
-491.8929516708599
 10
932.4217986353309
 20
-491.9046822129381
 10
929.8254136756224
 20
-491.9234120531369
 10
927.521665273449
 20
-491.9201672601944
 10
924.9532089964485
 20
-491.8941921712472
 10
922.6332618587445
 20
-491.8490401407819
 10
916.5381100235936
 20
-491.6680650314949
 10
910.8151847919881
 20
-491.4445533054442
 10
904.7223586127564
 20
-491.1843721131942
 10
904.7223328427739
 20
-491.1843710209668
 10
904.7223328427739
 20
-491.1843710209668
  0
LWPOLYLINE
  5
A17
330
A
100
AcDbEntity
  8
0
  6
PHANTOM
 62
     7
100
AcDbPolyline
 90
       31
 70
   128
 43
0.0
 10
904.7223303148312
 20
-491.1841686233765
 10
904.7223045402121
 20
-491.184167527865
 10
900.9079326389359
 20
-491.0254514390964
 10
896.5186203404254
 20
-490.8665801120878
 10
893.288837626318
 20
-490.777711705549
 10
889.7915371350574
 20
-490.7184410162837
 10
885.9583585406026
 20
-490.694294020506
 10
882.0073995464509
 20
-490.7117958319301
 10
877.9684034897517
 20
-490.779270633192
 10
874.0464280765348
 20
-490.8781416717692
 10
868.4075320369878
 20
-491.0478578422043
 10
863.1629772729823
 20
-491.2229117857217
 10
857.3715589349028
 20
-491.4327060496118
 10
851.7973982895021
 20
-491.6304250291839
 10
846.1287360257538
 20
-491.7868994309274
 10
842.5914822899763
 20
-491.8471414430079
 10
838.8596044761314
 20
-491.897084056465
 10
834.9010963114873
 20
-491.9648998681206
 10
831.0412475572691
 20
-492.0663517165474
 10
827.0521546605451
 20
-492.1839602669094
 10
823.531344731632
 20
-492.2742911463201
 10
820.0947188064041
 20
-492.353292134254
 10
815.2092353599533
 20
-492.4678772768581
 10
810.5324390244097
 20
-492.5924825957499
 10
804.7238017267968
 20
-492.8022080162607
 10
801.4144251374945
 20
-492.9719670638924
 10
798.5677943280438
 20
-493.1694686144036
 10
797.2491614296602
 20
-493.2887043559669
 10
796.2983887204148
 20
-493.3861612868958
 10
795.7989654759152
 20
-493.438056284306
 10
795.7177451833985
 20
-493.449469906544
  0
LWPOLYLINE
  5
A38
330
A
100
AcDbEntity
  8
0
  6
PHANTOM
 62
     7
100
AcDbPolyline
 90
        8
 70
   128
 43
0.0
 10
795.6863608542016
 20
-492.4858164730522
 10
793.4603506755676
 20
-492.4636710806179
 10
789.7995256391673
 20
-492.4114534182869
 10
786.7090322093859
 20
-492.3604988402198
 10
784.590319996008
 20
-492.3212719444477
 10
783.2823762222824
 20
-492.2688976977712
 10
781.0475086253546
 20
-492.0726722178446
 10
779.8163116906445
 20
-492.1954092678145
  0
LINE
  5
A42
330
A
100
AcDbEntity
  8
0
  6
PHANTOM
 62
     7
100
AcDbLine
 10
1003.139557752009
 20
-492.695748547809
 30
0.0
 11
1003.139527421805
 21
-492.6957488151594
 31
0.0
  0
LWPOLYLINE
  5
A43
330
A
100
AcDbEntity
  8
0
  6
PHANTOM
 62
     7
100
AcDbPolyline
 90
       11
 70
   128
 43
0.0
 10
1016.842330376615
 20
-492.5456034153973
 10
1016.867781486462
 20
-492.5512552128897
 10
1016.758067096966
 20
-492.5756989211978
 10
1016.31669419249
 20
-492.5730893445977
 10
1015.552538772774
 20
-492.555119006382
 10
1014.550804286283
 20
-492.5418025531022
 10
1012.025357954566
 20
-492.5456622074809
 10
1009.291838117601
 20
-492.5979273213728
 10
1003.139588060159
 20
-492.6957487105225
 10
1003.139557752009
 20
-492.695748547809
 10
1003.139557752009
 20
-492.695748547809
  0
ENDSEC
  0
SECTION
  2
OBJECTS
  0
DICTIONARY
  5
19
330
0
100
AcDbDictionary
281
     1
  3
ACAD_COLOR
350
A54
  3
ACAD_GROUP
350
1A
  3
ACAD_LAYOUT
350
A55
  3
ACAD_MATERIAL
350
A53
  3
ACAD_MLINESTYLE
350
1B
  3
ACAD_PLOTSETTINGS
350
A56
  3
ACAD_PLOTSTYLENAME
350
A51
  3
ACDBHEADERROUNDTRIPXREC
350
A6E
  3
AcDbVariableDictionary
350
A67
  3
ASE_INDEX_DICTIONARY
350
A5C
  0
DICTIONARY
  5
A54
102
{ACAD_REACTORS
330
19
102
}
330
19
100
AcDbDictionary
281
     1
  0
DICTIONARY
  5
1A
102
{ACAD_REACTORS
330
19
102
}
330
19
100
AcDbDictionary
281
     1
  0
DICTIONARY
  5
A55
102
{ACAD_REACTORS
330
19
102
}
330
19
100
AcDbDictionary
281
     1
  3
Layout1
350
A58
  3
Model
350
A57
  0
DICTIONARY
  5
A53
102
{ACAD_REACTORS
330
19
102
}
330
19
100
AcDbDictionary
281
     1
  0
DICTIONARY
  5
1B
102
{ACAD_REACTORS
330
19
102
}
330
19
100
AcDbDictionary
281
     1
  3
STANDARD
350
1C
  0
DICTIONARY
  5
A56
102
{ACAD_REACTORS
330
19
102
}
330
19
100
AcDbDictionary
281
     1
  0
ACDBDICTIONARYWDFLT
  5
A51
102
{ACAD_REACTORS
330
19
102
}
330
19
100
AcDbDictionary
281
     1
  3
Normal
350
A52
100
AcDbDictionaryWithDefault
340
A52
  0
DICTIONARY
  5
A6E
102
{ACAD_REACTORS
330
19
102
}
330
19
100
AcDbDictionary
281
     1
  3
COLORDICT
350
A70
  3
MATERIALDICT
350
A6F
  0
DICTIONARY
  5
A67
102
{ACAD_REACTORS
330
19
102
}
330
19
100
AcDbDictionary
281
     1
  3
DIMASSOC
350
A68
  3
PROJECTNAME
350
A69
  0
DICTIONARY
  5
A5C
102
{ACAD_REACTORS
330
19
102
}
330
19
100
AcDbDictionary
281
     1
  3
ASEBlockHierarchyIndexRecord
350
A5E
1001
DCO15
1040
1521898345.875
  0
LAYOUT
  5
A58
102
{ACAD_XDICTIONARY
360
A73
102
}
102
{ACAD_REACTORS
330
A55
102
}
330
A55
100
AcDbPlotSettings
  1

  2
ProgeSOFT PDF Wizard
  4

  6

 40
0.0
 41
0.0
 42
0.0
 43
0.0
 44
0.0
 45
0.0
 46
0.0
 47
0.0
 48
0.0
 49
0.0
140
0.0
141
0.0
142
1.0
143
1.0
 70
   688
 72
     0
 73
     0
 74
     5
  7

 75
    16
147
1.0
148
0.0
149
0.0
100
AcDbLayout
  1
Layout1
 70
     1
 71
     1
 10
0.0
 20
0.0
 11
12.0
 21
9.0
 12
0.0
 22
0.0
 32
0.0
 14
1.000000000000000E+20
 24
1.000000000000000E+20
 34
1.000000000000000E+20
 15
-1.000000000000000E+20
 25
-1.000000000000000E+20
 35
-1.000000000000000E+20
146
0.0
 13
0.0
 23
0.0
 33
0.0
 16
1.0
 26
0.0
 36
0.0
 17
0.0
 27
1.0
 37
0.0
 76
     0
330
B
  0
LAYOUT
  5
A57
102
{ACAD_XDICTIONARY
360
A71
102
}
102
{ACAD_REACTORS
330
A55
102
}
330
A55
100
AcDbPlotSettings
  1

  2
ProgeSOFT PDF Wizard
  4

  6

 40
0.0
 41
0.0
 42
0.0
 43
0.0
 44
0.0
 45
0.0
 46
0.0
 47
0.0
 48
0.0
 49
0.0
140
0.0
141
0.0
142
1.0
143
1.0
 70
  1712
 72
     0
 73
     0
 74
     0
  7

 75
     0
147
1.0
148
0.0
149
0.0
100
AcDbLayout
  1
Model
 70
     1
 71
     0
 10
0.0
 20
0.0
 11
12.0
 21
9.0
 12
0.0
 22
0.0
 32
0.0
 14
0.0
 24
0.0
 34
0.0
 15
0.0
 25
0.0
 35
0.0
146
0.0
 13
0.0
 23
0.0
 33
0.0
 16
1.0
 26
0.0
 36
0.0
 17
0.0
 27
1.0
 37
0.0
 76
     0
330
A
  0
MLINESTYLE
  5
1C
102
{ACAD_REACTORS
330
1B
102
}
330
1B
100
AcDbMlineStyle
  2
STANDARD
 70
     0
  3

 62
     0
 51
90.0
 52
90.0
 71
     2
 49
0.5
 62
   256
  6
BYLAYER
 49
-0.5
 62
   256
  6
BYLAYER
  0
ACDBPLACEHOLDER
  5
A52
102
{ACAD_REACTORS
330
A51
102
}
330
A51
  0
XRECORD
  5
A70
102
{ACAD_REACTORS
330
A6E
102
}
330
A6E
100
AcDbXrecord
280
     1
340
A54
  0
XRECORD
  5
A6F
102
{ACAD_REACTORS
330
A6E
102
}
330
A6E
100
AcDbXrecord
280
     1
340
A53
  0
DICTIONARYVAR
  5
A68
102
{ACAD_REACTORS
330
A67
102
}
330
A67
100
DictionaryVariables
280
     0
  1
1
  0
DICTIONARYVAR
  5
A69
102
{ACAD_REACTORS
330
A67
102
}
330
A67
100
DictionaryVariables
280
     0
  1

  0
XRECORD
  5
A5E
102
{ACAD_REACTORS
330
A5C
102
}
330
A5C
100
AcDbXrecord
280
     1
  0
DICTIONARY
  5
A73
330
A58
100
AcDbDictionary
280
     1
281
     1
  3
ACAD_XREC_ROUNDTRIP
360
A74
  0
DICTIONARY
  5
A71
330
A57
100
AcDbDictionary
280
     1
281
     1
  3
ACAD_XREC_ROUNDTRIP
360
A72
  0
XRECORD
  5
A74
102
{ACAD_REACTORS
330
A73
102
}
330
A73
100
AcDbXrecord
280
     1
102
SHADEPLOT
 70
     0
102
SHADEPLOTRESLEVEL
 70
     2
102
SHADEPLOTCUSTOMDPI
 70
   300
  0
XRECORD
  5
A72
102
{ACAD_REACTORS
330
A71
102
}
330
A71
100
AcDbXrecord
280
     1
102
SHADEPLOT
 70
     0
102
SHADEPLOTRESLEVEL
 70
     2
102
SHADEPLOTCUSTOMDPI
 70
   300
  0
ENDSEC
  0
EOF
