  0
SECTION
  2
HEADER
  9
$ACADVER
  1
AC1015
  9
$ACADMAINTVER
 70
    20
  9
$DWGCODEPAGE
  3
ANSI_1252
  9
$INSBASE
 10
0.0
 20
0.0
 30
0.0
  9
$EXTMIN
 10
-292.9924293241426
 20
-1274.682803097153
 30
0.0
  9
$EXTMAX
 10
865.6766939592722
 20
1063.975764754467
 30
0.0
  9
$LIMMIN
 10
0.0
 20
0.0
  9
$LIMMAX
 10
0.0
 20
0.0
  9
$ORTHOMODE
 70
     0
  9
$REGENMODE
 70
     1
  9
$FILLMODE
 70
     1
  9
$QTEXTMODE
 70
     0
  9
$MIRRTEXT
 70
     1
  9
$LTSCALE
 40
1.0
  9
$ATTMODE
 70
     1
  9
$TEXTSIZE
 40
0.0
  9
$TRACEWID
 40
0.05
  9
$TEXTSTYLE
  7
STANDARD
  9
$CLAYER
  8
0
  9
$CELTYPE
  6
CONTINUOUS
  9
$CECOLOR
 62
   256
  9
$CELTSCALE
 40
1.0
  9
$DISPSILH
 70
     0
  9
$DIMSCALE
 40
1.0
  9
$DIMASZ
 40
6.0
  9
$DIMEXO
 40
1.0
  9
$DIMDLI
 40
0.38
  9
$DIMRND
 40
0.0
  9
$DIMDLE
 40
1.0
  9
$DIMEXE
 40
0.18
  9
$DIMTP
 40
0.0
  9
$DIMTM
 40
0.0
  9
$DIMTXT
 40
3.5
  9
$DIMCEN
 40
0.09
  9
$DIMTSZ
 40
0.0
  9
$DIMTOL
 70
     0
  9
$DIMLIM
 70
     0
  9
$DIMTIH
 70
     1
  9
$DIMTOH
 70
     1
  9
$DIMSE1
 70
     0
  9
$DIMSE2
 70
     0
  9
$DIMTAD
 70
     1
  9
$DIMZIN
 70
     0
  9
$DIMBLK
  1

  9
$DIMASO
 70
     1
  9
$DIMSHO
 70
     1
  9
$DIMPOST
  1

  9
$DIMAPOST
  1

  9
$DIMALT
 70
     0
  9
$DIMALTD
 70
     2
  9
$DIMALTF
 40
0.0394
  9
$DIMLFAC
 40
1.0
  9
$DIMTOFL
 70
     0
  9
$DIMTVP
 40
0.0
  9
$DIMTIX
 70
     0
  9
$DIMSOXD
 70
     0
  9
$DIMSAH
 70
     0
  9
$DIMBLK1
  1

  9
$DIMBLK2
  1

  9
$DIMSTYLE
  2
STANDARD
  9
$DIMCLRD
 70
     0
  9
$DIMCLRE
 70
     0
  9
$DIMCLRT
 70
     0
  9
$DIMTFAC
 40
1.0
  9
$DIMGAP
 40
1.0
  9
$DIMJUST
 70
     0
  9
$DIMSD1
 70
     0
  9
$DIMSD2
 70
     0
  9
$DIMTOLJ
 70
     1
  9
$DIMTZIN
 70
     0
  9
$DIMALTZ
 70
     0
  9
$DIMALTTZ
 70
     0
  9
$DIMUPT
 70
     0
  9
$DIMDEC
 70
     4
  9
$DIMTDEC
 70
     4
  9
$DIMALTU
 70
     2
  9
$DIMALTTD
 70
     2
  9
$DIMTXSTY
  7
STANDARD
  9
$DIMAUNIT
 70
     0
  9
$DIMADEC
 70
     0
  9
$DIMALTRND
 40
0.0
  9
$DIMAZIN
 70
     0
  9
$DIMDSEP
 70
    46
  9
$DIMATFIT
 70
     3
  9
$DIMFRAC
 70
     0
  9
$DIMLDRBLK
  1

  9
$DIMLUNIT
 70
     2
  9
$DIMLWD
 70
    -2
  9
$DIMLWE
 70
    -2
  9
$DIMTMOVE
 70
     0
  9
$LUNITS
 70
     2
  9
$LUPREC
 70
     2
  9
$SKETCHINC
 40
0.1
  9
$FILLETRAD
 40
0.0
  9
$AUNITS
 70
     0
  9
$AUPREC
 70
     2
  9
$MENU
  1
acad
  9
$ELEVATION
 40
0.0
  9
$PELEVATION
 40
0.0
  9
$THICKNESS
 40
0.0
  9
$LIMCHECK
 70
     0
  9
$CHAMFERA
 40
0.0
  9
$CHAMFERB
 40
0.0
  9
$CHAMFERC
 40
0.0
  9
$CHAMFERD
 40
0.0
  9
$SKPOLY
 70
     0
  9
$TDCREATE
 40
2444972.041666667
  9
$TDUCREATE
 40
2444972.000000000
  9
$TDUPDATE
 40
2453768.763667165
  9
$TDUUPDATE
 40
2453768.722000498
  9
$TDINDWG
 40
0.0061349884
  9
$TDUSRTIMER
 40
0.0061349884
  9
$USRTIMER
 70
     1
  9
$ANGBASE
 50
0.0
  9
$ANGDIR
 70
     0
  9
$PDMODE
 70
     0
  9
$PDSIZE
 40
-1.0
  9
$PLINEWID
 40
0.0
  9
$SPLFRAME
 70
     0
  9
$SPLINETYPE
 70
     6
  9
$SPLINESEGS
 70
     8
  9
$HANDSEED
  5
ADA
  9
$SURFTAB1
 70
     6
  9
$SURFTAB2
 70
     6
  9
$SURFTYPE
 70
     6
  9
$SURFU
 70
     6
  9
$SURFV
 70
     6
  9
$UCSBASE
  2

  9
$UCSNAME
  2

  9
$UCSORG
 10
0.0
 20
0.0
 30
0.0
  9
$UCSXDIR
 10
1.0
 20
0.0
 30
0.0
  9
$UCSYDIR
 10
0.0
 20
1.0
 30
0.0
  9
$UCSORTHOREF
  2

  9
$UCSORTHOVIEW
 70
     1
  9
$UCSORGTOP
 10
0.0
 20
0.0
 30
0.0
  9
$UCSORGBOTTOM
 10
0.0
 20
0.0
 30
0.0
  9
$UCSORGLEFT
 10
0.0
 20
0.0
 30
0.0
  9
$UCSORGRIGHT
 10
0.0
 20
0.0
 30
0.0
  9
$UCSORGFRONT
 10
0.0
 20
0.0
 30
0.0
  9
$UCSORGBACK
 10
0.0
 20
0.0
 30
0.0
  9
$PUCSBASE
  2

  9
$PUCSNAME
  2

  9
$PUCSORG
 10
0.0
 20
0.0
 30
0.0
  9
$PUCSXDIR
 10
1.0
 20
0.0
 30
0.0
  9
$PUCSYDIR
 10
0.0
 20
1.0
 30
0.0
  9
$PUCSORTHOREF
  2

  9
$PUCSORTHOVIEW
 70
     0
  9
$PUCSORGTOP
 10
0.0
 20
0.0
 30
0.0
  9
$PUCSORGBOTTOM
 10
0.0
 20
0.0
 30
0.0
  9
$PUCSORGLEFT
 10
0.0
 20
0.0
 30
0.0
  9
$PUCSORGRIGHT
 10
0.0
 20
0.0
 30
0.0
  9
$PUCSORGFRONT
 10
0.0
 20
0.0
 30
0.0
  9
$PUCSORGBACK
 10
0.0
 20
0.0
 30
0.0
  9
$USERI1
 70
     0
  9
$USERI2
 70
     0
  9
$USERI3
 70
     0
  9
$USERI4
 70
     0
  9
$USERI5
 70
     0
  9
$USERR1
 40
0.0
  9
$USERR2
 40
0.0
  9
$USERR3
 40
0.0
  9
$USERR4
 40
0.0
  9
$USERR5
 40
0.0
  9
$WORLDVIEW
 70
     1
  9
$SHADEDGE
 70
     3
  9
$SHADEDIF
 70
    70
  9
$TILEMODE
 70
     1
  9
$MAXACTVP
 70
    16
  9
$PINSBASE
 10
0.0
 20
0.0
 30
0.0
  9
$PLIMCHECK
 70
     0
  9
$PEXTMIN
 10
1.000000000000000E+20
 20
1.000000000000000E+20
 30
1.000000000000000E+20
  9
$PEXTMAX
 10
-1.000000000000000E+20
 20
-1.000000000000000E+20
 30
-1.000000000000000E+20
  9
$PLIMMIN
 10
0.0
 20
0.0
  9
$PLIMMAX
 10
12.0
 20
9.0
  9
$UNITMODE
 70
     0
  9
$VISRETAIN
 70
     0
  9
$PLINEGEN
 70
     1
  9
$PSLTSCALE
 70
     1
  9
$TREEDEPTH
 70
  3020
  9
$CMLSTYLE
  2
STANDARD
  9
$CMLJUST
 70
     0
  9
$CMLSCALE
 40
1.0
  9
$PROXYGRAPHICS
 70
     0
  9
$MEASUREMENT
 70
     0
  9
$CELWEIGHT
370
    -1
  9
$ENDCAPS
280
     0
  9
$JOINSTYLE
280
     0
  9
$LWDISPLAY
290
     0
  9
$INSUNITS
 70
     0
  9
$HYPERLINKBASE
  1

  9
$STYLESHEET
  1

  9
$XEDIT
290
     1
  9
$CEPSNTYPE
380
     0
  9
$PSTYLEMODE
290
     1
  9
$FINGERPRINTGUID
  2
{42AD5DE2-26F0-45DA-BFEE-A3D9F55B190A}
  9
$VERSIONGUID
  2
{D31692E2-6507-41E3-A35E-A0F76827FFD5}
  9
$EXTNAMES
290
     1
  9
$PSVPSCALE
 40
0.0
  9
$OLESTARTUP
290
     0
  0
ENDSEC
  0
SECTION
  2
CLASSES
  0
CLASS
  1
IMAGE
  2
AcDbRasterImage
  3
ISM
 90
    32895
280
     0
281
     1
  0
CLASS
  1
DICTIONARYVAR
  2
AcDbDictionaryVar
  3
ObjectDBX Classes
 90
        0
280
     0
281
     0
  0
CLASS
  1
RASTERVARIABLES
  2
AcDbRasterVariables
  3
ISM
 90
    32768
280
     0
281
     0
  0
CLASS
  1
IMAGEDEF
  2
AcDbRasterImageDef
  3
ISM
 90
    32768
280
     0
281
     0
  0
CLASS
  1
IMAGEDEF_REACTOR
  2
AcDbRasterImageDefReactor
  3
ISM
 90
    32769
280
     0
281
     0
  0
CLASS
  1
IDBUFFER
  2
AcDbIdBuffer
  3
ObjectDBX Classes
 90
    32768
280
     0
281
     0
  0
CLASS
  1
SPATIAL_FILTER
  2
AcDbSpatialFilter
  3
ObjectDBX Classes
 90
    32768
280
     0
281
     0
  0
CLASS
  1
SORTENTSTABLE
  2
AcDbSortentsTable
  3
ObjectDBX Classes
 90
    32768
280
     0
281
     0
  0
CLASS
  1
LAYER_INDEX
  2
AcDbLayerIndex
  3
ObjectDBX Classes
 90
    32768
280
     0
281
     0
  0
CLASS
  1
SPATIAL_INDEX
  2
AcDbSpatialIndex
  3
ObjectDBX Classes
 90
    32768
280
     0
281
     0
  0
CLASS
  1
OBJECT_PTR
  2
CAseDLPNTableRecord
  3
ASE-LPNTableRecord
 90
    32769
280
     0
281
     0
  0
CLASS
  1
LAYOUT
  2
AcDbLayout
  3
ObjectDBX Classes
 90
        0
280
     0
281
     0
  0
CLASS
  1
PLOTSETTINGS
  2
AcDbPlotSettings
  3
ObjectDBX Classes
 90
    32768
280
     0
281
     0
  0
CLASS
  1
ACDBDICTIONARYWDFLT
  2
AcDbDictionaryWithDefault
  3
ObjectDBX Classes
 90
        0
280
     0
281
     0
  0
CLASS
  1
ACDBPLACEHOLDER
  2
AcDbPlaceHolder
  3
ObjectDBX Classes
 90
        0
280
     0
281
     0
  0
CLASS
  1
VBA_PROJECT
  2
AcDbVbaProject
  3
acad
 90
    32768
280
     0
281
     0
  0
CLASS
  1
WIPEOUT
  2
AcDbWipeout
  3
"WipeOut|Product Desc: Object Enabler for WipeOut entity^I^I^I^I^I^I|Company: Autodesk, Inc.^I^I^I^I^I^I|WEB Address: www.autodesk.com"
 90
    32895
280
     0
281
     1
  0
CLASS
  1
WIPEOUTVARIABLES
  2
AcDbWipeoutVariables
  3
"WipeOut|Product Desc:     WipeOut Dbx Application|Company:          Autodesk, Inc.|WEB Address:      www.autodesk.com"
 90
    32768
280
     0
281
     0
  0
CLASS
  1
RTEXT
  2
RText
  3
RText|AutoCAD Express Tool|expresstools@autodesk.com
 90
    32768
280
     0
281
     1
  0
CLASS
  1
ARCALIGNEDTEXT
  2
AcDbArcAlignedText
  3
ATEXT|AutoCAD Express Tool|expresstools@autodesk.com
 90
    32768
280
     0
281
     1
  0
ENDSEC
  0
SECTION
  2
TABLES
  0
TABLE
  2
VPORT
  5
7
330
0
100
AcDbSymbolTable
 70
     2
  0
VPORT
  5
AD2
330
7
100
AcDbSymbolTableRecord
100
AcDbViewportTableRecord
  2
*Active
 70
     0
 10
0.0
 20
0.0
 11
1.0
 21
1.0
 12
412.7105909772519
 22
-105.3535191713429
 13
0.0
 23
0.0
 14
1.0
 24
1.0
 15
0.0
 25
0.0
 16
0.0
 26
0.0
 36
1.0
 17
0.0
 27
0.0
 37
0.0
 40
2358.395754836728
 41
1.569570871261378
 42
50.0
 43
0.0
 44
0.0
 50
0.0
 51
0.0
 71
     0
 72
  2000
 73
     1
 74
     1
 75
     0
 76
     0
 77
     0
 78
     0
281
     0
 65
     1
110
0.0
120
0.0
130
0.0
111
1.0
121
0.0
131
0.0
112
0.0
122
1.0
132
0.0
 79
     1
146
0.0
  0
ENDTAB
  0
TABLE
  2
LTYPE
  5
4
330
0
100
AcDbSymbolTable
 70
     6
  0
LTYPE
  5
11
330
4
100
AcDbSymbolTableRecord
100
AcDbLinetypeTableRecord
  2
BYBLOCK
 70
     0
  3

 72
    65
 73
     0
 40
0.0
  0
LTYPE
  5
12
330
4
100
AcDbSymbolTableRecord
100
AcDbLinetypeTableRecord
  2
BYLAYER
 70
     0
  3

 72
    65
 73
     0
 40
0.0
  0
LTYPE
  5
13
330
4
100
AcDbSymbolTableRecord
100
AcDbLinetypeTableRecord
  2
CONTINUOUS
 70
     0
  3
Solid line
 72
    65
 73
     0
 40
0.0
  0
LTYPE
  5
1E
330
4
100
AcDbSymbolTableRecord
100
AcDbLinetypeTableRecord
  2
HIDDEN
 70
     0
  3
Hidden __ __ __ __ __ __ __ __ __ __ __ __ __ __
 72
    65
 73
     2
 40
1.905
 49
1.27
 74
     0
 49
-0.635
 74
     0
  0
LTYPE
  5
1F
330
4
100
AcDbSymbolTableRecord
100
AcDbLinetypeTableRecord
  2
PHANTOM
 70
     0
  3
Phantom ______  __  __  ______  __  __  ______
 72
    65
 73
     6
 40
12.7
 49
6.349999999999999
 74
     0
 49
-1.27
 74
     0
 49
1.27
 74
     0
 49
-1.27
 74
     0
 49
1.27
 74
     0
 49
-1.27
 74
     0
  0
LTYPE
  5
20
330
4
100
AcDbSymbolTableRecord
100
AcDbLinetypeTableRecord
  2
CENTER
 70
     0
  3
Center ____ _ ____ _ ____ _ ____ _ ____ _ ____
 72
    65
 73
     4
 40
10.16
 49
6.349999999999999
 74
     0
 49
-1.27
 74
     0
 49
1.27
 74
     0
 49
-1.27
 74
     0
  0
LTYPE
  5
21
330
4
100
AcDbSymbolTableRecord
100
AcDbLinetypeTableRecord
  2
CENTERX2
 70
     0
  3
Center (2x) ________  __  ________  __  _____
 72
    65
 73
     4
 40
20.32
 49
12.7
 74
     0
 49
-2.54
 74
     0
 49
2.54
 74
     0
 49
-2.54
 74
     0
  0
LTYPE
  5
22
330
4
100
AcDbSymbolTableRecord
100
AcDbLinetypeTableRecord
  2
DOT2
 70
     0
  3
Dot (.5x) ........................................
 72
    65
 73
     2
 40
0.635
 49
0.0
 74
     0
 49
-0.635
 74
     0
  0
ENDTAB
  0
TABLE
  2
LAYER
  5
2
330
0
100
AcDbSymbolTable
 70
     2
  0
LAYER
  5
14
330
2
100
AcDbSymbolTableRecord
100
AcDbLayerTableRecord
  2
0
 70
     0
 62
     7
  6
CONTINUOUS
370
    -3
390
AB7
  0
LAYER
  5
26
330
2
100
AcDbSymbolTableRecord
100
AcDbLayerTableRecord
  2
DEFPOINTS
 70
     0
 62
     7
  6
CONTINUOUS
290
     0
370
    -3
390
AB7
  0
ENDTAB
  0
TABLE
  2
STYLE
  5
3
330
0
100
AcDbSymbolTable
 70
     1
  0
STYLE
  5
17
330
3
100
AcDbSymbolTableRecord
100
AcDbTextStyleTableRecord
  2
STANDARD
 70
     0
 40
0.0
 41
1.0
 50
0.0
 71
     0
 42
0.0
  3
Century Gothic
  4

  0
ENDTAB
  0
TABLE
  2
VIEW
  5
5
330
0
100
AcDbSymbolTable
 70
     0
  0
ENDTAB
  0
TABLE
  2
UCS
  5
6
330
0
100
AcDbSymbolTable
 70
     0
  0
ENDTAB
  0
TABLE
  2
APPID
  5
8
330
0
100
AcDbSymbolTable
 70
     2
  0
APPID
  5
16
330
8
100
AcDbSymbolTableRecord
100
AcDbRegAppTableRecord
  2
ACAD
 70
     0
  0
APPID
  5
AC2
330
8
100
AcDbSymbolTableRecord
100
AcDbRegAppTableRecord
  2
DCO15
 70
     0
  0
ENDTAB
  0
TABLE
  2
DIMSTYLE
  5
9
330
0
100
AcDbSymbolTable
 70
     1
100
AcDbDimStyleTable
 71
     0
  0
DIMSTYLE
105
18
330
9
100
AcDbSymbolTableRecord
100
AcDbDimStyleTableRecord
  2
STANDARD
 70
     0
289
     0
340
17
  0
ENDTAB
  0
TABLE
  2
BLOCK_RECORD
  5
1
330
0
100
AcDbSymbolTable
 70
     0
  0
BLOCK_RECORD
  5
A
330
1
100
AcDbSymbolTableRecord
100
AcDbBlockTableRecord
  2
*MODEL_SPACE
340
ABC
  0
BLOCK_RECORD
  5
B
330
1
100
AcDbSymbolTableRecord
100
AcDbBlockTableRecord
  2
*PAPER_SPACE
340
ABD
  0
ENDTAB
  0
ENDSEC
  0
SECTION
  2
BLOCKS
  0
BLOCK
  5
D
330
A
100
AcDbEntity
  8
0
100
AcDbBlockBegin
  2
*MODEL_SPACE
 70
     0
 10
0.0
 20
0.0
 30
0.0
  3
*MODEL_SPACE
  1

  0
ENDBLK
  5
E
330
A
100
AcDbEntity
  8
0
100
AcDbBlockEnd
  0
BLOCK
  5
F
330
B
100
AcDbEntity
 67
     1
  8
0
100
AcDbBlockBegin
  2
*PAPER_SPACE
 70
     0
 10
0.0
 20
0.0
 30
0.0
  3
*PAPER_SPACE
  1

  0
ENDBLK
  5
10
330
B
100
AcDbEntity
 67
     1
  8
0
100
AcDbBlockEnd
  0
ENDSEC
  0
SECTION
  2
ENTITIES
  0
ARC
  5
27
330
A
100
AcDbEntity
  8
0
  6
Continuous
 62
     7
100
AcDbCircle
 10
65.36507759769854
 20
1264.213840548279
 30
0.0
 40
250.9999999999999
100
AcDbArc
 50
248.7431291678446
 51
257.2588847993186
  0
ARC
  5
28
330
A
100
AcDbEntity
  8
0
  6
Continuous
 62
     7
100
AcDbCircle
 10
65.36507759769854
 20
1264.213840548279
 30
0.0
 40
250.9999999999996
100
AcDbArc
 50
257.7186684994666
 51
269.7717293582164
  0
ARC
  5
29
330
A
100
AcDbEntity
  8
0
  6
Continuous
 62
     7
100
AcDbCircle
 10
65.36507759769854
 20
1264.213840548279
 30
0.0
 40
250.9999999999998
100
AcDbArc
 50
270.2282706417853
 51
282.2813315005351
  0
ARC
  5
2A
330
A
100
AcDbEntity
  8
0
  6
Continuous
 62
     7
100
AcDbCircle
 10
65.36507759769854
 20
1264.213840548279
 30
0.0
 40
250.9999999999999
100
AcDbArc
 50
282.741115200683
 51
291.256870832157
  0
LINE
  5
2B
330
A
100
AcDbEntity
  8
0
  6
Continuous
 62
     7
100
AcDbLine
 10
-25.63492240230142
 20
1036.975764754467
 30
0.0
 11
-25.63492240230142
 21
1030.290776272864
 31
0.0
  0
LINE
  5
2C
330
A
100
AcDbEntity
  8
0
  6
Continuous
 62
     7
100
AcDbLine
 10
156.3650775976985
 20
1030.290776272864
 30
0.0
 11
156.3650775976986
 21
1036.975764754467
 31
0.0
  0
LINE
  5
2D
330
A
100
AcDbEntity
  8
0
  6
Continuous
 62
     7
100
AcDbLine
 10
-0.6349224023014245
 20
1063.975764754467
 30
0.0
 11
-0.6349224023014245
 21
1036.975764754467
 31
0.0
  0
LINE
  5
2E
330
A
100
AcDbEntity
  8
0
  6
Continuous
 62
     7
100
AcDbLine
 10
131.3650775976986
 20
1036.975764754467
 30
0.0
 11
131.3650775976986
 21
1063.975764754467
 31
0.0
  0
LINE
  5
2F
330
A
100
AcDbEntity
  8
0
  6
Continuous
 62
     7
100
AcDbLine
 10
64.36507759769857
 20
1013.215832588057
 30
0.0
 11
64.36507759769857
 21
-462.0242352455325
 31
0.0
  0
LINE
  5
30
330
A
100
AcDbEntity
  8
0
  6
Continuous
 62
     7
100
AcDbLine
 10
66.36507759769857
 20
-462.0242352455325
 30
0.0
 11
66.36507759769857
 21
1013.215832588057
 31
0.0
  0
LINE
  5
31
330
A
100
AcDbEntity
  8
0
  6
Continuous
 62
     7
100
AcDbLine
 10
118.7557964643455
 20
1018.957992220655
 30
0.0
 11
267.6479209783089
 21
-472.0242352455325
 31
0.0
  0
LINE
  5
32
330
A
100
AcDbEntity
  8
0
  6
Continuous
 62
     7
100
AcDbLine
 10
269.6578686125919
 20
-472.0242352455325
 30
0.0
 11
120.7221705369277
 21
1019.394330988037
 31
0.0
  0
LINE
  5
33
330
A
100
AcDbEntity
  8
0
  6
Continuous
 62
     7
100
AcDbLine
 10
10.00798465846964
 20
1019.394330988037
 30
0.0
 11
-138.9277134171945
 21
-472.0242352455325
 31
0.0
  0
LINE
  5
34
330
A
100
AcDbEntity
  8
0
  6
Continuous
 62
     7
100
AcDbLine
 10
-136.9177657829119
 20
-472.0242352455325
 30
0.0
 11
11.97435873105145
 21
1018.957992220655
 31
0.0
  0
LWPOLYLINE
  5
35
330
A
100
AcDbEntity
  8
0
  6
Continuous
 62
     7
100
AcDbPolyline
 90
       28
 70
   128
 43
0.0
 10
154.5195138645088
 20
-704.0370831873495
 10
154.0868184730812
 20
-689.9984819890049
 10
153.7156678887658
 20
-677.0576772078032
 10
153.4078747550067
 20
-665.2146688437449
 10
153.1591394414799
 20
-654.4694568968298
 10
152.9632044817284
 20
-644.8220413670576
 10
152.8128369925648
 20
-636.2724222544287
 10
152.7005521081055
 20
-628.8205995589429
 10
152.6191376653467
 20
-622.4665732806004
 10
152.5620205019785
 20
-617.2103434194013
 10
152.5231356699367
 20
-613.007147103836
 10
152.4973102081773
 20
-609.7653454552609
 10
152.4813037975355
 20
-607.4822163944158
 10
152.4743201248402
 20
-606.3957135995869
 10
152.4660914760399
 20
-605.0248556449474
 10
152.4537949073105
 20
-602.735209005891
 10
152.4396026648933
 20
-599.5267736824171
 10
152.4265392958309
 20
-595.399549674526
 10
152.4184445161554
 20
-590.3535369822174
 10
152.419899013207
 20
-584.3887356054914
 10
152.4360933388692
 20
-577.5051455443483
 10
152.4798349151514
 20
-568.5131381057961
 10
152.5595743058809
 20
-558.321080140658
 10
152.687273788671
 20
-546.9289716489341
 10
152.8772369025148
 20
-534.3368126306244
 10
153.14672753063
 20
-520.5446030857286
 10
153.5168799783394
 20
-505.552343014247
 10
153.9501060089741
 20
-491.369476835958
  0
LWPOLYLINE
  5
53
330
A
100
AcDbEntity
  8
0
  6
Continuous
 62
     7
100
AcDbPolyline
 90
        9
 70
   128
 43
0.0
 10
146.8510981145868
 20
-484.0372132016701
 10
148.2595348228497
 20
-484.1782890791676
 10
149.6189976239457
 20
-484.5990601609377
 10
150.8671767994951
 20
-485.2826111572611
 10
151.9538810288394
 20
-486.2014553675785
 10
152.8354121623022
 20
-487.3186445673891
 10
153.4763223950674
 20
-488.5892547566271
 10
153.8508396812332
 20
-489.9621926269849
 10
153.9439040698164
 20
-491.3822501071808
  0
LINE
  5
5E
330
A
100
AcDbEntity
  8
0
  6
Continuous
 62
     7
100
AcDbLine
 10
-61.66731884851484
 20
-484.1585780287659
 30
0.0
 11
-60.36116025636928
 21
-484.0372132205245
 31
0.0
  0
LWPOLYLINE
  5
5F
330
A
100
AcDbEntity
  8
0
  6
Continuous
 62
     7
100
AcDbPolyline
 90
        9
 70
   128
 43
0.0
 10
-40.40610953901333
 20
-490.8371724737579
 10
-40.22161480827282
 20
-489.4998357202561
 10
-39.78721658039375
 20
-488.2216332643468
 10
-39.1186342654038
 20
-487.0488189514952
 10
-38.24006160736568
 20
-486.0238329849228
 10
-37.18329119419639
 20
-485.1837661574712
 10
-35.98656399089907
 20
-484.559017660629
 10
-34.69318552772826
 20
-484.1721950400895
 10
-33.349958818782
 20
-484.0372961047529
  0
LINE
  5
6A
330
A
100
AcDbEntity
  8
0
  6
Continuous
 62
     7
100
AcDbLine
 10
98.58464659449698
 20
-484.0372131874021
 30
0.0
 11
98.57379692669226
 21
-484.0372214395713
 31
0.0
  0
LWPOLYLINE
  5
6B
330
A
100
AcDbEntity
  8
0
  6
Continuous
 62
     7
100
AcDbPolyline
 90
       15
 70
   128
 43
0.0
 10
-202.6450421572053
 20
-644.1033095027099
 10
-202.6540407660868
 20
-644.0953519732019
 10
-202.6610610486697
 20
-644.2082080016781
 10
-202.6394881096317
 20
-644.4663848486375
 10
-202.5903869241186
 20
-644.86988251408
 10
-202.4135619655738
 20
-646.1128403004147
 10
-202.0340643101651
 20
-648.6129786191149
 10
-201.5303036616665
 20
-651.8973169610152
 10
-200.9648188246113
 20
-655.6094500167522
 10
-200.223516079876
 20
-660.5258904528768
 10
-199.4054916533469
 20
-666.0281365860526
 10
-198.2369594718667
 20
-674.0483213801761
 10
-196.9597266744241
 20
-683.0565407451397
 10
-195.586721844936
 20
-693.0527946809436
 10
-194.131071099445
 20
-704.0370831873509
  0
LWPOLYLINE
  5
7C
330
A
100
AcDbEntity
  8
0
  6
Continuous
 62
     7
100
AcDbPolyline
 90
       30
 70
   128
 43
0.0
 10
-229.0811613600409
 20
-492.4115020277809
 10
-228.0826726806887
 20
-497.8974127526921
 10
-226.547503834957
 20
-506.3485946239886
 10
-225.2057109890016
 20
-513.7508958922133
 10
-224.0565066367594
 20
-520.1043165573657
 10
-223.0989799114298
 20
-525.4088566194463
 10
-222.3321932071568
 20
-529.6645160784546
 10
-221.7552771521929
 20
-532.8712949343911
 10
-221.3675083826005
 20
-535.0291931872553
 10
-221.1325813227878
 20
-536.3375572982103
 10
-220.8559580908927
 20
-537.8785843398455
 10
-220.4611525446768
 20
-540.0758131580679
 10
-219.9471314750773
 20
-542.9292437528776
 10
-219.3123037319261
 20
-546.4388761242747
 10
-218.5546059487949
 20
-550.604710272259
 10
-217.6716196179701
 20
-555.4267461968306
 10
-216.6606958943181
 20
-560.9049838979895
 10
-215.5191063551399
 20
-567.0394233757355
 10
-214.2442197713662
 20
-573.8300646300688
 10
-212.9233318195555
 20
-580.7755498291295
 10
-211.723287383783
 20
-586.9333301694216
 10
-210.6474595927517
 20
-592.2814910764138
 10
-209.6965106127915
 20
-596.8200325501063
 10
-208.9682778535969
 20
-600.1271153982087
 10
-208.3389449174587
 20
-602.8143333676909
 10
-207.8110137501897
 20
-604.8816864585527
 10
-207.3875515577236
 20
-606.3291746707944
 10
-207.0721935741155
 20
-607.1567980044163
 10
-206.9562918092235
 20
-607.3381603417446
 10
-206.8896541407999
 20
-607.3582434817749
  0
LWPOLYLINE
  5
9C
330
A
100
AcDbEntity
  8
0
  6
Continuous
 62
     7
100
AcDbPolyline
 90
        9
 70
   128
 43
0.0
 10
-229.0613308822421
 20
-492.4201998938025
 10
-229.1741664176786
 20
-490.877156731529
 10
-228.9500618358217
 20
-489.3463201054325
 10
-228.3996684563617
 20
-487.900448145503
 10
-227.5491455652509
 20
-486.6082607518371
 10
-226.4389171071585
 20
-485.5311734515765
 10
-225.1217504023168
 20
-484.7203784205992
 10
-223.6602482031657
 20
-484.2144114041657
 10
-222.1238732891905
 20
-484.0373201767574
  0
LINE
  5
A7
330
A
100
AcDbEntity
  8
0
  6
Continuous
 62
     7
100
AcDbLine
 10
-217.2135692069613
 20
-484.0372384280379
 30
0.0
 11
-217.2390567894971
 21
-484.0372162207139
 31
0.0
  0
LWPOLYLINE
  5
A8
330
A
100
AcDbEntity
  8
0
  6
Continuous
 62
     7
100
AcDbPolyline
 90
       24
 70
   128
 43
0.0
 10
-57.51444405379369
 20
-704.0370831873502
 10
-57.49431910023187
 20
-679.3553901633628
 10
-57.41731189073382
 20
-655.9671451381025
 10
-57.29181604323274
 20
-633.8723481115699
 10
-57.13197111344115
 20
-613.0709990837647
 10
-56.95311695008495
 20
-593.563098054687
 10
-56.76891070023485
 20
-575.3486450243367
 10
-56.66079081516922
 20
-565.0867647240663
 10
-56.56158310021547
 20
-555.7983354927408
 10
-56.47375942228975
 20
-547.6028906544713
 10
-56.39783904465202
 20
-540.5004302092576
 10
-56.33385960231661
 20
-534.4909541571001
 10
-56.31068279509474
 20
-532.3095880013741
 10
-56.28952915077801
 20
-530.3179760805533
 10
-56.27038449832583
 20
-528.5161183946382
 10
-56.25323953350516
 20
-526.9040149436286
 10
-56.23804333939225
 20
-525.4771270968598
 10
-56.21695540607824
 20
-523.5007205077703
 10
-56.18422271262531
 20
-520.4414079079537
 10
-56.1397351705828
 20
-516.2991892974104
 10
-56.08335324537062
 20
-511.0740646761401
 10
-56.01491521222886
 20
-504.766034044143
 10
-55.93424642246442
 20
-497.3750974014189
 10
-55.86657742971901
 20
-491.2143429389353
  0
LWPOLYLINE
  5
C2
330
A
100
AcDbEntity
  8
0
  6
Continuous
 62
     7
100
AcDbPolyline
 90
        9
 70
   128
 43
0.0
 10
-62.99496551341968
 20
-484.0372467988142
 10
-61.64812455085688
 20
-484.1622044112886
 10
-60.30027291228601
 20
-484.5606566320896
 10
-59.05741353662679
 20
-485.2173140534893
 10
-57.96836687296394
 20
-486.1063826791315
 10
-57.07591149161317
 20
-487.1929392261239
 10
-56.41510370977252
 20
-488.4343029378025
 10
-56.01190055307172
 20
-489.7817121158868
 10
-55.88214014412383
 20
-491.182239516584
  0
LINE
  5
CD
330
A
100
AcDbEntity
  8
0
  6
Continuous
 62
     7
100
AcDbLine
 10
-63.0480060825899
 20
-488.0381196920009
 30
0.0
 11
-62.99496463592821
 21
-488.037290208262
 31
0.0
  0
LWPOLYLINE
  5
CE
330
A
100
AcDbEntity
  8
0
  6
Continuous
 62
     7
100
AcDbPolyline
 90
       34
 70
   128
 43
0.0
 10
-287.1211075668175
 20
-491.3727593387783
 10
-286.8754918691853
 20
-499.1878872099943
 10
-286.6257398908953
 20
-507.7702760622547
 10
-286.4298258003325
 20
-515.1071989729611
 10
-286.2815890379238
 20
-521.1986559421132
 10
-286.194270434683
 20
-525.1110682190811
 10
-286.1291447101085
 20
-528.2545959096812
 10
-286.0832622427889
 20
-530.6292390139141
 10
-286.0466095100404
 20
-532.648727049139
 10
-285.9788151437548
 20
-536.7646802621392
 10
-285.9133046491472
 20
-541.5411426245259
 10
-285.8584562662014
 20
-546.9781141362989
 10
-285.8256393614001
 20
-553.037834768004
 10
-285.903988281235
 20
-567.6777030705636
 10
-286.2833404233374
 20
-582.0850969585562
 10
-286.9838292213209
 20
-596.2403372043284
 10
-287.3606327788561
 20
-602.8786620499691
 10
-287.7354908548597
 20
-609.4380013865073
 10
-288.0978286335868
 20
-615.9183552139427
 10
-288.4313508995126
 20
-622.0854963839246
 10
-288.6478506781202
 20
-626.1923017536003
 10
-288.8270049068544
 20
-629.6104843750935
 10
-288.9980826371454
 20
-632.8526677401314
 10
-289.1884749890966
 20
-636.4333586128496
 10
-289.3817597617001
 20
-640.0397163350296
 10
-289.5951832262688
 20
-643.9903582169843
 10
-289.8291087406679
 20
-648.2857826211845
 10
-290.1030377961817
 20
-653.274258532703
 10
-290.4343277905222
 20
-659.254732976866
 10
-290.824167428842
 20
-666.2272059536734
 10
-291.2737650692153
 20
-674.1916774631256
 10
-291.7842995074786
 20
-683.1481475052225
 10
-292.3568675935675
 20
-693.0966160799637
 10
-292.9924293241426
 20
-704.0370831873495
  0
LWPOLYLINE
  5
F2
330
A
100
AcDbEntity
  8
0
  6
Continuous
 62
     7
100
AcDbPolyline
 90
        9
 70
   128
 43
0.0
 10
-287.1227865909554
 20
-491.3674307299179
 10
-287.0272626966383
 20
-489.9505700192073
 10
-286.6515584251099
 20
-488.5810940838482
 10
-286.0107172649713
 20
-487.3138377957978
 10
-285.1303989901937
 20
-486.1995430735492
 10
-284.0458522229925
 20
-485.2828271366086
 10
-282.8005030518258
 20
-484.6003959976376
 10
-281.4442162173429
 20
-484.1795747254145
 10
-280.0312984897356
 20
-484.0372133280218
  0
LWPOLYLINE
  5
FD
330
A
100
AcDbEntity
  8
0
  6
Continuous
 62
     7
100
AcDbPolyline
 90
        7
 70
   128
 43
0.0
 10
372.5030290466751
 20
-704.0370831873495
 10
374.9214143899335
 20
-619.2851111737001
 10
376.3920042896942
 20
-570.6713776863755
 10
377.407792004129
 20
-538.8585066316201
 10
377.8155705212492
 20
-526.5774292440531
 10
378.2781719766258
 20
-513.0076773199702
 10
379.0467092617893
 20
-491.3961507104577
  0
LWPOLYLINE
  5
106
330
A
100
AcDbEntity
  8
0
  6
Continuous
 62
     7
100
AcDbPolyline
 90
        9
 70
   128
 43
0.0
 10
371.9743093870313
 20
-484.0372571057931
 10
373.3836486772564
 20
-484.1837570683308
 10
374.7357761266497
 20
-484.6074902633069
 10
375.9767575671645
 20
-485.2915546617337
 10
377.0570922645432
 20
-486.2086640457058
 10
377.9336874222145
 20
-487.32223641132
 10
378.571577082965
 20
-488.5878531653983
 10
378.9453168641865
 20
-489.9550309110339
 10
379.0399988929745
 20
-491.3692351483053
  0
LWPOLYLINE
  5
111
330
A
100
AcDbEntity
  8
0
  6
Continuous
 62
     7
100
AcDbPolyline
 90
        7
 70
   128
 43
0.0
 10
153.2711606401277
 20
-488.018159026002
 10
153.8550936343647
 20
-487.0266479739592
 10
154.7361447040052
 20
-485.999409627594
 10
155.7951272536552
 20
-485.1602107573392
 10
156.9932589927256
 20
-484.5397846877991
 10
158.2866616785728
 20
-484.1608527982123
 10
159.6279680350995
 20
-484.0372924151316
  0
LWPOLYLINE
  5
11A
330
A
100
AcDbEntity
  8
0
  6
Continuous
 62
     7
100
AcDbPolyline
 90
        9
 70
   128
 43
0.0
 10
379.5916469810403
 20
-484.0372132040543
 10
380.9575831966004
 20
-484.1700022129725
 10
382.2724206974271
 20
-484.5632160246396
 10
383.486989863721
 20
-485.202150028328
 10
384.5558707070129
 20
-486.0629106691166
 10
385.4390913945536
 20
-487.1133089704825
 10
386.1036230346526
 20
-488.3140642722047
 10
386.5246148240225
 20
-489.6202731686373
 10
386.6863233675981
 20
-490.9830887149865
  0
LWPOLYLINE
  5
125
330
A
100
AcDbEntity
  8
0
  6
Continuous
 62
     7
100
AcDbPolyline
 90
       29
 70
   128
 43
0.0
 10
390.6149422788875
 20
-704.0370831873495
 10
390.1876849911111
 20
-693.5253772798894
 10
389.8477199568706
 20
-684.3011206561816
 10
389.5822679643572
 20
-676.3643133162263
 10
389.3794394518686
 20
-669.7149552600233
 10
389.2289254402324
 20
-664.3530464875725
 10
389.1576068948036
 20
-661.6556363441964
 10
389.1017575533823
 20
-659.4611360772858
 10
389.0476728944281
 20
-657.2588041592707
 10
389.0175431597727
 20
-655.9956898544378
 10
388.9932271815963
 20
-654.9538959974771
 10
388.9660655723436
 20
-653.763122185088
 10
388.9363057474629
 20
-652.423368417271
 10
388.8713679800247
 20
-649.3579761332112
 10
388.7998631257616
 20
-645.7177568527611
 10
388.709506315852
 20
-640.6189719427695
 10
388.6103516270133
 20
-634.4247286084546
 10
388.5026381613179
 20
-627.0400722531218
 10
388.397048530072
 20
-619.1437965871359
 10
388.2866931221985
 20
-610.2276082829664
 10
388.1710957118004
 20
-600.2915073406135
 10
388.0475815560306
 20
-589.3354937600775
 10
387.9123650598226
 20
-577.3595675413579
 10
387.7608325225072
 20
-564.363728684455
 10
387.5982221464142
 20
-551.1763524724024
 10
387.4113972810484
 20
-537.0822947395482
 10
387.1950575183636
 20
-522.0815554858929
 10
386.9438411251901
 20
-506.1741347114362
 10
386.6813275865201
 20
-490.9943673597906
  0
LINE
  5
144
330
A
100
AcDbEntity
  8
0
  6
Continuous
 62
     7
100
AcDbLine
 10
296.3650775976986
 20
-482.0242352455324
 30
0.0
 11
296.3650775976986
 21
-472.0242352455325
 31
0.0
  0
LINE
  5
145
330
A
100
AcDbEntity
  8
0
  6
Continuous
 62
     7
100
AcDbLine
 10
-165.6349224023014
 20
-472.0242352455325
 30
0.0
 11
-165.6349224023014
 21
-482.0242352455324
 31
0.0
  0
LINE
  5
146
330
A
100
AcDbEntity
  8
0
  6
Continuous
 62
     7
100
AcDbLine
 10
43.86507759769858
 20
-482.0242352455324
 30
0.0
 11
43.86507759769858
 21
-484.0372131873515
 31
0.0
  0
LINE
  5
147
330
A
100
AcDbEntity
  8
0
  6
Continuous
 62
     7
100
AcDbLine
 10
86.86507759769858
 20
-484.0372131873497
 30
0.0
 11
86.86507759769858
 21
-482.0242352455324
 31
0.0
  0
LINE
  5
148
330
A
100
AcDbEntity
  8
0
  6
Continuous
 62
     7
100
AcDbLine
 10
245.7229419739677
 20
-482.0242352455324
 30
0.0
 11
245.7229419739677
 21
-484.0372131873492
 31
0.0
  0
LINE
  5
149
330
A
100
AcDbEntity
  8
0
  6
Continuous
 62
     7
100
AcDbLine
 10
288.7229419739676
 20
-484.0372131873497
 30
0.0
 11
288.7229419739676
 21
-482.0242352455324
 31
0.0
  0
LINE
  5
14A
330
A
100
AcDbEntity
  8
0
  6
Continuous
 62
     7
100
AcDbLine
 10
-157.1349224023014
 20
-482.0242352455324
 30
0.0
 11
-157.1349224023014
 21
-484.0372131873508
 31
0.0
  0
LINE
  5
14B
330
A
100
AcDbEntity
  8
0
  6
Continuous
 62
     7
100
AcDbLine
 10
-114.1349224023014
 20
-484.0372131873504
 30
0.0
 11
-114.1349224023014
 21
-482.0242352455324
 31
0.0
  0
LINE
  5
14C
330
A
100
AcDbEntity
  8
0
  6
Continuous
 62
     7
100
AcDbLine
 10
65.36507759769857
 20
1030.290776272864
 30
0.0
 11
156.3650775976985
 21
1030.290776272864
 31
0.0
  0
LINE
  5
14D
330
A
100
AcDbEntity
  8
0
  6
Continuous
 62
     7
100
AcDbLine
 10
-25.63492240230142
 20
1030.290776272864
 30
0.0
 11
65.36507759769857
 21
1030.290776272864
 31
0.0
  0
LINE
  5
14E
330
A
100
AcDbEntity
  8
0
  6
Continuous
 62
     7
100
AcDbLine
 10
65.36507759769857
 20
1036.975764754467
 30
0.0
 11
156.3650775976986
 21
1036.975764754467
 31
0.0
  0
LINE
  5
14F
330
A
100
AcDbEntity
  8
0
  6
Continuous
 62
     7
100
AcDbLine
 10
-25.63492240230142
 20
1036.975764754467
 30
0.0
 11
65.36507759769857
 21
1036.975764754467
 31
0.0
  0
LINE
  5
150
330
A
100
AcDbEntity
  8
0
  6
Continuous
 62
     7
100
AcDbLine
 10
65.36507759769857
 20
1063.975764754467
 30
0.0
 11
131.3650775976986
 21
1063.975764754467
 31
0.0
  0
LINE
  5
151
330
A
100
AcDbEntity
  8
0
  6
Continuous
 62
     7
100
AcDbLine
 10
-0.6349224023014245
 20
1063.975764754467
 30
0.0
 11
65.36507759769857
 21
1063.975764754467
 31
0.0
  0
LINE
  5
152
330
A
100
AcDbEntity
  8
0
  6
Continuous
 62
     7
100
AcDbLine
 10
21.70718376702537
 20
-491.3008012157619
 30
0.0
 11
24.26908795213151
 21
-704.037083187348
 31
0.0
  0
LINE
  5
153
330
A
100
AcDbEntity
  8
0
  6
Continuous
 62
     7
100
AcDbLine
 10
21.70718331673978
 20
-491.3007638248011
 30
0.0
 11
21.70718376702527
 21
-491.3008012157621
 31
0.0
  0
LINE
  5
154
330
A
100
AcDbEntity
  8
0
  6
Continuous
 62
     7
100
AcDbLine
 10
154.5155701431014
 20
-704.0370831873495
 30
0.0
 11
24.26908795213144
 21
-704.0370831873486
 31
0.0
  0
LWPOLYLINE
  5
155
330
A
100
AcDbEntity
  8
0
  6
Continuous
 62
     7
100
AcDbPolyline
 90
        7
 70
   128
 43
0.0
 10
21.70718341010561
 20
-491.3007638266585
 10
21.81057804326528
 20
-488.9429406562987
 10
22.14221961734149
 20
-486.8321409117004
 10
22.66471805221099
 20
-485.2063411009509
 10
23.31916564908613
 20
-484.2488377825858
 10
23.69240158764838
 20
-484.0531749825837
 10
23.83507764723685
 20
-484.0372131873506
  0
LINE
  5
15E
330
A
100
AcDbEntity
  8
0
  6
Continuous
 62
     7
100
AcDbLine
 10
23.83507764725398
 20
-484.0372131873506
 30
0.0
 11
146.845116538379
 21
-484.03721318735
 31
0.0
  0
LINE
  5
15F
330
A
100
AcDbEntity
  8
0
  6
Continuous
 62
     7
100
AcDbLine
 10
24.26908795213144
 20
-704.0370831873486
 30
0.0
 11
-57.25223603992525
 21
-704.0370831873491
 31
0.0
  0
LINE
  5
160
330
A
100
AcDbEntity
  8
0
  6
Continuous
 62
     7
100
AcDbLine
 10
-60.267018089726
 20
-484.0372131873497
 30
0.0
 11
-33.52771210028088
 21
-484.0372131873504
 31
0.0
  0
LINE
  5
161
330
A
100
AcDbEntity
  8
0
  6
Continuous
 62
     7
100
AcDbLine
 10
23.83507764725398
 20
-484.0372131873506
 30
0.0
 11
-33.26497687065599
 21
-484.0372131873497
 31
0.0
  0
LINE
  5
162
330
A
100
AcDbEntity
  8
0
  6
Continuous
 62
     7
100
AcDbLine
 10
147.4864418594635
 20
-484.0372131873492
 30
0.0
 11
159.2725785434759
 21
-484.0372131873506
 31
0.0
  0
LINE
  5
163
330
A
100
AcDbEntity
  8
0
  6
Continuous
 62
     7
100
AcDbLine
 10
-225.0694221906917
 20
-491.692830813698
 30
0.0
 11
-225.0419591444805
 21
-491.689108256125
 31
0.0
  0
LINE
  5
164
330
A
100
AcDbEntity
  8
0
  6
Continuous
 62
     7
100
AcDbLine
 10
-233.7800648867004
 20
-491.7277341642416
 30
0.0
 11
-209.5073404886691
 21
-704.0370831873509
 31
0.0
  0
LINE
  5
165
330
A
100
AcDbEntity
  8
0
  6
Continuous
 62
     7
100
AcDbLine
 10
-229.0313075092954
 20
-492.4143347515336
 30
0.0
 11
-229.0455852568472
 21
-492.4050123370923
 31
0.0
  0
LINE
  5
166
330
A
100
AcDbEntity
  8
0
  6
Continuous
 62
     7
100
AcDbLine
 10
-122.1957425225673
 20
-490.1843710209664
 30
0.0
 11
-122.1957606168968
 21
-490.1841686233762
 31
0.0
  0
LINE
  5
167
330
A
100
AcDbEntity
  8
0
  6
Continuous
 62
     7
100
AcDbLine
 10
-122.1957425225673
 20
-490.1843710209667
 30
0.0
 11
-103.0773260688769
 21
-704.0370831873495
 31
0.0
  0
LINE
  5
168
330
A
100
AcDbEntity
  8
0
  6
Continuous
 62
     7
100
AcDbLine
 10
-103.0773260688766
 20
-704.0370831873505
 30
0.0
 11
-194.1390605568873
 21
-704.0370831873505
 31
0.0
  0
LINE
  5
169
330
A
100
AcDbEntity
  8
0
  6
Continuous
 62
     7
100
AcDbLine
 10
-194.1310710994452
 20
-704.03708318735
 30
0.0
 11
-209.5073404886655
 21
-704.0370831873507
 31
0.0
  0
LWPOLYLINE
  5
16A
330
A
100
AcDbEntity
  8
0
  6
Continuous
 62
     7
100
AcDbPolyline
 90
        7
 70
   128
 43
0.0
 10
-231.2616343961681
 20
-484.0372131873508
 10
-231.3804556132325
 20
-484.0450606920919
 10
-232.0203870887496
 20
-484.3645825883556
 10
-232.7755886943013
 20
-485.4514146608853
 10
-233.3601033811769
 20
-487.1789125430717
 10
-233.7080317931235
 20
-489.3523142329315
 10
-233.7801962003069
 20
-491.7265855866928
  0
LWPOLYLINE
  5
173
330
A
100
AcDbEntity
  8
0
  6
Continuous
 62
     7
100
AcDbPolyline
 90
        5
 70
   128
 43
0.0
 10
-118.3099911069642
 20
-484.0372131873504
 10
-119.6468803432598
 20
-484.462447873199
 10
-120.8758862234834
 20
-485.7677164296666
 10
-121.7569668036023
 20
-487.751358144887
 10
-122.1957606168968
 20
-490.1841686233764
  0
LINE
  5
17A
330
A
100
AcDbEntity
  8
0
  6
Continuous
 62
     7
100
AcDbLine
 10
-233.7800648867002
 20
-491.7277341642413
 30
0.0
 11
-233.7801962003066
 21
-491.7265855866928
 31
0.0
  0
LINE
  5
17B
330
A
100
AcDbEntity
  8
0
  6
Continuous
 62
     7
100
AcDbLine
 10
-231.2616343961681
 20
-484.0372131873508
 30
0.0
 11
-222.0360280474879
 21
-484.037213187349
 31
0.0
  0
LINE
  5
17C
330
A
100
AcDbEntity
  8
0
  6
Continuous
 62
     7
100
AcDbLine
 10
-118.3099911069642
 20
-484.0372131873501
 30
0.0
 11
-222.0510735263135
 21
-484.037213187351
 31
0.0
  0
LINE
  5
17D
330
A
100
AcDbEntity
  8
0
  6
Continuous
 62
     7
100
AcDbLine
 10
-55.95726750678966
 20
-491.2135508027814
 30
0.0
 11
-55.99326160284124
 21
-491.2011183618697
 31
0.0
  0
LINE
  5
17E
330
A
100
AcDbEntity
  8
0
  6
Continuous
 62
     7
100
AcDbLine
 10
-57.60223603992526
 20
-704.0370831873502
 30
0.0
 11
-103.0773260688767
 21
-704.0370831873502
 31
0.0
  0
LWPOLYLINE
  5
17F
330
A
100
AcDbEntity
  8
0
  6
Continuous
 62
     7
100
AcDbPolyline
 90
        3
 70
   128
 43
0.0
 10
-61.31760612558787
 20
-484.1998714452592
 10
-62.09989974555988
 20
-484.0457241208685
 10
-62.41125730423802
 20
-484.0372131873508
  0
LINE
  5
184
330
A
100
AcDbEntity
  8
0
  6
Continuous
 62
     7
100
AcDbLine
 10
-118.3099911069642
 20
-484.0372131873501
 30
0.0
 11
-63.04502238445142
 21
-484.0372131873501
 31
0.0
  0
LINE
  5
185
330
A
100
AcDbEntity
  8
0
  6
Continuous
 62
     7
100
AcDbLine
 10
-287.1031457572793
 20
-491.3722688738001
 30
0.0
 11
-287.0877925872443
 21
-491.3650177406207
 31
0.0
  0
LINE
  5
186
330
A
100
AcDbEntity
  8
0
  6
Continuous
 62
     7
100
AcDbLine
 10
-209.5073404886655
 20
-704.0370831873507
 30
0.0
 11
-292.9122887420223
 21
-704.0370831873495
 31
0.0
  0
LINE
  5
187
330
A
100
AcDbEntity
  8
0
  6
Continuous
 62
     7
100
AcDbLine
 10
-279.9579618514715
 20
-484.0372131873508
 30
0.0
 11
-231.2616343961681
 21
-484.0372131873508
 31
0.0
  0
LINE
  5
188
330
A
100
AcDbEntity
  8
0
  6
Continuous
 62
     7
100
AcDbLine
 10
-62.41125730426034
 20
-484.0372131873508
 30
0.0
 11
-60.617018089726
 21
-484.0372131873508
 31
0.0
  0
LINE
  5
189
330
A
100
AcDbEntity
  8
0
  6
Continuous
 62
     7
100
AcDbLine
 10
262.957316726426
 20
-704.03708318735
 30
0.0
 11
260.7439648275933
 21
-491.6967968564954
 31
0.0
  0
LINE
  5
18A
330
A
100
AcDbEntity
  8
0
  6
Continuous
 62
     7
100
AcDbLine
 10
260.7439259896546
 20
-491.6957488419343
 30
0.0
 11
260.7439648275933
 21
-491.6967968564954
 31
0.0
  0
LINE
  5
18B
330
A
100
AcDbEntity
  8
0
  6
Continuous
 62
     7
100
AcDbLine
 10
379.0064469459007
 20
-491.3948118322982
 30
0.0
 11
378.992047908722
 21
-491.3770064150026
 31
0.0
  0
LINE
  5
18C
330
A
100
AcDbEntity
  8
0
  6
Continuous
 62
     7
100
AcDbLine
 10
262.9573167264268
 20
-704.03708318735
 30
0.0
 11
372.4011728120953
 21
-704.0370831873495
 31
0.0
  0
LWPOLYLINE
  5
18D
330
A
100
AcDbEntity
  8
0
  6
Continuous
 62
     7
100
AcDbPolyline
 90
        7
 70
   128
 43
0.0
 10
260.7439259896546
 20
-491.6957488419343
 10
260.9146956475657
 20
-489.322382754595
 10
261.7061225861065
 20
-487.1532608748076
 10
263.0289795050954
 20
-485.4329348930892
 10
264.7341247926346
 20
-484.3553582791399
 10
266.1410246798153
 20
-484.0457241208685
 10
266.4197907713273
 20
-484.0372131873508
  0
LINE
  5
196
330
A
100
AcDbEntity
  8
0
  6
Continuous
 62
     7
100
AcDbLine
 10
266.4197907713305
 20
-484.0372131873508
 30
0.0
 11
371.8964908265224
 21
-484.0372131873497
 31
0.0
  0
LINE
  5
197
330
A
100
AcDbEntity
  8
0
  6
Continuous
 62
     7
100
AcDbLine
 10
159.6225785434759
 20
-484.0372131873521
 30
0.0
 11
266.4197907713305
 21
-484.0372131873508
 31
0.0
  0
LINE
  5
198
330
A
100
AcDbEntity
  8
0
  6
Continuous
 62
     7
100
AcDbLine
 10
262.9573167264268
 20
-704.03708318735
 30
0.0
 11
154.8655801431014
 21
-704.03708318735
 31
0.0
  0
LINE
  5
199
330
A
100
AcDbEntity
  8
0
  6
Continuous
 62
     7
100
AcDbLine
 10
386.5620336222542
 20
-490.9967057126626
 30
0.0
 11
386.5861309759166
 21
-490.9968669767538
 31
0.0
  0
LINE
  5
19A
330
A
100
AcDbEntity
  8
0
  6
Continuous
 62
     7
100
AcDbLine
 10
372.1233132406033
 20
-484.0372131873492
 30
0.0
 11
379.5579530359408
 21
-484.0372131873497
 31
0.0
  0
LINE
  5
19B
330
A
100
AcDbEntity
  8
0
  6
Continuous
 62
     7
100
AcDbLine
 10
390.8133916640728
 20
-704.0370831873495
 30
0.0
 11
372.5030290466751
 21
-704.0370831873495
 31
0.0
  0
LINE
  5
19C
330
A
100
AcDbEntity
  8
0
  6
Continuous
 62
     7
100
AcDbLine
 10
-3.008894058188146
 20
-462.0242352455325
 30
0.0
 11
-3.008894058188146
 21
-482.0242352455324
 31
0.0
  0
LINE
  5
19D
330
A
100
AcDbEntity
  8
0
  6
Continuous
 62
     7
100
AcDbLine
 10
133.7390492535853
 20
-462.0242352455325
 30
0.0
 11
133.7390492535853
 21
-482.0242352455324
 31
0.0
  0
LINE
  5
19E
330
A
100
AcDbEntity
  8
0
  6
Continuous
 62
     7
100
AcDbLine
 10
-3.008894058188146
 20
-482.0242352455324
 30
0.0
 11
133.7390492535853
 21
-482.0242352455324
 31
0.0
  0
LINE
  5
19F
330
A
100
AcDbEntity
  8
0
  6
Continuous
 62
     7
100
AcDbLine
 10
-3.008894058188146
 20
-462.0242352455325
 30
0.0
 11
133.7390492535853
 21
-462.0242352455325
 31
0.0
  0
LINE
  5
1A0
330
A
100
AcDbEntity
  8
0
  6
Continuous
 62
     7
100
AcDbLine
 10
238.0808063502367
 20
-472.0242352455325
 30
0.0
 11
238.0808063502367
 21
-482.0242352455324
 31
0.0
  0
LINE
  5
1A1
330
A
100
AcDbEntity
  8
0
  6
Continuous
 62
     7
100
AcDbLine
 10
296.3650775976986
 20
-472.0242352455325
 30
0.0
 11
238.0808063502367
 21
-472.0242352455325
 31
0.0
  0
LINE
  5
1A2
330
A
100
AcDbEntity
  8
0
  6
Continuous
 62
     7
100
AcDbLine
 10
238.0808063502367
 20
-482.0242352455324
 30
0.0
 11
296.3650775976986
 21
-482.0242352455324
 31
0.0
  0
LINE
  5
1A3
330
A
100
AcDbEntity
  8
0
  6
Continuous
 62
     7
100
AcDbLine
 10
-107.3506511548395
 20
-472.0242352455325
 30
0.0
 11
-165.6349224023014
 21
-472.0242352455325
 31
0.0
  0
LINE
  5
1A4
330
A
100
AcDbEntity
  8
0
  6
Continuous
 62
     7
100
AcDbLine
 10
-107.3506511548395
 20
-472.0242352455325
 30
0.0
 11
-107.3506511548395
 21
-482.0242352455324
 31
0.0
  0
LINE
  5
1A5
330
A
100
AcDbEntity
  8
0
  6
Continuous
 62
     7
100
AcDbLine
 10
-165.6349224023014
 20
-482.0242352455324
 30
0.0
 11
-107.3506511548395
 21
-482.0242352455324
 31
0.0
  0
LINE
  5
1A6
330
A
100
AcDbEntity
  8
0
  6
Continuous
 62
     7
100
AcDbLine
 10
238.0808063502367
 20
-472.0242352455325
 30
0.0
 11
133.7390492535853
 21
-462.0242352455325
 31
0.0
  0
LINE
  5
1A7
330
A
100
AcDbEntity
  8
0
  6
Continuous
 62
     7
100
AcDbLine
 10
133.7390492535853
 20
-482.0242352455324
 30
0.0
 11
238.0808063502367
 21
-482.0242352455324
 31
0.0
  0
LINE
  5
1A8
330
A
100
AcDbEntity
  8
0
  6
Continuous
 62
     7
100
AcDbLine
 10
-3.008894058188146
 20
-462.0242352455325
 30
0.0
 11
-107.3506511548395
 21
-472.0242352455325
 31
0.0
  0
LINE
  5
1A9
330
A
100
AcDbEntity
  8
0
  6
Continuous
 62
     7
100
AcDbLine
 10
-107.3506511548395
 20
-482.0242352455324
 30
0.0
 11
-3.008894058188146
 21
-482.0242352455324
 31
0.0
  0
LWPOLYLINE
  5
1AA
330
A
100
AcDbEntity
  8
0
  6
PHANTOM
 62
     7
100
AcDbPolyline
 90
       34
 70
   128
 43
0.0
 10
153.8923355167352
 20
-491.3676215032451
 10
153.9361001181962
 20
-491.3604988402188
 10
153.3687189508742
 20
-491.3212719444476
 10
151.950892553074
 20
-491.2688976977722
 10
146.1957780702525
 20
-491.0726722178455
 10
139.6503547728226
 20
-491.2083612798604
 10
135.437920505948
 20
-491.38717394763
 10
130.3917296435202
 20
-491.4210908662318
 10
127.0243797542223
 20
-491.3768194884839
 10
123.3465700182137
 20
-491.2979317477038
 10
119.3878083227773
 20
-491.1869023082088
 10
114.7153217963153
 20
-491.0249869567019
 10
109.8243559929651
 20
-490.8544117626875
 10
104.8509883775136
 20
-490.7294135433401
 10
96.94890157570458
 20
-490.6731690344853
 10
89.03785073641612
 20
-490.7519013411731
 10
84.25622853664435
 20
-490.8460089430231
 10
79.49523994799381
 20
-490.9394348202344
 10
74.840773490181
 20
-490.9955537393479
 10
70.12418286828996
 20
-490.9972755758303
 10
65.84205592187963
 20
-491.0009359205838
 10
61.59535076666737
 20
-491.0838581501076
 10
58.01145280005073
 20
-491.2167144257938
 10
55.15837594619021
 20
-491.3284827496503
 10
52.56052302183164
 20
-491.4196686789619
 10
49.28679223251998
 20
-491.5446032181577
 10
45.80276688803148
 20
-491.6615190229264
 10
41.72498767675988
 20
-491.7143817897048
 10
36.97883160569416
 20
-491.6505277640847
 10
31.46489023147972
 20
-491.5169485213409
 10
26.70161701284714
 20
-491.4067279047086
 10
21.70722394188852
 20
-491.3007646330561
 10
21.70718331673983
 20
-491.3007638248009
 10
21.70718331673983
 20
-491.3007638248009
  0
LWPOLYLINE
  5
1CE
330
A
100
AcDbEntity
  8
0
  6
PHANTOM
 62
     7
100
AcDbPolyline
 90
       18
 70
   128
 43
0.0
 10
21.70718376702537
 20
-491.3008012157619
 10
21.70714315428779
 20
-491.3008004477993
 10
15.0337770762652
 20
-491.1990514738305
 10
8.182000351642487
 20
-491.1556573092018
 10
1.253574040984389
 20
-491.1918138128847
 10
-5.649740795144325
 20
-491.3287168438515
 10
-11.20584199078214
 20
-491.4696314722789
 10
-16.79103687967426
 20
-491.5619113566795
 10
-22.33068436230567
 20
-491.578933424116
 10
-27.75014333916144
 20
-491.4940746016521
 10
-30.24137965168897
 20
-491.4169597304542
 10
-32.59534833602745
 20
-491.3333832733087
 10
-34.84290429828835
 20
-491.2529386644106
 10
-36.83579577623944
 20
-491.1818881449457
 10
-39.09346936145079
 20
-491.0813561509267
 10
-39.8864052920703
 20
-491.0069063312762
 10
-40.31336137454888
 20
-490.9240954589554
 10
-40.30354301701834
 20
-490.8614721093767
  0
LWPOLYLINE
  5
1E2
330
A
100
AcDbEntity
  8
0
  6
PHANTOM
 62
     7
100
AcDbPolyline
 90
        7
 70
   128
 43
0.0
 10
-40.34037556072155
 20
-490.5954802433718
 10
-40.76072994214205
 20
-490.6050063384105
 10
-42.3103752008169
 20
-490.6691483180726
 10
-44.43563513419116
 20
-490.7653629661249
 10
-46.9941662622999
 20
-490.8623448436348
 10
-49.80016492201568
 20
-490.943772361026
 10
-55.9259555985607
 20
-491.0509656140111
  0
LWPOLYLINE
  5
1EB
330
A
100
AcDbEntity
  8
0
  6
PHANTOM
 62
     7
100
AcDbPolyline
 90
       34
 70
   128
 43
0.0
 10
-122.1957606168967
 20
-490.1841686233764
 10
-122.195796016199
 20
-490.184167527865
 10
-127.2721579898339
 20
-490.0254514390963
 10
-132.7034069641538
 20
-489.8665801120877
 10
-136.4347402745307
 20
-489.7777117055489
 10
-140.2579908593341
 20
-489.7184410162837
 10
-144.2173098782131
 20
-489.6942940205058
 10
-148.0577587941285
 20
-489.71179583193
 10
-151.7308155011803
 20
-489.7792706331919
 10
-155.0840308368006
 20
-489.8781416717691
 10
-159.5810747927008
 20
-490.0478578422041
 10
-163.4585219297691
 20
-490.2229117857218
 10
-167.454800826302
 20
-490.4327060496122
 10
-171.1533112432052
 20
-490.6304250291847
 10
-174.9791049471014
 20
-490.7868994309282
 10
-177.4774132378451
 20
-490.8471414430088
 10
-180.2520077016733
 20
-490.8970840564657
 10
-183.3926101543379
 20
-490.9648998681213
 10
-186.6901783144756
 20
-491.0663517165482
 10
-190.3620399992774
 20
-491.18396026691
 10
-193.8226894842847
 20
-491.2742911463206
 10
-197.3618835065792
 20
-491.3532921342543
 10
-202.6147067010713
 20
-491.4678772768582
 10
-207.8257866576437
 20
-491.5924825957497
 10
-214.5079999819703
 20
-491.8022080162606
 10
-218.5103173921408
 20
-491.9719670638923
 10
-222.2266239672663
 20
-492.1694686144034
 10
-224.1576979696262
 20
-492.2887043559668
 10
-225.8016430629349
 20
-492.3861612868957
 10
-227.0552935293415
 20
-492.4380562843059
 10
-227.9524182685797
 20
-492.4526165642718
 10
-228.6843678759079
 20
-492.4436182407366
 10
-229.0200126755563
 20
-492.4217095227137
 10
-229.0313075092954
 20
-492.4143347515336
  0
LWPOLYLINE
  5
20F
330
A
100
AcDbEntity
  8
0
  6
PHANTOM
 62
     7
100
AcDbPolyline
 90
        5
 70
   128
 43
0.0
 10
-228.9994027525211
 20
-491.9302915723703
 10
-230.4270068815553
 20
-491.8543058079897
 10
-233.7800250916123
 20
-491.7277353189985
 10
-233.7800648867004
 20
-491.7277341642413
 10
-233.7800648867004
 20
-491.7277341642413
  0
LWPOLYLINE
  5
216
330
A
100
AcDbEntity
  8
0
  6
PHANTOM
 62
     7
100
AcDbPolyline
 90
       22
 70
   128
 43
0.0
 10
-55.99326160284124
 20
-491.2011183618697
 10
-56.11374723919989
 20
-491.1595023548277
 10
-57.14707865688631
 20
-491.100570766504
 10
-59.9307803125426
 20
-491.0248665316841
 10
-63.35308580220516
 20
-490.9698752014612
 10
-67.69112726981738
 20
-490.9241137930741
 10
-71.06207816794671
 20
-490.8954017835997
 10
-75.05518134626962
 20
-490.8667520301058
 10
-76.70826866810118
 20
-490.8565368974519
 10
-78.60747230870713
 20
-490.8501421378178
 10
-81.02045318547103
 20
-490.8589415098313
 10
-83.4618864275623
 20
-490.8929516708596
 10
-84.42327851318617
 20
-490.9046822129377
 10
-87.31069952421526
 20
-490.9234120531364
 10
-90.08036806354528
 20
-490.9201672601938
 10
-93.36790982288503
 20
-490.8941921712463
 10
-96.49460424622077
 20
-490.8490401407807
 10
-105.1510501585267
 20
-490.6680650314939
 10
-113.5415368529932
 20
-490.4445533054438
 10
-122.1957071264659
 20
-490.1843721131941
 10
-122.1957425225673
 20
-490.1843710209667
 10
-122.1957425225673
 20
-490.1843710209667
  0
LWPOLYLINE
  5
22E
330
A
100
AcDbEntity
  8
0
  6
PHANTOM
 62
     7
100
AcDbPolyline
 90
       16
 70
   128
 43
0.0
 10
-233.7801962003069
 20
-491.7265855866928
 10
-233.7802360228474
 20
-491.7265843663351
 10
-238.1409136597782
 20
-491.6253552523785
 10
-242.5913123427477
 20
-491.567256010604
 10
-249.0149426712065
 20
-491.5153274561316
 10
-255.2606678866497
 20
-491.463671080617
 10
-259.9294319026975
 20
-491.411453418286
 10
-264.2137579282631
 20
-491.3604988402188
 10
-267.6183784718626
 20
-491.3212719444476
 10
-270.358308566003
 20
-491.2688976977722
 10
-277.0320529479637
 20
-491.0726722178455
 10
-282.9140390714801
 20
-491.2083612798604
 10
-285.3627002750116
 20
-491.38717394763
 10
-286.7983379506489
 20
-491.4210908662318
 10
-287.1127809907348
 20
-491.3768194884839
 10
-287.1031457572793
 20
-491.3722688738001
  0
LINE
  5
240
330
A
100
AcDbEntity
  8
0
  6
PHANTOM
 62
     7
100
AcDbLine
 10
260.7439539004344
 20
-491.6957485478089
 30
0.0
 11
260.7439285304526
 21
-491.6957488151593
 31
0.0
  0
LWPOLYLINE
  5
241
330
A
100
AcDbEntity
  8
0
  6
PHANTOM
 62
     7
100
AcDbPolyline
 90
       45
 70
   128
 43
0.0
 10
378.992047908722
 20
-491.3770064150026
 10
378.9567703733141
 20
-491.3333832733087
 10
378.500076644418
 20
-491.2529386644106
 10
377.6511250142533
 20
-491.1818881449457
 10
375.6930604028004
 20
-491.0813561509267
 10
374.2310249835856
 20
-491.0069063312762
 10
372.5146842403449
 20
-490.9240954589554
 10
368.8354318949053
 20
-490.7901303514775
 10
364.9367790903923
 20
-490.6941464119057
 10
360.2278287059537
 20
-490.621272979748
 10
355.6984972707237
 20
-490.5853890661581
 10
351.5497800277115
 20
-490.5816140201913
 10
348.8863501339185
 20
-490.6050063384105
 10
346.6296628035951
 20
-490.6691483180726
 10
344.8872309760446
 20
-490.7653629661249
 10
343.6272629511177
 20
-490.8623448436348
 10
342.7227402985372
 20
-490.943772361026
 10
341.3396079647776
 20
-491.0520731663258
 10
340.2140190277745
 20
-491.0883481714559
 10
339.1147061410312
 20
-491.0657071141496
 10
337.476962001818
 20
-490.9772460973939
 10
336.1218964348696
 20
-490.8819512633006
 10
334.4802476493649
 20
-490.7813582720631
 10
332.4037748873027
 20
-490.7018838102489
 10
330.1509145676119
 20
-490.6511779457306
 10
326.7484683299145
 20
-490.6037000093962
 10
323.2472836647171
 20
-490.5710527476816
 10
318.4988308624798
 20
-490.5280788409511
 10
313.7865287605667
 20
-490.4934003777051
 10
309.0953019057672
 20
-490.4924284190687
 10
304.4100748448704
 20
-490.550574026166
 10
296.7135126529245
 20
-490.8143102644435
 10
288.9664402477541
 20
-491.1701752738728
 10
284.8144886139286
 20
-491.3389789120134
 10
280.6548601623784
 20
-491.4740609045623
 10
277.4588999256539
 20
-491.5512552128894
 10
275.6118165865511
 20
-491.5756989211975
 10
273.8647333140684
 20
-491.5730893445974
 10
272.3469679189886
 20
-491.5551190063816
 10
270.9886348491754
 20
-491.5418025531018
 10
268.484411315152
 20
-491.5456622074806
 10
266.1884883706812
 20
-491.5979273213725
 10
260.743979299464
 20
-491.6957487105223
 10
260.7439539004344
 20
-491.6957485478089
 10
260.7439539004344
 20
-491.6957485478089
  0
LWPOLYLINE
  5
270
330
A
100
AcDbEntity
  8
0
  6
PHANTOM
 62
     7
100
AcDbPolyline
 90
       30
 70
   128
 43
0.0
 10
260.7439648275933
 20
-491.6967968564954
 10
260.7439393662631
 20
-491.6967966064857
 10
257.5817599141074
 20
-491.5997144609167
 10
255.1652459606958
 20
-491.4389756714502
 10
253.1095788491144
 20
-491.30242859465
 10
251.5372407498977
 20
-491.247930740934
 10
249.6305924796198
 20
-491.2121667994415
 10
247.2801812036085
 20
-491.1812905936131
 10
244.1875067085641
 20
-491.1429944034421
 10
240.554401236837
 20
-491.1059734553285
 10
237.6392636740807
 20
-491.0870884188113
 10
234.4791058004135
 20
-491.0834109812803
 10
231.1456718317169
 20
-491.0946176796008
 10
227.7577277493036
 20
-491.1126258372708
 10
222.2405949696809
 20
-491.1529648595945
 10
216.8384342971446
 20
-491.2026293701605
 10
211.5256508704344
 20
-491.2569630686475
 10
206.6531663959133
 20
-491.3009523434014
 10
203.5411154827758
 20
-491.3164066123
 10
200.3702433490601
 20
-491.3085513472436
 10
198.0050589039965
 20
-491.2768517367168
 10
195.7355193624901
 20
-491.2323728701328
 10
191.9062755667607
 20
-491.1595023548277
 10
187.6412038147726
 20
-491.100570766504
 10
178.8955590143174
 20
-491.0248665316841
 10
170.5949233452435
 20
-490.9698752014612
 10
163.0294899150196
 20
-490.9241137930741
 10
158.5137771371352
 20
-490.8954017835997
 10
154.6074382483438
 20
-490.8667520301058
 10
153.8605870453409
 20
-490.8597687631849
  0
LWPOLYLINE
  5
290
330
A
100
AcDbEntity
  8
0
  6
PHANTOM
 62
     7
100
AcDbPolyline
 90
        6
 70
   128
 43
0.0
 10
386.5861309759166
 20
-490.9968669767538
 10
386.6471870756872
 20
-490.9972755758303
 10
385.953584133607
 20
-491.0009359205838
 10
384.1184225359565
 20
-491.0838581501076
 10
381.4425660198614
 20
-491.2167144257938
 10
378.9387232535464
 20
-491.3110667465531
  0
LINE
  5
298
330
A
100
AcDbEntity
  8
0
  6
Continuous
 62
     7
100
AcDbLine
 10
156.3595829263172
 20
-1119.122694909719
 30
0.0
 11
268.6528947954504
 21
-1119.122694909715
 31
0.0
  0
LINE
  5
299
330
A
100
AcDbEntity
  8
0
  6
Continuous
 62
     7
100
AcDbLine
 10
268.6528947954504
 20
-1117.122694909715
 30
0.0
 11
156.3595829263171
 21
-1117.122694909719
 31
0.0
  0
LINE
  5
29A
330
A
100
AcDbEntity
  8
0
  6
Continuous
 62
     7
100
AcDbLine
 10
-25.62942773092002
 20
-1117.122694909719
 30
0.0
 11
-137.9227396000532
 21
-1117.122694909715
 31
0.0
  0
LINE
  5
29B
330
A
100
AcDbEntity
  8
0
  6
Continuous
 62
     7
100
AcDbLine
 10
-137.9227396000532
 20
-1119.122694909715
 30
0.0
 11
-25.62942773092006
 21
-1119.122694909719
 31
0.0
  0
LWPOLYLINE
  5
29C
330
A
100
AcDbEntity
  8
0
  6
Continuous
 62
     7
100
AcDbPolyline
 90
       12
 70
   128
 43
0.0
 10
-21.72502883731429
 20
-1066.524776460748
 10
-30.12816951018504
 20
-1068.454433840275
 10
-33.56612356565675
 20
-1069.183924646503
 10
-35.88970310907339
 20
-1069.731795734534
 10
-37.70565074905723
 20
-1070.309383782047
 10
-39.25496662095658
 20
-1070.975599671305
 10
-40.74743294157112
 20
-1071.919096417194
 10
-41.99123897462908
 20
-1073.01867989187
 10
-43.04909413870805
 20
-1074.269943095991
 10
-43.94162177892238
 20
-1075.656088113378
 10
-44.69523379073482
 20
-1077.167717445705
 10
-44.77417197949803
 20
-1077.361863939202
  0
LWPOLYLINE
  5
2AA
330
A
100
AcDbEntity
  8
0
  6
Continuous
 62
     7
100
AcDbPolyline
 90
        7
 70
   128
 43
0.0
 10
151.9837174235853
 20
-1181.23476091028
 10
151.6511890757032
 20
-1180.135662924616
 10
150.326432219408
 20
-1176.583230660017
 10
148.6340824923265
 20
-1172.640758620565
 10
146.5228596461654
 20
-1168.006060097838
 10
144.880130960772
 20
-1163.84533371938
 10
144.4950241430712
 20
-1162.706534662693
  0
LWPOLYLINE
  5
2B3
330
A
100
AcDbEntity
  8
0
  6
Continuous
 62
     7
100
AcDbPolyline
 90
        8
 70
   128
 43
0.0
 10
36.76060686013243
 20
-1204.462254129837
 10
39.25060755368969
 20
-1206.685934658466
 10
41.57995694001395
 20
-1209.195191002071
 10
43.68961442857245
 20
-1211.936462919099
 10
45.69215792689797
 20
-1214.964934087512
 10
47.87988719771503
 20
-1218.713075513005
 10
50.38776960890801
 20
-1223.404534910438
 10
50.86831632685017
 20
-1224.320285626063
  0
LWPOLYLINE
  5
2BD
330
A
100
AcDbEntity
  8
0
  6
Continuous
 62
     7
100
AcDbPolyline
 90
        5
 70
   128
 43
0.0
 10
-9.822319131494921
 20
-1065.911208449366
 10
-12.93811983301422
 20
-1065.727033094908
 10
-16.11294998747052
 20
-1065.765849684567
 10
-19.5731441524977
 20
-1066.124714281508
 10
-21.72871707530294
 20
-1066.468880949513
  0
LWPOLYLINE
  5
2C4
330
A
100
AcDbEntity
  8
0
  6
Continuous
 62
     7
100
AcDbPolyline
 90
        7
 70
   128
 43
0.0
 10
152.4473591243797
 20
-1143.994442159832
 10
152.5230286672919
 20
-1143.934285734078
 10
155.8497290507419
 20
-1141.619077550685
 10
159.7078301685453
 20
-1139.247521207172
 10
164.3736275815994
 20
-1136.643489366358
 10
170.5114186729893
 20
-1133.382619000808
 10
174.5533092167681
 20
-1131.166897868394
  0
LWPOLYLINE
  5
2CD
330
A
100
AcDbEntity
  8
0
  6
Continuous
 62
     7
100
AcDbPolyline
 90
        8
 70
   128
 43
0.0
 10
195.4394724008225
 20
-1106.079345481072
 10
195.3354928575841
 20
-1105.239235072834
 10
194.8248479757531
 20
-1103.058018768005
 10
194.0691882603266
 20
-1100.784237589152
 10
193.0666314604696
 20
-1098.339334498855
 10
191.6478226803656
 20
-1095.235392481967
 10
189.6529329172654
 20
-1091.406786440291
 10
188.3459287507171
 20
-1089.253375613634
  0
LWPOLYLINE
  5
2D7
330
A
100
AcDbEntity
  8
0
  6
Continuous
 62
     7
100
AcDbPolyline
 90
        3
 70
   128
 43
0.0
 10
-44.51991389861833
 20
-1177.826173620543
 10
-41.24936882697291
 20
-1182.46000523244
 10
-38.04035452179111
 20
-1187.006475975917
  0
LWPOLYLINE
  5
2DC
330
A
100
AcDbEntity
  8
0
  6
Continuous
 62
     7
100
AcDbPolyline
 90
        3
 70
   128
 43
0.0
 10
178.3904380246616
 20
-1078.582587876683
 10
171.617706844898
 20
-1074.707964411918
 10
163.7488330364887
 20
-1070.20258905709
  0
LWPOLYLINE
  5
2E1
330
A
100
AcDbEntity
  8
0
  6
Continuous
 62
     7
100
AcDbPolyline
 90
        3
 70
   128
 43
0.0
 10
50.36481701845922
 20
-1012.065035596424
 10
45.95009624475733
 20
-1015.192660605295
 10
41.05888301038328
 20
-1017.990622897739
  0
LWPOLYLINE
  5
2E6
330
A
100
AcDbEntity
  8
0
  6
Continuous
 62
     7
100
AcDbPolyline
 90
        7
 70
   128
 43
0.0
 10
140.7795310750022
 20
-1226.259932863436
 10
142.0194527248133
 20
-1224.124393993503
 10
143.4886057138028
 20
-1222.086399456771
 10
145.0717243758225
 20
-1220.222042570371
 10
146.7197161511681
 20
-1218.500492473754
 10
148.3891121677095
 20
-1216.896538667422
 10
150.0438491481906
 20
-1215.39192513909
  0
LWPOLYLINE
  5
2EF
330
A
100
AcDbEntity
  8
0
  6
Continuous
 62
     7
100
AcDbPolyline
 90
        3
 70
   128
 43
0.0
 10
60.11369339552238
 20
-1239.784247153228
 10
60.46511288741015
 20
-1240.407893345894
 10
60.68659300052866
 20
-1241.216804280713
  0
LWPOLYLINE
  5
2F4
330
A
100
AcDbEntity
  8
0
  6
Continuous
 62
     7
100
AcDbPolyline
 90
       12
 70
   128
 43
0.0
 10
-56.0465814998686
 20
-1085.646916186465
 10
-52.39368228168356
 20
-1077.83713526302
 10
-50.85191301575499
 20
-1074.678871110904
 10
-49.85310291497749
 20
-1072.510562321485
 10
-49.19023950442605
 20
-1070.723977343729
 10
-48.76137069394623
 20
-1069.092936318672
 10
-48.58600225887601
 20
-1067.335982210093
 10
-48.68672240407764
 20
-1065.67887849638
 10
-49.02145059351988
 20
-1064.074922701057
 10
-49.56425288953614
 20
-1062.518205236258
 10
-50.29146317586095
 20
-1060.993698922017
 10
-50.39585349875805
 20
-1060.811966263785
  0
LWPOLYLINE
  5
302
330
A
100
AcDbEntity
  8
0
  6
Continuous
 62
     7
100
AcDbPolyline
 90
        7
 70
   128
 43
0.0
 10
-253.3850657921146
 20
-1151.908757974815
 10
-252.3142398668998
 20
-1152.323394348186
 10
-248.6992832803411
 20
-1153.466567388529
 10
-244.5506583877179
 20
-1154.560205756964
 10
-239.5986675398752
 20
-1155.749944781121
 10
-235.3086056448255
 20
-1157.01705585236
 10
-233.8156413643476
 20
-1157.540353895311
  0
LWPOLYLINE
  5
30B
330
A
100
AcDbEntity
  8
0
  6
Continuous
 62
     7
100
AcDbPolyline
 90
       13
 70
   128
 43
0.0
 10
-185.2836847882677
 20
-1039.778745083097
 10
-187.5948791493466
 20
-1041.288868262149
 10
-190.8149429422152
 20
-1043.134764908331
 10
-193.8659067291498
 20
-1044.5891892107
 10
-197.1955634500527
 20
-1045.839665775001
 10
-200.6122502098445
 20
-1046.786539115312
 10
-204.0354316570498
 20
-1047.404547931231
 10
-207.4468433190998
 20
-1047.695247834087
 10
-210.9058299101164
 20
-1047.669985108792
 10
-214.5251866423963
 20
-1047.383497892511
 10
-218.8256630222075
 20
-1046.799865804147
 10
-224.0665900627131
 20
-1045.887753298894
 10
-225.0840655755791
 20
-1045.702636843631
  0
LWPOLYLINE
  5
31A
330
A
100
AcDbEntity
  8
0
  6
Continuous
 62
     7
100
AcDbPolyline
 90
        5
 70
   128
 43
0.0
 10
-62.89112312668773
 20
-1095.40412961881
 10
-60.82771251010788
 20
-1093.062234830362
 10
-58.90367978337611
 20
-1090.536536648919
 10
-57.05616070030085
 20
-1087.588927330115
 10
-56.00026452989546
 20
-1085.678422528179
  0
LWPOLYLINE
  5
321
330
A
100
AcDbEntity
  8
0
  6
Continuous
 62
     7
100
AcDbPolyline
 90
       34
 70
   128
 43
0.0
 10
-233.7887744220961
 20
-1157.452033379167
 10
-232.3818428985213
 20
-1158.036043882674
 10
-230.4972825171242
 20
-1159.032137242165
 10
-228.8485567937238
 20
-1160.233773740869
 10
-227.5005708837355
 20
-1161.605758669832
 10
-226.4399488959795
 20
-1163.125207014339
 10
-225.6277049711876
 20
-1164.862549909959
 10
-225.012694325797
 20
-1166.862551258446
 10
-224.5762778376479
 20
-1169.257924406869
 10
-224.3513947974525
 20
-1172.048242121499
 10
-224.3239233945869
 20
-1175.298206611725
 10
-224.5476357152764
 20
-1179.345066773785
 10
-225.0541080399465
 20
-1183.845367820381
 10
-225.8746546655418
 20
-1189.125268440929
 10
-227.0838552699373
 20
-1195.969506084436
 10
-228.188642797229
 20
-1202.739066318051
 10
-228.8114498585489
 20
-1207.817973156105
 10
-229.1466571761831
 20
-1212.602270489015
 10
-229.2204471199195
 20
-1216.140848942485
 10
-229.1032937608267
 20
-1218.986136956738
 10
-228.7845360529237
 20
-1221.317838420123
 10
-228.2452543152896
 20
-1223.462526979743
 10
-227.4825139843206
 20
-1225.428839669141
 10
-226.4949827801729
 20
-1227.22694615455
 10
-225.1370101808751
 20
-1229.025217537298
 10
-223.7068008503262
 20
-1230.455594398956
 10
-222.0339473020268
 20
-1231.752292854235
 10
-220.1897922278915
 20
-1232.857940759981
 10
-218.1565859424285
 20
-1233.798437950059
 10
-215.8995913469001
 20
-1234.602849443376
 10
-213.355745821722
 20
-1235.318056547587
 10
-210.0363002270792
 20
-1236.110997492996
 10
-205.791140720252
 20
-1236.896128151472
 10
-203.2895577184792
 20
-1237.191966899745
  0
LWPOLYLINE
  5
345
330
A
100
AcDbEntity
  8
0
  6
Continuous
 62
     7
100
AcDbPolyline
 90
        3
 70
   128
 43
0.0
 10
-129.7193467865198
 20
-999.1603192497212
 10
-135.3844045310254
 20
-998.8846723297427
 10
-140.9427388493127
 20
-998.6143232252505
  0
LWPOLYLINE
  5
34A
330
A
100
AcDbEntity
  8
0
  6
Continuous
 62
     7
100
AcDbPolyline
 90
        3
 70
   128
 43
0.0
 10
-188.7516501243128
 20
-1235.9165260712
 10
-181.5286954977842
 20
-1232.964997468906
 10
-173.1338488111085
 20
-1229.538026326954
  0
LWPOLYLINE
  5
34F
330
A
100
AcDbEntity
  8
0
  6
Continuous
 62
     7
100
AcDbPolyline
 90
        3
 70
   128
 43
0.0
 10
-57.51466091571007
 20
-1175.983254353047
 10
-57.26128955126171
 20
-1170.578848681972
 10
-56.45478236988644
 20
-1165.001922462231
  0
LWPOLYLINE
  5
354
330
A
100
AcDbEntity
  8
0
  6
Continuous
 62
     7
100
AcDbPolyline
 90
        7
 70
   128
 43
0.0
 10
-281.9673995770019
 20
-1115.359474855246
 10
-281.0479439749602
 20
-1117.651315460205
 10
-280.3464832609041
 20
-1120.063738537412
 10
-279.8520151569348
 20
-1122.459065778534
 10
-279.510020215662
 20
-1124.817593091691
 10
-279.2738701824309
 20
-1127.120587671514
 10
-279.1069763527618
 20
-1129.350870791172
  0
LWPOLYLINE
  5
35D
330
A
100
AcDbEntity
  8
0
  6
Continuous
 62
     7
100
AcDbPolyline
 90
        3
 70
   128
 43
0.0
 10
-242.961856038387
 20
-1043.4675280267
 10
-243.6696513874877
 20
-1043.360495430276
 10
-244.4434386760331
 20
-1043.037008841586
  0
LWPOLYLINE
  5
362
330
A
100
AcDbEntity
  8
0
  6
Continuous
 62
     7
100
AcDbPolyline
 90
        7
 70
   128
 43
0.0
 10
291.27311966753
 20
-1029.881993606152
 10
290.4175311567686
 20
-1030.647865517432
 10
287.7578005722782
 20
-1033.349825720839
 10
284.899925362666
 20
-1036.549776137156
 10
281.5917033303431
 20
-1040.421902076169
 10
278.5150517553499
 20
-1043.669118825373
 10
277.3709981851986
 20
-1044.761787399626
  0
LWPOLYLINE
  5
36B
330
A
100
AcDbEntity
  8
0
  6
Continuous
 62
     7
100
AcDbPolyline
 90
       13
 70
   128
 43
0.0
 10
360.2643127164869
 20
-1141.466728975331
 10
359.9680433946037
 20
-1138.721858144216
 10
359.7852158103965
 20
-1135.014740755599
 10
359.8744228423653
 20
-1131.636017300512
 10
360.2718725839121
 20
-1128.101566958541
 10
360.9793455896461
 20
-1124.6274052635
 10
361.9827875585729
 20
-1121.296758129378
 10
363.2725205338181
 20
-1118.125193087626
 10
364.8653768379234
 20
-1115.054682505232
 10
366.7637923883492
 20
-1111.959874517894
 10
369.2361878075957
 20
-1108.393085429824
 10
372.4282170867878
 20
-1104.137475656018
 10
373.0550812727204
 20
-1103.314939447887
  0
LWPOLYLINE
  5
37A
330
A
100
AcDbEntity
  8
0
  6
Continuous
 62
     7
100
AcDbPolyline
 90
       12
 70
   128
 43
0.0
 10
260.7230559040051
 20
-1235.794117251143
 10
266.023240117714
 20
-1242.594440631039
 10
268.137325482838
 20
-1245.401989026503
 10
269.615852463868
 20
-1247.276326933619
 10
270.9067776440506
 20
-1248.678035163945
 10
272.1653434730023
 20
-1249.800637202165
 10
273.6511854429696
 20
-1250.754532095722
 10
275.1734016521989
 20
-1251.417099132339
 10
276.7545001483429
 20
-1251.847034824795
 10
278.387972651426
 20
-1252.070129377498
 10
280.0764642848853
 20
-1252.114291651384
 10
280.2857814838874
 20
-1252.10378409295
  0
LWPOLYLINE
  5
388
330
A
100
AcDbEntity
  8
0
  6
Continuous
 62
     7
100
AcDbPolyline
 90
        5
 70
   128
 43
0.0
 10
255.1366719515349
 20
-1225.265903804352
 10
256.2865466700164
 20
-1228.16761411115
 10
257.6634676486883
 20
-1231.028582803004
 10
259.4510506706972
 20
-1234.012920987267
 10
260.6739560836398
 20
-1235.82108239375
  0
LWPOLYLINE
  5
38F
330
A
100
AcDbEntity
  8
0
  6
Continuous
 62
     7
100
AcDbPolyline
 90
       34
 70
   128
 43
0.0
 10
277.437495004763
 20
-1044.825822695719
 10
276.2784042904569
 20
-1045.81427264197
 10
274.5353060991093
 20
-1047.041211314959
 10
272.7161343239613
 20
-1047.964705136554
 10
270.8817140042499
 20
-1048.542901253333
 10
269.0463633098709
 20
-1048.79810725087
 10
267.1296284297945
 20
-1048.73308471769
 10
265.0684051896608
 20
-1048.373081603499
 10
262.7359831470013
 20
-1047.674454888988
 10
260.1476970949065
 20
-1046.608049411285
 10
257.2394857748187
 20
-1045.157073607413
 10
253.7352702362132
 20
-1043.120508402788
 10
249.9554062666655
 20
-1040.626144336063
 10
245.6235007393046
 20
-1037.498007217959
 10
240.0742059325196
 20
-1033.313382722279
 10
234.5440466401031
 20
-1029.255693794143
 10
230.3014560006622
 20
-1026.394993185658
 10
226.190796801031
 20
-1023.92429574162
 10
223.0714002460703
 20
-1022.252067419873
 10
220.4830435501351
 20
-1021.064718099662
 10
218.2607693626922
 20
-1020.290162984433
 10
216.1050090781501
 20
-1019.796998300073
 10
214.0067347792739
 20
-1019.583917630724
 10
211.9562803847099
 20
-1019.647491114564
 10
209.7375021914321
 20
-1020.041055436486
 10
207.8137256269392
 20
-1020.66600377472
 10
205.8988992249967
 20
-1021.567838420542
 10
204.0765308438183
 20
-1022.709038977947
 10
202.3154853738669
 20
-1024.093662253988
 10
200.5740953808561
 20
-1025.739463987815
 10
198.7819594836217
 20
-1027.681349716617
 10
196.5684471635966
 20
-1030.279009742062
 10
193.9416285385751
 20
-1033.705032698863
 10
192.5423393666414
 20
-1035.79965149307
  0
LWPOLYLINE
  5
3B3
330
A
100
AcDbEntity
  8
0
  6
Continuous
 62
     7
100
AcDbPolyline
 90
        3
 70
   128
 43
0.0
 10
371.2299135591741
 20
-1209.415296089823
 10
374.0473991597292
 20
-1204.492833762518
 10
376.8117129505193
 20
-1199.663057546356
  0
LWPOLYLINE
  5
3B8
330
A
100
AcDbEntity
  8
0
  6
Continuous
 62
     7
100
AcDbPolyline
 90
        3
 70
   128
 43
0.0
 10
187.0786935322488
 20
-1049.33206002666
 10
186.4293719927265
 20
-1057.107725667964
 10
185.67164499589
 20
-1066.14340117668
  0
LWPOLYLINE
  5
3BD
330
A
100
AcDbEntity
  8
0
  6
Continuous
 62
     7
100
AcDbPolyline
 90
        3
 70
   128
 43
0.0
 10
180.8992833339482
 20
-1193.474209604712
 10
185.5996158538711
 20
-1196.153513974885
 10
190.2025469022621
 20
-1199.403988656807
  0
LWPOLYLINE
  5
3C2
330
A
100
AcDbEntity
  8
0
  6
Continuous
 62
     7
100
AcDbPolyline
 90
        7
 70
   128
 43
0.0
 10
336.8148773801972
 20
-1021.007975035863
 10
334.3554083405195
 20
-1020.786742114415
 10
331.8874671395033
 20
-1020.316531028696
 10
329.5287311184716
 20
-1019.669649524099
 10
327.2720054406747
 20
-1018.903620254463
 10
325.1128123732816
 20
-1018.068493814567
 10
323.0498473497446
 20
-1017.204669957595
  0
LWPOLYLINE
  5
3CB
330
A
100
AcDbEntity
  8
0
  6
Continuous
 62
     7
100
AcDbPolyline
 90
        3
 70
   128
 43
0.0
 10
383.1629248373261
 20
-1088.400429676223
 10
383.5796239432919
 20
-1087.818371184323
 10
384.2191446821213
 20
-1087.275781499953
  0
CIRCLE
  5
3D0
330
A
100
AcDbEntity
  8
0
  6
Continuous
 62
     7
100
AcDbCircle
 10
65.36507759769857
 20
-1118.12269490972
 30
0.0
 40
66.00000000000022
  0
CIRCLE
  5
3D1
330
A
100
AcDbEntity
  8
0
  6
Continuous
 62
     7
100
AcDbCircle
 10
65.36507759769857
 20
-1118.12269490972
 30
0.0
 40
91.0
  0
LWPOLYLINE
  5
3D2
330
A
100
AcDbEntity
  8
0
  6
Continuous
 62
     7
100
AcDbPolyline
 90
       20
 70
   128
 43
0.0
 10
268.6528947954504
 20
-1117.122694909715
 10
268.8274066674
 20
-1117.137887156703
 10
268.9966160844277
 20
-1117.183002288929
 10
269.1553817040211
 20
-1117.256669505931
 10
269.2988795131683
 20
-1117.356650466596
 10
269.4227494035517
 20
-1117.479907300029
 10
269.5232276512331
 20
-1117.622694909715
 10
269.5972612755013
 20
-1117.78067476639
 10
269.6426008021457
 20
-1117.949046732048
 10
269.6578686125919
 20
-1118.122694909715
 10
269.6426008021457
 20
-1118.296343087382
 10
269.5972612755013
 20
-1118.464715053041
 10
269.5232276512331
 20
-1118.622694909715
 10
269.4227494035517
 20
-1118.765482519402
 10
269.2988795131683
 20
-1118.888739352834
 10
269.1553817040211
 20
-1118.9887203135
 10
268.9966160844277
 20
-1119.062387530501
 10
268.8274066674
 20
-1119.107502662727
 10
268.6528947954504
 20
-1119.122694909715
 10
268.6528947954504
 20
-1119.122694909715
  0
LWPOLYLINE
  5
3E8
330
A
100
AcDbEntity
  8
0
  6
Continuous
 62
     7
100
AcDbPolyline
 90
       20
 70
   128
 43
0.0
 10
-137.9227396000532
 20
-1119.122694909715
 10
-138.0972514720028
 20
-1119.107502662727
 10
-138.2664608890304
 20
-1119.062387530501
 10
-138.4252265086239
 20
-1118.9887203135
 10
-138.568724317771
 20
-1118.888739352834
 10
-138.6925942081544
 20
-1118.765482519401
 10
-138.7930724558358
 20
-1118.622694909715
 10
-138.8671060801039
 20
-1118.464715053041
 10
-138.9124456067482
 20
-1118.296343087382
 10
-138.9277134171945
 20
-1118.122694909715
 10
-138.9124456067482
 20
-1117.949046732048
 10
-138.8671060801039
 20
-1117.78067476639
 10
-138.7930724558358
 20
-1117.622694909715
 10
-138.6925942081544
 20
-1117.479907300029
 10
-138.568724317771
 20
-1117.356650466596
 10
-138.4252265086239
 20
-1117.256669505931
 10
-138.2664608890304
 20
-1117.183002288929
 10
-138.0972514720028
 20
-1117.137887156703
 10
-137.9227396000532
 20
-1117.122694909715
 10
-137.9227396000532
 20
-1117.122694909715
  0
LWPOLYLINE
  5
3FE
330
A
100
AcDbEntity
  8
0
  6
Continuous
 62
     7
100
AcDbPolyline
 90
       18
 70
   128
 43
0.0
 10
17.95556515152431
 20
-1195.654376477673
 10
15.0337770762653
 20
-1194.949040999574
 10
8.182000351642585
 20
-1194.116009679671
 10
1.253574040984486
 20
-1193.88100647004
 10
-5.649740795144228
 20
-1194.064104058515
 10
-11.20584199078202
 20
-1194.462138818408
 10
-16.79103687967413
 20
-1194.84714628722
 10
-22.33068436230555
 20
-1194.807229354834
 10
-27.7501433391613
 20
-1193.930490911135
 10
-30.2413796516888
 20
-1193.084581040096
 10
-32.59534833602727
 20
-1191.912333054258
 10
-34.84290429828813
 20
-1190.360374720731
 10
-36.83579577623919
 20
-1188.4943596797
 10
-39.09346936145056
 20
-1185.281103941123
 10
-39.88640529207016
 20
-1183.298174245946
 10
-40.31336137454888
 20
-1181.205308877483
 10
-40.29235775001123
 20
-1177.155497232205
 10
-40.26317169073595
 20
-1176.946485658382
  0
LWPOLYLINE
  5
412
330
A
100
AcDbEntity
  8
0
  6
Continuous
 62
     7
100
AcDbPolyline
 90
        8
 70
   128
 43
0.0
 10
-44.93026879189932
 20
-1148.300120190087
 10
-46.99416626229974
 20
-1146.216255609385
 10
-49.80016492201554
 20
-1143.909766623528
 10
-55.9892490751053
 20
-1139.497631609903
 10
-60.43857740513719
 20
-1136.180925757046
 10
-63.1659015250027
 20
-1133.696196068418
 10
-65.45243569570278
 20
-1130.822916953869
 10
-65.82095425162323
 20
-1130.112775298372
  0
LWPOLYLINE
  5
41C
330
A
100
AcDbEntity
  8
0
  6
Continuous
 62
     7
100
AcDbPolyline
 90
        6
 70
   128
 43
0.0
 10
-51.17352091033438
 20
-1093.419610837449
 10
-50.74060050753126
 20
-1092.705668455313
 10
-47.67443626236696
 20
-1085.587495695525
 10
-46.34097584005514
 20
-1081.628126748933
 10
-44.91482507838582
 20
-1077.703509586254
 10
-44.7527567342649
 20
-1077.382092062568
  0
LINE
  5
424
330
A
100
AcDbEntity
  8
0
  6
Continuous
 62
     7
100
AcDbLine
 10
-21.70777815510414
 20
-1066.599898557993
 30
0.0
 11
-20.28927402201379
 21
-1073.479931389143
 31
0.0
  0
LWPOLYLINE
  5
425
330
A
100
AcDbEntity
  8
0
  6
Continuous
 62
     7
100
AcDbPolyline
 90
        7
 70
   128
 43
0.0
 10
151.9306289924964
 20
-1181.255550401014
 10
152.57260916974
 20
-1183.154841475634
 10
153.6230140163479
 20
-1188.258921845206
 10
153.936100118196
 20
-1193.451199939725
 10
153.368718950874
 20
-1198.215012175742
 10
151.9508925530737
 20
-1202.799760758715
 10
148.4518892352128
 20
-1210.6825400829
  0
LWPOLYLINE
  5
42E
330
A
100
AcDbEntity
  8
0
  6
Continuous
 62
     7
100
AcDbPolyline
 90
       22
 70
   128
 43
0.0
 10
144.6851156465012
 20
-1218.668258155058
 10
139.6503547728225
 20
-1228.343444839721
 10
135.4379205059478
 20
-1234.741954854857
 10
130.39172964352
 20
-1240.50632160491
 10
127.0243797542221
 20
-1243.536217618309
 10
123.3465700182135
 20
-1246.197669867915
 10
119.3878083227771
 20
-1248.375582347848
 10
114.7153217963152
 20
-1250.123147632211
 10
109.824355992965
 20
-1251.239905008477
 10
104.8509883775135
 20
-1251.826823768752
 10
96.94890157570455
 20
-1252.037767622167
 10
89.03785073641616
 20
-1251.873448223075
 10
84.25622853664441
 20
-1251.690970616061
 10
79.49523994799384
 20
-1251.214118640908
 10
74.840773490181
 20
-1250.212166854536
 10
70.12418286829002
 20
-1248.296673073942
 10
65.8420559218797
 20
-1245.53457831482
 10
61.59535076666743
 20
-1241.529430394443
 10
58.01145280005073
 20
-1236.905750332392
 10
55.15837594619033
 20
-1232.302704334054
 10
52.56052302183182
 20
-1227.546070504829
 10
50.88182419205084
 20
-1224.320202116673
  0
LWPOLYLINE
  5
446
330
A
100
AcDbEntity
  8
0
  6
Continuous
 62
     7
100
AcDbPolyline
 90
       23
 70
   128
 43
0.0
 10
30.57755175514465
 20
-1034.223854562946
 10
30.91402125394518
 20
-1031.411246472337
 10
31.58601566328587
 20
-1028.290834351407
 10
32.70972831494134
 20
-1025.316159870244
 10
33.9791232556378
 20
-1023.298396161357
 10
35.60400601628572
 20
-1021.551931619941
 10
39.20520488501636
 20
-1019.006095180437
 10
44.02833311050749
 20
-1016.549170814313
 10
54.59453255092967
 20
-1011.826519171064
 10
65.41673420953694
 20
-1007.714256571961
 10
76.52018114592053
 20
-1004.544346716025
 10
83.94274102435621
 20
-1003.023005462959
 10
91.45920400722291
 20
-1002.217821640232
 10
94.10688799970577
 20
-1002.247022115883
 10
96.72280203496049
 20
-1002.613370094022
 10
99.39866454542082
 20
-1003.584873861327
 10
101.3975258931916
 20
-1005.121415476031
 10
102.0197396372563
 20
-1005.855312889662
 10
103.4737426444407
 20
-1008.38351109683
 10
104.4164297891843
 20
-1011.161763006472
 10
105.1334765637864
 20
-1014.773495043357
 10
105.5181071152794
 20
-1018.440820898139
 10
105.5419452212954
 20
-1019.386547805302
  0
LWPOLYLINE
  5
45F
330
A
100
AcDbEntity
  8
0
  6
Continuous
 62
     7
100
AcDbPolyline
 90
       11
 70
   128
 43
0.0
 10
159.2696567000007
 20
-1075.960505297691
 10
159.3952019431278
 20
-1075.945682101495
 10
163.7774418700226
 20
-1075.692299762529
 10
168.1685574553362
 20
-1075.782595185432
 10
172.4959226890262
 20
-1076.387168646438
 10
176.3219049539765
 20
-1077.582657756221
 10
179.83456084301
 20
-1079.497929560495
 10
182.5671109317386
 20
-1081.754654684918
 10
184.9645044036866
 20
-1084.372907305171
 10
188.0020279546836
 20
-1088.665662128968
 10
188.334307209141
 20
-1089.250461671137
  0
LWPOLYLINE
  5
46C
330
A
100
AcDbEntity
  8
0
  6
Continuous
 62
     7
100
AcDbPolyline
 90
       11
 70
   128
 43
0.0
 10
-44.5097824253736
 20
-1177.820470023966
 10
-46.19456792044002
 20
-1174.829700978441
 10
-47.61382966150082
 20
-1171.299416755982
 10
-50.10728038120847
 20
-1164.260689875567
 10
-52.72941357334445
 20
-1157.777513203814
 10
-55.97170493585274
 20
-1151.680289231815
 10
-60.0749189867654
 20
-1145.928574061476
 10
-64.9818128503675
 20
-1140.657588905847
 10
-70.48253831056303
 20
-1135.876831207421
 10
-73.79353066693211
 20
-1133.058438104656
 10
-76.49595206840529
 20
-1130.516406881318
  0
LWPOLYLINE
  5
479
330
A
100
AcDbEntity
  8
0
  6
Continuous
 62
     7
100
AcDbPolyline
 90
        4
 70
   128
 43
0.0
 10
-49.82898837314865
 20
-1072.445567516385
 10
-47.9620883533142
 20
-1072.045093043417
 10
-42.48199757000528
 20
-1071.728570983545
 10
-40.6625861076844
 20
-1071.865458549079
  0
LWPOLYLINE
  5
47F
330
A
100
AcDbEntity
  8
0
  6
Continuous
 62
     7
100
AcDbPolyline
 90
       21
 70
   128
 43
0.0
 10
131.3928959058975
 20
-1006.578814224837
 10
131.8974041594373
 20
-1008.680535139189
 10
132.7545209237272
 20
-1014.205429865197
 10
133.0296477004739
 20
-1019.580431778948
 10
132.9136569218352
 20
-1024.854586680944
 10
132.5976713145769
 20
-1030.077711158986
 10
132.2728136054645
 20
-1035.29962180088
 10
132.1302065212638
 20
-1040.570135194427
 10
132.3754831994356
 20
-1045.909262011663
 10
133.2910195676328
 20
-1051.17937513007
 10
134.425669761166
 20
-1054.560841181608
 10
136.0847242299888
 20
-1057.770680945111
 10
138.2853723619846
 20
-1060.723939716706
 10
140.9379274226824
 20
-1063.294076144659
 10
143.9441374069735
 20
-1065.351216038378
 10
147.2057503097492
 20
-1066.76548520727
 10
151.0620586308577
 20
-1067.48270108315
 10
155.027055233749
 20
-1067.728993234825
 10
159.030925027886
 20
-1068.29592984271
 10
162.9456522034265
 20
-1069.767371113881
 10
163.7093903034989
 20
-1070.273639789104
  0
LINE
  5
496
330
A
100
AcDbEntity
  8
0
  6
Continuous
 62
     7
100
AcDbLine
 10
112.0805633677786
 20
-1040.028755392845
 30
0.0
 11
131.3928959058976
 21
-1006.578814224837
 31
0.0
  0
LWPOLYLINE
  5
497
330
A
100
AcDbEntity
  8
0
  6
Continuous
 62
     7
100
AcDbPolyline
 90
       18
 70
   128
 43
0.0
 10
50.40969207869975
 20
-1012.137588374707
 10
53.92210403945977
 20
-1009.444817079213
 10
59.8985038223974
 20
-1005.692621552658
 10
67.79580408940169
 20
-1001.652574631166
 10
75.83710107356106
 20
-998.3347200292394
 10
84.11693817280832
 20
-995.5464693709222
 10
92.78116153049534
 20
-993.0805306406448
 10
98.10160214920625
 20
-991.700671976039
 10
103.6141109868864
 20
-990.3520250571096
 10
109.1576772750931
 20
-989.3135737790931
 10
113.3737127203265
 20
-988.9922161995405
 10
117.3353713176012
 20
-989.3317133782232
 10
120.9221041398018
 20
-990.5388969810104
 10
123.8515764479594
 20
-992.5811356781323
 10
126.3550163174684
 20
-995.3858529238853
 10
128.4407992095082
 20
-998.7734425454595
 10
130.117300585258
 20
-1002.564298370046
 10
131.3928959058975
 20
-1006.578814224837
  0
LWPOLYLINE
  5
4AB
330
A
100
AcDbEntity
  8
0
  6
Continuous
 62
     7
100
AcDbPolyline
 90
        8
 70
   128
 43
0.0
 10
153.8353194384801
 20
-1194.297368728602
 10
154.3545231004357
 20
-1197.861968276809
 10
154.5194591814761
 20
-1201.686529717139
 10
154.3276226972366
 20
-1205.529423006043
 10
153.6545130232284
 20
-1209.185553609826
 10
152.3725955380869
 20
-1212.445448665972
 10
150.3568500145689
 20
-1215.102667636939
 10
150.0072115683241
 20
-1215.361320414357
  0
LWPOLYLINE
  5
4B5
330
A
100
AcDbEntity
  8
0
  6
Continuous
 62
     7
100
AcDbPolyline
 90
       21
 70
   128
 43
0.0
 10
118.5301559479511
 20
-1248.696354490862
 10
118.2038423415019
 20
-1249.483403232264
 10
116.5417126049273
 20
-1254.428243487356
 10
115.3682685367303
 20
-1257.854338439146
 10
113.718871080581
 20
-1260.92303140829
 10
111.2218505019241
 20
-1263.316829059917
 10
107.9843644924776
 20
-1264.944654531543
 10
104.345202693363
 20
-1265.824959542374
 10
100.6446659338464
 20
-1265.97691038616
 10
97.15967634494059
 20
-1265.439868739746
 10
93.89004483152808
 20
-1264.341496726756
 10
89.22335135711483
 20
-1261.973482205526
 10
84.61424222779955
 20
-1259.196287675479
 10
79.80653220761485
 20
-1256.52220190405
 10
74.59174628463576
 20
-1254.402980636278
 10
71.06111450685564
 20
-1253.172608609723
 10
67.76902599439736
 20
-1251.795343536193
 10
64.96085521339894
 20
-1250.015344604358
 10
62.86584195252064
 20
-1247.594143418294
 10
61.48600674638742
 20
-1244.537921484438
 10
60.69799384026691
 20
-1241.213175025487
  0
LINE
  5
4CC
330
A
100
AcDbEntity
  8
0
  6
Continuous
 62
     7
100
AcDbLine
 10
-185.2553083478898
 20
-1039.814263425266
 30
0.0
 11
-185.2553080105299
 21
-1039.814264260261
 31
0.0
  0
LWPOLYLINE
  5
4CD
330
A
100
AcDbEntity
  8
0
  6
Continuous
 62
     7
100
AcDbPolyline
 90
       19
 70
   128
 43
0.0
 10
-185.2553080105299
 20
-1039.814264260261
 10
-185.2552729423278
 20
-1039.814240120239
 10
-179.8772636604622
 20
-1035.547378362523
 10
-175.0024510554045
 20
-1030.660969913612
 10
-170.5517008349783
 20
-1025.345977897989
 10
-166.4458787070074
 20
-1019.793365440138
 10
-163.3388569189473
 20
-1015.170043282341
 10
-160.2036576193134
 20
-1010.531815382645
 10
-156.7616551054016
 20
-1006.191088912624
 10
-152.7342236745081
 20
-1002.460271043854
 10
-150.5338793759924
 20
-1001.017944159003
 10
-148.1608875241878
 20
-999.8846994464994
 10
-145.5541940486166
 20
-999.0690821361678
 10
-142.8568076224128
 20
-998.6474957939122
 10
-138.9347648960503
 20
-998.8467024992431
 10
-136.884014867721
 20
-999.4426738805932
 10
-134.971954039883
 20
-1000.394724476688
 10
-131.793590035792
 20
-1002.904588571011
 10
-131.6468554003041
 20
-1003.056267873475
  0
LWPOLYLINE
  5
4E2
330
A
100
AcDbEntity
  8
0
  6
Continuous
 62
     7
100
AcDbPolyline
 90
        9
 70
   128
 43
0.0
 10
-106.1998594727485
 20
-1017.01500879656
 10
-103.2870896125475
 20
-1016.671590537677
 10
-99.74200621401438
 20
-1015.88044983107
 10
-92.45481569630726
 20
-1013.719766515282
 10
-87.10193577382957
 20
-1012.255615963482
 10
-83.46483366805754
 20
-1011.636207574343
 10
-79.79292782676381
 20
-1011.603361318027
 10
-77.60843774641632
 20
-1012.011133667423
 10
-75.69512622424679
 20
-1012.733436939693
  0
LWPOLYLINE
  5
4ED
330
A
100
AcDbEntity
  8
0
  6
Continuous
 62
     7
100
AcDbPolyline
 90
        6
 70
   128
 43
0.0
 10
-59.10969812939002
 20
-1045.883074344423
 10
-58.8136362686989
 20
-1046.663767097572
 10
-55.0921587907246
 20
-1053.462322237999
 10
-52.79309369420178
 20
-1056.950734317308
 10
-50.57847924818763
 20
-1060.490792046231
 10
-50.42497801897041
 20
-1060.816388031046
  0
LINE
  5
4F5
330
A
100
AcDbEntity
  8
0
  6
Continuous
 62
     7
100
AcDbLine
 10
-56.11639910079129
 20
-1085.614260128334
 30
0.0
 11
-62.4112573042381
 21
-1082.49628547613
 31
0.0
  0
LWPOLYLINE
  5
4F6
330
A
100
AcDbEntity
  8
0
  6
Continuous
 62
     7
100
AcDbPolyline
 90
        7
 70
   128
 43
0.0
 10
-185.2553084284258
 20
-1039.814263480827
 10
-185.0598136771652
 20
-1040.098210392865
 10
-184.4327580145596
 20
-1041.008979167456
 10
-183.4448371489294
 20
-1042.443887571096
 10
-182.2074315145099
 20
-1044.241160728671
 10
-181.5017305600672
 20
-1045.266157945545
 10
-181.2319638386407
 20
-1045.657981325978
  0
LWPOLYLINE
  5
4FF
330
A
100
AcDbEntity
  8
0
  6
Continuous
 62
     7
100
AcDbPolyline
 90
        7
 70
   128
 43
0.0
 10
-253.3687636325683
 20
-1151.854124431688
 10
-255.2606678866496
 20
-1151.190691369885
 10
-259.9294319026973
 20
-1148.876036034141
 10
-264.2137579282628
 20
-1145.92606565723
 10
-267.6183784718625
 20
-1142.546067526585
 10
-270.3583085660026
 20
-1138.606152001781
 10
-274.4158218969258
 20
-1130.995776212006
  0
LWPOLYLINE
  5
508
330
A
100
AcDbEntity
  8
0
  6
Continuous
 62
     7
100
AcDbPolyline
 90
       22
 70
   128
 43
0.0
 10
-278.3895962282141
 20
-1123.11101914786
 10
-282.9140390714798
 20
-1113.186933729233
 10
-285.3627002750112
 20
-1105.928174112269
 10
-286.7983379506485
 20
-1098.402822910268
 10
-287.1127809907345
 20
-1093.883924736653
 10
-286.9457482155965
 20
-1089.347217496458
 10
-286.2247096043233
 20
-1084.886813898961
 10
-284.7251398927102
 20
-1080.128935648828
 10
-282.5939774921199
 20
-1075.587257506412
 10
-279.994564943244
 20
-1071.30684707395
 10
-275.2957805495892
 20
-1064.950047694186
 10
-270.2957658649859
 20
-1058.817219684168
 10
-267.2081109704056
 20
-1055.16159440381
 10
-263.9011892276089
 20
-1051.70346358869
 10
-260.2460647590821
 20
-1048.652557082634
 10
-255.832811920726
 20
-1046.115128679161
 10
-251.0199109546987
 20
-1044.441281931471
 10
-245.2492785625248
 20
-1043.560647879323
 10
-239.399301042848
 20
-1043.583119430236
 10
-234.015521791746
 20
-1044.168782278856
 10
-228.6678452192577
 20
-1045.050122439057
 10
-225.0923160415001
 20
-1045.713332600182
  0
LWPOLYLINE
  5
520
330
A
100
AcDbEntity
  8
0
  6
Continuous
 62
     7
100
AcDbPolyline
 90
        7
 70
   128
 43
0.0
 10
-231.2616343961679
 20
-1150.826845478788
 10
-231.3804556132323
 20
-1151.13862087652
 10
-232.0203870887495
 20
-1152.817739255762
 10
-232.7755886943011
 20
-1154.799315309296
 10
-233.3601033811767
 20
-1156.333025368452
 10
-233.7080317931232
 20
-1157.245955898487
 10
-233.7625999766339
 20
-1157.389027326617
  0
LWPOLYLINE
  5
529
330
A
100
AcDbEntity
  8
0
  6
Continuous
 62
     7
100
AcDbPolyline
 90
        5
 70
   128
 43
0.0
 10
-63.21215519713813
 20
-1095.509451632391
 10
-63.25033434103624
 20
-1095.555087514069
 10
-67.49808445902956
 20
-1100.026553437449
 10
-70.47223492534904
 20
-1103.306635093848
 10
-72.90237474166042
 20
-1106.471952322485
  0
LWPOLYLINE
  5
530
330
A
100
AcDbEntity
  8
0
  6
Continuous
 62
     7
100
AcDbPolyline
 90
       28
 70
   128
 43
0.0
 10
-77.18939290123697
 20
-1129.568005928661
 10
-77.17662327063805
 20
-1129.60868440247
 10
-75.63380688345228
 20
-1132.624958724632
 10
-72.33924324934552
 20
-1137.138317583159
 10
-68.48901063191973
 20
-1141.239512740811
 10
-64.4221923069114
 20
-1145.130041540415
 10
-60.7845775108341
 20
-1148.745101394577
 10
-58.73938027332163
 20
-1151.195757745497
 10
-57.08713138264625
 20
-1153.912647878652
 10
-56.27862944376619
 20
-1156.155204124366
 10
-55.90277432198898
 20
-1158.510860149279
 10
-56.11374723920004
 20
-1162.916017001998
 10
-57.14707865688642
 20
-1168.229327589721
 10
-59.9307803125427
 20
-1179.463161051659
 10
-63.35308580220528
 20
-1190.522933995032
 10
-67.69112726981749
 20
-1201.224160961559
 10
-71.06207816794682
 20
-1208.009849165392
 10
-75.05518134626971
 20
-1214.428623485187
 10
-76.7082686681013
 20
-1216.497049335496
 10
-78.60747230870727
 20
-1218.332871389084
 10
-81.02045318547116
 20
-1219.843362379837
 10
-83.46188642756239
 20
-1220.472497139441
 10
-84.42327851318623
 20
-1220.510975896392
 10
-87.31069952421533
 20
-1220.100231663689
 10
-90.08036806354537
 20
-1219.132616601517
 10
-93.36790982288516
 20
-1217.474052896433
 10
-96.49460424622089
 20
-1215.519314660921
 10
-97.25452342255969
 20
-1214.955851721887
  0
LINE
  5
54E
330
A
100
AcDbEntity
  8
0
  6
Continuous
 62
     7
100
AcDbLine
 10
-122.1957425225674
 20
-1195.89216578017
 30
0.0
 11
-122.1957606168968
 21
-1195.892120995133
 31
0.0
  0
LWPOLYLINE
  5
54F
330
A
100
AcDbEntity
  8
0
  6
Continuous
 62
     7
100
AcDbPolyline
 90
        5
 70
   128
 43
0.0
 10
-118.3099911069642
 20
-1190.030142460702
 10
-119.6468803432599
 20
-1192.04694393563
 10
-120.8758862234835
 20
-1193.900996099864
 10
-121.7569668036023
 20
-1195.230176213432
 10
-122.1957606168968
 20
-1195.892120995133
  0
LWPOLYLINE
  5
556
330
A
100
AcDbEntity
  8
0
  6
Continuous
 62
     7
100
AcDbPolyline
 90
       11
 70
   128
 43
0.0
 10
-174.9134924155028
 20
-1222.463459999012
 10
-174.9791049471012
 20
-1222.571517071499
 10
-177.477413237845
 20
-1226.180767003406
 10
-180.2520077016733
 20
-1229.585421891684
 10
-183.3926101543378
 20
-1232.62321964167
 10
-186.6901783144755
 20
-1234.902118220495
 10
-190.3620399992773
 20
-1236.490969770104
 10
-193.8226894842847
 20
-1237.254869905284
 10
-197.3618835065792
 20
-1237.532084470846
 10
-202.6147067010713
 20
-1237.282801925335
 10
-203.2801065650242
 20
-1237.184603002146
  0
LWPOLYLINE
  5
563
330
A
100
AcDbEntity
  8
0
  6
Continuous
 62
     7
100
AcDbPolyline
 90
       30
 70
   128
 43
0.0
 10
-129.7210898488481
 20
-999.171814444271
 10
-126.3270741559204
 20
-999.6854866395644
 10
-122.6713874479596
 20
-1000.740553118144
 10
-115.5896734257448
 20
-1003.109160113036
 10
-108.8665141013008
 20
-1005.034333074772
 10
-102.0656821605392
 20
-1006.233198520781
 10
-95.0070779384672
 20
-1006.540931171736
 10
-87.83249943839894
 20
-1005.919388537744
 10
-80.67862620946504
 20
-1004.52808606026
 10
-76.41925169768126
 20
-1003.654164534027
 10
-72.1936629837823
 20
-1003.003654307887
 10
-68.00928402761569
 20
-1002.783364197213
 10
-63.87353878902885
 20
-1003.200103017377
 10
-59.80797937260166
 20
-1004.43854523016
 10
-55.96659824198313
 20
-1006.475872962515
 10
-52.57581578703842
 20
-1009.17579658986
 10
-49.85881332744249
 20
-1012.401289995334
 10
-47.87085065090085
 20
-1016.033000613993
 10
-46.44100214993181
 20
-1019.975381638722
 10
-45.31604061684338
 20
-1024.437465889663
 10
-44.38738720981855
 20
-1029.032977738979
 10
-43.42518804920733
 20
-1033.646464075963
 10
-42.23602142127612
 20
-1038.171918955924
 10
-41.03618045214445
 20
-1042.609578926592
 10
-40.29987772396188
 20
-1047.026561212668
 10
-40.46594849220963
 20
-1051.4795196018
 10
-41.84823261342773
 20
-1056.638738510112
 10
-44.24350356049823
 20
-1061.573184893286
 10
-47.36796155013645
 20
-1066.086425799627
 10
-48.59597196892813
 20
-1067.435865196621
  0
LWPOLYLINE
  5
583
330
A
100
AcDbEntity
  8
0
  6
Continuous
 62
     7
100
AcDbPolyline
 90
       21
 70
   128
 43
0.0
 10
-103.0773260688767
 20
-1243.211907004037
 10
-105.0441110461544
 20
-1242.315516334256
 10
-109.925481274423
 20
-1239.589468723581
 10
-114.3304255403887
 20
-1236.497089974164
 10
-118.4151052654479
 20
-1233.158594005219
 10
-122.3364433564261
 20
-1229.693917426753
 10
-126.2513627201486
 20
-1226.222996848774
 10
-130.3167862634408
 20
-1222.865768881288
 10
-134.6750830118396
 20
-1219.771954848046
 10
-139.3916492930263
 20
-1217.248801733892
 10
-142.7548413167236
 20
-1216.061079909925
 10
-146.3056454896397
 20
-1215.392257987819
 10
-149.9876994354569
 20
-1215.308184728398
 10
-153.6460705409722
 20
-1215.81609265574
 10
-157.1179265729636
 20
-1216.918516669043
 10
-160.2404352982085
 20
-1218.617991667505
 10
-163.1797895913439
 20
-1221.21524190949
 10
-165.8149661135901
 20
-1224.188069281122
 10
-168.7267466416871
 20
-1226.994120706516
 10
-172.2964048950608
 20
-1229.173058114415
 10
-173.1655541808041
 20
-1229.463201830711
  0
LINE
  5
59A
330
A
100
AcDbEntity
  8
0
  6
Continuous
 62
     7
100
AcDbLine
 10
-122.1957425225673
 20
-1195.89216578017
 30
0.0
 11
-103.0773260688769
 21
-1243.211907004037
 31
0.0
  0
LWPOLYLINE
  5
59B
330
A
100
AcDbEntity
  8
0
  6
Continuous
 62
     7
100
AcDbPolyline
 90
       18
 70
   128
 43
0.0
 10
-57.5994611309944
 20
-1175.973948432569
 10
-57.63998512285514
 20
-1180.399602377242
 10
-58.36265380579367
 20
-1187.41915190764
 10
-60.04111692005568
 20
-1196.129610690571
 10
-62.37732857963307
 20
-1204.508914446172
 10
-65.27773380110676
 20
-1212.750133632368
 10
-68.66877609885726
 20
-1221.095818286621
 10
-70.85702295338878
 20
-1226.137908529283
 10
-73.18811400220557
 20
-1231.312134724529
 10
-75.78276342759498
 20
-1236.319859018845
 10
-78.12518080139208
 20
-1239.83998776881
 10
-80.83174880574786
 20
-1242.752802011685
 10
-83.99123568723682
 20
-1244.835969608012
 10
-87.40410498516673
 20
-1245.887097599996
 10
-91.15552381909713
 20
-1246.133078780786
 10
-95.10911704222648
 20
-1245.691089705186
 10
-99.12850950775339
 20
-1244.678306928001
 10
-103.0773260688768
 20
-1243.211907004037
  0
LWPOLYLINE
  5
5AF
330
A
100
AcDbEntity
  8
0
  6
Continuous
 62
     7
100
AcDbPolyline
 90
        8
 70
   128
 43
0.0
 10
-264.8185012513082
 20
-1145.325695872921
 10
-267.9470977201096
 20
-1143.540247325061
 10
-271.0624380539069
 20
-1141.315583591751
 10
-273.9725729576182
 20
-1138.798493027471
 10
-276.4392354950339
 20
-1136.017136604487
 10
-278.2188406447584
 20
-1132.999980041286
 10
-279.0717409056783
 20
-1129.77560354029
 10
-279.060303154088
 20
-1129.340842134232
  0
LWPOLYLINE
  5
5B9
330
A
100
AcDbEntity
  8
0
  6
Continuous
 62
     7
100
AcDbPolyline
 90
       21
 70
   128
 43
0.0
 10
-285.9494579760739
 20
-1084.01348755393
 10
-286.3687621315461
 20
-1083.271793333715
 10
-289.2420401816239
 20
-1078.917669580705
 10
-291.2193955402745
 20
-1075.883668363584
 10
-292.6220881282258
 20
-1072.694649390462
 10
-292.9711070462924
 20
-1069.253201328672
 10
-292.2606556100065
 20
-1065.699838107143
 10
-290.7138537028036
 20
-1062.290169593621
 10
-288.5553146808656
 20
-1059.280556552343
 10
-285.9865462565561
 20
-1056.86498313242
 10
-283.108031137541
 20
-1054.964703673493
 10
-278.3689068407651
 20
-1052.745194345602
 10
-273.3427967597387
 20
-1050.82297846879
 10
-268.2756665718213
 20
-1048.680782863847
 10
-263.3951546286959
 20
-1045.87619837104
 10
-260.2519342716941
 20
-1043.851515220192
 10
-257.1398225127032
 20
-1042.105243117634
 10
-254.0082816470128
 20
-1040.988251112694
 10
-250.8105301207297
 20
-1040.827998428446
 10
-247.5526829927277
 20
-1041.622271552528
 10
-244.4475978417005
 20
-1043.048227218526
  0
LWPOLYLINE
  5
5D0
330
A
100
AcDbEntity
  8
0
  6
Continuous
 62
     7
100
AcDbPolyline
 90
        7
 70
   128
 43
0.0
 10
291.3143974853364
 20
-1029.921322046213
 10
292.7644272295348
 20
-1028.536815319958
 10
296.9463747437416
 20
-1025.427747654363
 10
301.5198609091259
 20
-1022.949643739465
 10
306.0771266772869
 20
-1021.450591663182
 10
310.8315193473286
 20
-1020.797980291521
 10
319.4544863323486
 20
-1020.637747749693
  0
LWPOLYLINE
  5
5D9
330
A
100
AcDbEntity
  8
0
  6
Continuous
 62
     7
100
AcDbPolyline
 90
       22
 70
   128
 43
0.0
 10
328.2839121126569
 20
-1020.676693694739
 10
339.1803910347141
 20
-1021.150826101733
 10
346.7596621344277
 20
-1022.264460899854
 10
354.1165650180263
 20
-1024.401736317402
 10
358.2856869257692
 20
-1026.173102357312
 10
362.252091382058
 20
-1028.381551636861
 10
365.8989954084772
 20
-1031.048982601965
 10
369.4575055678703
 20
-1034.545140522966
 10
372.5366429402561
 20
-1038.505898855528
 10
375.1704079596905
 20
-1042.765258066957
 10
378.7011542049726
 20
-1049.837832144621
 10
381.8955848082566
 20
-1057.077123502726
 10
383.751004794429
 20
-1061.487863306129
 10
385.3309108575863
 20
-1066.004310690862
 10
386.3898966750942
 20
-1070.646133008383
 10
386.6471870756869
 20
-1075.730338469197
 10
385.9535841336067
 20
-1080.778575151671
 10
384.1184225359564
 20
-1086.320045755213
 10
381.4425660198614
 20
-1091.522212020971
 10
378.4765519680706
 20
-1096.053309089169
 10
375.2634777757127
 20
-1100.418003744735
 10
373.0492969169994
 20
-1103.302732457062
  0
LWPOLYLINE
  5
5F1
330
A
100
AcDbEntity
  8
0
  6
Continuous
 62
     7
100
AcDbPolyline
 90
        7
 70
   128
 43
0.0
 10
282.1932830846919
 20
-1050.08529331212
 10
281.9694328749455
 20
-1049.837879763881
 10
280.7638502545255
 20
-1048.505392852048
 10
279.3411074169599
 20
-1046.932886591608
 10
278.2399258628384
 20
-1045.715790395906
 10
277.5844549980593
 20
-1044.991322123353
 10
277.4817508590723
 20
-1044.877748446676
  0
LINE
  5
5FA
330
A
100
AcDbEntity
  8
0
  6
Continuous
 62
     7
100
AcDbLine
 10
360.2197830075373
 20
-1141.475887578929
 30
0.0
 11
360.2197821103933
 21
-1141.475887500439
 31
0.0
  0
LWPOLYLINE
  5
5FB
330
A
100
AcDbEntity
  8
0
  6
Continuous
 62
     7
100
AcDbPolyline
 90
       19
 70
   128
 43
0.0
 10
360.2197821103933
 20
-1141.475887500439
 10
360.2197876986792
 20
-1141.475929705777
 10
361.5800242411365
 20
-1148.20488576477
 10
363.7207274382588
 20
-1154.766758613725
 10
366.4358216834005
 20
-1161.145361978941
 10
369.5192313699164
 20
-1167.32450958672
 10
372.2280832016744
 20
-1172.191830607552
 10
374.9374238241525
 20
-1177.091025040246
 10
377.2424029872627
 20
-1182.128520315772
 10
378.7381704409173
 20
-1187.410743865099
 10
379.0243576976499
 20
-1190.026067693779
 10
378.9567703733137
 20
-1192.654901248939
 10
378.5000766444177
 20
-1195.347764652546
 10
377.6511250142531
 20
-1197.942549750755
 10
375.6930604028
 20
-1201.346677456385
 10
374.2310249835854
 20
-1202.903343765856
 10
372.5146842403449
 20
-1204.174780512206
 10
368.8354318949052
 20
-1205.867269121636
 10
368.6336685163313
 20
-1205.929149676855
  0
LWPOLYLINE
  5
610
330
A
100
AcDbEntity
  8
0
  6
Continuous
 62
     7
100
AcDbPolyline
 90
        9
 70
   128
 43
0.0
 10
344.6436448863861
 20
-1222.265453301895
 10
343.6272629511176
 20
-1225.016658877764
 10
342.722740298537
 20
-1228.534521679406
 10
341.3396079647774
 20
-1236.008385671999
 10
340.2140190277744
 20
-1241.44254704683
 10
339.1147061410312
 20
-1244.96443427634
 10
337.4769620018179
 20
-1248.251038225458
 10
336.1218964348694
 20
-1250.01230836639
 10
334.6096942527269
 20
-1251.389162591906
  0
LWPOLYLINE
  5
61B
330
A
100
AcDbEntity
  8
0
  6
Continuous
 62
     7
100
AcDbPolyline
 90
        6
 70
   128
 43
0.0
 10
297.5435242614553
 20
-1251.117266779322
 10
296.7135126529243
 20
-1251.026632735616
 10
288.9664402477541
 20
-1251.256014002402
 10
284.8144886139285
 20
-1251.720790059755
 10
280.6548601623783
 20
-1252.086873402254
 10
280.295063915896
 20
-1252.075826515099
  0
LINE
  5
623
330
A
100
AcDbEntity
  8
0
  6
Continuous
 62
     7
100
AcDbLine
 10
260.7838491923875
 20
-1235.746734853368
 30
0.0
 11
266.4197907713271
 21
-1231.553505995785
 31
0.0
  0
LWPOLYLINE
  5
624
330
A
100
AcDbEntity
  8
0
  6
Continuous
 62
     7
100
AcDbPolyline
 90
        7
 70
   128
 43
0.0
 10
360.2197829945946
 20
-1141.475887481947
 10
359.8780316836243
 20
-1141.521165380269
 10
358.7818534498056
 20
-1141.666395695556
 10
357.0548340130596
 20
-1141.895204848966
 10
354.8916815015607
 20
-1142.181796403325
 10
353.6580207650775
 20
-1142.345241559139
 10
353.1864320481087
 20
-1142.407721375647
  0
LWPOLYLINE
  5
62D
330
A
100
AcDbEntity
  8
0
  6
Continuous
 62
     7
100
AcDbPolyline
 90
       37
 70
   128
 43
0.0
 10
255.1885748603897
 20
-1224.932046941528
 10
255.1652459606958
 20
-1224.877310818498
 10
253.1095788491144
 20
-1219.06253470112
 10
251.5372407498977
 20
-1214.923421321336
 10
249.6305924796199
 20
-1210.923376650331
 10
247.2801812036087
 20
-1207.192249505061
 10
244.1875067085642
 20
-1203.568499188192
 10
240.554401236837
 20
-1200.497853885912
 10
237.6392636740807
 20
-1198.772818601823
 10
234.4791058004135
 20
-1197.571024728383
 10
231.1456718317169
 20
-1197.008887055196
 10
227.7577277493036
 20
-1197.014186634933
 10
222.2405949696809
 20
-1197.900642283589
 10
216.8384342971446
 20
-1199.469321026207
 10
211.5256508704344
 20
-1201.326619572495
 10
206.6531663959134
 20
-1202.926555258504
 10
203.5411154827758
 20
-1203.636264638936
 10
200.3702433490603
 20
-1203.874986870822
 10
198.0050589039966
 20
-1203.577268142497
 10
195.7355193624902
 20
-1202.842712052186
 10
191.9062755667608
 20
-1200.654834445527
 10
187.6412038147728
 20
-1197.321936881728
 10
178.8955590143175
 20
-1189.741586877768
 10
170.5949233452437
 20
-1181.671258513145
 10
163.0294899150197
 20
-1172.947779884943
 10
158.5137771371354
 20
-1166.863602663256
 10
154.607438248344
 20
-1160.391659118454
 10
153.51494326027
 20
-1157.979701844193
 10
152.7414342431804
 20
-1155.454053238109
 10
152.4910473097959
 20
-1152.618322974427
 10
153.0388716320527
 20
-1150.157368823437
 10
153.4410496819644
 20
-1149.283293212746
 10
155.1178871808312
 20
-1146.89705623331
 10
157.2374417184128
 20
-1144.868551540559
 10
160.2077455266617
 20
-1142.692302549766
 10
163.3689196113671
 20
-1140.793830007831
 10
164.2159648528117
 20
-1140.372543885134
  0
LWPOLYLINE
  5
654
330
A
100
AcDbEntity
  8
0
  6
Continuous
 62
     7
100
AcDbPolyline
 90
        3
 70
   128
 43
0.0
 10
195.9839167208433
 20
-1132.92802001234
 10
194.7938684611717
 20
-1130.821234271206
 10
194.450543100914
 20
-1130.213433290175
  0
LWPOLYLINE
  5
659
330
A
100
AcDbEntity
  8
0
  6
Continuous
 62
     7
100
AcDbPolyline
 90
       11
 70
   128
 43
0.0
 10
192.7830710392079
 20
-1067.769513017099
 10
192.7165789486464
 20
-1067.661994939038
 10
190.6349219413091
 20
-1063.797420772279
 10
188.8609917504515
 20
-1059.779558028862
 10
187.5800978130179
 20
-1055.602129435031
 10
187.0466489282676
 20
-1051.629376385736
 10
187.2979621528566
 20
-1047.636400159642
 10
188.1884241377042
 20
-1044.206135486449
 10
189.5481846140462
 20
-1040.926837743062
 10
192.1550288155733
 20
-1036.359709913775
 10
192.5446099135652
 20
-1035.811415672011
  0
LWPOLYLINE
  5
666
330
A
100
AcDbEntity
  8
0
  6
Continuous
 62
     7
100
AcDbPolyline
 90
       30
 70
   128
 43
0.0
 10
371.2204625995707
 20
-1209.408524300798
 10
369.2219264417141
 20
-1212.199412129751
 10
366.6222082904091
 20
-1214.977662679064
 10
361.2967331167637
 20
-1220.212191001995
 10
356.5291409861331
 20
-1225.328559588249
 10
352.3734309606838
 20
-1230.843871694422
 10
348.8946999027354
 20
-1236.993426407959
 10
346.1913079660164
 20
-1243.668197110836
 10
344.1831770682974
 20
-1250.673982938075
 10
343.0281312866168
 20
-1254.865865487464
 10
341.6893630102418
 20
-1258.926218062735
 10
339.9859746426569
 20
-1262.754536629789
 10
337.737068587347
 20
-1266.250317154524
 10
334.7878831447427
 20
-1269.310516119956
 10
331.2286603041247
 20
-1271.808284333886
 10
327.2836277161213
 20
-1273.603753946508
 10
323.1761987436918
 20
-1274.560277501186
 10
319.0378047195161
 20
-1274.682803097153
 10
314.875979870139
 20
-1274.167003908537
 10
310.3895118424782
 20
-1273.143608115016
 10
305.8732809784121
 20
-1271.884725638354
 10
301.3258052751304
 20
-1270.647572400358
 10
296.7537251004775
 20
-1269.65261410169
 10
292.2550247132985
 20
-1268.707024765417
 10
287.9851902356537
 20
-1267.357807304609
 10
284.0929698100665
 20
-1265.188236362222
 10
280.1236159620186
 20
-1261.614375821484
 10
276.8144222956252
 20
-1257.23998200101
 10
274.2115694469718
 20
-1252.407101053175
 10
273.566715203967
 20
-1250.700303092052
  0
LWPOLYLINE
  5
686
330
A
100
AcDbEntity
  8
0
  6
Continuous
 62
     7
100
AcDbPolyline
 90
        9
 70
   128
 43
0.0
 10
188.9012864936191
 20
-1090.168379105468
 10
189.0507112257492
 20
-1089.736766282095
 10
189.6446338924618
 20
-1086.142829877824
 10
189.5479798777518
 20
-1082.589108727949
 10
188.5682518916453
 20
-1078.790997940556
 10
187.1157884144728
 20
-1075.093403082761
 10
185.9374989843209
 20
-1071.225066946312
 10
185.6166424724337
 20
-1067.05526127072
 10
185.7527080468436
 20
-1066.149121095872
  0
LWPOLYLINE
  5
691
330
A
100
AcDbEntity
  8
0
  6
Continuous
 62
     7
100
AcDbPolyline
 90
        8
 70
   128
 43
0.0
 10
180.9460734619232
 20
-1193.40287685913
 10
177.0211844307352
 20
-1191.357564871979
 10
171.0948047188013
 20
-1187.526853561403
 10
164.0957354225738
 20
-1182.076866440162
 10
157.6903390070061
 20
-1176.191162310119
 10
151.6641153607831
 20
-1169.865447118191
 10
145.7675568724184
 20
-1163.055144760244
 10
144.8962960906823
 20
-1161.99969864712
  0
LWPOLYLINE
  5
69B
330
A
100
AcDbEntity
  8
0
  6
Continuous
 62
     7
100
AcDbPolyline
 90
        8
 70
   128
 43
0.0
 10
302.3293420273093
 20
-1022.68337567158
 10
305.340541406414
 20
-1020.706352484826
 10
308.7370662219175
 20
-1018.940540122383
 10
312.3009839359099
 20
-1017.490326140075
 10
315.8990320129313
 20
-1016.555223118691
 10
319.3952620265044
 20
-1016.339343735728
 10
322.6554111410143
 20
-1017.043240337801
 10
323.0375937597164
 20
-1017.250808997094
  0
LWPOLYLINE
  5
6A5
330
A
100
AcDbEntity
  8
0
  6
Continuous
 62
     7
100
AcDbPolyline
 90
       21
 70
   128
 43
0.0
 10
366.5521732553808
 20
-1031.690715462344
 10
367.4033877476319
 20
-1031.653834853888
 10
372.5873813565329
 20
-1031.070456184019
 10
376.1883967828192
 20
-1030.686027387593
 10
379.6666426026161
 20
-1030.884003457584
 10
382.8914465513589
 20
-1032.135410049922
 10
385.734978161952
 20
-1034.38162005947
 10
388.0707816819706
 20
-1037.307787762815
 10
389.7724103277549
 20
-1040.597395842709
 10
390.7585055438945
 20
-1043.982832651966
 10
391.14484842219
 20
-1047.410317224187
 10
390.9709283060168
 20
-1052.6405440405
 10
390.4018289657235
 20
-1057.991508660504
 10
390.0101102595576
 20
-1063.478891170078
 10
390.2933072842412
 20
-1069.100713868233
 10
390.6703210003943
 20
-1072.820530628751
 10
390.8133916640726
 20
-1076.386233454537
 10
390.3869490253702
 20
-1079.683560555158
 10
389.077986399094
 20
-1082.605531224015
 10
386.8912522178322
 20
-1085.147701817342
 10
384.2110372567761
 20
-1087.266982619655
  0
LINE
  5
6BC
330
A
100
AcDbEntity
  8
0
  6
Continuous
 62
     7
100
AcDbLine
 10
-24.55661321290459
 20
-1132.090139978962
 30
0.0
 11
-107.3506511548395
 21
-1128.122694909715
 31
0.0
  0
LINE
  5
6BD
330
A
100
AcDbEntity
  8
0
  6
Continuous
 62
     7
100
AcDbLine
 10
-107.3506511548395
 20
-1108.122694909715
 30
0.0
 11
-107.3506511548395
 21
-1117.122694909716
 31
0.0
  0
LINE
  5
6BE
330
A
100
AcDbEntity
  8
0
  6
Continuous
 62
     7
100
AcDbLine
 10
-107.3506511548395
 20
-1119.122694909716
 30
0.0
 11
-107.3506511548395
 21
-1128.122694909715
 31
0.0
  0
LINE
  5
6BF
330
A
100
AcDbEntity
  8
0
  6
Continuous
 62
     7
100
AcDbLine
 10
-107.3506511548395
 20
-1108.122694909715
 30
0.0
 11
-24.55661321290295
 21
-1104.155249840468
 31
0.0
  0
LINE
  5
6C0
330
A
100
AcDbEntity
  8
0
  6
Continuous
 62
     7
100
AcDbLine
 10
238.0808063502367
 20
-1108.122694909715
 30
0.0
 11
238.0808063502367
 21
-1117.122694909716
 31
0.0
  0
LINE
  5
6C1
330
A
100
AcDbEntity
  8
0
  6
Continuous
 62
     7
100
AcDbLine
 10
238.0808063502367
 20
-1119.122694909716
 30
0.0
 11
238.0808063502367
 21
-1128.122694909715
 31
0.0
  0
LINE
  5
6C2
330
A
100
AcDbEntity
  8
0
  6
Continuous
 62
     7
100
AcDbLine
 10
155.2867684083001
 20
-1104.155249840468
 30
0.0
 11
238.0808063502367
 21
-1108.122694909715
 31
0.0
  0
LINE
  5
6C3
330
A
100
AcDbEntity
  8
0
  6
Continuous
 62
     7
100
AcDbLine
 10
238.0808063502367
 20
-1128.122694909715
 30
0.0
 11
155.2867684083017
 21
-1132.090139978962
 31
0.0
  0
ARC
  5
6C4
330
A
100
AcDbEntity
  8
0
  6
Continuous
 62
     7
100
AcDbCircle
 10
266.3650775976986
 20
-1118.122694909715
 30
0.0
 40
30.0
100
AcDbArc
 50
199.4712206344915
 51
160.5287793655093
  0
ARC
  5
6C5
330
A
100
AcDbEntity
  8
0
  6
Continuous
 62
     7
100
AcDbCircle
 10
-135.6349224023014
 20
-1118.122694909715
 30
0.0
 40
30.00000000000002
100
AcDbArc
 50
19.47122063449067
 51
340.5287793655101
  0
LWPOLYLINE
  5
6C6
330
A
100
AcDbEntity
  8
0
  6
PHANTOM
 62
     7
100
AcDbPolyline
 90
        9
 70
   128
 43
0.0
 10
-40.26317169073595
 20
-1176.946485658382
 10
-39.72839855855376
 20
-1173.116788303867
 10
-39.14476580549711
 20
-1168.193188850488
 10
-39.07348271488692
 20
-1163.228864408241
 10
-39.72850599149865
 20
-1158.345819040129
 10
-40.76072994214189
 20
-1154.925715373497
 10
-42.3103752008167
 20
-1151.713124951672
 10
-44.43563513419098
 20
-1148.799539165353
 10
-44.93026879189932
 20
-1148.300120190087
  0
LWPOLYLINE
  5
6D1
330
A
100
AcDbEntity
  8
0
  6
PHANTOM
 62
     7
100
AcDbPolyline
 90
        4
 70
   128
 43
0.0
 10
-59.73003677800631
 20
-1105.840741083084
 10
-57.65237820612193
 20
-1103.144446441829
 10
-54.75500075216643
 20
-1099.325939652855
 10
-51.17352091033438
 20
-1093.419610837449
  0
LWPOLYLINE
  5
6D7
330
A
100
AcDbEntity
  8
0
  6
PHANTOM
 62
     7
100
AcDbPolyline
 90
       13
 70
   128
 43
0.0
 10
-20.289274021994
 20
-1073.479931389155
 10
-28.87106758695326
 20
-1075.463530584235
 10
-32.14597356336735
 20
-1076.122326582122
 10
-35.35526063686351
 20
-1077.00885219991
 10
-36.70169910744187
 20
-1077.674115480758
 10
-37.46286999395257
 20
-1078.595675934009
 10
-38.36744585606942
 20
-1080.420183453014
 10
-39.72739871766922
 20
-1084.193795535636
 10
-41.0007710192139
 20
-1088.001004922378
 10
-43.20246851873626
 20
-1093.395683028249
 10
-45.87038601084215
 20
-1098.586199300746
 10
-49.02719147498581
 20
-1103.47515392399
 10
-50.50288466826789
 20
-1105.398580994616
  0
LWPOLYLINE
  5
6E6
330
A
100
AcDbEntity
  8
0
  6
PHANTOM
 62
     7
100
AcDbPolyline
 90
       24
 70
   128
 43
0.0
 10
-56.06661200473336
 20
-1130.580198050217
 10
-55.94593100188413
 20
-1130.687457801959
 10
-51.90532062173344
 20
-1133.69427365359
 10
-45.49673129287828
 20
-1138.269870944168
 10
-42.0121033529449
 20
-1141.171203963766
 10
-38.85356636285663
 20
-1144.434701694683
 10
-36.22232206959708
 20
-1148.095987679097
 10
-34.18769554811403
 20
-1152.30403300368
 10
-32.8283806445199
 20
-1156.78143323987
 10
-32.03194795966713
 20
-1162.544077476649
 10
-32.07040888909152
 20
-1168.402545026833
 10
-32.73081431124353
 20
-1174.214286707357
 10
-33.20586702660577
 20
-1177.305260572299
 10
-33.2649768706558
 20
-1180.405079248158
 10
-32.77722189456902
 20
-1182.045923456969
 10
-31.59338456985042
 20
-1183.711162601274
 10
-28.98570921741893
 20
-1185.805378864809
 10
-25.90293852805273
 20
-1187.087807739157
 10
-21.02241092118351
 20
-1187.846125485188
 10
-16.03370313298128
 20
-1187.803974954636
 10
-11.00350603002913
 20
-1187.376435085421
 10
-5.998510478910243
 20
-1186.978584815466
 10
1.532051545758847
 20
-1186.789101494983
 10
5.932655421021823
 20
-1186.956244856725
  0
LWPOLYLINE
  5
700
330
A
100
AcDbEntity
  8
0
  6
PHANTOM
 62
     7
100
AcDbPolyline
 90
        3
 70
   128
 43
0.0
 10
148.4518892352128
 20
-1210.6825400829
 10
146.1957780702523
 20
-1215.765252166491
 10
144.6851156465012
 20
-1218.668258155058
  0
LWPOLYLINE
  5
705
330
A
100
AcDbEntity
  8
0
  6
PHANTOM
 62
     7
100
AcDbPolyline
 90
       31
 70
   128
 43
0.0
 10
49.12137186105166
 20
-1207.547258435126
 10
51.55180820544325
 20
-1210.955525552914
 10
55.31091680976886
 20
-1217.527261507182
 10
58.83051461764472
 20
-1224.234011685723
 10
61.23987676779566
 20
-1228.650038364696
 10
63.88549543984364
 20
-1232.924177396858
 10
66.77928887262519
 20
-1236.683909121103
 10
70.20933956943259
 20
-1239.942326854136
 10
73.36384986578908
 20
-1241.985250302934
 10
76.83881686663394
 20
-1243.403877466839
 10
80.8943484561461
 20
-1244.259813812433
 10
85.04465865912534
 20
-1244.644505581654
 10
89.21131818562276
 20
-1244.789094551794
 10
96.77923026288095
 20
-1244.957722963879
 10
104.3383643759773
 20
-1244.760163704118
 10
108.4640337751543
 20
-1244.281780572504
 10
112.5245261780365
 20
-1243.375395113951
 10
116.4018371509356
 20
-1241.937778361978
 10
121.1736135676892
 20
-1239.096337401063
 10
125.3997461572711
 20
-1235.47027012715
 10
129.7997380494903
 20
-1230.439638379363
 10
133.4716178887642
 20
-1224.853198021825
 10
139.8123840097391
 20
-1212.661481293882
 10
145.3896206792711
 20
-1200.098713942049
 10
146.4277652567025
 20
-1196.752616100507
 10
146.8451165383788
 20
-1193.275737799454
 10
146.581908577519
 20
-1189.098255571158
 10
145.7255538410645
 20
-1184.991491592556
 10
143.7946674361266
 20
-1179.309982777148
 10
141.372533393931
 20
-1173.807408057565
 10
139.7698734435543
 20
-1170.276880069718
  0
LWPOLYLINE
  5
726
330
A
100
AcDbEntity
  8
0
  6
PHANTOM
 62
     7
100
AcDbPolyline
 90
        3
 70
   128
 43
0.0
 10
105.5419452212954
 20
-1019.386547805302
 10
105.789653461002
 20
-1029.213853181802
 10
105.6614247484197
 20
-1036.715152716978
  0
LWPOLYLINE
  5
72B
330
A
100
AcDbEntity
  8
0
  6
PHANTOM
 62
     7
100
AcDbPolyline
 90
       22
 70
   128
 43
0.0
 10
98.66958106641867
 20
-1033.593809830045
 10
98.72857106763099
 20
-1029.750772357567
 10
98.44706833820129
 20
-1018.973138947962
 10
98.13901999045365
 20
-1015.949632496968
 10
97.55776914888734
 20
-1012.972067235997
 10
97.10186120862108
 20
-1011.497751591337
 10
96.37798579443465
 20
-1010.154403383364
 10
96.24048263066061
 20
-1009.990804865815
 10
96.02637185400094
 20
-1009.823153953782
 10
95.15727559181186
 20
-1009.529489356101
 10
93.44212363400055
 20
-1009.30687900511
 10
91.70616217821416
 20
-1009.305257255691
 10
84.86580633296815
 20
-1010.05535739937
 10
78.11101114299558
 20
-1011.457331541023
 10
67.49599280702252
 20
-1014.497579085419
 10
57.15236682847197
 20
-1018.445386737838
 10
47.05089153047611
 20
-1022.970009438738
 10
42.77041057417016
 20
-1025.142283052318
 10
40.33377598682085
 20
-1026.84189758666
 10
39.0598813025626
 20
-1028.47989617788
 10
38.33730791650532
 20
-1030.468921568055
 10
38.14598774231512
 20
-1031.416305371999
  0
LWPOLYLINE
  5
743
330
A
100
AcDbEntity
  8
0
  6
PHANTOM
 62
     7
100
AcDbPolyline
 90
        3
 70
   128
 43
0.0
 10
-13.53247171769513
 20
-1073.003833809563
 10
-14.92829463949147
 20
-1072.939460283299
 10
-20.289274021994
 20
-1073.479931389155
  0
LWPOLYLINE
  5
748
330
A
100
AcDbEntity
  8
0
  6
PHANTOM
 62
     7
100
AcDbPolyline
 90
        3
 70
   128
 43
0.0
 10
154.8386603245405
 20
-1133.989955809842
 10
157.7150799229554
 20
-1132.236682025509
 10
158.2453251556664
 20
-1131.948367555836
  0
LWPOLYLINE
  5
74D
330
A
100
AcDbEntity
  8
0
  6
PHANTOM
 62
     7
100
AcDbPolyline
 90
       15
 70
   128
 43
0.0
 10
188.0382381320983
 20
-1105.724682378079
 10
187.9222942062035
 20
-1105.061213598154
 10
186.9053702919615
 20
-1102.048804185864
 10
184.3417147368319
 20
-1096.552223104822
 10
182.0908004490685
 20
-1092.578344128702
 10
179.464769011253
 20
-1088.85274643531
 10
177.7430137709806
 20
-1086.957328949264
 10
175.779932013937
 20
-1085.32215755937
 10
173.4920159062347
 20
-1084.088865721402
 10
171.0009754251339
 20
-1083.322634596339
 10
167.3630816614769
 20
-1082.82928873551
 10
163.6712040576831
 20
-1082.782237102744
 10
159.9868811121226
 20
-1083.009221799119
 10
152.5609617677244
 20
-1083.871709210982
 10
149.6853056787354
 20
-1084.26090758342
  0
LWPOLYLINE
  5
75E
330
A
100
AcDbEntity
  8
0
  6
PHANTOM
 62
     7
100
AcDbPolyline
 90
        3
 70
   128
 43
0.0
 10
146.6400631307179
 20
-1077.564067627679
 10
152.0747985230957
 20
-1076.810006176443
 10
159.2696567000007
 20
-1075.960505297691
  0
LWPOLYLINE
  5
763
330
A
100
AcDbEntity
  8
0
  6
PHANTOM
 62
     7
100
AcDbPolyline
 90
        9
 70
   128
 43
0.0
 10
-131.6468554003041
 20
-1003.056267873475
 10
-128.9582519174107
 20
-1005.835471975706
 10
-125.4377228034911
 20
-1009.326651364652
 10
-121.5696680113386
 20
-1012.439166516712
 10
-117.3185031540651
 20
-1014.929304046293
 10
-113.98792416599
 20
-1016.221526542221
 10
-110.5023114804707
 20
-1016.978257572828
 10
-106.8979338832638
 20
-1017.097312414812
 10
-106.1998594727485
 20
-1017.01500879656
  0
LWPOLYLINE
  5
76E
330
A
100
AcDbEntity
  8
0
  6
PHANTOM
 62
     7
100
AcDbPolyline
 90
       11
 70
   128
 43
0.0
 10
-75.69512622424679
 20
-1012.733436939693
 10
-75.53134410526627
 20
-1012.795267101227
 10
-73.43702318991247
 20
-1014.058637158041
 10
-71.5549735972687
 20
-1015.628129239892
 10
-69.22928550768112
 20
-1018.26178665537
 10
-67.33826183737654
 20
-1021.227733382307
 10
-65.40769138553199
 20
-1025.57337177317
 10
-63.97838256732566
 20
-1030.133842843743
 10
-62.78419032154944
 20
-1034.790458488768
 10
-61.55896958699517
 20
-1039.424530602983
 10
-59.10969812939002
 20
-1045.883074344423
  0
LWPOLYLINE
  5
77B
330
A
100
AcDbEntity
  8
0
  6
PHANTOM
 62
     7
100
AcDbPolyline
 90
       46
 70
   128
 43
0.0
 10
-62.41125730426047
 20
-1082.496285476138
 10
-58.69087511368576
 20
-1074.51251425482
 10
-57.193779999462
 20
-1071.526257812357
 10
-55.91653730521436
 20
-1068.451505417269
 10
-55.61182162927135
 20
-1066.980920450417
 10
-55.86939758556706
 20
-1065.813740338264
 10
-56.75021662076463
 20
-1063.977645840569
 10
-58.88659293666519
 20
-1060.582720779137
 10
-61.10274860484285
 20
-1057.235337564259
 10
-63.99831263373893
 20
-1052.179080776879
 10
-66.44596125400065
 20
-1046.881132197337
 10
-68.35498656164102
 20
-1041.383594528401
 10
-69.46047525160145
 20
-1037.110165644103
 10
-70.51958955682391
 20
-1032.810817130704
 10
-71.79747218823135
 20
-1028.601001091152
 10
-73.55926585674669
 20
-1024.596169628397
 10
-74.84853309645409
 20
-1022.562900978192
 10
-76.43557278827481
 20
-1020.757534182799
 10
-78.63508726235979
 20
-1019.167596229325
 10
-80.49350443950414
 20
-1018.663727479014
 10
-83.02870705159959
 20
-1018.718637813435
 10
-85.53897326337077
 20
-1019.177986227281
 10
-90.3960246364311
 20
-1020.510849974726
 10
-97.94716606653949
 20
-1022.7438683029
 10
-102.3787988642375
 20
-1023.703553624629
 10
-106.8950597137592
 20
-1024.183304910746
 10
-111.4001481850375
 20
-1024.002640978447
 10
-115.9687743184263
 20
-1023.015217164179
 10
-120.333891671724
 20
-1021.329809090713
 10
-125.3652502212699
 20
-1018.409568558308
 10
-129.9581067379195
 20
-1014.772428157234
 10
-134.1312355028417
 20
-1010.673956125596
 10
-136.2744844919355
 20
-1008.396615947477
 10
-138.6807832889497
 20
-1006.4415978155
 10
-140.2740781186605
 20
-1005.815749415406
 10
-142.3151475055816
 20
-1005.723402369452
 10
-145.5708576962736
 20
-1006.488950314625
 10
-148.4793685907018
 20
-1008.128664715967
 10
-152.0816839560379
 20
-1011.507705931167
 10
-155.1198240815453
 20
-1015.464811772698
 10
-157.8798166365909
 20
-1019.691881009227
 10
-160.6476892905415
 20
-1023.880812409422
 10
-165.1346513225104
 20
-1029.931633846202
 10
-170.0118660212203
 20
-1035.708116446722
 10
-175.3530609916299
 20
-1041.015239257725
 10
-181.2319638386977
 20
-1045.657981325955
  0
LWPOLYLINE
  5
7AB
330
A
100
AcDbEntity
  8
0
  6
PHANTOM
 62
     7
100
AcDbPolyline
 90
        3
 70
   128
 43
0.0
 10
-274.4158218969258
 20
-1130.995776212006
 10
-277.0320529479635
 20
-1126.088706332647
 10
-278.3895962282141
 20
-1123.11101914786
  0
LWPOLYLINE
  5
7B0
330
A
100
AcDbEntity
  8
0
  6
PHANTOM
 62
     7
100
AcDbPolyline
 90
       37
 70
   128
 43
0.0
 10
-181.2319638386977
 20
-1045.657981325955
 10
-186.4224773074864
 20
-1048.854823100231
 10
-191.9270558686324
 20
-1051.469099603934
 10
-196.9536172785699
 20
-1053.184081288155
 10
-202.1604758554539
 20
-1054.312962433705
 10
-207.4445002558455
 20
-1054.799081553014
 10
-214.973290536912
 20
-1054.469403697974
 10
-222.4662274879875
 20
-1053.385657049102
 10
-229.9180995293816
 20
-1052.030050260518
 10
-234.8813274965818
 20
-1051.209876043917
 10
-239.8782005111181
 20
-1050.663229265145
 10
-244.6225066746134
 20
-1050.628847628716
 10
-249.3019249604246
 20
-1051.32568219447
 10
-252.8538810698581
 20
-1052.553720965898
 10
-256.1111778408212
 20
-1054.418638238326
 10
-259.2824994471815
 20
-1057.08747370914
 10
-262.1408268007769
 20
-1060.121122877706
 10
-264.820016215363
 20
-1063.315477532532
 10
-269.6121691320696
 20
-1069.175255614796
 10
-274.1103579711561
 20
-1075.2535642092
 10
-276.2734026281033
 20
-1078.799158126158
 10
-278.059049883158
 20
-1082.556896413194
 10
-279.31330341691
 20
-1086.497344405388
 10
-280.0120162926332
 20
-1092.006921269645
 10
-279.7565033125114
 20
-1097.569589123891
 10
-278.5012168976045
 20
-1104.133996214404
 10
-276.3596767805479
 20
-1110.466833126045
 10
-270.6562383187364
 20
-1122.969395322956
 10
-264.1903323066365
 20
-1135.098729675959
 10
-262.1927168470242
 20
-1137.976862300481
 10
-259.7098464626187
 20
-1140.446319622828
 10
-256.2558985422195
 20
-1142.810823791055
 10
-252.4924997441085
 20
-1144.664383419707
 10
-246.8266373281057
 20
-1146.640710267993
 10
-240.9993346586948
 20
-1148.119765866014
 10
-236.0803818514676
 20
-1149.308389944747
 10
-231.2616343961679
 20
-1150.826845478788
  0
LWPOLYLINE
  5
7D7
330
A
100
AcDbEntity
  8
0
  6
PHANTOM
 62
     7
100
AcDbPolyline
 90
        6
 70
   128
 43
0.0
 10
-97.25452342255969
 20
-1214.955851721887
 10
-105.1510501585268
 20
-1209.100755151961
 10
-113.5415368529933
 20
-1202.311283374487
 10
-122.195707126466
 20
-1195.892189424033
 10
-122.1957425225673
 20
-1195.89216578017
 10
-122.1957425225673
 20
-1195.89216578017
  0
LWPOLYLINE
  5
7DF
330
A
100
AcDbEntity
  8
0
  6
PHANTOM
 62
     7
100
AcDbPolyline
 90
       29
 70
   128
 43
0.0
 10
-118.3099911069642
 20
-1190.030142460702
 10
-109.6332824565281
 20
-1196.42788578992
 10
-101.2269118391482
 20
-1203.205985842
 10
-92.56071042823958
 20
-1209.619532349516
 10
-89.98850133101125
 20
-1211.238243381136
 10
-87.28429413514723
 20
-1212.613383688887
 10
-85.84183259782781
 20
-1213.161802674189
 10
-84.33759755865615
 20
-1213.418428803135
 10
-84.12402476688255
 20
-1213.410796136102
 10
-83.86009428870712
 20
-1213.345290749473
 10
-83.09361434080203
 20
-1212.841231528407
 10
-81.86224200560261
 20
-1211.626725958697
 10
-80.792199458643
 20
-1210.25976811233
 10
-77.17194286670772
 20
-1204.40768638668
 10
-74.11804639442742
 20
-1198.221693670152
 10
-69.97853630370376
 20
-1187.985181783135
 10
-66.72127915680967
 20
-1177.403780197161
 10
-64.06764131620274
 20
-1166.658073147719
 10
-63.14408906281713
 20
-1161.947622945794
 10
-62.98326154798781
 20
-1158.981141496654
 10
-63.48973417154222
 20
-1156.968846157245
 10
-64.61224697130582
 20
-1155.174884252586
 10
-65.99683115332417
 20
-1153.558486658628
 10
-69.30406559764221
 20
-1150.279442821627
 10
-73.80892081477461
 20
-1145.935647852052
 10
-78.05617381704225
 20
-1141.342625307607
 10
-81.70145605766373
 20
-1136.305627386057
 10
-83.77838059229583
 20
-1132.210390736936
 10
-84.70961829467608
 20
-1129.207640835975
  0
LWPOLYLINE
  5
7FE
330
A
100
AcDbEntity
  8
0
  6
PHANTOM
 62
     7
100
AcDbPolyline
 90
        7
 70
   128
 43
0.0
 10
-81.44876790940847
 20
-1106.881490814338
 10
-79.1588267872377
 20
-1103.014089071539
 10
-76.04861378452516
 20
-1098.91904627329
 10
-72.6076550896543
 20
-1095.104352857595
 10
-68.82974837409047
 20
-1091.182295610454
 10
-65.28590873665335
 20
-1087.053542117817
 10
-62.41125730426047
 20
-1082.496285476138
  0
LWPOLYLINE
  5
807
330
A
100
AcDbEntity
  8
0
  6
PHANTOM
 62
     7
100
AcDbPolyline
 90
       43
 70
   128
 43
0.0
 10
-231.2616343961679
 20
-1150.826845478788
 10
-226.7424053023537
 20
-1153.009457866874
 10
-224.2218375339382
 20
-1154.827675888768
 10
-222.0360280474877
 20
-1157.031592856945
 10
-220.2787224266379
 20
-1159.599348928142
 10
-218.9634193859079
 20
-1162.423048281647
 10
-217.7896079493014
 20
-1166.736753796681
 10
-217.2868034498245
 20
-1171.19020318987
 10
-217.4079692459927
 20
-1178.901690129984
 10
-218.3026318168333
 20
-1186.591362791457
 10
-219.5815571424145
 20
-1194.262377666348
 10
-220.8555112028048
 20
-1201.917891246716
 10
-221.8777928554506
 20
-1210.207431959578
 10
-222.0510735263134
 20
-1216.830894662394
 10
-221.820127079237
 20
-1219.219313447059
 10
-221.2965645890919
 20
-1221.555022489296
 10
-220.1841104824218
 20
-1223.876675701881
 10
-218.2776812086668
 20
-1225.635757050549
 10
-215.4854885728795
 20
-1227.125861467811
 10
-212.4855966843933
 20
-1228.179138910843
 10
-206.5758877231628
 20
-1229.542983982459
 10
-202.0586271452121
 20
-1230.215803511458
 10
-197.5060697099504
 20
-1230.440169471533
 10
-194.9524419769955
 20
-1230.250343352938
 10
-192.4553155270425
 20
-1229.710125848491
 10
-190.0748864900991
 20
-1228.666513624742
 10
-187.9374504661113
 20
-1227.175285922861
 10
-185.3089775809199
 20
-1224.612320557144
 10
-182.9989535760516
 20
-1221.732049182
 10
-180.9095242574596
 20
-1218.689017348092
 10
-177.0173211536362
 20
-1212.306312776853
 10
-173.2444757650027
 20
-1205.847864870827
 10
-169.1675215301219
 20
-1199.592141240513
 10
-164.6472802640092
 20
-1194.011236158876
 10
-159.4103066791449
 20
-1189.116680052647
 10
-155.1165826317268
 20
-1186.204752250764
 10
-150.4214311964233
 20
-1184.014850700656
 10
-145.3688518111108
 20
-1182.719118339482
 10
-140.1617394176538
 20
-1182.342828306683
 10
-135.3250591716384
 20
-1182.781082059194
 10
-130.6005993919073
 20
-1183.915303217432
 10
-124.2493280935989
 20
-1186.541499490646
 10
-118.3099911069642
 20
-1190.030142460702
  0
LWPOLYLINE
  5
834
330
A
100
AcDbEntity
  8
0
  6
PHANTOM
 62
     7
100
AcDbPolyline
 90
       15
 70
   128
 43
0.0
 10
-122.1957606168968
 20
-1195.892120995133
 10
-122.1957960161991
 20
-1195.892097356215
 10
-127.2721579898339
 20
-1192.865319006519
 10
-132.7034069641539
 20
-1190.57383415089
 10
-136.4347402745307
 20
-1189.657705719644
 10
-140.2579908593342
 20
-1189.296325301347
 10
-144.2173098782131
 20
-1189.571441015691
 10
-148.0577587941285
 20
-1190.553549373452
 10
-151.7308155011803
 20
-1192.292210551465
 10
-155.0840308368005
 20
-1194.60032335401
 10
-159.5810747927008
 20
-1198.860130171631
 10
-163.4585219297691
 20
-1203.708136490414
 10
-167.454800826302
 20
-1209.890751038475
 10
-171.1533112432051
 20
-1216.270829420633
 10
-174.9134924155028
 20
-1222.463459999012
  0
LWPOLYLINE
  5
845
330
A
100
AcDbEntity
  8
0
  6
PHANTOM
 62
     7
100
AcDbPolyline
 90
        3
 70
   128
 43
0.0
 10
319.4544863323486
 20
-1020.637747749693
 10
325.0144616518011
 20
-1020.534431921221
 10
328.2839121126569
 20
-1020.676693694739
  0
LWPOLYLINE
  5
84A
330
A
100
AcDbEntity
  8
0
  6
PHANTOM
 62
     7
100
AcDbPolyline
 90
       37
 70
   128
 43
0.0
 10
353.1864320481549
 20
-1142.407721375606
 10
352.6944689740775
 20
-1136.331604216336
 10
352.8641579250759
 20
-1130.240132109074
 10
353.6181091820401
 20
-1124.982847706722
 10
354.9761330437149
 20
-1119.831001428778
 10
356.9418946150474
 20
-1114.90220775215
 10
360.6536389969045
 20
-1108.343677106637
 10
365.0209865225516
 20
-1102.159432080609
 10
369.6119201274821
 20
-1096.13519807771
 10
372.5959590505959
 20
-1092.085280880369
 10
375.351557773912
 20
-1087.881206868151
 10
377.5360619623651
 20
-1083.669608060034
 10
379.0395892640641
 20
-1079.183859565228
 10
379.5579530359407
 20
-1075.461525562552
 10
379.3750813679855
 20
-1071.712598163923
 10
378.4368814324114
 20
-1067.675303973239
 10
377.0315336947975
 20
-1063.751267750848
 10
375.401669398001
 20
-1059.913885836825
 10
372.3561607938926
 20
-1052.983762743202
 10
368.9824831792275
 20
-1046.216352784199
 10
366.8053375918617
 20
-1042.679399928515
 10
364.267835151601
 20
-1039.382399091541
 10
361.3262894709194
 20
-1036.475925056808
 10
356.7344295469738
 20
-1033.352071772047
 10
351.6620557314121
 20
-1031.054337145316
 10
345.2432380795162
 20
-1029.192627075206
 10
338.6284002066692
 20
-1028.22570549703
 10
324.8992288426389
 20
-1027.631461917011
 10
311.1564528983483
 20
-1027.886023794152
 10
307.6851195116232
 20
-1028.359267332963
 10
304.3576173596029
 20
-1029.450410880325
 10
300.6827691767854
 20
-1031.454438582638
 10
297.3226881536103
 20
-1033.966153002768
 10
292.9895203281627
 20
-1038.117239767079
 10
289.026132089669
 20
-1042.637927273856
 10
285.7339024375622
 20
-1046.481122277763
 10
282.1932830846919
 20
-1050.08529331212
  0
LWPOLYLINE
  5
871
330
A
100
AcDbEntity
  8
0
  6
PHANTOM
 62
     7
100
AcDbPolyline
 90
        9
 70
   128
 43
0.0
 10
368.6336685163313
 20
-1205.929149676855
 10
364.936779090392
 20
-1207.062980661818
 10
360.2278287059536
 20
-1208.614832795448
 10
355.6984972707237
 20
-1210.648242541843
 10
351.5497800277115
 20
-1213.305559383599
 10
348.8863501339184
 20
-1215.686470254598
 10
346.629662803595
 20
-1218.448625199436
 10
344.8872309760445
 20
-1221.606099386977
 10
344.6436448863861
 20
-1222.265453301895
  0
LWPOLYLINE
  5
87C
330
A
100
AcDbEntity
  8
0
  6
PHANTOM
 62
     7
100
AcDbPolyline
 90
       11
 70
   128
 43
0.0
 10
334.6096942527269
 20
-1251.389162591906
 10
334.4802476493649
 20
-1251.50702322253
 10
332.4037748873027
 20
-1252.799518818405
 10
330.1509145676118
 20
-1253.763902789719
 10
326.7484683299145
 20
-1254.640450604574
 10
323.2472836647171
 20
-1254.978853395447
 10
318.4988308624798
 20
-1254.72612571869
 10
313.7865287605667
 20
-1253.929238660415
 10
309.0953019057671
 20
-1252.879212478757
 10
304.4100748448704
 20
-1251.867067431854
 10
297.5435242614553
 20
-1251.117266779322
  0
LWPOLYLINE
  5
889
330
A
100
AcDbEntity
  8
0
  6
PHANTOM
 62
     7
100
AcDbPolyline
 90
       46
 70
   128
 43
0.0
 10
266.4197907713305
 20
-1231.553505995762
 10
271.8443648472313
 20
-1238.492947086611
 10
273.8254718613013
 20
-1241.182600655379
 10
275.9852402565377
 20
-1243.716540605346
 10
277.157203034377
 20
-1244.655675864645
 10
278.3141051663275
 20
-1244.956062689514
 10
280.3499608167692
 20
-1245.004816641101
 10
284.3447557469237
 20
-1244.64255513073
 10
288.3334096496349
 20
-1244.187626150309
 10
294.1531259956686
 20
-1243.903152255071
 10
299.984841965155
 20
-1244.127499688719
 10
305.7498632485792
 20
-1244.922375558427
 10
310.0593976279546
 20
-1245.87747403804
 10
314.3709730358622
 20
-1246.885659662378
 10
318.7020931671768
 20
-1247.658274388254
 10
323.0702617167735
 20
-1247.906660172482
 10
325.4672324279866
 20
-1247.680999301092
 10
327.7963269640313
 20
-1247.086555955188
 10
330.2115307289057
 20
-1245.848590934784
 10
331.5041848157433
 20
-1244.421480731041
 10
332.6062172503357
 20
-1242.137669893361
 10
333.3365718286848
 20
-1239.692466505266
 10
334.3540367139728
 20
-1234.759694564764
 10
335.7925492863966
 20
-1227.017809178733
 10
336.9493825920572
 20
-1222.633507424372
 10
338.5722605861684
 20
-1218.391687016377
 10
340.7785006949786
 20
-1214.459643505332
 10
343.7324146170505
 20
-1210.837248844799
 10
347.2158460150739
 20
-1207.713060057701
 10
352.1019883639227
 20
-1204.555848223191
 10
357.4278174158948
 20
-1202.114810290501
 10
362.9741435487531
 20
-1200.25719270049
 10
365.9762831848778
 20
-1199.381434673788
 10
368.8106538887551
 20
-1198.124966405238
 10
370.0916296123647
 20
-1196.98945954493
 10
371.1005375437703
 20
-1195.212778086404
 10
371.8964908265223
 20
-1191.964367571427
 10
371.7559309115797
 20
-1188.628450628324
 10
370.3806000962633
 20
-1183.884711525696
 10
368.2340797284134
 20
-1179.381220393951
 10
365.7207438598127
 20
-1175.002999745569
 10
363.2449665422445
 20
-1170.635072093028
 10
359.8906833005804
 20
-1163.890144200839
 10
356.9580087550606
 20
-1156.922045861874
 10
354.6541794796104
 20
-1149.75362295913
 10
353.1864320481549
 20
-1142.407721375606
  0
LWPOLYLINE
  5
8B9
330
A
100
AcDbEntity
  8
0
  6
PHANTOM
 62
     7
100
AcDbPolyline
 90
        4
 70
   128
 43
0.0
 10
164.2159648528117
 20
-1140.372543885134
 10
173.0178422154371
 20
-1135.994845262763
 10
182.8765071124384
 20
-1131.601222562101
 10
184.7311497334783
 20
-1130.679181310809
  0
LWPOLYLINE
  5
8BF
330
A
100
AcDbEntity
  8
0
  6
PHANTOM
 62
     7
100
AcDbPolyline
 90
       39
 70
   128
 43
0.0
 10
195.9839167208434
 20
-1132.92802001234
 10
186.3443423781212
 20
-1137.754509337123
 10
176.4885986125361
 20
-1142.167447372026
 10
166.8397137217718
 20
-1146.977400185026
 10
164.2296731383378
 20
-1148.534375842054
 10
161.776729776208
 20
-1150.319541460798
 10
160.6332210481321
 20
-1151.355807092237
 10
159.7216570758041
 20
-1152.579584501524
 10
159.63149781346
 20
-1152.773344410705
 10
159.5700416106325
 20
-1153.038247011903
 10
159.6711870505895
 20
-1153.950023743816
 10
160.1942880950421
 20
-1155.598558518713
 10
160.9264673038085
 20
-1157.172559285008
 10
164.4971482020882
 20
-1163.055021034803
 10
168.6224680854927
 20
-1168.584444640562
 10
175.8639687069922
 20
-1176.920054285517
 10
183.8133027552535
 20
-1184.62614744832
 10
192.1830714739382
 20
-1191.869004990565
 10
195.960829386668
 20
-1194.830395714931
 10
198.5309695479055
 20
-1196.320448475475
 10
200.5538715833856
 20
-1196.782741030328
 10
202.6619134915104
 20
-1196.597016463863
 10
204.7307223581358
 20
-1196.097172075856
 10
209.1538248281348
 20
-1194.639059359176
 10
215.0693359570428
 20
-1192.59724561919
 10
221.0899615229077
 20
-1190.898104084559
 10
227.2328830394438
 20
-1189.936883029249
 10
231.8246696193041
 20
-1189.945528251531
 10
236.3425069089933
 20
-1190.723446821311
 10
240.6480118724067
 20
-1192.346438359946
 10
244.6202309079332
 20
-1194.681292275008
 10
249.1467201984456
 20
-1198.492966229578
 10
253.0008606335903
 20
-1202.992757476066
 10
255.7415313448122
 20
-1207.316424414297
 10
257.9782340394855
 20
-1211.946755017762
 10
259.8149882031801
 20
-1216.744506234499
 10
261.5944330408545
 20
-1221.891222495478
 10
263.6643098115631
 20
-1226.923221594535
 10
266.4197907713305
 20
-1231.553505995762
  0
LWPOLYLINE
  5
8E8
330
A
100
AcDbEntity
  8
0
  6
PHANTOM
 62
     7
100
AcDbPolyline
 90
       38
 70
   128
 43
0.0
 10
282.1932830846919
 20
-1050.08529331212
 10
278.1968741323943
 20
-1053.121070630205
 10
275.4325161916796
 20
-1054.541459248127
 10
272.476475053175
 20
-1055.48847239542
 10
269.3907875842101
 20
-1055.888506306619
 10
266.2777179531208
 20
-1055.778517216582
 10
261.9012789550924
 20
-1054.866009542266
 10
257.70495802463
 20
-1053.292187916112
 10
250.8889809701488
 20
-1049.68328659154
 10
244.4436007675373
 20
-1045.395098069558
 10
238.1892964145535
 20
-1040.772999383955
 10
231.9465469089553
 20
-1036.162367568516
 10
225.0246182096292
 20
-1031.488135215608
 10
219.2017375070618
 20
-1028.326751864895
 10
216.9687932945099
 20
-1027.448207218341
 10
214.6499689027256
 20
-1026.854315097549
 10
212.0763171475848
 20
-1026.791510462249
 10
209.6434634106332
 20
-1027.691545162504
 10
207.048141723041
 20
-1029.502913768724
 10
204.7477422319002
 20
-1031.697659060499
 10
200.8495956504841
 20
-1036.34407559538
 10
198.1993156733067
 20
-1040.063530567587
 10
195.9325863139465
 20
-1044.018028929809
 10
194.9423998934436
 20
-1046.379507154665
 10
194.2900655294597
 20
-1048.849716728109
 10
194.1392386614665
 20
-1051.444484565386
 10
194.4975566242011
 20
-1054.025957217397
 10
195.5878737676239
 20
-1057.531505633952
 10
197.1054854019294
 20
-1060.897367934308
 10
198.8682655587366
 20
-1064.140570632004
 10
202.7882737414849
 20
-1070.506236228963
 10
206.8299569984592
 20
-1076.799940077388
 10
210.552949076079
 20
-1083.272571996643
 10
213.4734253233481
 20
-1089.833814342667
 10
215.4569704920886
 20
-1096.722073946453
 10
216.1022072355006
 20
-1101.869797643749
 10
215.9218696575103
 20
-1107.047402703771
 10
215.9188915383779
 20
-1107.060708058596
  0
LINE
  5
910
330
A
100
AcDbEntity
  8
0
  6
PHANTOM
 62
     7
100
AcDbLine
 10
200.7023165414966
 20
-1129.913851722137
 30
0.0
 11
195.9839167208433
 21
-1132.92802001234
 31
0.0
  0
LWPOLYLINE
  5
911
330
A
100
AcDbEntity
  8
0
  6
PHANTOM
 62
     7
100
AcDbPolyline
 90
        9
 70
   128
 43
0.0
 10
208.9016218459711
 20
-1106.724444328347
 10
209.0227616652096
 20
-1106.184943157151
 10
209.1411360622524
 20
-1102.122890010369
 10
208.6069204025747
 20
-1098.087291984641
 10
206.8530199691827
 20
-1092.146484654446
 10
204.2937388733117
 20
-1086.490705146718
 10
200.5992616277833
 20
-1080.12314630906
 10
196.5936587569093
 20
-1073.931254424727
 10
192.7830710392079
 20
-1067.769513017099
  0
ARC
  5
91C
330
A
100
AcDbEntity
  8
0
  6
Continuous
 62
     7
100
AcDbCircle
 10
709.0761414947679
 20
1264.213840548279
 30
0.0
 40
250.9999999999999
100
AcDbArc
 50
248.7431291678446
 51
269.7717293582164
  0
ARC
  5
91D
330
A
100
AcDbEntity
  8
0
  6
Continuous
 62
     7
100
AcDbCircle
 10
709.0761414947679
 20
1264.213840548279
 30
0.0
 40
250.9999999999999
100
AcDbArc
 50
270.2282706417853
 51
291.256870832157
  0
LINE
  5
91E
330
A
100
AcDbEntity
  8
0
  6
Continuous
 62
     7
100
AcDbLine
 10
618.076141494768
 20
1036.975764754467
 30
0.0
 11
618.076141494768
 21
1030.290776272864
 31
0.0
  0
LINE
  5
91F
330
A
100
AcDbEntity
  8
0
  6
Continuous
 62
     7
100
AcDbLine
 10
800.076141494768
 20
1030.290776272864
 30
0.0
 11
800.076141494768
 21
1036.975764754467
 31
0.0
  0
LINE
  5
920
330
A
100
AcDbEntity
  8
0
  6
Continuous
 62
     7
100
AcDbLine
 10
643.076141494768
 20
1063.975764754467
 30
0.0
 11
643.0761414947678
 21
1036.975764754467
 31
0.0
  0
LINE
  5
921
330
A
100
AcDbEntity
  8
0
  6
Continuous
 62
     7
100
AcDbLine
 10
775.0761414947678
 20
1036.975764754467
 30
0.0
 11
775.0761414947678
 21
1063.975764754467
 31
0.0
  0
LINE
  5
922
330
A
100
AcDbEntity
  8
0
  6
Continuous
 62
     7
100
AcDbLine
 10
708.0761414947682
 20
1019.17613314831
 30
0.0
 11
708.0761414947687
 21
-472.0242352455325
 31
0.0
  0
LINE
  5
923
330
A
100
AcDbEntity
  8
0
  6
Continuous
 62
     7
100
AcDbLine
 10
710.0761414947685
 20
-472.0242352455325
 30
0.0
 11
710.076141494768
 21
1019.17613314831
 31
0.0
  0
LWPOLYLINE
  5
924
330
A
100
AcDbEntity
  8
0
  6
Continuous
 62
     7
100
AcDbPolyline
 90
        7
 70
   128
 43
0.0
 10
785.0502978342516
 20
-488.0372131873504
 10
784.763535422371
 20
-487.4369540336961
 10
783.8861958658737
 20
-486.2834497537142
 10
782.7928225895638
 20
-485.3322236128917
 10
781.5290117619304
 20
-484.6229437350998
 10
780.1474671327912
 20
-484.1851885233975
 10
778.7058021632963
 20
-484.0372131873497
  0
LWPOLYLINE
  5
92D
330
A
100
AcDbEntity
  8
0
  6
Continuous
 62
     7
100
AcDbPolyline
 90
       29
 70
   128
 43
0.0
 10
589.7671198704301
 20
-574.9913399581182
 10
589.6854969398913
 20
-576.8860713920649
 10
589.3320843834223
 20
-584.9364081536736
 10
589.0233214915971
 20
-591.8330102831283
 10
588.8234328190787
 20
-596.2221749814073
 10
588.6517980172344
 20
-599.9395581692384
 10
588.5094283459058
 20
-602.9851598466222
 10
588.3967739149916
 20
-605.3697523491824
 10
588.2739273156471
 20
-607.9440227909596
 10
588.0953536520173
 20
-611.6368757299835
 10
587.858084114896
 20
-616.4483111662543
 10
587.5783158488489
 20
-621.9719314658606
 10
587.290071849059
 20
-627.4841120272005
 10
586.997833734724
 20
-632.8729733336071
 10
586.6941221794169
 20
-638.2371713921623
 10
586.3753511251781
 20
-643.565950052722
 10
586.063473865237
 20
-648.4502753792838
 10
585.8500346372165
 20
-651.5922409304703
 10
585.6497611624022
 20
-654.3887150711732
 10
585.4649649580485
 20
-656.8396978013924
 10
585.2983761346465
 20
-658.9451891211281
 10
585.1208000291755
 20
-661.0902666844712
 10
584.8617851957613
 20
-664.060311219474
 10
584.5061333565671
 20
-667.8784165745942
 10
583.9834390571208
 20
-673.0578427124616
 10
583.2978661553979
 20
-679.263422442671
 10
582.4213234734684
 20
-686.4951557652224
 10
581.3266641116164
 20
-694.7530426801155
 10
579.9927886880729
 20
-704.0370831873505
  0
LWPOLYLINE
  5
94C
330
A
100
AcDbEntity
  8
0
  6
Continuous
 62
     7
100
AcDbPolyline
 90
        9
 70
   128
 43
0.0
 10
835.9688342001405
 20
-484.0376253310416
 10
837.2870603099826
 20
-484.1756294816898
 10
838.5566309621234
 20
-484.5563818772827
 10
839.7332560757943
 20
-485.1665996380331
 10
840.7758880564948
 20
-485.9849947845246
 10
841.6481537771687
 20
-486.9830168874626
 10
842.3196234865018
 20
-488.1258490743291
 10
842.7668723773676
 20
-489.3736226463828
 10
842.9742977816777
 20
-490.6828079330264
  0
LWPOLYLINE
  5
957
330
A
100
AcDbEntity
  8
0
  6
Continuous
 62
     7
100
AcDbPolyline
 90
        3
 70
   128
 43
0.0
 10
856.9601266997375
 20
-704.0370831873495
 10
850.2525775179535
 20
-601.6553234560643
 10
842.9811442535067
 20
-490.6752390670475
  0
LWPOLYLINE
  5
95C
330
A
100
AcDbEntity
  8
0
  6
Continuous
 62
     7
100
AcDbPolyline
 90
       36
 70
   128
 43
0.0
 10
634.4212063658516
 20
-491.1522365301398
 10
634.4225701190485
 20
-497.1401677765779
 10
634.4047771574797
 20
-503.8589053033487
 10
634.3781577305085
 20
-509.5162449964906
 10
634.3501517957941
 20
-514.1121868560037
 10
634.325471236027
 20
-517.646730881888
 10
634.3071154774475
 20
-520.0850212876824
 10
634.2959521562131
 20
-521.5066075599171
 10
634.2864556655623
 20
-522.6819326340939
 10
634.274412981185
 20
-524.1308680416813
 10
634.2459740418529
 20
-527.3987886038912
 10
634.2075958934668
 20
-531.5391910966191
 10
634.1579375376469
 20
-536.5520755198645
 10
634.0955995940491
 20
-542.4374418736278
 10
633.9641048729861
 20
-553.84184462642
 10
633.8272740504171
 20
-564.7767892289717
 10
633.6890368991182
 20
-575.2197114173959
 10
633.5519636503838
 20
-585.170611191692
 10
633.4661695740518
 20
-591.2460355541177
 10
633.3882627187985
 20
-596.6779309313158
 10
633.3241888270462
 20
-601.0923250109219
 10
633.2744664227958
 20
-604.4892177929362
 10
633.2456943647222
 20
-606.4443966705449
 10
633.2214308246522
 20
-608.0877037404823
 10
633.1817687370634
 20
-610.7635449236205
 10
633.1242274480629
 20
-614.6236862168311
 10
633.0561321989029
 20
-619.16060401692
 10
632.9727072788211
 20
-624.6762822385563
 10
632.8736347082042
 20
-631.1707208817397
 10
632.7585818202764
 20
-638.6439199464708
 10
632.6272196242986
 20
-647.0958794327489
 10
632.4792442459221
 20
-656.5265993405743
 10
632.3144016625263
 20
-666.9360796699471
 10
632.1325159773253
 20
-678.3243204208674
 10
631.9335215019898
 20
-690.6913215933349
 10
631.7174989434764
 20
-704.0370831873495
  0
LWPOLYLINE
  5
982
330
A
100
AcDbEntity
  8
0
  6
Continuous
 62
     7
100
AcDbPolyline
 90
        9
 70
   128
 43
0.0
 10
634.4225002149437
 20
-491.1636396230703
 10
634.5534150943912
 20
-489.7768146935087
 10
634.9527016642331
 20
-488.4422785634242
 10
635.6049762668918
 20
-487.211448055722
 10
636.4851081569534
 20
-486.1317444374742
 10
637.5591877350412
 20
-485.2447663799183
 10
638.7858330121571
 20
-484.5846872506224
 10
640.1177839692127
 20
-484.1769384867202
 10
641.5037233844905
 20
-484.0372297760278
  0
LWPOLYLINE
  5
98D
330
A
100
AcDbEntity
  8
0
  6
Continuous
 62
     7
100
AcDbPolyline
 90
        9
 70
   128
 43
0.0
 10
821.3992226773132
 20
-484.0372131873663
 10
822.8133558379562
 20
-484.1795304137868
 10
824.1711608577642
 20
-484.6009454090304
 10
825.4177223878079
 20
-485.2845458580252
 10
826.5030131189744
 20
-486.2028973420536
 10
827.3834779008947
 20
-487.3191443570291
 10
828.0237817077823
 20
-488.5884894075055
 10
828.3982277122433
 20
-489.9599908306119
 10
828.4917885565745
 20
-491.3786071991995
  0
LWPOLYLINE
  5
998
330
A
100
AcDbEntity
  8
0
  6
Continuous
 62
     7
100
AcDbPolyline
 90
       23
 70
   128
 43
0.0
 10
821.8207796039184
 20
-704.0370831873495
 10
822.3168685873028
 20
-687.8200164705685
 10
822.7769618534804
 20
-672.8133751770821
 10
823.2009248044501
 20
-659.0171593071267
 10
823.5885976438069
 20
-646.4313688607027
 10
823.9398015788303
 20
-635.0560038378098
 10
824.2543450288808
 20
-624.891064238448
 10
824.4756387912566
 20
-617.7534764702532
 10
824.6740812051527
 20
-611.3631411318915
 10
824.85206279084
 20
-605.6401956775616
 10
825.0287258042716
 20
-599.9679523878829
 10
825.208126706066
 20
-594.2167016302012
 10
825.3902933453302
 20
-588.3864434045157
 10
825.6261912951757
 20
-580.8518477544647
 10
825.866693238108
 20
-573.1892730653335
 10
826.1118845422682
 20
-565.3987193371222
 10
826.3618649125151
 20
-557.4801865698309
 10
826.6201333653279
 20
-549.3263087750246
 10
826.9018204649741
 20
-540.4643360977583
 10
827.2667406165755
 20
-529.0391870617026
 10
827.6683138139569
 20
-516.5529730797783
 10
828.1082102497137
 20
-503.005694151985
 10
828.4909431636551
 20
-491.3779728953046
  0
LWPOLYLINE
  5
9B1
330
A
100
AcDbEntity
  8
0
  6
Continuous
 62
     7
100
AcDbPolyline
 90
        3
 70
   128
 43
0.0
 10
589.5529575802389
 20
-491.1503738738599
 10
589.8222883192123
 20
-596.5888678848923
 10
590.0964487673414
 20
-704.0370831873495
  0
LWPOLYLINE
  5
9B6
330
A
100
AcDbEntity
  8
0
  6
Continuous
 62
     7
100
AcDbPolyline
 90
        9
 70
   128
 43
0.0
 10
589.5585722200081
 20
-491.170896070474
 10
589.6863944505206
 20
-489.7923912668946
 10
590.0793249373905
 20
-488.4649412196932
 10
590.7224105715727
 20
-487.2390625112449
 10
591.5911785011643
 20
-486.1614063906033
 10
592.6525674544643
 20
-485.2729834436694
 10
593.866185898394
 20
-484.6076029208009
 10
595.1858491526151
 20
-484.1905861137974
 10
596.5613369639211
 20
-484.0378027451598
  0
LWPOLYLINE
  5
9C1
330
A
100
AcDbEntity
  8
0
  6
Continuous
 62
     7
100
AcDbPolyline
 90
       11
 70
   128
 43
0.0
 10
837.0959686008884
 20
-704.0370831873505
 10
834.9922517316555
 20
-693.286063319816
 10
833.1311289859842
 20
-683.6589070014943
 10
831.5074798245353
 20
-675.1556142323856
 10
830.1155867489248
 20
-667.7761850124893
 10
828.9494567630844
 20
-661.5206193418059
 10
828.0031467598897
 20
-656.3889172203353
 10
827.2710784205425
 20
-652.3810786480773
 10
826.1334068574115
 20
-646.0795071374517
 10
824.91540001566
 20
-639.2207987791606
 10
823.9776805124197
 20
-633.8318897385875
  0
LWPOLYLINE
  5
9CE
330
A
100
AcDbEntity
  8
0
  6
Continuous
 62
     7
100
AcDbPolyline
 90
       35
 70
   128
 43
0.0
 10
865.6766939592722
 20
-704.0370831873495
 10
864.8388545465779
 20
-696.1592535918647
 10
864.1282816247668
 20
-689.4207062911411
 10
863.5422522512198
 20
-683.8214412859326
 10
863.0783899317128
 20
-679.3614585762387
 10
862.7347290604662
 20
-676.0407581620601
 10
862.457890593134
 20
-673.3554659026134
 10
862.1518610002413
 20
-670.3763454500118
 10
861.5107365021463
 20
-664.0986418024042
 10
860.7681924043282
 20
-656.7649603905358
 10
859.9273211488682
 20
-648.3753012144063
 10
859.0964705129531
 20
-639.9922059438535
 10
858.2400728362157
 20
-631.2422069989768
 10
857.447875836385
 20
-623.0284954181757
 10
856.7203475076258
 20
-615.3728203231386
 10
856.0554405167151
 20
-608.2751817138653
 10
855.4509059353136
 20
-601.7355795903557
 10
854.9178460057246
 20
-595.9023203064267
 10
854.4315621561175
 20
-590.53441690707
 10
853.9445126781707
 20
-585.1309072149351
 10
853.4477661480428
 20
-579.5852983281998
 10
852.9421483524732
 20
-573.8975902468638
 10
852.4537011442571
 20
-568.3586842397889
 10
852.0422401578068
 20
-563.6588002696631
 10
851.8383267919791
 20
-561.318243398318
 10
851.6526181111428
 20
-559.1801550249174
 10
851.4070278426599
 20
-556.343120553613
 10
851.0827112423143
 20
-552.5801047994153
 10
850.6808211843994
 20
-547.8911077623246
 10
850.2027300895333
 20
-542.2761294423406
 10
849.5306234858148
 20
-534.315860164941
 10
848.7539080737231
 20
-525.0221778401754
 10
847.875530725399
 20
-514.3950824680436
 10
846.8982651574805
 20
-502.4345740485455
 10
845.9388880197042
 20
-490.5577845784917
  0
LINE
  5
9F3
330
A
100
AcDbEntity
  8
0
  6
Continuous
 62
     7
100
AcDbLine
 10
843.0463069595358
 20
-490.527788762903
 30
0.0
 11
843.0696706494977
 21
-490.9428929030895
 31
0.0
  0
ARC
  5
9F4
330
A
100
AcDbEntity
  8
0
  6
Continuous
 62
     7
100
AcDbCircle
 10
838.8663219896521
 20
-491.1339831873498
 30
0.0
 40
7.096769999999935
100
AcDbArc
 50
4.632669327375682
 51
90.00000003747125
  0
LINE
  5
9F5
330
A
100
AcDbEntity
  8
0
  6
Continuous
 62
     7
100
AcDbLine
 10
739.0761414947686
 20
-482.0242352455324
 30
0.0
 11
739.0761414947686
 21
-472.0242352455325
 31
0.0
  0
LINE
  5
9F6
330
A
100
AcDbEntity
  8
0
  6
Continuous
 62
     7
100
AcDbLine
 10
679.0761414947685
 20
-472.0242352455325
 30
0.0
 11
679.0761414947685
 21
-482.0242352455324
 31
0.0
  0
LINE
  5
9F7
330
A
100
AcDbEntity
  8
0
  6
Continuous
 62
     7
100
AcDbLine
 10
687.5761414947686
 20
-482.0242352455324
 30
0.0
 11
687.5761414947686
 21
-484.0372131873506
 31
0.0
  0
LINE
  5
9F8
330
A
100
AcDbEntity
  8
0
  6
Continuous
 62
     7
100
AcDbLine
 10
730.5761414947685
 20
-484.0372131873506
 30
0.0
 11
730.5761414947685
 21
-482.0242352455324
 31
0.0
  0
LINE
  5
9F9
330
A
100
AcDbEntity
  8
0
  6
Continuous
 62
     7
100
AcDbLine
 10
639.0761414947678
 20
-462.0242352455325
 30
0.0
 11
639.0761414947678
 21
-482.0242352455324
 31
0.0
  0
LINE
  5
9FA
330
A
100
AcDbEntity
  8
0
  6
Continuous
 62
     7
100
AcDbLine
 10
779.0761414947679
 20
-482.0242352455324
 30
0.0
 11
779.0761414947679
 21
-462.0242352455325
 31
0.0
  0
LINE
  5
9FB
330
A
100
AcDbEntity
  8
0
  6
Continuous
 62
     7
100
AcDbLine
 10
618.076141494768
 20
1030.290776272864
 30
0.0
 11
800.076141494768
 21
1030.290776272864
 31
0.0
  0
LINE
  5
9FC
330
A
100
AcDbEntity
  8
0
  6
Continuous
 62
     7
100
AcDbLine
 10
618.076141494768
 20
1036.975764754467
 30
0.0
 11
800.076141494768
 21
1036.975764754467
 31
0.0
  0
LINE
  5
9FD
330
A
100
AcDbEntity
  8
0
  6
Continuous
 62
     7
100
AcDbLine
 10
643.076141494768
 20
1063.975764754467
 30
0.0
 11
775.0761414947678
 21
1063.975764754467
 31
0.0
  0
LINE
  5
9FE
330
A
100
AcDbEntity
  8
0
  6
Continuous
 62
     7
100
AcDbLine
 10
772.4125090467488
 20
-704.0370831873495
 30
0.0
 11
771.8978717337342
 21
-704.0370831873495
 31
0.0
  0
LINE
  5
9FF
330
A
100
AcDbEntity
  8
0
  6
Continuous
 62
     7
100
AcDbLine
 10
589.8181424506391
 20
-704.03708318735
 30
0.0
 11
580.0551686346877
 21
-704.0370831873502
 31
0.0
  0
LWPOLYLINE
  5
A00
330
A
100
AcDbEntity
  8
0
  6
Continuous
 62
     7
100
AcDbPolyline
 90
        3
 70
   128
 43
0.0
 10
842.9842105255017
 20
-490.6750364443767
 10
842.9912142072195
 20
-490.6731690344853
 10
842.9804969984219
 20
-490.6783040981147
  0
LINE
  5
A05
330
A
100
AcDbEntity
  8
0
  6
Continuous
 62
     7
100
AcDbLine
 10
821.7150417488396
 20
-484.0372131873497
 30
0.0
 11
835.9053176403955
 21
-484.03721318735
 31
0.0
  0
LINE
  5
A06
330
A
100
AcDbEntity
  8
0
  6
Continuous
 62
     7
100
AcDbLine
 10
837.4365353658399
 20
-704.0370831873495
 30
0.0
 11
856.9303569712136
 21
-704.0370831873495
 31
0.0
  0
LINE
  5
A07
330
A
100
AcDbEntity
  8
0
  6
Continuous
 62
     7
100
AcDbLine
 10
630.7677108453145
 20
-491.300801215763
 30
0.0
 11
633.2827445225432
 21
-603.9236816386758
 31
0.0
  0
LINE
  5
A08
330
A
100
AcDbEntity
  8
0
  6
Continuous
 62
     7
100
AcDbLine
 10
630.7677100103197
 20
-491.3007638248021
 30
0.0
 11
630.7677108453145
 21
-491.300801215763
 31
0.0
  0
LINE
  5
A09
330
A
100
AcDbEntity
  8
0
  6
Continuous
 62
     7
100
AcDbLine
 10
748.3885561086708
 20
-491.7277341642413
 30
0.0
 11
748.3886091628115
 21
-491.7265855866928
 31
0.0
  0
LINE
  5
A0A
330
A
100
AcDbEntity
  8
0
  6
Continuous
 62
     7
100
AcDbLine
 10
748.3885561086708
 20
-491.7277341642416
 30
0.0
 11
738.5817388749956
 21
-704.0370831873505
 31
0.0
  0
LINE
  5
A0B
330
A
100
AcDbEntity
  8
0
  6
Continuous
 62
     7
100
AcDbLine
 10
740.7654724644632
 20
-704.03708318735
 30
0.0
 11
631.8403756036407
 21
-704.0370831873495
 31
0.0
  0
LWPOLYLINE
  5
A0C
330
A
100
AcDbEntity
  8
0
  6
Continuous
 62
     7
100
AcDbPolyline
 90
        7
 70
   128
 43
0.0
 10
630.7677100658809
 20
-491.3007638266596
 10
631.0516569779188
 20
-488.9429406562999
 10
631.9624257525101
 20
-486.8321409117005
 10
633.3973341561495
 20
-485.2063411009504
 10
635.1946073137248
 20
-484.2488377825854
 10
636.2196045305982
 20
-484.0531749825832
 10
636.6114279110311
 20
-484.0372131873501
  0
LINE
  5
A15
330
A
100
AcDbEntity
  8
0
  6
Continuous
 62
     7
100
AcDbLine
 10
636.6114279110083
 20
-484.0372131873501
 30
0.0
 11
640.6887398971721
 21
-484.0372131873504
 31
0.0
  0
LINE
  5
A16
330
A
100
AcDbEntity
  8
0
  6
Continuous
 62
     7
100
AcDbLine
 10
741.7802920638414
 20
-484.0372131873504
 30
0.0
 11
641.5822942137699
 21
-484.0372131873497
 31
0.0
  0
LWPOLYLINE
  5
A17
330
A
100
AcDbEntity
  8
0
  6
Continuous
 62
     7
100
AcDbPolyline
 90
        7
 70
   128
 43
0.0
 10
741.7802920638414
 20
-484.0372131873504
 10
742.0920674615739
 20
-484.0450606920914
 10
743.7711858408158
 20
-484.3645825883556
 10
745.7527618943498
 20
-485.4514146608853
 10
747.2864719535057
 20
-487.1789125430717
 10
748.199402483541
 20
-489.3523142329315
 10
748.3886091628116
 20
-491.7265855866928
  0
LWPOLYLINE
  5
A20
330
A
100
AcDbEntity
  8
0
  6
Continuous
 62
     7
100
AcDbPolyline
 90
        5
 70
   128
 43
0.0
 10
780.983589045755
 20
-484.0372131873504
 10
783.0003905206835
 20
-484.462447873199
 10
784.8544426849176
 20
-485.7677164296666
 10
786.1836227984853
 20
-487.751358144887
 10
786.8455675801868
 20
-490.1841686233764
  0
LINE
  5
A27
330
A
100
AcDbEntity
  8
0
  6
Continuous
 62
     7
100
AcDbLine
 10
828.4509251705385
 20
-491.3691990654872
 30
0.0
 11
828.4363289048783
 21
-491.3759083807293
 31
0.0
  0
LINE
  5
A28
330
A
100
AcDbEntity
  8
0
  6
Continuous
 62
     7
100
AcDbLine
 10
741.7802920638414
 20
-484.0372131873504
 30
0.0
 11
821.3650417488397
 21
-484.0372131873504
 31
0.0
  0
LINE
  5
A29
330
A
100
AcDbEntity
  8
0
  6
Continuous
 62
     7
100
AcDbLine
 10
823.3234568115875
 20
-655.0391603135116
 30
0.0
 11
834.1653535890909
 21
-704.03708318735
 31
0.0
  0
LINE
  5
A2A
330
A
100
AcDbEntity
  8
0
  6
Continuous
 62
     7
100
AcDbLine
 10
834.1653535890909
 20
-704.0370831873505
 30
0.0
 11
821.8207796039184
 21
-704.0370831873498
 31
0.0
  0
LINE
  5
A2B
330
A
100
AcDbEntity
  8
0
  6
Continuous
 62
     7
100
AcDbLine
 10
738.5817388749964
 20
-704.0370831873505
 30
0.0
 11
821.7987857850058
 21
-704.0370831873495
 31
0.0
  0
LINE
  5
A2C
330
A
100
AcDbEntity
  8
0
  6
Continuous
 62
     7
100
AcDbLine
 10
589.642597374464
 20
-491.1608664642178
 30
0.0
 11
589.6633602387053
 21
-491.1503882419098
 31
0.0
  0
LINE
  5
A2D
330
A
100
AcDbEntity
  8
0
  6
Continuous
 62
     7
100
AcDbLine
 10
631.7174989434764
 20
-704.0370831873491
 30
0.0
 11
590.168142450639
 21
-704.0370831873495
 31
0.0
  0
LINE
  5
A2E
330
A
100
AcDbEntity
  8
0
  6
Continuous
 62
     7
100
AcDbLine
 10
636.6114279110083
 20
-484.0372131873501
 30
0.0
 11
596.6768489545057
 21
-484.0372131873497
 31
0.0
  0
LINE
  5
A2F
330
A
100
AcDbEntity
  8
0
  6
Continuous
 62
     7
100
AcDbLine
 10
834.1653535890909
 20
-704.0370831873505
 30
0.0
 11
837.0865253658401
 21
-704.0370831873505
 31
0.0
  0
LWPOLYLINE
  5
A30
330
A
100
AcDbEntity
  8
0
  6
Continuous
 62
     7
100
AcDbPolyline
 90
        4
 70
   128
 43
0.0
 10
824.010795640498
 20
-484.5674337601569
 10
823.7611144794108
 20
-484.3553582791394
 10
822.7143589201459
 20
-484.0457241208681
 10
822.5069525808372
 20
-484.0372131873504
  0
LINE
  5
A36
330
A
100
AcDbEntity
  8
0
  6
Continuous
 62
     7
100
AcDbLine
 10
845.8959689542362
 20
-490.5648750066677
 30
0.0
 11
845.8817640373961
 21
-490.5624595974049
 31
0.0
  0
LINE
  5
A37
330
A
100
AcDbEntity
  8
0
  6
Continuous
 62
     7
100
AcDbLine
 10
857.2803669712135
 20
-704.0370831873491
 30
0.0
 11
865.6362496822062
 21
-704.0370831873498
 31
0.0
  0
LINE
  5
A38
330
A
100
AcDbEntity
  8
0
  6
Continuous
 62
     7
100
AcDbLine
 10
836.2611795489323
 20
-484.03721318735
 30
0.0
 11
838.8316585242332
 21
-484.0372131873497
 31
0.0
  0
LINE
  5
A39
330
A
100
AcDbEntity
  8
0
  6
Continuous
 62
     7
100
AcDbLine
 10
739.0761414947686
 20
-472.0242352455325
 30
0.0
 11
679.0761414947685
 21
-472.0242352455325
 31
0.0
  0
LINE
  5
A3A
330
A
100
AcDbEntity
  8
0
  6
Continuous
 62
     7
100
AcDbLine
 10
679.0761414947685
 20
-482.0242352455324
 30
0.0
 11
739.0761414947686
 21
-482.0242352455324
 31
0.0
  0
LINE
  5
A3B
330
A
100
AcDbEntity
  8
0
  6
Continuous
 62
     7
100
AcDbLine
 10
694.0761414947681
 20
-462.0242352455325
 30
0.0
 11
694.0761414947681
 21
-472.0242352455325
 31
0.0
  0
LINE
  5
A3C
330
A
100
AcDbEntity
  8
0
  6
Continuous
 62
     7
100
AcDbLine
 10
699.0761414947686
 20
-472.0242352455325
 30
0.0
 11
694.0761414947681
 21
-462.0242352455325
 31
0.0
  0
LINE
  5
A3D
330
A
100
AcDbEntity
  8
0
  6
Continuous
 62
     7
100
AcDbLine
 10
724.0761414947682
 20
-462.0242352455325
 30
0.0
 11
719.0761414947685
 21
-472.0242352455325
 31
0.0
  0
LINE
  5
A3E
330
A
100
AcDbEntity
  8
0
  6
Continuous
 62
     7
100
AcDbLine
 10
724.0761414947682
 20
-462.0242352455325
 30
0.0
 11
710.0761414947685
 21
-462.0242352455325
 31
0.0
  0
LINE
  5
A3F
330
A
100
AcDbEntity
  8
0
  6
Continuous
 62
     7
100
AcDbLine
 10
708.0761414947687
 20
-462.0242352455325
 30
0.0
 11
694.0761414947681
 21
-462.0242352455325
 31
0.0
  0
LINE
  5
A40
330
A
100
AcDbEntity
  8
0
  6
Continuous
 62
     7
100
AcDbLine
 10
724.0761414947682
 20
-462.0242352455325
 30
0.0
 11
724.0761414947682
 21
-472.0242352455325
 31
0.0
  0
LINE
  5
A41
330
A
100
AcDbEntity
  8
0
  6
Continuous
 62
     7
100
AcDbLine
 10
639.0761414947678
 20
-462.0242352455325
 30
0.0
 11
694.0761414947681
 21
-462.0242352455325
 31
0.0
  0
LINE
  5
A42
330
A
100
AcDbEntity
  8
0
  6
Continuous
 62
     7
100
AcDbLine
 10
639.0761414947678
 20
-482.0242352455324
 30
0.0
 11
679.0761414947673
 21
-482.0242352455324
 31
0.0
  0
LINE
  5
A43
330
A
100
AcDbEntity
  8
0
  6
Continuous
 62
     7
100
AcDbLine
 10
724.0761414947682
 20
-462.0242352455325
 30
0.0
 11
779.0761414947679
 21
-462.0242352455325
 31
0.0
  0
LINE
  5
A44
330
A
100
AcDbEntity
  8
0
  6
Continuous
 62
     7
100
AcDbLine
 10
739.0761414947673
 20
-482.0242352455324
 30
0.0
 11
779.0761414947679
 21
-482.0242352455324
 31
0.0
  0
LWPOLYLINE
  5
A45
330
A
100
AcDbEntity
  8
0
  6
PHANTOM
 62
     7
100
AcDbPolyline
 90
        9
 70
   128
 43
0.0
 10
842.9804969984219
 20
-490.6783040981147
 10
842.8268948081274
 20
-490.7519013411731
 10
842.6444172011141
 20
-490.8460089430231
 10
842.1675652259606
 20
-490.9394348202344
 10
841.1656134395894
 20
-490.9955537393479
 10
839.2501196589947
 20
-490.9972755758303
 10
836.488024899873
 20
-491.0009359205838
 10
832.4828769794958
 20
-491.0838581501076
 10
828.4845723715321
 20
-491.1987449615099
  0
LWPOLYLINE
  5
A50
330
A
100
AcDbEntity
  8
0
  6
PHANTOM
 62
     7
100
AcDbPolyline
 90
       29
 70
   128
 43
0.0
 10
748.3886091628116
 20
-491.7265855866928
 10
748.3885941366623
 20
-491.7265843663351
 10
747.0350316431599
 20
-491.6253552523785
 10
745.9755327962132
 20
-491.567256010604
 10
744.3343231051243
 20
-491.5153274561311
 10
742.144137954939
 20
-491.463671080616
 10
739.8294826191952
 20
-491.411453418285
 10
736.8795122422836
 20
-491.3604988402179
 10
733.4995141116392
 20
-491.3212719444474
 10
729.5595985868349
 20
-491.2688976977727
 10
717.0421529177007
 20
-491.0726722178456
 10
704.1403803142867
 20
-491.2083612798604
 10
696.8816206973232
 20
-491.3871739476298
 10
689.3562694953226
 20
-491.4210908662314
 10
684.8373713217069
 20
-491.3768194884831
 10
680.3006640815115
 20
-491.2979317477032
 10
675.8402604840151
 20
-491.1869023082079
 10
671.0823822338818
 20
-491.0249869567013
 10
666.5407040914662
 20
-490.8544117626872
 10
662.2602936590039
 20
-490.7294135433401
 10
655.9034942792404
 20
-490.6731690344853
 10
649.7706662692213
 20
-490.7519013411731
 10
646.1150409888642
 20
-490.8460089430231
 10
642.6569101737436
 20
-490.9394348202344
 10
639.6060036676876
 20
-490.9955537393479
 10
637.068575264215
 20
-490.9972755758303
 10
635.3947285165246
 20
-491.0009359205838
 10
634.514094464377
 20
-491.0838581501076
 10
634.5256482253914
 20
-491.1521662817752
  0
LWPOLYLINE
  5
A6F
330
A
100
AcDbEntity
  8
0
  6
PHANTOM
 62
     7
100
AcDbPolyline
 90
        5
 70
   128
 43
0.0
 10
634.4212737040755
 20
-491.4479034112514
 10
633.5655882758872
 20
-491.4067279047091
 10
630.7677341859957
 20
-491.3007646330572
 10
630.7677100103197
 20
-491.3007638248021
 10
630.7677100103197
 20
-491.3007638248021
  0
LWPOLYLINE
  5
A76
330
A
100
AcDbEntity
  8
0
  6
PHANTOM
 62
     7
100
AcDbPolyline
 90
        7
 70
   128
 43
0.0
 10
786.8455675801868
 20
-490.1841686233764
 10
786.8455439412688
 20
-490.184167527865
 10
783.818765591573
 20
-490.0254514390963
 10
781.5272807359435
 20
-489.8665801120877
 10
780.611152304697
 20
-489.7777117055489
 10
780.2497718864003
 20
-489.7184410162837
 10
780.2805563516215
 20
-489.7157390537531
  0
LWPOLYLINE
  5
A7F
330
A
100
AcDbEntity
  8
0
  6
PHANTOM
 62
     7
100
AcDbPolyline
 90
       28
 70
   128
 43
0.0
 10
828.4363289048783
 20
-491.3759083807293
 10
828.2362485103886
 20
-491.4678772768582
 10
827.4672035073654
 20
-491.5924825957497
 10
825.9021870286961
 20
-491.8022080162606
 10
824.443540472032
 20
-491.9719670638923
 10
822.3941812800532
 20
-492.1694686144034
 10
820.8361866335859
 20
-492.2887043559668
 10
818.9821726414935
 20
-492.3861612868957
 10
816.8753125281623
 20
-492.4380562843059
 10
814.5881234320293
 20
-492.4526165642718
 10
811.4089695188292
 20
-492.4436182407364
 10
808.1582295359281
 20
-492.4217095227133
 10
804.3594715993355
 20
-492.3939089883226
 10
800.5645804621909
 20
-492.3671226638527
 10
791.8382791517253
 20
-492.3168021325089
 10
784.5281973314596
 20
-492.2720450564982
 10
777.2054783494801
 20
-492.2289068104105
 10
769.8652425411636
 20
-492.1906447154392
 10
762.5026102418864
 20
-492.1605160927776
 10
759.1223302720672
 20
-492.1467427171562
 10
755.8492274902588
 20
-492.1159774930398
 10
754.0771123229973
 20
-492.0805574485537
 10
752.4683034284328
 20
-492.0207664274973
 10
751.1061351249123
 20
-491.9386433775589
 10
749.9852786480101
 20
-491.8543058079897
 10
748.3885712125347
 20
-491.7277353189985
 10
748.3885561086708
 20
-491.7277341642413
 10
748.3885561086708
 20
-491.7277341642413
  0
LWPOLYLINE
  5
A9D
330
A
100
AcDbEntity
  8
0
  6
PHANTOM
 62
     7
100
AcDbPolyline
 90
       15
 70
   128
 43
0.0
 10
630.7677108453145
 20
-491.300801215763
 10
630.7676867052933
 20
-491.3008004478004
 10
626.5008249475764
 20
-491.1990514738314
 10
621.6144164986652
 20
-491.1556573092025
 10
616.2994244830424
 20
-491.1918138128853
 10
610.7468120251911
 20
-491.3287168438519
 10
606.1234898673948
 20
-491.4696314722793
 10
601.4852619676984
 20
-491.5619113566797
 10
597.1445354976774
 20
-491.5789334241162
 10
593.4137176289074
 20
-491.4940746016521
 10
591.971390744056
 20
-491.4169597304542
 10
590.8381460315525
 20
-491.3333832733087
 10
590.0225287212211
 20
-491.2529386644106
 10
589.6009423789656
 20
-491.1818881449457
 10
589.642597374464
 20
-491.1608664642178
  0
LWPOLYLINE
  5
AAE
330
A
100
AcDbEntity
  8
0
  6
PHANTOM
 62
     7
100
AcDbPolyline
 90
        5
 70
   128
 43
0.0
 10
845.8817640373961
 20
-490.5624595974049
 10
845.6795723037423
 20
-490.5280788409511
 10
844.8826852454667
 20
-490.4934003777051
 10
843.8326590638087
 20
-490.4924284190687
 10
842.9299494298279
 20
-490.5442871915452
  0
ENDSEC
  0
SECTION
  2
OBJECTS
  0
DICTIONARY
  5
19
330
0
100
AcDbDictionary
281
     1
  3
ACAD_COLOR
350
AB9
  3
ACAD_GROUP
350
1A
  3
ACAD_LAYOUT
350
ABA
  3
ACAD_MATERIAL
350
AB8
  3
ACAD_MLINESTYLE
350
1B
  3
ACAD_PLOTSETTINGS
350
ABB
  3
ACAD_PLOTSTYLENAME
350
AB6
  3
ACDBHEADERROUNDTRIPXREC
350
AD3
  3
AcDbVariableDictionary
350
ACC
  3
ASE_INDEX_DICTIONARY
350
AC1
  0
DICTIONARY
  5
AB9
102
{ACAD_REACTORS
330
19
102
}
330
19
100
AcDbDictionary
281
     1
  0
DICTIONARY
  5
1A
102
{ACAD_REACTORS
330
19
102
}
330
19
100
AcDbDictionary
281
     1
  0
DICTIONARY
  5
ABA
102
{ACAD_REACTORS
330
19
102
}
330
19
100
AcDbDictionary
281
     1
  3
Layout1
350
ABD
  3
Model
350
ABC
  0
DICTIONARY
  5
AB8
102
{ACAD_REACTORS
330
19
102
}
330
19
100
AcDbDictionary
281
     1
  0
DICTIONARY
  5
1B
102
{ACAD_REACTORS
330
19
102
}
330
19
100
AcDbDictionary
281
     1
  3
STANDARD
350
1C
  0
DICTIONARY
  5
ABB
102
{ACAD_REACTORS
330
19
102
}
330
19
100
AcDbDictionary
281
     1
  0
ACDBDICTIONARYWDFLT
  5
AB6
102
{ACAD_REACTORS
330
19
102
}
330
19
100
AcDbDictionary
281
     1
  3
Normal
350
AB7
100
AcDbDictionaryWithDefault
340
AB7
  0
DICTIONARY
  5
AD3
102
{ACAD_REACTORS
330
19
102
}
330
19
100
AcDbDictionary
281
     1
  3
COLORDICT
350
AD5
  3
MATERIALDICT
350
AD4
  0
DICTIONARY
  5
ACC
102
{ACAD_REACTORS
330
19
102
}
330
19
100
AcDbDictionary
281
     1
  3
DIMASSOC
350
ACD
  3
PROJECTNAME
350
ACE
  0
DICTIONARY
  5
AC1
102
{ACAD_REACTORS
330
19
102
}
330
19
100
AcDbDictionary
281
     1
  3
ASEBlockHierarchyIndexRecord
350
AC3
1001
DCO15
1040
1521898740.25
  0
LAYOUT
  5
ABD
102
{ACAD_XDICTIONARY
360
AD8
102
}
102
{ACAD_REACTORS
330
ABA
102
}
330
ABA
100
AcDbPlotSettings
  1

  2
ProgeSOFT PDF Wizard
  4

  6

 40
0.0
 41
0.0
 42
0.0
 43
0.0
 44
0.0
 45
0.0
 46
0.0
 47
0.0
 48
0.0
 49
0.0
140
0.0
141
0.0
142
1.0
143
1.0
 70
   688
 72
     0
 73
     0
 74
     5
  7

 75
    16
147
1.0
148
0.0
149
0.0
100
AcDbLayout
  1
Layout1
 70
     1
 71
     1
 10
0.0
 20
0.0
 11
12.0
 21
9.0
 12
0.0
 22
0.0
 32
0.0
 14
1.000000000000000E+20
 24
1.000000000000000E+20
 34
1.000000000000000E+20
 15
-1.000000000000000E+20
 25
-1.000000000000000E+20
 35
-1.000000000000000E+20
146
0.0
 13
0.0
 23
0.0
 33
0.0
 16
1.0
 26
0.0
 36
0.0
 17
0.0
 27
1.0
 37
0.0
 76
     0
330
B
  0
LAYOUT
  5
ABC
102
{ACAD_XDICTIONARY
360
AD6
102
}
102
{ACAD_REACTORS
330
ABA
102
}
330
ABA
100
AcDbPlotSettings
  1

  2
ProgeSOFT PDF Wizard
  4

  6

 40
0.0
 41
0.0
 42
0.0
 43
0.0
 44
0.0
 45
0.0
 46
0.0
 47
0.0
 48
0.0
 49
0.0
140
0.0
141
0.0
142
1.0
143
1.0
 70
  1712
 72
     0
 73
     0
 74
     0
  7

 75
     0
147
1.0
148
0.0
149
0.0
100
AcDbLayout
  1
Model
 70
     1
 71
     0
 10
0.0
 20
0.0
 11
12.0
 21
9.0
 12
0.0
 22
0.0
 32
0.0
 14
0.0
 24
0.0
 34
0.0
 15
0.0
 25
0.0
 35
0.0
146
0.0
 13
0.0
 23
0.0
 33
0.0
 16
1.0
 26
0.0
 36
0.0
 17
0.0
 27
1.0
 37
0.0
 76
     0
330
A
  0
MLINESTYLE
  5
1C
102
{ACAD_REACTORS
330
1B
102
}
330
1B
100
AcDbMlineStyle
  2
STANDARD
 70
     0
  3

 62
     0
 51
90.0
 52
90.0
 71
     2
 49
0.5
 62
   256
  6
BYLAYER
 49
-0.5
 62
   256
  6
BYLAYER
  0
ACDBPLACEHOLDER
  5
AB7
102
{ACAD_REACTORS
330
AB6
102
}
330
AB6
  0
XRECORD
  5
AD5
102
{ACAD_REACTORS
330
AD3
102
}
330
AD3
100
AcDbXrecord
280
     1
340
AB9
  0
XRECORD
  5
AD4
102
{ACAD_REACTORS
330
AD3
102
}
330
AD3
100
AcDbXrecord
280
     1
340
AB8
  0
DICTIONARYVAR
  5
ACD
102
{ACAD_REACTORS
330
ACC
102
}
330
ACC
100
DictionaryVariables
280
     0
  1
1
  0
DICTIONARYVAR
  5
ACE
102
{ACAD_REACTORS
330
ACC
102
}
330
ACC
100
DictionaryVariables
280
     0
  1

  0
XRECORD
  5
AC3
102
{ACAD_REACTORS
330
AC1
102
}
330
AC1
100
AcDbXrecord
280
     1
  0
DICTIONARY
  5
AD8
330
ABD
100
AcDbDictionary
280
     1
281
     1
  3
ACAD_XREC_ROUNDTRIP
360
AD9
  0
DICTIONARY
  5
AD6
330
ABC
100
AcDbDictionary
280
     1
281
     1
  3
ACAD_XREC_ROUNDTRIP
360
AD7
  0
XRECORD
  5
AD9
102
{ACAD_REACTORS
330
AD8
102
}
330
AD8
100
AcDbXrecord
280
     1
102
SHADEPLOT
 70
     0
102
SHADEPLOTRESLEVEL
 70
     2
102
SHADEPLOTCUSTOMDPI
 70
   300
  0
XRECORD
  5
AD7
102
{ACAD_REACTORS
330
AD6
102
}
330
AD6
100
AcDbXrecord
280
     1
102
SHADEPLOT
 70
     0
102
SHADEPLOTRESLEVEL
 70
     2
102
SHADEPLOTCUSTOMDPI
 70
   300
  0
ENDSEC
  0
EOF
