  0
SECTION
  2
HEADER
  9
$ACADVER
  1
AC1015
  9
$ACADMAINTVER
 70
    20
  9
$DWGCODEPAGE
  3
ANSI_1252
  9
$INSBASE
 10
0.0
 20
0.0
 30
0.0
  9
$EXTMIN
 10
-87.18023312041271
 20
-1230.743816566
 30
0.0
  9
$EXTMAX
 10
648.2114644786967
 20
1023.928017433259
 30
0.0
  9
$LIMMIN
 10
0.0
 20
0.0
  9
$LIMMAX
 10
0.0
 20
0.0
  9
$ORTHOMODE
 70
     0
  9
$REGENMODE
 70
     1
  9
$FILLMODE
 70
     1
  9
$QTEXTMODE
 70
     0
  9
$MIRRTEXT
 70
     1
  9
$LTSCALE
 40
1.0
  9
$ATTMODE
 70
     1
  9
$TEXTSIZE
 40
0.0
  9
$TRACEWID
 40
0.05
  9
$TEXTSTYLE
  7
STANDARD
  9
$CLAYER
  8
0
  9
$CELTYPE
  6
CONTINUOUS
  9
$CECOLOR
 62
   256
  9
$CELTSCALE
 40
1.0
  9
$DISPSILH
 70
     0
  9
$DIMSCALE
 40
1.0
  9
$DIMASZ
 40
6.0
  9
$DIMEXO
 40
1.0
  9
$DIMDLI
 40
0.38
  9
$DIMRND
 40
0.0
  9
$DIMDLE
 40
1.0
  9
$DIMEXE
 40
0.18
  9
$DIMTP
 40
0.0
  9
$DIMTM
 40
0.0
  9
$DIMTXT
 40
3.5
  9
$DIMCEN
 40
0.09
  9
$DIMTSZ
 40
0.0
  9
$DIMTOL
 70
     0
  9
$DIMLIM
 70
     0
  9
$DIMTIH
 70
     1
  9
$DIMTOH
 70
     1
  9
$DIMSE1
 70
     0
  9
$DIMSE2
 70
     0
  9
$DIMTAD
 70
     1
  9
$DIMZIN
 70
     0
  9
$DIMBLK
  1

  9
$DIMASO
 70
     1
  9
$DIMSHO
 70
     1
  9
$DIMPOST
  1

  9
$DIMAPOST
  1

  9
$DIMALT
 70
     0
  9
$DIMALTD
 70
     2
  9
$DIMALTF
 40
0.0394
  9
$DIMLFAC
 40
1.0
  9
$DIMTOFL
 70
     0
  9
$DIMTVP
 40
0.0
  9
$DIMTIX
 70
     0
  9
$DIMSOXD
 70
     0
  9
$DIMSAH
 70
     0
  9
$DIMBLK1
  1

  9
$DIMBLK2
  1

  9
$DIMSTYLE
  2
STANDARD
  9
$DIMCLRD
 70
     0
  9
$DIMCLRE
 70
     0
  9
$DIMCLRT
 70
     0
  9
$DIMTFAC
 40
1.0
  9
$DIMGAP
 40
1.0
  9
$DIMJUST
 70
     0
  9
$DIMSD1
 70
     0
  9
$DIMSD2
 70
     0
  9
$DIMTOLJ
 70
     1
  9
$DIMTZIN
 70
     0
  9
$DIMALTZ
 70
     0
  9
$DIMALTTZ
 70
     0
  9
$DIMUPT
 70
     0
  9
$DIMDEC
 70
     4
  9
$DIMTDEC
 70
     4
  9
$DIMALTU
 70
     2
  9
$DIMALTTD
 70
     2
  9
$DIMTXSTY
  7
STANDARD
  9
$DIMAUNIT
 70
     0
  9
$DIMADEC
 70
     0
  9
$DIMALTRND
 40
0.0
  9
$DIMAZIN
 70
     0
  9
$DIMDSEP
 70
    46
  9
$DIMATFIT
 70
     3
  9
$DIMFRAC
 70
     0
  9
$DIMLDRBLK
  1

  9
$DIMLUNIT
 70
     2
  9
$DIMLWD
 70
    -2
  9
$DIMLWE
 70
    -2
  9
$DIMTMOVE
 70
     0
  9
$LUNITS
 70
     2
  9
$LUPREC
 70
     2
  9
$SKETCHINC
 40
0.1
  9
$FILLETRAD
 40
0.0
  9
$AUNITS
 70
     0
  9
$AUPREC
 70
     2
  9
$MENU
  1
acad
  9
$ELEVATION
 40
0.0
  9
$PELEVATION
 40
0.0
  9
$THICKNESS
 40
0.0
  9
$LIMCHECK
 70
     0
  9
$CHAMFERA
 40
0.0
  9
$CHAMFERB
 40
0.0
  9
$CHAMFERC
 40
0.0
  9
$CHAMFERD
 40
0.0
  9
$SKPOLY
 70
     0
  9
$TDCREATE
 40
2444972.041666667
  9
$TDUCREATE
 40
2444972.000000000
  9
$TDUPDATE
 40
2453768.763949827
  9
$TDUUPDATE
 40
2453768.722283160
  9
$TDINDWG
 40
0.0064395255
  9
$TDUSRTIMER
 40
0.0064395255
  9
$USRTIMER
 70
     1
  9
$ANGBASE
 50
0.0
  9
$ANGDIR
 70
     0
  9
$PDMODE
 70
     0
  9
$PDSIZE
 40
-1.0
  9
$PLINEWID
 40
0.0
  9
$SPLFRAME
 70
     0
  9
$SPLINETYPE
 70
     6
  9
$SPLINESEGS
 70
     8
  9
$HANDSEED
  5
4C4
  9
$SURFTAB1
 70
     6
  9
$SURFTAB2
 70
     6
  9
$SURFTYPE
 70
     6
  9
$SURFU
 70
     6
  9
$SURFV
 70
     6
  9
$UCSBASE
  2

  9
$UCSNAME
  2

  9
$UCSORG
 10
0.0
 20
0.0
 30
0.0
  9
$UCSXDIR
 10
1.0
 20
0.0
 30
0.0
  9
$UCSYDIR
 10
0.0
 20
1.0
 30
0.0
  9
$UCSORTHOREF
  2

  9
$UCSORTHOVIEW
 70
     1
  9
$UCSORGTOP
 10
0.0
 20
0.0
 30
0.0
  9
$UCSORGBOTTOM
 10
0.0
 20
0.0
 30
0.0
  9
$UCSORGLEFT
 10
0.0
 20
0.0
 30
0.0
  9
$UCSORGRIGHT
 10
0.0
 20
0.0
 30
0.0
  9
$UCSORGFRONT
 10
0.0
 20
0.0
 30
0.0
  9
$UCSORGBACK
 10
0.0
 20
0.0
 30
0.0
  9
$PUCSBASE
  2

  9
$PUCSNAME
  2

  9
$PUCSORG
 10
0.0
 20
0.0
 30
0.0
  9
$PUCSXDIR
 10
1.0
 20
0.0
 30
0.0
  9
$PUCSYDIR
 10
0.0
 20
1.0
 30
0.0
  9
$PUCSORTHOREF
  2

  9
$PUCSORTHOVIEW
 70
     0
  9
$PUCSORGTOP
 10
0.0
 20
0.0
 30
0.0
  9
$PUCSORGBOTTOM
 10
0.0
 20
0.0
 30
0.0
  9
$PUCSORGLEFT
 10
0.0
 20
0.0
 30
0.0
  9
$PUCSORGRIGHT
 10
0.0
 20
0.0
 30
0.0
  9
$PUCSORGFRONT
 10
0.0
 20
0.0
 30
0.0
  9
$PUCSORGBACK
 10
0.0
 20
0.0
 30
0.0
  9
$USERI1
 70
     0
  9
$USERI2
 70
     0
  9
$USERI3
 70
     0
  9
$USERI4
 70
     0
  9
$USERI5
 70
     0
  9
$USERR1
 40
0.0
  9
$USERR2
 40
0.0
  9
$USERR3
 40
0.0
  9
$USERR4
 40
0.0
  9
$USERR5
 40
0.0
  9
$WORLDVIEW
 70
     1
  9
$SHADEDGE
 70
     3
  9
$SHADEDIF
 70
    70
  9
$TILEMODE
 70
     1
  9
$MAXACTVP
 70
    16
  9
$PINSBASE
 10
0.0
 20
0.0
 30
0.0
  9
$PLIMCHECK
 70
     0
  9
$PEXTMIN
 10
1.000000000000000E+20
 20
1.000000000000000E+20
 30
1.000000000000000E+20
  9
$PEXTMAX
 10
-1.000000000000000E+20
 20
-1.000000000000000E+20
 30
-1.000000000000000E+20
  9
$PLIMMIN
 10
0.0
 20
0.0
  9
$PLIMMAX
 10
12.0
 20
9.0
  9
$UNITMODE
 70
     0
  9
$VISRETAIN
 70
     0
  9
$PLINEGEN
 70
     1
  9
$PSLTSCALE
 70
     1
  9
$TREEDEPTH
 70
  3020
  9
$CMLSTYLE
  2
STANDARD
  9
$CMLJUST
 70
     0
  9
$CMLSCALE
 40
1.0
  9
$PROXYGRAPHICS
 70
     0
  9
$MEASUREMENT
 70
     0
  9
$CELWEIGHT
370
    -1
  9
$ENDCAPS
280
     0
  9
$JOINSTYLE
280
     0
  9
$LWDISPLAY
290
     0
  9
$INSUNITS
 70
     0
  9
$HYPERLINKBASE
  1

  9
$STYLESHEET
  1

  9
$XEDIT
290
     1
  9
$CEPSNTYPE
380
     0
  9
$PSTYLEMODE
290
     1
  9
$FINGERPRINTGUID
  2
{F8797A8F-C107-48F6-B109-DABF949CCC74}
  9
$VERSIONGUID
  2
{E0D0D0DF-B0CB-4994-947B-40067C29E4E4}
  9
$EXTNAMES
290
     1
  9
$PSVPSCALE
 40
0.0
  9
$OLESTARTUP
290
     0
  0
ENDSEC
  0
SECTION
  2
CLASSES
  0
CLASS
  1
IMAGE
  2
AcDbRasterImage
  3
ISM
 90
    32895
280
     0
281
     1
  0
CLASS
  1
DICTIONARYVAR
  2
AcDbDictionaryVar
  3
ObjectDBX Classes
 90
        0
280
     0
281
     0
  0
CLASS
  1
RASTERVARIABLES
  2
AcDbRasterVariables
  3
ISM
 90
    32768
280
     0
281
     0
  0
CLASS
  1
IMAGEDEF
  2
AcDbRasterImageDef
  3
ISM
 90
    32768
280
     0
281
     0
  0
CLASS
  1
IMAGEDEF_REACTOR
  2
AcDbRasterImageDefReactor
  3
ISM
 90
    32769
280
     0
281
     0
  0
CLASS
  1
IDBUFFER
  2
AcDbIdBuffer
  3
ObjectDBX Classes
 90
    32768
280
     0
281
     0
  0
CLASS
  1
SPATIAL_FILTER
  2
AcDbSpatialFilter
  3
ObjectDBX Classes
 90
    32768
280
     0
281
     0
  0
CLASS
  1
SORTENTSTABLE
  2
AcDbSortentsTable
  3
ObjectDBX Classes
 90
    32768
280
     0
281
     0
  0
CLASS
  1
LAYER_INDEX
  2
AcDbLayerIndex
  3
ObjectDBX Classes
 90
    32768
280
     0
281
     0
  0
CLASS
  1
SPATIAL_INDEX
  2
AcDbSpatialIndex
  3
ObjectDBX Classes
 90
    32768
280
     0
281
     0
  0
CLASS
  1
OBJECT_PTR
  2
CAseDLPNTableRecord
  3
ASE-LPNTableRecord
 90
    32769
280
     0
281
     0
  0
CLASS
  1
LAYOUT
  2
AcDbLayout
  3
ObjectDBX Classes
 90
        0
280
     0
281
     0
  0
CLASS
  1
PLOTSETTINGS
  2
AcDbPlotSettings
  3
ObjectDBX Classes
 90
    32768
280
     0
281
     0
  0
CLASS
  1
ACDBDICTIONARYWDFLT
  2
AcDbDictionaryWithDefault
  3
ObjectDBX Classes
 90
        0
280
     0
281
     0
  0
CLASS
  1
ACDBPLACEHOLDER
  2
AcDbPlaceHolder
  3
ObjectDBX Classes
 90
        0
280
     0
281
     0
  0
CLASS
  1
VBA_PROJECT
  2
AcDbVbaProject
  3
acad
 90
    32768
280
     0
281
     0
  0
CLASS
  1
WIPEOUT
  2
AcDbWipeout
  3
"WipeOut|Product Desc: Object Enabler for WipeOut entity^I^I^I^I^I^I|Company: Autodesk, Inc.^I^I^I^I^I^I|WEB Address: www.autodesk.com"
 90
    32895
280
     0
281
     1
  0
CLASS
  1
WIPEOUTVARIABLES
  2
AcDbWipeoutVariables
  3
"WipeOut|Product Desc:     WipeOut Dbx Application|Company:          Autodesk, Inc.|WEB Address:      www.autodesk.com"
 90
    32768
280
     0
281
     0
  0
CLASS
  1
RTEXT
  2
RText
  3
RText|AutoCAD Express Tool|expresstools@autodesk.com
 90
    32768
280
     0
281
     1
  0
CLASS
  1
ARCALIGNEDTEXT
  2
AcDbArcAlignedText
  3
ATEXT|AutoCAD Express Tool|expresstools@autodesk.com
 90
    32768
280
     0
281
     1
  0
ENDSEC
  0
SECTION
  2
TABLES
  0
TABLE
  2
VPORT
  5
7
330
0
100
AcDbSymbolTable
 70
     3
  0
VPORT
  5
4BC
330
7
100
AcDbSymbolTableRecord
100
AcDbViewportTableRecord
  2
*Active
 70
     0
 10
0.0
 20
0.0
 11
1.0
 21
1.0
 12
402.3458855451849
 22
-103.4078995663703
 13
0.0
 23
0.0
 14
1.0
 24
1.0
 15
0.0
 25
0.0
 16
0.0
 26
0.0
 36
1.0
 17
0.0
 27
0.0
 37
0.0
 40
2273.611625110774
 41
1.569570871261378
 42
50.0
 43
0.0
 44
0.0
 50
0.0
 51
0.0
 71
     0
 72
  2000
 73
     1
 74
     1
 75
     0
 76
     0
 77
     0
 78
     0
281
     0
 65
     1
110
0.0
120
0.0
130
0.0
111
1.0
121
0.0
131
0.0
112
0.0
122
1.0
132
0.0
 79
     1
146
0.0
  0
ENDTAB
  0
TABLE
  2
LTYPE
  5
4
330
0
100
AcDbSymbolTable
 70
     6
  0
LTYPE
  5
11
330
4
100
AcDbSymbolTableRecord
100
AcDbLinetypeTableRecord
  2
BYBLOCK
 70
     0
  3

 72
    65
 73
     0
 40
0.0
  0
LTYPE
  5
12
330
4
100
AcDbSymbolTableRecord
100
AcDbLinetypeTableRecord
  2
BYLAYER
 70
     0
  3

 72
    65
 73
     0
 40
0.0
  0
LTYPE
  5
13
330
4
100
AcDbSymbolTableRecord
100
AcDbLinetypeTableRecord
  2
CONTINUOUS
 70
     0
  3
Solid line
 72
    65
 73
     0
 40
0.0
  0
LTYPE
  5
1E
330
4
100
AcDbSymbolTableRecord
100
AcDbLinetypeTableRecord
  2
HIDDEN
 70
     0
  3
Hidden __ __ __ __ __ __ __ __ __ __ __ __ __ __
 72
    65
 73
     2
 40
1.905
 49
1.27
 74
     0
 49
-0.635
 74
     0
  0
LTYPE
  5
1F
330
4
100
AcDbSymbolTableRecord
100
AcDbLinetypeTableRecord
  2
PHANTOM
 70
     0
  3
Phantom ______  __  __  ______  __  __  ______
 72
    65
 73
     6
 40
12.7
 49
6.349999999999999
 74
     0
 49
-1.27
 74
     0
 49
1.27
 74
     0
 49
-1.27
 74
     0
 49
1.27
 74
     0
 49
-1.27
 74
     0
  0
LTYPE
  5
20
330
4
100
AcDbSymbolTableRecord
100
AcDbLinetypeTableRecord
  2
CENTER
 70
     0
  3
Center ____ _ ____ _ ____ _ ____ _ ____ _ ____
 72
    65
 73
     4
 40
10.16
 49
6.349999999999999
 74
     0
 49
-1.27
 74
     0
 49
1.27
 74
     0
 49
-1.27
 74
     0
  0
LTYPE
  5
21
330
4
100
AcDbSymbolTableRecord
100
AcDbLinetypeTableRecord
  2
CENTERX2
 70
     0
  3
Center (2x) ________  __  ________  __  _____
 72
    65
 73
     4
 40
20.32
 49
12.7
 74
     0
 49
-2.54
 74
     0
 49
2.54
 74
     0
 49
-2.54
 74
     0
  0
LTYPE
  5
22
330
4
100
AcDbSymbolTableRecord
100
AcDbLinetypeTableRecord
  2
DOT2
 70
     0
  3
Dot (.5x) ........................................
 72
    65
 73
     2
 40
0.635
 49
0.0
 74
     0
 49
-0.635
 74
     0
  0
ENDTAB
  0
TABLE
  2
LAYER
  5
2
330
0
100
AcDbSymbolTable
 70
     2
  0
LAYER
  5
14
330
2
100
AcDbSymbolTableRecord
100
AcDbLayerTableRecord
  2
0
 70
     0
 62
     7
  6
CONTINUOUS
370
    -3
390
4A0
  0
LAYER
  5
26
330
2
100
AcDbSymbolTableRecord
100
AcDbLayerTableRecord
  2
DEFPOINTS
 70
     0
 62
     7
  6
CONTINUOUS
290
     0
370
    -3
390
4A0
  0
ENDTAB
  0
TABLE
  2
STYLE
  5
3
330
0
100
AcDbSymbolTable
 70
     1
  0
STYLE
  5
17
330
3
100
AcDbSymbolTableRecord
100
AcDbTextStyleTableRecord
  2
STANDARD
 70
     0
 40
0.0
 41
1.0
 50
0.0
 71
     0
 42
0.0
  3
Century Gothic
  4

  0
ENDTAB
  0
TABLE
  2
VIEW
  5
5
330
0
100
AcDbSymbolTable
 70
     0
  0
ENDTAB
  0
TABLE
  2
UCS
  5
6
330
0
100
AcDbSymbolTable
 70
     0
  0
ENDTAB
  0
TABLE
  2
APPID
  5
8
330
0
100
AcDbSymbolTable
 70
     2
  0
APPID
  5
16
330
8
100
AcDbSymbolTableRecord
100
AcDbRegAppTableRecord
  2
ACAD
 70
     0
  0
APPID
  5
4AB
330
8
100
AcDbSymbolTableRecord
100
AcDbRegAppTableRecord
  2
DCO15
 70
     0
  0
ENDTAB
  0
TABLE
  2
DIMSTYLE
  5
9
330
0
100
AcDbSymbolTable
 70
     1
100
AcDbDimStyleTable
 71
     0
  0
DIMSTYLE
105
18
330
9
100
AcDbSymbolTableRecord
100
AcDbDimStyleTableRecord
  2
STANDARD
 70
     0
289
     0
340
17
  0
ENDTAB
  0
TABLE
  2
BLOCK_RECORD
  5
1
330
0
100
AcDbSymbolTable
 70
     0
  0
BLOCK_RECORD
  5
A
330
1
100
AcDbSymbolTableRecord
100
AcDbBlockTableRecord
  2
*MODEL_SPACE
340
4A5
  0
BLOCK_RECORD
  5
B
330
1
100
AcDbSymbolTableRecord
100
AcDbBlockTableRecord
  2
*PAPER_SPACE
340
4A6
  0
ENDTAB
  0
ENDSEC
  0
SECTION
  2
BLOCKS
  0
BLOCK
  5
D
330
A
100
AcDbEntity
  8
0
100
AcDbBlockBegin
  2
*MODEL_SPACE
 70
     0
 10
0.0
 20
0.0
 30
0.0
  3
*MODEL_SPACE
  1

  0
ENDBLK
  5
E
330
A
100
AcDbEntity
  8
0
100
AcDbBlockEnd
  0
BLOCK
  5
F
330
B
100
AcDbEntity
 67
     1
  8
0
100
AcDbBlockBegin
  2
*PAPER_SPACE
 70
     0
 10
0.0
 20
0.0
 30
0.0
  3
*PAPER_SPACE
  1

  0
ENDBLK
  5
10
330
B
100
AcDbEntity
 67
     1
  8
0
100
AcDbBlockEnd
  0
ENDSEC
  0
SECTION
  2
ENTITIES
  0
LINE
  5
27
330
A
100
AcDbEntity
  8
0
  6
Continuous
 62
     7
100
AcDbLine
 10
-31.95650195328739
 20
996.9280174332597
 30
0.0
 11
-31.95650195328739
 21
990.2430289516564
 31
0.0
  0
LINE
  5
28
330
A
100
AcDbEntity
  8
0
  6
Continuous
 62
     7
100
AcDbLine
 10
150.0434980467126
 20
990.2430289516564
 30
0.0
 11
150.0434980467126
 21
996.9280174332597
 31
0.0
  0
ARC
  5
29
330
A
100
AcDbEntity
  8
0
  6
Continuous
 62
     7
100
AcDbCircle
 10
59.04349804671258
 20
1224.166093227072
 30
0.0
 40
251.0000000000002
100
AcDbArc
 50
248.7431291678446
 51
259.7521966040114
  0
ARC
  5
2A
330
A
100
AcDbEntity
  8
0
  6
Continuous
 62
     7
100
AcDbCircle
 10
59.04349804671258
 20
1224.166093227072
 30
0.0
 40
251.0000000000001
100
AcDbArc
 50
260.2151998237361
 51
279.7848001762655
  0
ARC
  5
2B
330
A
100
AcDbEntity
  8
0
  6
Continuous
 62
     7
100
AcDbCircle
 10
59.04349804671258
 20
1224.166093227072
 30
0.0
 40
251.0000000000002
100
AcDbArc
 50
280.2478033959902
 51
291.256870832157
  0
LINE
  5
2C
330
A
100
AcDbEntity
  8
0
  6
Continuous
 62
     7
100
AcDbLine
 10
-6.956501953287396
 20
1023.928017433259
 30
0.0
 11
-6.956501953287396
 21
996.9280174332597
 31
0.0
  0
LINE
  5
2D
330
A
100
AcDbEntity
  8
0
  6
Continuous
 62
     7
100
AcDbLine
 10
125.0434980467126
 20
996.9280174332597
 30
0.0
 11
125.0434980467126
 21
1023.928017433259
 31
0.0
  0
LINE
  5
2E
330
A
100
AcDbEntity
  8
0
  6
Continuous
 62
     7
100
AcDbLine
 10
122.9332255040544
 20
-477.0719825667403
 30
0.0
 11
122.9332255040544
 21
-467.0719825667402
 31
0.0
  0
LINE
  5
2F
330
A
100
AcDbEntity
  8
0
  6
Continuous
 62
     7
100
AcDbLine
 10
-4.846229410629246
 20
-467.0719825667402
 30
0.0
 11
-4.846229410629246
 21
-477.0719825667403
 31
0.0
  0
LINE
  5
30
330
A
100
AcDbEntity
  8
0
  6
Continuous
 62
     7
100
AcDbLine
 10
101.6907455708617
 20
978.1046404864294
 30
0.0
 11
112.6030699778052
 21
-467.0719825667402
 31
0.0
  0
LINE
  5
31
330
A
100
AcDbEntity
  8
0
  6
Continuous
 62
     7
100
AcDbLine
 10
114.603126992459
 20
-467.0719825667402
 30
0.0
 11
103.6881577902812
 21
978.4549046558847
 31
0.0
  0
LINE
  5
32
330
A
100
AcDbEntity
  8
0
  6
Continuous
 62
     7
100
AcDbLine
 10
14.39883984366385
 20
978.4551086750909
 30
0.0
 11
3.483869100965791
 21
-467.0719825667402
 31
0.0
  0
LINE
  5
33
330
A
100
AcDbEntity
  8
0
  6
Continuous
 62
     7
100
AcDbLine
 10
5.483926115619485
 20
-467.0719825667402
 30
0.0
 11
16.39623648442698
 21
978.102781342082
 31
0.0
  0
LINE
  5
34
330
A
100
AcDbEntity
  8
0
  6
Continuous
 62
     7
100
AcDbLine
 10
43.0434980467126
 20
-477.0719825667403
 30
0.0
 11
43.0434980467126
 21
-479.0849605085571
 31
0.0
  0
LINE
  5
35
330
A
100
AcDbEntity
  8
0
  6
Continuous
 62
     7
100
AcDbLine
 10
75.0434980467126
 20
-479.0849605085579
 30
0.0
 11
75.0434980467126
 21
-477.0719825667403
 31
0.0
  0
LINE
  5
36
330
A
100
AcDbEntity
  8
0
  6
Continuous
 62
     7
100
AcDbLine
 10
58.04349804671261
 20
973.1680852668491
 30
0.0
 11
58.04349804671261
 21
-467.0719825667402
 31
0.0
  0
LINE
  5
37
330
A
100
AcDbEntity
  8
0
  6
Continuous
 62
     7
100
AcDbLine
 10
60.0434980467126
 20
-467.0719825667402
 30
0.0
 11
60.0434980467126
 21
973.1680852668491
 31
0.0
  0
LWPOLYLINE
  5
38
330
A
100
AcDbEntity
  8
0
  6
Continuous
 62
     7
100
AcDbPolyline
 90
        9
 70
   128
 43
0.0
 10
96.06150749503299
 20
-479.0849717167379
 10
97.41087741998475
 20
-479.2168858622262
 10
98.71053512267602
 20
-479.6030161332692
 10
99.91304322833357
 20
-480.2292688140049
 10
100.9745103126557
 20
-481.0727857448914
 10
101.8561929343622
 20
-482.1027786432176
 10
102.5259097668853
 20
-483.2816528723104
 10
102.9592162135356
 20
-484.5663796419738
 10
103.1402966328108
 20
-485.910066554981
  0
LWPOLYLINE
  5
43
330
A
100
AcDbEntity
  8
0
  6
Continuous
 62
     7
100
AcDbPolyline
 90
        3
 70
   128
 43
0.0
 10
-73.20125067418179
 20
-485.7229863882554
 10
-80.47268393862857
 20
-596.7030707772721
 10
-87.18023312041271
 20
-699.0848305085574
  0
LWPOLYLINE
  5
48
330
A
100
AcDbEntity
  8
0
  6
Continuous
 62
     7
100
AcDbPolyline
 90
        9
 70
   128
 43
0.0
 10
-73.19432727819891
 20
-485.7293492597317
 10
-72.98671645266193
 20
-484.4203456438217
 10
-72.53934570916171
 20
-483.172775533846
 10
-71.86781842534486
 20
-482.0301516267101
 10
-70.99555610107841
 20
-481.0323263101486
 10
-69.95298146437967
 20
-480.2141016928512
 10
-68.77645738881061
 20
-479.604015778004
 10
-67.50701863072966
 20
-479.2233471160362
 10
-66.18894062081565
 20
-479.0853726522493
  0
LWPOLYLINE
  5
53
330
A
100
AcDbEntity
  8
0
  6
Continuous
 62
     7
100
AcDbPolyline
 90
       34
 70
   128
 43
0.0
 10
189.7871048912515
 20
-699.0848305085583
 10
188.3716710909753
 20
-689.1533979328633
 10
187.2340297422836
 20
-680.4763020957564
 10
186.3457549253081
 20
-673.0535429972376
 10
185.6734732800896
 20
-666.8851206373068
 10
185.1839713289598
 20
-661.971035015964
 10
184.7949293566079
 20
-657.7161467293718
 10
184.4982030590931
 20
-654.1980919049717
 10
184.2285592287584
 20
-650.7557104464666
 10
183.9824140006849
 20
-647.3890023538563
 10
183.7457518958258
 20
-643.942101069535
 10
183.4865536853774
 20
-639.9335699031895
 10
183.2056006166556
 20
-635.3293367911968
 10
182.8738761640703
 20
-629.5766446207821
 10
182.5209701406554
 20
-623.1268776320763
 10
182.201135239727
 20
-617.0170350446028
 10
181.9370733340389
 20
-611.801609247376
 10
181.7234691845729
 20
-607.4806002403963
 10
181.5621389501562
 20
-604.1597099560073
 10
181.4140526986802
 20
-601.0683056794491
 10
181.2724638571415
 20
-598.0756317880445
 10
181.1370493952605
 20
-595.1816882817936
 10
180.9831747086751
 20
-591.8565280538045
 10
180.7820381509898
 20
-587.4519362917579
 10
180.5353781703102
 20
-581.9663078642186
 10
180.2450077070027
 20
-575.3996427711861
 10
179.9125564261109
 20
-567.7519410126604
 10
179.5392925351334
 20
-559.023202588642
 10
179.1259647628504
 20
-549.2134274991303
 10
178.672681717694
 20
-538.3226157441255
 10
178.1788478859602
 20
-526.3507673236277
 10
177.6431775719651
 20
-513.2978822376369
 10
177.0638101240533
 20
-499.1639604861529
 10
176.5194551536443
 20
-485.9176935491183
  0
LWPOLYLINE
  5
77
330
A
100
AcDbEntity
  8
0
  6
Continuous
 62
     7
100
AcDbPolyline
 90
        9
 70
   128
 43
0.0
 10
169.551163677773
 20
-479.0849776742891
 10
170.8999258395004
 20
-479.2173493906454
 10
172.1989312241527
 20
-479.6037027151704
 10
173.4008068532804
 20
-480.2299478619919
 10
174.4617219399209
 20
-481.0732465132747
 10
175.3429863384212
 20
-482.1028447019405
 10
176.0124615219885
 20
-483.2811943674656
 10
176.4457326315173
 20
-484.5653226831237
 10
176.6269988526482
 20
-485.9083992171536
  0
LINE
  5
82
330
A
100
AcDbEntity
  8
0
  6
Continuous
 62
     7
100
AcDbLine
 10
59.04349804671261
 20
990.2430289516564
 30
0.0
 11
150.0434980467126
 21
990.2430289516564
 31
0.0
  0
LINE
  5
83
330
A
100
AcDbEntity
  8
0
  6
Continuous
 62
     7
100
AcDbLine
 10
-31.95650195328739
 20
990.2430289516564
 30
0.0
 11
59.04349804671261
 21
990.2430289516564
 31
0.0
  0
LINE
  5
84
330
A
100
AcDbEntity
  8
0
  6
Continuous
 62
     7
100
AcDbLine
 10
59.04349804671261
 20
996.9280174332597
 30
0.0
 11
150.0434980467126
 21
996.9280174332597
 31
0.0
  0
LINE
  5
85
330
A
100
AcDbEntity
  8
0
  6
Continuous
 62
     7
100
AcDbLine
 10
-31.95650195328739
 20
996.9280174332597
 30
0.0
 11
59.04349804671261
 21
996.9280174332597
 31
0.0
  0
LWPOLYLINE
  5
86
330
A
100
AcDbEntity
  8
0
  6
Continuous
 62
     7
100
AcDbPolyline
 90
       12
 70
   128
 43
0.0
 10
14.41112026987497
 20
978.4550195395828
 10
14.40431122987522
 20
978.4667653345806
 10
14.49457681695874
 20
978.4838379901342
 10
14.68320112228801
 20
978.4782061809679
 10
14.94808740960344
 20
978.4511001441405
 10
15.26247651143645
 20
978.4053372571715
 10
15.59504872829763
 20
978.3452524375212
 10
15.90977030681618
 20
978.2769519355637
 10
16.16852950755322
 20
978.2082453601095
 10
16.33770791670579
 20
978.1477052182204
 10
16.39623553213365
 20
978.1029264547752
 10
16.39590245259525
 20
978.1027841100392
  0
LWPOLYLINE
  5
94
330
A
100
AcDbEntity
  8
0
  6
Continuous
 62
     7
100
AcDbPolyline
 90
       11
 70
   128
 43
0.0
 10
101.7024874398684
 20
978.10472603404
 10
101.7159640792969
 20
978.1301201308025
 10
101.842185556069
 20
978.1838421900618
 10
102.0647686068694
 20
978.2489960746952
 10
102.3619999525789
 20
978.3185614838506
 10
102.6998877752051
 20
978.3841604048861
 10
103.0362276817528
 20
978.4374679809593
 10
103.32926958193
 20
978.4720517810384
 10
103.5462286811006
 20
978.4845181925215
 10
103.666630213945
 20
978.4743764241188
 10
103.6754609963976
 20
978.4548064534964
  0
LINE
  5
A1
330
A
100
AcDbEntity
  8
0
  6
Continuous
 62
     7
100
AcDbLine
 10
59.04349804671261
 20
1023.928017433259
 30
0.0
 11
125.0434980467126
 21
1023.928017433259
 31
0.0
  0
LINE
  5
A2
330
A
100
AcDbEntity
  8
0
  6
Continuous
 62
     7
100
AcDbLine
 10
-6.956501953287396
 20
1023.928017433259
 30
0.0
 11
59.04349804671261
 21
1023.928017433259
 31
0.0
  0
LINE
  5
A3
330
A
100
AcDbEntity
  8
0
  6
Continuous
 62
     7
100
AcDbLine
 10
115.5858676901249
 20
-477.0719825667403
 30
0.0
 11
122.9332255040544
 21
-477.0719825667403
 31
0.0
  0
LINE
  5
A4
330
A
100
AcDbEntity
  8
0
  6
Continuous
 62
     7
100
AcDbLine
 10
115.5858676901249
 20
-467.0719825667402
 30
0.0
 11
122.9332255040544
 21
-467.0719825667402
 31
0.0
  0
LINE
  5
A5
330
A
100
AcDbEntity
  8
0
  6
Continuous
 62
     7
100
AcDbLine
 10
-4.846229410629246
 20
-477.0719825667403
 30
0.0
 11
2.501128403300245
 21
-477.0719825667403
 31
0.0
  0
LINE
  5
A6
330
A
100
AcDbEntity
  8
0
  6
Continuous
 62
     7
100
AcDbLine
 10
-4.846229410629246
 20
-467.0719825667402
 30
0.0
 11
2.501128403300245
 21
-467.0719825667402
 31
0.0
  0
LINE
  5
A7
330
A
100
AcDbEntity
  8
0
  6
Continuous
 62
     7
100
AcDbLine
 10
34.55741193817131
 20
-467.0719825667402
 30
0.0
 11
34.55741193817131
 21
-477.0719825667403
 31
0.0
  0
LINE
  5
A8
330
A
100
AcDbEntity
  8
0
  6
Continuous
 62
     7
100
AcDbLine
 10
2.501128403300245
 20
-477.0719825667403
 30
0.0
 11
34.55741193817131
 21
-477.0719825667403
 31
0.0
  0
LINE
  5
A9
330
A
100
AcDbEntity
  8
0
  6
Continuous
 62
     7
100
AcDbLine
 10
2.501128403300245
 20
-467.0719825667402
 30
0.0
 11
34.55741193817131
 21
-467.0719825667402
 31
0.0
  0
LINE
  5
AA
330
A
100
AcDbEntity
  8
0
  6
Continuous
 62
     7
100
AcDbLine
 10
83.52958415525391
 20
-467.0719825667402
 30
0.0
 11
83.52958415525391
 21
-477.0719825667403
 31
0.0
  0
LINE
  5
AB
330
A
100
AcDbEntity
  8
0
  6
Continuous
 62
     7
100
AcDbLine
 10
83.52958415525391
 20
-477.0719825667403
 30
0.0
 11
115.5858676901249
 21
-477.0719825667403
 31
0.0
  0
LINE
  5
AC
330
A
100
AcDbEntity
  8
0
  6
Continuous
 62
     7
100
AcDbLine
 10
83.52958415525391
 20
-467.0719825667402
 30
0.0
 11
115.5858676901249
 21
-467.0719825667402
 31
0.0
  0
LINE
  5
AD
330
A
100
AcDbEntity
  8
0
  6
Continuous
 62
     7
100
AcDbLine
 10
34.55741193817131
 20
-477.0719825667403
 30
0.0
 11
83.52958415525391
 21
-477.0719825667403
 31
0.0
  0
LINE
  5
AE
330
A
100
AcDbEntity
  8
0
  6
Continuous
 62
     7
100
AcDbLine
 10
34.55741193817131
 20
-467.0719825667402
 30
0.0
 11
83.52958415525391
 21
-467.0719825667402
 31
0.0
  0
LINE
  5
AF
330
A
100
AcDbEntity
  8
0
  6
Continuous
 62
     7
100
AcDbLine
 10
16.44299936963232
 20
-486.7754814854493
 30
0.0
 11
29.53248764827989
 21
-699.0848305085578
 31
0.0
  0
LINE
  5
B0
330
A
100
AcDbEntity
  8
0
  6
Continuous
 62
     7
100
AcDbLine
 10
128.0491733180798
 20
-485.2321183421742
 30
0.0
 11
128.0491314871318
 21
-485.231915944584
 31
0.0
  0
LINE
  5
B1
330
A
100
AcDbEntity
  8
0
  6
Continuous
 62
     7
100
AcDbLine
 10
128.0491733180798
 20
-485.2321183421745
 30
0.0
 11
172.2476327694336
 21
-699.0848305085574
 31
0.0
  0
LINE
  5
B2
330
A
100
AcDbEntity
  8
0
  6
Continuous
 62
     7
100
AcDbLine
 10
172.2476327694337
 20
-699.0848305085578
 30
0.0
 11
29.5324876482832
 21
-699.0848305085578
 31
0.0
  0
LWPOLYLINE
  5
B3
330
A
100
AcDbEntity
  8
0
  6
Continuous
 62
     7
100
AcDbPolyline
 90
        7
 70
   128
 43
0.0
 10
14.35909608720165
 20
-479.0849605085577
 10
14.45741179173651
 20
-479.0928080132989
 10
14.98690740606806
 20
-479.4123299095635
 10
15.61178045634095
 20
-480.4991619820931
 10
16.09542279518362
 20
-482.2266598642796
 10
16.3833076220759
 20
-484.4000615541394
 10
16.44292855648901
 20
-486.7743329079007
  0
LWPOLYLINE
  5
BC
330
A
100
AcDbEntity
  8
0
  6
Continuous
 62
     7
100
AcDbPolyline
 90
        5
 70
   128
 43
0.0
 10
127.5021652941602
 20
-479.0849605085582
 10
127.6903491710715
 20
-479.5101951944068
 10
127.8633478119727
 20
-480.8154637508744
 10
127.9873718297375
 20
-482.7991054660948
 10
128.0491314871318
 20
-485.2319159445842
  0
LINE
  5
C3
330
A
100
AcDbEntity
  8
0
  6
Continuous
 62
     7
100
AcDbLine
 10
16.44299936963231
 20
-486.7754814854491
 30
0.0
 11
16.442928556489
 21
-486.7743329079007
 31
0.0
  0
LINE
  5
C4
330
A
100
AcDbEntity
  8
0
  6
Continuous
 62
     7
100
AcDbLine
 10
14.35909608720165
 20
-479.0849605085577
 30
0.0
 11
96.02322776785186
 21
-479.0849605085577
 31
0.0
  0
LINE
  5
C5
330
A
100
AcDbEntity
  8
0
  6
Continuous
 62
     7
100
AcDbLine
 10
95.94050426533732
 20
-479.0849605085579
 30
0.0
 11
127.5021652941602
 21
-479.0849605085579
 31
0.0
  0
LWPOLYLINE
  5
C6
330
A
100
AcDbEntity
  8
0
  6
Continuous
 62
     7
100
AcDbPolyline
 90
        3
 70
   128
 43
0.0
 10
-73.20431694617687
 20
-485.7227837655845
 10
-73.21132062789465
 20
-485.7209163556931
 10
-73.20062113346637
 20
-485.7260429316262
  0
LINE
  5
CB
330
A
100
AcDbEntity
  8
0
  6
Continuous
 62
     7
100
AcDbLine
 10
29.5324876482832
 20
-699.0848305085578
 30
0.0
 11
-87.10846037466728
 21
-699.0848305085574
 31
0.0
  0
LINE
  5
CC
330
A
100
AcDbEntity
  8
0
  6
Continuous
 62
     7
100
AcDbLine
 10
-66.13127596960739
 20
-479.0849605085575
 30
0.0
 11
-36.79524026853441
 21
-479.0849605085568
 31
0.0
  0
LINE
  5
CD
330
A
100
AcDbEntity
  8
0
  6
Continuous
 62
     7
100
AcDbLine
 10
-28.65692435956417
 20
-479.0849605085568
 30
0.0
 11
14.35909608720165
 21
-479.0849605085577
 31
0.0
  0
LINE
  5
CE
330
A
100
AcDbEntity
  8
0
  6
Continuous
 62
     7
100
AcDbLine
 10
-36.79524026853483
 20
-483.0849605085568
 30
0.0
 11
-28.65692435956381
 21
-483.0849605085568
 31
0.0
  0
LWPOLYLINE
  5
CF
330
A
100
AcDbEntity
  8
0
  6
Continuous
 62
     7
100
AcDbPolyline
 90
        3
 70
   128
 43
0.0
 10
176.441472087283
 20
-485.9204469371348
 10
176.6086253540403
 20
-485.9144993513128
 10
176.5957671230409
 20
-485.910001187073
  0
LINE
  5
D4
330
A
100
AcDbEntity
  8
0
  6
Continuous
 62
     7
100
AcDbLine
 10
172.2476327694337
 20
-699.0848305085578
 30
0.0
 11
189.8342307947306
 21
-699.0848305085576
 31
0.0
  0
LINE
  5
D5
330
A
100
AcDbEntity
  8
0
  6
Continuous
 62
     7
100
AcDbLine
 10
127.5021652941602
 20
-479.0849605085579
 30
0.0
 11
169.5203587379949
 21
-479.0849605085582
 31
0.0
  0
LINE
  5
D6
330
A
100
AcDbEntity
  8
0
  6
PHANTOM
 62
     7
100
AcDbLine
 10
115.5858676901249
 20
-467.0719825667402
 30
0.0
 11
115.5858676901249
 21
-477.0719825667403
 31
0.0
  0
LINE
  5
D7
330
A
100
AcDbEntity
  8
0
  6
PHANTOM
 62
     7
100
AcDbLine
 10
2.501128403300245
 20
-467.0719825667402
 30
0.0
 11
2.501128403300245
 21
-477.0719825667403
 31
0.0
  0
LWPOLYLINE
  5
D8
330
A
100
AcDbEntity
  8
0
  6
PHANTOM
 62
     7
100
AcDbPolyline
 90
        9
 70
   128
 43
0.0
 10
128.0491314871318
 20
-485.2319159445842
 10
128.0490890385296
 20
-485.2319148490727
 10
122.1853903898476
 20
-485.0731987603041
 10
116.4947288456648
 20
-484.9143274332956
 10
112.9903730902279
 20
-484.8254590267567
 10
109.7551225141872
 20
-484.7661883374915
 10
106.804514696929
 20
-484.7420413417137
 10
104.3828459329792
 20
-484.7595431531378
 10
102.8714481284815
 20
-484.8154545029656
  0
LWPOLYLINE
  5
E3
330
A
100
AcDbEntity
  8
0
  6
PHANTOM
 62
     7
100
AcDbPolyline
 90
       34
 70
   128
 43
0.0
 10
103.1014605497406
 20
-485.9129678458801
 10
103.04385180884
 20
-485.9448313776745
 10
102.4392783478339
 20
-486.0126471893301
 10
101.2437892380509
 20
-486.1140990377564
 10
99.32851743377657
 20
-486.2317075881178
 10
97.071792309354
 20
-486.3220384675285
 10
94.45353968910014
 20
-486.4010394554622
 10
90.16078486530357
 20
-486.5156245980661
 10
85.58092644046686
 20
-486.6402299169575
 10
79.35175012883705
 20
-486.8499553374684
 10
75.29984847922074
 20
-487.0197143851001
 10
71.10964743071658
 20
-487.2172159356113
 10
68.62874306825303
 20
-487.3364516771746
 10
66.19185166674069
 20
-487.4339086081035
 10
63.90684901227005
 20
-487.4858036055137
 10
61.79177085714961
 20
-487.5003638854797
 10
59.25770410698866
 20
-487.491365561944
 10
56.99185702170058
 20
-487.4694568439207
 10
54.61955624760377
 20
-487.4416563095297
 10
52.45770832531508
 20
-487.4148699850596
 10
47.92431960232184
 20
-487.3645494537158
 10
44.38814668306388
 20
-487.3197923777052
 10
40.86209609327282
 20
-487.2766541316177
 10
37.03684312461898
 20
-487.2383920366466
 10
32.60306306877273
 20
-487.208263413985
 10
30.23357359310414
 20
-487.1944900383637
 10
27.52746976455016
 20
-487.1637248142471
 10
25.78862052045975
 20
-487.1283047697608
 10
23.9307647072782
 20
-487.0685137487042
 10
22.00696952118681
 20
-486.9863906987663
 10
20.06828568940907
 20
-486.9020531291975
 10
16.44304002745674
 20
-486.7754826402062
 10
16.44299936963232
 20
-486.7754814854491
 10
16.44299936963232
 20
-486.7754814854491
  0
LWPOLYLINE
  5
107
330
A
100
AcDbEntity
  8
0
  6
PHANTOM
 62
     7
100
AcDbPolyline
 90
       21
 70
   128
 43
0.0
 10
16.44292855648901
 20
-486.7743329079007
 10
16.44288792487736
 20
-486.7743316875429
 10
12.17329077226841
 20
-486.6731025735863
 10
8.014036129034174
 20
-486.6150033318119
 10
1.941716773279783
 20
-486.5630747773384
 10
-4.328394481361616
 20
-486.511418401823
 10
-9.43247485093393
 20
-486.459200739492
 10
-14.62475294545305
 20
-486.4082461614248
 10
-19.38856518147042
 20
-486.3690192656545
 10
-23.97331376444299
 20
-486.31664501898
 10
-36.93880517221849
 20
-486.1204195390528
 10
-49.51699784544884
 20
-486.2561086010674
 10
-55.91550786058514
 20
-486.4349212688369
 10
-61.67987461063753
 20
-486.4688381874388
 10
-64.70977062403668
 20
-486.4245668096907
 10
-67.37122287364243
 20
-486.3456790689108
 10
-69.54913535357606
 20
-486.2346496294157
 10
-71.29670063793883
 20
-486.0727342779091
 10
-72.41345801420523
 20
-485.9021590838951
 10
-73.00037677447976
 20
-485.7771608645479
 10
-73.20431694617687
 20
-485.7227837655845
  0
LWPOLYLINE
  5
11E
330
A
100
AcDbEntity
  8
0
  6
PHANTOM
 62
     7
100
AcDbPolyline
 90
       15
 70
   128
 43
0.0
 10
176.5957671230409
 20
-485.910001187073
 10
176.5794248783891
 20
-485.9042842186588
 10
176.2130769002498
 20
-485.8978894590247
 10
175.2415731329453
 20
-485.9066888310382
 10
173.7050315182411
 20
-485.9406989920666
 10
172.9711341046104
 20
-485.9524295341447
 10
170.4429358974419
 20
-485.9711593743432
 10
167.6646839877995
 20
-485.9679145814007
 10
164.0529519509152
 20
-485.9419394924527
 10
160.3856260961331
 20
-485.8967874619867
 10
149.6125938124698
 20
-485.7158123527006
 10
138.8207838580343
 20
-485.4923006266512
 10
128.0492157672038
 20
-485.2321194344018
 10
128.0491733180798
 20
-485.2321183421745
 10
128.0491733180798
 20
-485.2321183421745
  0
LWPOLYLINE
  5
12F
330
A
100
AcDbEntity
  8
0
  6
Continuous
 62
     7
100
AcDbPolyline
 90
       12
 70
   128
 43
0.0
 10
112.3016705335246
 20
-1013.411082920256
 10
110.3720131539942
 20
-1005.007942247369
 10
109.6425223477744
 20
-1001.569988191936
 10
109.0946512597421
 20
-999.2464086485107
 10
108.5170632122277
 20
-997.4304610085203
 10
107.8508473229695
 20
-995.8811451366193
 10
106.9073505770814
 20
-994.3886788160039
 10
105.8077671024059
 20
-993.1448727829454
 10
104.5565038982849
 20
-992.0870176188657
 10
103.1703588808983
 20
-991.194489978651
 10
101.6587295485721
 20
-990.4408779668381
 10
101.4645830550785
 20
-990.3619397780762
  0
LWPOLYLINE
  5
13D
330
A
100
AcDbEntity
  8
0
  6
Continuous
 62
     7
100
AcDbPolyline
 90
        7
 70
   128
 43
0.0
 10
-2.408313915983104
 20
-1187.119829181148
 10
-1.309215930348106
 20
-1186.787300833275
 10
2.243216334251799
 20
-1185.46254397698
 10
6.185688373702119
 20
-1183.770194249899
 10
10.82038689642791
 20
-1181.658971403738
 10
14.98111327488582
 20
-1180.016242718345
 10
16.47975962781728
 20
-1179.509446612001
  0
LWPOLYLINE
  5
146
330
A
100
AcDbEntity
  8
0
  6
Continuous
 62
     7
100
AcDbPolyline
 90
        7
 70
   128
 43
0.0
 10
-30.00405023477827
 20
-1076.377522491031
 10
-30.36874400790314
 20
-1076.716068697672
 10
-33.11001592494275
 20
-1078.825726186225
 10
-36.13848709337682
 20
-1080.828269684553
 10
-39.88662851889785
 20
-1083.015998955377
 10
-44.57808791638412
 20
-1085.523881366592
 10
-45.49383863179292
 20
-1086.004428084422
  0
LWPOLYLINE
  5
14F
330
A
100
AcDbEntity
  8
0
  6
Continuous
 62
     7
100
AcDbPolyline
 90
        4
 70
   128
 43
0.0
 10
113.0875311783373
 20
-1021.226097655455
 10
113.0605973097053
 20
-1019.023161770086
 10
112.7017327127632
 20
-1015.562967605063
 10
112.3575660447596
 20
-1013.407394682268
  0
LWPOLYLINE
  5
155
330
A
100
AcDbEntity
  8
0
  6
Continuous
 62
     7
100
AcDbPolyline
 90
       34
 70
   128
 43
0.0
 10
16.44655552795746
 20
-1179.423308154212
 10
17.91478546631755
 20
-1179.017321173708
 10
20.01309561994626
 20
-1178.642002227832
 10
22.05211051933078
 20
-1178.573847799462
 10
23.95901617760165
 20
-1178.825083683209
 10
25.73026351892546
 20
-1179.369441220486
 10
27.43993555647701
 20
-1180.238418811875
 10
29.15589433949043
 20
-1181.435803020429
 10
30.97453419171677
 20
-1183.054698001336
 10
32.8696355665109
 20
-1185.115046542142
 10
34.8921612601942
 20
-1187.659140424862
 10
37.20736944358687
 20
-1190.985840808312
 10
39.57892578709941
 20
-1194.843941926115
 10
42.18295762791412
 20
-1199.50973933917
 10
45.44382799346347
 20
-1205.64753043056
 10
48.74100098224128
 20
-1211.662191810813
 10
51.37710959745662
 20
-1216.047863329981
 10
54.05847018085011
 20
-1220.024315308482
 10
56.1788893428954
 20
-1222.85818280792
 10
58.02294166626277
 20
-1225.028173550361
 10
59.70966493085244
 20
-1226.669332536991
 10
61.45502686206124
 20
-1228.0273551949
 10
63.26665741638077
 20
-1229.107240901645
 10
65.15186751637078
 20
-1229.916183230201
 10
67.32909094025913
 20
-1230.497189003774
 10
69.33673920155996
 20
-1230.743816566
 10
71.45329307085893
 20
-1230.735717409396
 10
73.58721192143798
 20
-1230.471604615155
 10
75.76842822626677
 20
-1229.960959733324
 10
78.04220940511996
 20
-1229.205300017897
 10
80.48711249541673
 20
-1228.20274321804
 10
83.59105451230348
 20
-1226.783934437936
 10
87.41966055397984
 20
-1224.789044674837
 10
89.57307138063908
 20
-1223.482040508287
  0
LWPOLYLINE
  5
179
330
A
100
AcDbEntity
  8
0
  6
Continuous
 62
     7
100
AcDbPolyline
 90
        3
 70
   128
 43
0.0
 10
1.000273373727642
 20
-990.6161978589524
 10
-3.633558238168951
 20
-993.8867429305982
 10
-8.180028981645534
 20
-997.0957572357804
  0
LWPOLYLINE
  5
17E
330
A
100
AcDbEntity
  8
0
  6
Continuous
 62
     7
100
AcDbPolyline
 90
        3
 70
   128
 43
0.0
 10
100.2438591175895
 20
-1213.526549782231
 10
104.118482582354
 20
-1206.753818602467
 10
108.6238579371817
 20
-1198.884944794057
  0
LWPOLYLINE
  5
183
330
A
100
AcDbEntity
  8
0
  6
Continuous
 62
     7
100
AcDbPolyline
 90
        3
 70
   128
 43
0.0
 10
166.7614113978482
 20
-1085.500928776029
 10
163.6337863889771
 20
-1081.086208002328
 10
160.8358240965334
 20
-1076.194994767955
  0
LWPOLYLINE
  5
188
330
A
100
AcDbEntity
  8
0
  6
Continuous
 62
     7
100
AcDbPolyline
 90
        7
 70
   128
 43
0.0
 10
-47.43348586916381
 20
-1175.915642832572
 10
-45.29794699923077
 20
-1177.155564482383
 10
-43.25995246249888
 20
-1178.624717471373
 10
-41.39559557609907
 20
-1180.207836133392
 10
-39.67404547948252
 20
-1181.855827908738
 10
-38.07009167315091
 20
-1183.525223925279
 10
-36.56547814481866
 20
-1185.17996090576
  0
LWPOLYLINE
  5
191
330
A
100
AcDbEntity
  8
0
  6
Continuous
 62
     7
100
AcDbPolyline
 90
        3
 70
   128
 43
0.0
 10
-60.95780015895439
 20
-1095.249805153092
 10
-61.58144635162035
 20
-1095.601224644979
 10
-62.3903572864393
 20
-1095.822704758098
  0
LWPOLYLINE
  5
196
330
A
100
AcDbEntity
  8
0
  6
Continuous
 62
     7
100
AcDbPolyline
 90
        9
 70
   128
 43
0.0
 10
16.24222785749047
 20
-1120.171062336352
 10
15.87313164103898
 20
-1120.299453148348
 10
15.48338553636361
 20
-1120.270976197275
 10
15.13180722481751
 20
-1120.101110519797
 10
14.87616953643671
 20
-1119.805055937362
 10
14.74768976661966
 20
-1119.436340127379
 10
14.77627875517705
 20
-1119.046231325884
 10
14.94615923375636
 20
-1118.694654104223
 10
15.24222785749049
 20
-1118.439011528783
  0
LINE
  5
1A1
330
A
100
AcDbEntity
  8
0
  6
Continuous
 62
     7
100
AcDbLine
 10
15.2422278574905
 20
-1118.439011528783
 30
0.0
 11
16.24222785749048
 21
-1120.171062336352
 31
0.0
  0
LINE
  5
1A2
330
A
100
AcDbEntity
  8
0
  6
Continuous
 62
     7
100
AcDbLine
 10
58.04349804671261
 20
-1044.305036932568
 30
0.0
 11
60.0434980467126
 21
-1044.305036932568
 31
0.0
  0
LWPOLYLINE
  5
1A3
330
A
100
AcDbEntity
  8
0
  6
Continuous
 62
     7
100
AcDbPolyline
 90
        9
 70
   128
 43
0.0
 10
60.0434980467126
 20
-1044.305036932568
 10
59.9701395190018
 20
-1043.921224055858
 10
59.75060482789915
 20
-1043.597957027198
 10
59.42770798025169
 20
-1043.378430929979
 10
59.04349804671261
 20
-1043.305074940712
 10
58.65994120395827
 20
-1043.378160421199
 10
58.33639126552606
 20
-1043.597957027198
 10
58.11685682421001
 20
-1043.920841602136
 10
58.04349804671261
 20
-1044.305036932568
  0
CIRCLE
  5
1AE
330
A
100
AcDbEntity
  8
0
  6
Continuous
 62
     7
100
AcDbCircle
 10
59.04349804671261
 20
-1094.305036932568
 30
0.0
 40
66.00000000000022
  0
LWPOLYLINE
  5
1AF
330
A
100
AcDbEntity
  8
0
  6
Continuous
 62
     7
100
AcDbPolyline
 90
        9
 70
   128
 43
0.0
 10
102.8447682359344
 20
-1118.439011528783
 10
103.1405060489616
 20
-1118.694462822674
 10
103.3107173382478
 20
-1119.046231325884
 10
103.3393985020938
 20
-1119.435639913842
 10
103.2108265569881
 20
-1119.805055937362
 10
102.9557491836743
 20
-1120.100680586888
 10
102.6036105570612
 20
-1120.270976197276
 10
102.2141955124192
 20
-1120.29964399805
 10
101.8447682359344
 20
-1120.171062336352
  0
LINE
  5
1BA
330
A
100
AcDbEntity
  8
0
  6
Continuous
 62
     7
100
AcDbLine
 10
101.8447682359344
 20
-1120.171062336352
 30
0.0
 11
102.8447682359344
 21
-1118.439011528783
 31
0.0
  0
CIRCLE
  5
1BB
330
A
100
AcDbEntity
  8
0
  6
Continuous
 62
     7
100
AcDbCircle
 10
59.04349804671261
 20
-1094.305036932568
 30
0.0
 40
91.0
  0
LWPOLYLINE
  5
1BC
330
A
100
AcDbEntity
  8
0
  6
Continuous
 62
     7
100
AcDbPolyline
 90
       16
 70
   128
 43
0.0
 10
-15.23688541023718
 20
-1041.765066856017
 10
-15.05455947576775
 20
-1036.389685798555
 10
-15.23765706424247
 20
-1029.486370962426
 10
-15.63569182413536
 20
-1023.930269766788
 10
-16.02069929294715
 20
-1018.345074877896
 10
-15.98078236056147
 20
-1012.805427395265
 10
-15.104043916862
 20
-1007.385968418409
 10
-14.2581340458237
 20
-1004.894732105881
 10
-13.08588605998544
 20
-1002.540763421543
 10
-11.53392772645863
 20
-1000.293207459282
 10
-9.667912685427381
 20
-998.3003159813314
 10
-6.454656946849893
 20
-996.04264239612
 10
-4.471727251673302
 20
-995.2497064655004
 10
-2.378861883210348
 20
-994.8227503830217
 10
1.670949762067899
 20
-994.8437540075593
 10
1.879961335888843
 20
-994.8729400668344
  0
LWPOLYLINE
  5
1CE
330
A
100
AcDbEntity
  8
0
  6
Continuous
 62
     7
100
AcDbPolyline
 90
        9
 70
   128
 43
0.0
 10
30.52632680418645
 20
-990.2058429656706
 10
32.61019138488784
 20
-988.1419454952709
 10
34.91668037074473
 20
-985.335946835555
 10
39.3288153843698
 20
-979.1468626824656
 10
42.64552123722718
 20
-974.6975343524335
 10
45.13025092585474
 20
-971.970210232568
 10
48.00353004040343
 20
-969.6836760618682
 10
49.97598144109058
 20
-968.6600986725146
 10
51.92838579379501
 20
-968.0513292239332
  0
LWPOLYLINE
  5
1D9
330
A
100
AcDbEntity
  8
0
  6
Continuous
 62
     7
100
AcDbPolyline
 90
        6
 70
   128
 43
0.0
 10
85.40683615682262
 20
-983.9625908472362
 10
86.12077853895991
 20
-984.3955112500397
 10
93.23895129874726
 20
-987.461675495204
 10
97.19832024534008
 20
-988.7951359175158
 10
101.1229374080187
 20
-990.2212866791851
 10
101.4443549317123
 20
-990.3833550233098
  0
LINE
  5
1E1
330
A
100
AcDbEntity
  8
0
  6
Continuous
 62
     7
100
AcDbLine
 10
112.2265484362791
 20
-1013.428333602466
 30
0.0
 11
105.34651560513
 21
-1014.846837735557
 31
0.0
  0
LWPOLYLINE
  5
1E2
330
A
100
AcDbEntity
  8
0
  6
Continuous
 62
     7
100
AcDbPolyline
 90
        7
 70
   128
 43
0.0
 10
-2.429103406717675
 20
-1187.066740750059
 10
-4.328394481361616
 20
-1187.70872092731
 10
-9.432474850933916
 20
-1188.759125773918
 10
-14.62475294545304
 20
-1189.072211875766
 10
-19.38856518147037
 20
-1188.504830708444
 10
-23.97331376444295
 20
-1187.087004310644
 10
-31.85609308862823
 20
-1183.588000992783
  0
LWPOLYLINE
  5
1EB
330
A
100
AcDbEntity
  8
0
  6
Continuous
 62
     7
100
AcDbPolyline
 90
       22
 70
   128
 43
0.0
 10
-39.84181116078902
 20
-1179.82122740407
 10
-49.51699784544884
 20
-1174.786466530393
 10
-55.91550786058514
 20
-1170.574032263518
 10
-61.67987461063753
 20
-1165.52784140109
 10
-64.70977062403668
 20
-1162.160491511792
 10
-67.37122287364242
 20
-1158.482681775784
 10
-69.54913535357599
 20
-1154.523920080347
 10
-71.29670063793874
 20
-1149.851433553885
 10
-72.41345801420514
 20
-1144.960467750535
 10
-73.00037677447971
 20
-1139.987100135083
 10
-73.21132062789462
 20
-1132.085013333275
 10
-73.04700122880245
 20
-1124.173962493986
 10
-72.86452362178922
 20
-1119.392340294215
 10
-72.38767164663556
 20
-1114.631351705564
 10
-71.38571986026438
 20
-1109.976885247751
 10
-69.47022607966963
 20
-1105.26029462586
 10
-66.70813132054783
 20
-1100.97816767945
 10
-62.70298340017069
 20
-1096.731462524237
 10
-58.07930333811998
 20
-1093.147564557621
 10
-53.4762573397818
 20
-1090.29448770376
 10
-48.71962351055699
 20
-1087.696634779402
 10
-45.49375512240358
 20
-1086.017935949622
  0
LWPOLYLINE
  5
203
330
A
100
AcDbEntity
  8
0
  6
Continuous
 62
     7
100
AcDbPolyline
 90
        6
 70
   128
 43
0.0
 10
14.63210009304591
 20
-1173.532073033328
 10
14.98690740606806
 20
-1174.682706594997
 10
15.61178045634095
 20
-1176.709158368913
 10
16.09542279518365
 20
-1178.277601562915
 10
16.3833076220759
 20
-1179.211206757285
 10
16.42839087318423
 20
-1179.357544109551
  0
LWPOLYLINE
  5
20B
330
A
100
AcDbEntity
  8
0
  6
Continuous
 62
     7
100
AcDbPolyline
 90
       23
 70
   128
 43
0.0
 10
145.3318817627556
 20
-1065.800907667579
 10
147.4152005219352
 20
-1066.050133011516
 10
150.5356126428654
 20
-1066.722127420857
 10
153.5102871240281
 20
-1067.845840072512
 10
155.5280508329149
 20
-1069.115235013209
 10
157.2745153743311
 20
-1070.740117773856
 10
159.8203518138348
 20
-1074.341316642587
 10
162.277276179959
 20
-1079.164444868078
 10
166.9999278232085
 20
-1089.730644308501
 10
171.1121904223106
 20
-1100.552845967108
 10
174.282100278247
 20
-1111.656292903491
 10
175.8034415313128
 20
-1119.078852781927
 10
176.6086253540402
 20
-1126.595315764794
 10
176.5794248783891
 20
-1129.242999757277
 10
176.2130769002497
 20
-1131.858913792531
 10
175.2415731329453
 20
-1134.534776302992
 10
173.705031518241
 20
-1136.533637650762
 10
172.9711341046104
 20
-1137.155851394827
 10
170.4429358974419
 20
-1138.609854402012
 10
167.6646839877995
 20
-1139.552541546755
 10
164.0529519509152
 20
-1140.269588321357
 10
160.3856260961331
 20
-1140.654218872851
 10
159.4398991889682
 20
-1140.678056978866
  0
LWPOLYLINE
  5
224
330
A
100
AcDbEntity
  8
0
  6
Continuous
 62
     7
100
AcDbPolyline
 90
       11
 70
   128
 43
0.0
 10
102.8659416965787
 20
-1194.405768457557
 10
102.8807648927765
 20
-1194.531313700698
 10
103.1341472317424
 20
-1198.913553627593
 10
103.04385180884
 20
-1203.304669212907
 10
102.4392783478339
 20
-1207.632034446597
 10
101.2437892380509
 20
-1211.458016711547
 10
99.32851743377653
 20
-1214.97067260058
 10
97.07179230935393
 20
-1217.703222689309
 10
94.45353968910009
 20
-1220.100616161257
 10
90.16078486530354
 20
-1223.138139712254
 10
89.57598532313587
 20
-1223.470418966711
  0
LWPOLYLINE
  5
231
330
A
100
AcDbEntity
  8
0
  6
Continuous
 62
     7
100
AcDbPolyline
 90
       30
 70
   128
 43
0.0
 10
1.005976970304425
 20
-990.626329332197
 10
3.996746015830749
 20
-988.9415438371299
 10
7.527030238289947
 20
-987.522282096069
 10
14.56575711870492
 20
-985.0288313763613
 10
21.0489337904575
 20
-982.4066981842253
 10
27.14615776245674
 20
-979.1644068217172
 10
32.8978729327959
 20
-975.0611927708046
 10
38.1688580884243
 20
-970.1542989072024
 10
42.94961578685121
 20
-964.6535734470068
 10
45.76800888961595
 20
-961.3425810906379
 10
48.69732415094796
 20
-958.2284398553904
 10
51.85903563103561
 20
-955.4786879577907
 10
55.37461739006733
 20
-953.2608636143656
 10
59.34078308946649
 20
-951.7337610874173
 10
63.62213692651949
 20
-950.9742068749698
 10
67.95634892783489
 20
-951.0142015985151
 10
72.08318811223977
 20
-951.8831713449779
 10
75.88562839656247
 20
-953.5210863321367
 10
79.43953650933527
 20
-955.7474223368398
 10
83.07315166776435
 20
-958.5709972329345
 10
86.63422014390015
 20
-961.6205738618878
 10
90.23278923419566
 20
-964.6636617522704
 10
93.95601355275182
 20
-967.497644782081
 10
97.63359742358062
 20
-970.2558726986058
 10
100.9331777220309
 20
-973.2831890146044
 10
103.5438271022088
 20
-976.8944114847919
 10
105.6309046747683
 20
-981.8109505461411
 10
106.7813539508551
 20
-987.174023404256
 10
107.0978760107263
 20
-992.6541141875649
 10
106.9609884451927
 20
-994.4735256498848
  0
LWPOLYLINE
  5
251
330
A
100
AcDbEntity
  8
0
  6
Continuous
 62
     7
100
AcDbPolyline
 90
       21
 70
   128
 43
0.0
 10
172.2476327694337
 20
-1166.529007663468
 10
170.1459118550818
 20
-1167.033515917007
 10
164.6210171290736
 20
-1167.890632681297
 10
159.2460152153231
 20
-1168.165759458044
 10
153.9718603133276
 20
-1168.049768679405
 10
148.7487358352844
 20
-1167.733783072147
 10
143.5268251933909
 20
-1167.408925363035
 10
138.2563117998442
 20
-1167.266318278834
 10
132.9171849826075
 20
-1167.511594957006
 10
127.6470718642011
 20
-1168.427131325203
 10
124.2656058126631
 20
-1169.561781518736
 10
121.0557660491598
 20
-1171.220835987559
 10
118.1025072775651
 20
-1173.421484119554
 10
115.5323708496116
 20
-1176.074039180252
 10
113.4752309558926
 20
-1179.080249164544
 10
112.0609617870012
 20
-1182.341862067319
 10
111.3437459111209
 20
-1186.198170388428
 10
111.0974537594458
 20
-1190.163166991319
 10
110.5305171515606
 20
-1194.167036785456
 10
109.0590758803903
 20
-1198.081763960996
 10
108.5528072051675
 20
-1198.845502061068
  0
LINE
  5
268
330
A
100
AcDbEntity
  8
0
  6
Continuous
 62
     7
100
AcDbLine
 10
134.7105501793854
 20
-1144.856962925069
 30
0.0
 11
172.2476327694336
 21
-1166.529007663468
 31
0.0
  0
LWPOLYLINE
  5
269
330
A
100
AcDbEntity
  8
0
  6
Continuous
 62
     7
100
AcDbPolyline
 90
       18
 70
   128
 43
0.0
 10
166.6888586195648
 20
-1085.54580383627
 10
169.3816299150579
 20
-1089.05821579703
 10
173.1338254416133
 20
-1095.034615579967
 10
177.1738723631053
 20
-1102.931915846972
 10
180.4917269650321
 20
-1110.973212831131
 10
183.2799776233492
 20
-1119.253049930378
 10
185.7459163536267
 20
-1127.917273288066
 10
187.1257750182323
 20
-1133.237713906776
 10
188.4744219371618
 20
-1138.750222744457
 10
189.512873215178
 20
-1144.293789032663
 10
189.8342307947307
 20
-1148.509824477897
 10
189.494733616048
 20
-1152.471483075171
 10
188.2875500132608
 20
-1156.058215897372
 10
186.2453113161388
 20
-1158.98768820553
 10
183.440594070386
 20
-1161.491128075039
 10
180.0530044488116
 20
-1163.576910967079
 10
176.2621486242246
 20
-1165.253412342828
 10
172.2476327694339
 20
-1166.529007663468
  0
LWPOLYLINE
  5
27D
330
A
100
AcDbEntity
  8
0
  6
Continuous
 62
     7
100
AcDbPolyline
 90
        8
 70
   128
 43
0.0
 10
-15.47092173433351
 20
-1188.97143119605
 10
-19.03552128253781
 20
-1189.490634858005
 10
-22.86008272286778
 20
-1189.655570939045
 10
-26.70297601177175
 20
-1189.463734454806
 10
-30.35910661555451
 20
-1188.790624780798
 10
-33.61900167170054
 20
-1187.508707295656
 10
-36.27622064266784
 20
-1185.492961772139
 10
-36.53487342008562
 20
-1185.143323325893
  0
LWPOLYLINE
  5
287
330
A
100
AcDbEntity
  8
0
  6
Continuous
 62
     7
100
AcDbPolyline
 90
       21
 70
   128
 43
0.0
 10
-69.8699074965902
 20
-1153.666267705521
 10
-70.65695623799226
 20
-1153.339954099071
 10
-75.60179649308427
 20
-1151.677824362496
 10
-79.02789144487504
 20
-1150.5043802943
 10
-82.0965844140187
 20
-1148.85498283815
 10
-84.49038206564619
 20
-1146.357962259493
 10
-86.1182075372719
 20
-1143.120476250047
 10
-86.99851254810301
 20
-1139.481314450932
 10
-87.15046339188871
 20
-1135.780777691415
 10
-86.61342174547451
 20
-1132.29578810251
 10
-85.51504973248496
 20
-1129.026156589097
 10
-83.1470352112551
 20
-1124.359463114684
 10
-80.36984068120753
 20
-1119.750353985369
 10
-77.69575490977884
 20
-1114.942643965184
 10
-75.57653364200653
 20
-1109.727858042205
 10
-74.34616161545164
 20
-1106.197226264425
 10
-72.96889654192203
 20
-1102.905137751967
 10
-71.18889761008709
 20
-1100.096966970968
 10
-68.76769642402291
 20
-1098.00195371009
 10
-65.71147449016621
 20
-1096.622118503957
 10
-62.38672803121306
 20
-1095.834105597836
  0
LWPOLYLINE
  5
29E
330
A
100
AcDbEntity
  8
0
  6
PHANTOM
 62
     7
100
AcDbPolyline
 90
        9
 70
   128
 43
0.0
 10
1.879961335888843
 20
-994.8729400668344
 10
5.709658690405378
 20
-995.4077131990169
 10
10.63325814378434
 20
-995.9913459520734
 10
15.5975825860313
 20
-996.0626290426837
 10
20.48062795414372
 20
-995.4076057660721
 10
23.9007316207755
 20
-994.3753818154288
 10
27.11332204260056
 20
-992.8257365567541
 10
30.02690782891967
 20
-990.7004766233798
 10
30.52632680418645
 20
-990.2058429656706
  0
LWPOLYLINE
  5
2A9
330
A
100
AcDbEntity
  8
0
  6
PHANTOM
 62
     7
100
AcDbPolyline
 90
       11
 70
   128
 43
0.0
 10
51.92838579379501
 20
-968.0513292239332
 10
52.09551431327256
 20
-967.9992177151142
 10
54.52366998913539
 20
-967.7053742011166
 10
56.97302111758454
 20
-967.7834454104731
 10
60.42712975162956
 20
-968.4269592148025
 10
63.7432958767981
 20
-969.5999267075183
 10
67.94004829639726
 20
-971.8357586382017
 10
71.87406536285813
 20
-974.5494885076134
 10
75.68200055244393
 20
-977.483733551449
 10
79.5005073414179
 20
-980.3811110054045
 10
85.40683615682262
 20
-983.9625908472362
  0
LWPOLYLINE
  5
2B6
330
A
100
AcDbEntity
  8
0
  6
PHANTOM
 62
     7
100
AcDbPolyline
 90
       43
 70
   128
 43
0.0
 10
105.346515605117
 20
-1014.846837735577
 10
103.3629164100376
 20
-1006.265044170618
 10
102.7041204121505
 20
-1002.990138194204
 10
101.8175947943628
 20
-999.7808511207074
 10
101.1523315135141
 20
-998.4344126501291
 10
100.2307710602639
 20
-997.6732417636183
 10
98.40626354125882
 20
-996.7686659015015
 10
94.63265145863678
 20
-995.4087130399017
 10
90.82544207189435
 20
-994.1353407383571
 10
85.43076396602375
 20
-991.9336432388346
 10
80.2402476935263
 20
-989.2657257467288
 10
75.35129307028288
 20
-986.1089202825851
 10
71.84917056299775
 20
-983.4220191648022
 10
68.36763385248523
 20
-980.6861421784322
 10
64.76882704332886
 20
-978.1555049747046
 10
60.91489424011221
 20
-976.0843232048486
 10
58.64713261403126
 20
-975.2758378144028
 10
56.28503348572006
 20
-974.8302685634952
 10
53.57292888131533
 20
-974.9315366847053
 10
51.79826358285139
 20
-975.6786385521055
 10
49.83430283944818
 20
-977.2827350665249
 10
48.13898919231365
 20
-979.1901807556866
 10
45.1321733406823
 20
-983.2307911358373
 10
40.5565760501044
 20
-989.6393804646924
 10
37.65524303050629
 20
-993.1240084046258
 10
34.39174529958972
 20
-996.2825453947141
 10
30.7304593151756
 20
-998.9137896879736
 10
26.52241399059271
 20
-1000.948416209456
 10
22.04501375440298
 20
-1002.307731113051
 10
16.28236951762375
 20
-1003.104163797903
 10
10.42390196743919
 20
-1003.065702868479
 10
4.612160286915273
 20
-1002.405297446327
 10
1.52118642197381
 20
-1001.930244730965
 10
-1.578632253885686
 20
-1001.871134886915
 10
-3.219476462695991
 20
-1002.358889863001
 10
-4.884715607000961
 20
-1003.54272718772
 10
-6.978931870536178
 20
-1006.150402540151
 10
-8.261360744884566
 20
-1009.233173229518
 10
-9.019678490915755
 20
-1014.113700836387
 10
-8.977527960363037
 20
-1019.102408624589
 10
-8.549988091148444
 20
-1024.132605727541
 10
-8.152137821193964
 20
-1029.13760127866
 10
-8.058813127493527
 20
-1032.846568339985
  0
LWPOLYLINE
  5
2E3
330
A
100
AcDbEntity
  8
0
  6
PHANTOM
 62
     7
100
AcDbPolyline
 90
        3
 70
   128
 43
0.0
 10
-31.85609308862823
 20
-1183.588000992783
 10
-36.93880517221847
 20
-1181.331889827822
 10
-39.84181116078902
 20
-1179.82122740407
  0
LWPOLYLINE
  5
2E8
330
A
100
AcDbEntity
  8
0
  6
PHANTOM
 62
     7
100
AcDbPolyline
 90
       32
 70
   128
 43
0.0
 10
-31.45800870747943
 20
-1086.20937984291
 10
-32.12907855864175
 20
-1086.687919963013
 10
-38.7008145129097
 20
-1090.447028567339
 10
-45.40756469145097
 20
-1093.966626375215
 10
-49.8235913704234
 20
-1096.375988525366
 10
-54.09773040258563
 20
-1099.021607197414
 10
-57.85746212683057
 20
-1101.915400630195
 10
-61.11587985986369
 20
-1105.345451327003
 10
-63.15880330866233
 20
-1108.499961623359
 10
-64.57743047256656
 20
-1111.974928624204
 10
-65.43336681816112
 20
-1116.030460213716
 10
-65.81805858738201
 20
-1120.180770416695
 10
-65.96264755752173
 20
-1124.347429943193
 10
-66.13127596960739
 20
-1131.915342020451
 10
-65.93371670984551
 20
-1139.474476133547
 10
-65.45533357823138
 20
-1143.600145532724
 10
-64.54894811967863
 20
-1147.660637935607
 10
-63.11133136770632
 20
-1151.537948908506
 10
-60.26989040679157
 20
-1156.309725325259
 10
-56.64382313287783
 20
-1160.535857914841
 10
-51.61319138509081
 20
-1164.93584980706
 10
-46.02675102755303
 20
-1168.607729646335
 10
-33.83503429961028
 20
-1174.948495767309
 10
-21.27226694777677
 20
-1180.525732436841
 10
-17.92616910623533
 20
-1181.563877014273
 10
-14.44929080518251
 20
-1181.981228295949
 10
-10.27180857688595
 20
-1181.718020335089
 10
-6.165044598283681
 20
-1180.861665598635
 10
-0.4835357828761322
 20
-1178.930779193697
 10
5.019038936707243
 20
-1176.508645151501
 10
9.627016699206652
 20
-1174.416883965184
 10
13.58109530928762
 20
-1172.937757596542
  0
LWPOLYLINE
  5
30A
330
A
100
AcDbEntity
  8
0
  6
PHANTOM
 62
     7
100
AcDbPolyline
 90
        4
 70
   128
 43
0.0
 10
159.4398991889682
 20
-1140.678056978866
 10
149.6125938124698
 20
-1140.925765218573
 10
138.8207838580343
 20
-1140.741287863629
 10
137.0973280485559
 20
-1140.784443855008
  0
LWPOLYLINE
  5
310
330
A
100
AcDbEntity
  8
0
  6
PHANTOM
 62
     7
100
AcDbPolyline
 90
       22
 70
   128
 43
0.0
 10
141.0191715389029
 20
-1133.741016810777
 10
149.0756746367053
 20
-1133.864682825202
 10
159.8533080463101
 20
-1133.583180095772
 10
162.8768144973039
 20
-1133.275131748024
 10
165.8543797582749
 20
-1132.693880906458
 10
167.3286954029345
 20
-1132.237972966192
 10
168.6720436109083
 20
-1131.514097552005
 10
168.8356421284571
 20
-1131.376594388232
 10
169.0032930404901
 20
-1131.162483611572
 10
169.2969576381706
 20
-1130.293387349383
 10
169.5195679891623
 20
-1128.578235391572
 10
169.5211897385811
 20
-1126.842273935785
 10
168.7710895949017
 20
-1120.001918090539
 10
167.3691154532491
 20
-1113.247122900566
 10
164.3288679088533
 20
-1102.632104564593
 10
160.3810602564344
 20
-1092.288478586043
 10
155.8564375555338
 20
-1082.187003288047
 10
153.684163941954
 20
-1077.906522331741
 10
151.9845494076122
 20
-1075.469887744392
 10
150.3465508163917
 20
-1074.195993060134
 10
148.3575254262168
 20
-1073.473419674076
 10
147.4030792880537
 20
-1073.280673291197
  0
LINE
  5
328
330
A
100
AcDbEntity
  8
0
  6
PHANTOM
 62
     7
100
AcDbLine
 10
105.467221296263
 20
-1016.044127867411
 30
0.0
 11
105.346515605117
 21
-1014.846837735577
 31
0.0
  0
LWPOLYLINE
  5
329
330
A
100
AcDbEntity
  8
0
  6
PHANTOM
 62
     7
100
AcDbPolyline
 90
       26
 70
   128
 43
0.0
 10
40.38111401616038
 20
-1183.359109870058
 10
42.56053347990039
 20
-1186.240837653287
 10
46.58976496876255
 20
-1192.851191680526
 10
50.30470639426498
 20
-1199.683418945796
 10
54.01402168034106
 20
-1206.500370407825
 10
58.31200360989408
 20
-1213.661997062488
 10
62.25326739724233
 20
-1218.988039131889
 10
63.90571311370814
 20
-1220.727953987993
 10
65.7562920610024
 20
-1222.246180575463
 10
68.0622703020072
 20
-1223.390773136581
 10
70.64755568905562
 20
-1223.603233096517
 10
73.76523339611812
 20
-1223.058405963774
 10
76.77764280840745
 20
-1222.041482049532
 10
82.27422388944964
 20
-1219.477826494402
 10
86.24810286557025
 20
-1217.226912206639
 10
89.97370055896144
 20
-1214.600880768824
 10
91.86911804500834
 20
-1212.879125528552
 10
93.50428943490241
 20
-1210.916043771508
 10
94.73758127287025
 20
-1208.628127663806
 10
95.50381239793265
 20
-1206.137087182704
 10
95.99715825876129
 20
-1202.499193419048
 10
96.04420989152799
 20
-1198.807315815254
 10
95.8172251951527
 20
-1195.122992869694
 10
94.95473778329026
 20
-1187.697073525295
 10
93.95156295509108
 20
-1180.284951565596
 10
93.78210661754257
 20
-1178.311192868685
  0
LWPOLYLINE
  5
345
330
A
100
AcDbEntity
  8
0
  6
PHANTOM
 62
     7
100
AcDbPolyline
 90
        4
 70
   128
 43
0.0
 10
100.5774815528862
 20
-1175.160153473322
 10
101.0029383292226
 20
-1179.906309526894
 10
102.0164408178289
 20
-1187.210910280666
 10
102.8659416965787
 20
-1194.405768457557
  0
LINE
  5
34B
330
A
100
AcDbEntity
  8
0
  6
Continuous
 62
     7
100
AcDbLine
 10
420.8186261023743
 20
996.9280174332597
 30
0.0
 11
420.8186261023743
 21
990.2430289516564
 31
0.0
  0
LINE
  5
34C
330
A
100
AcDbEntity
  8
0
  6
Continuous
 62
     7
100
AcDbLine
 10
602.8186261023742
 20
990.2430289516564
 30
0.0
 11
602.8186261023742
 21
996.9280174332597
 31
0.0
  0
ARC
  5
34D
330
A
100
AcDbEntity
  8
0
  6
Continuous
 62
     7
100
AcDbCircle
 10
511.8186261023742
 20
1224.166093227072
 30
0.0
 40
251.0000000000001
100
AcDbArc
 50
258.6461412486722
 51
275.5364405716954
  0
ARC
  5
34E
330
A
100
AcDbEntity
  8
0
  6
Continuous
 62
     7
100
AcDbCircle
 10
511.8186261023742
 20
1224.166093227072
 30
0.0
 40
251.0000000000002
100
AcDbArc
 50
275.9951057597848
 51
291.256870832157
  0
ARC
  5
34F
330
A
100
AcDbEntity
  8
0
  6
Continuous
 62
     7
100
AcDbCircle
 10
511.8186261023742
 20
1224.166093227072
 30
0.0
 40
251.0000000000002
100
AcDbArc
 50
248.7431291678446
 51
258.1859091911024
  0
LINE
  5
350
330
A
100
AcDbEntity
  8
0
  6
Continuous
 62
     7
100
AcDbLine
 10
445.8186261023743
 20
1023.928017433259
 30
0.0
 11
445.8186261023743
 21
996.9280174332597
 31
0.0
  0
LINE
  5
351
330
A
100
AcDbEntity
  8
0
  6
Continuous
 62
     7
100
AcDbLine
 10
577.8186261023742
 20
996.9280174332597
 30
0.0
 11
577.8186261023742
 21
1023.928017433259
 31
0.0
  0
LINE
  5
352
330
A
100
AcDbEntity
  8
0
  6
Continuous
 62
     7
100
AcDbLine
 10
550.8186261023745
 20
-477.0719825667403
 30
0.0
 11
550.8186261023745
 21
-467.0719825667402
 31
0.0
  0
LINE
  5
353
330
A
100
AcDbEntity
  8
0
  6
Continuous
 62
     7
100
AcDbLine
 10
536.0180598514842
 20
978.1788038641236
 30
0.0
 11
542.3186165998414
 21
-467.0719825667402
 31
0.0
  0
LINE
  5
354
330
A
100
AcDbEntity
  8
0
  6
Continuous
 62
     7
100
AcDbLine
 10
544.3186356049066
 20
-467.0719825667402
 30
0.0
 11
538.0171976721336
 21
978.3809340124156
 31
0.0
  0
LINE
  5
355
330
A
100
AcDbEntity
  8
0
  6
Continuous
 62
     7
100
AcDbLine
 10
495.8186261023743
 20
-477.0719825667403
 30
0.0
 11
495.8186261023743
 21
-479.0849605085575
 31
0.0
  0
LINE
  5
356
330
A
100
AcDbEntity
  8
0
  6
Continuous
 62
     7
100
AcDbLine
 10
527.8186261023742
 20
-479.0849605085575
 30
0.0
 11
527.8186261023742
 21
-477.0719825667403
 31
0.0
  0
LINE
  5
357
330
A
100
AcDbEntity
  8
0
  6
Continuous
 62
     7
100
AcDbLine
 10
438.8186261023743
 20
-467.0719825667402
 30
0.0
 11
438.8186261023743
 21
-477.0719825667403
 31
0.0
  0
LINE
  5
358
330
A
100
AcDbEntity
  8
0
  6
Continuous
 62
     7
100
AcDbLine
 10
460.4223538076594
 20
978.4829928853111
 30
0.0
 11
447.8186641105181
 21
-467.0632639175825
 31
0.0
  0
LINE
  5
359
330
A
100
AcDbEntity
  8
0
  6
Continuous
 62
     7
100
AcDbLine
 10
449.8186641119628
 20
-467.0719825667402
 30
0.0
 11
462.4188754063821
 21
978.075328200885
 31
0.0
  0
LWPOLYLINE
  5
35A
330
A
100
AcDbEntity
  8
0
  6
Continuous
 62
     7
100
AcDbPolyline
 90
       28
 70
   128
 43
0.0
 10
607.169214791891
 20
-699.0848305085571
 10
606.7365194004634
 20
-685.0462293102125
 10
606.365368816148
 20
-672.1054245290108
 10
606.0575756823888
 20
-660.2624161649524
 10
605.808840368862
 20
-649.5172042180371
 10
605.6129054091106
 20
-639.8697886882652
 10
605.4625379199469
 20
-631.3201695756362
 10
605.3502530354877
 20
-623.8683468801506
 10
605.2688385927288
 20
-617.514320601808
 10
605.2117214293606
 20
-612.2580907406086
 10
605.1728365973188
 20
-608.0548944250433
 10
605.1470111355594
 20
-604.8130927764685
 10
605.1310047249176
 20
-602.5299637156234
 10
605.1240210522222
 20
-601.4434609207945
 10
605.115792403422
 20
-600.072602966155
 10
605.1034958346926
 20
-597.7829563270985
 10
605.0893035922755
 20
-594.5745210036245
 10
605.0762402232131
 20
-590.4472969957331
 10
605.0681454435375
 20
-585.4012843034247
 10
605.0695999405891
 20
-579.4364829266988
 10
605.0857942662514
 20
-572.5528928655555
 10
605.1295358425336
 20
-563.5608854270031
 10
605.2092752332629
 20
-553.3688274618651
 10
605.3369747160531
 20
-541.976718970141
 10
605.5269378298968
 20
-529.3845599518313
 10
605.7964284580122
 20
-515.5923504069354
 10
606.1665809057215
 20
-500.6000903354538
 10
606.5998069363562
 20
-486.4172241571641
  0
LWPOLYLINE
  5
378
330
A
100
AcDbEntity
  8
0
  6
Continuous
 62
     7
100
AcDbPolyline
 90
        9
 70
   128
 43
0.0
 10
599.5007990419687
 20
-479.0849605228778
 10
600.9092357502315
 20
-479.2260364003752
 10
602.2686985513273
 20
-479.6468074821452
 10
603.5168777268767
 20
-480.3303584784686
 10
604.6035819562209
 20
-481.2492026887858
 10
605.4851130896836
 20
-482.3663918885961
 10
606.126023322449
 20
-483.6370020778341
 10
606.5005406086149
 20
-485.0099399481914
 10
606.5936049971983
 20
-486.4299974283873
  0
LWPOLYLINE
  5
383
330
A
100
AcDbEntity
  8
0
  6
Continuous
 62
     7
100
AcDbPolyline
 90
       39
 70
   128
 43
0.0
 10
385.2061083039153
 20
-485.732119852
 10
384.8127583779894
 20
-491.9149592480861
 10
384.3932156202416
 20
-498.4129245624212
 10
384.0488269056527
 20
-503.6822958458949
 10
383.7821821840453
 20
-507.723073098507
 10
383.5952941683602
 20
-510.5352563202575
 10
383.4164290576983
 20
-513.2115334775079
 10
383.2113015505763
 20
-516.2626949177933
 10
382.9767102070733
 20
-519.728787109642
 10
382.615299520933
 20
-525.0208580671731
 10
382.1984846458288
 20
-531.0540065106172
 10
381.7658568040708
 20
-537.2388155957427
 10
381.348133864402
 20
-543.138139208296
 10
380.7786093018425
 20
-551.0705144676848
 10
380.2428397016432
 20
-558.4202663136611
 10
379.7426395162098
 20
-565.1873947462239
 10
379.2337786689749
 20
-571.980821600306
 10
378.6411395207008
 20
-579.7804541935544
 10
377.9159760682139
 20
-589.166680920003
 10
377.0863685366378
 20
-599.6995582189282
 10
376.1464429530663
 20
-611.3790860903307
 10
375.5383398773965
 20
-618.7986090087086
 10
374.8989682623825
 20
-626.4890720167691
 10
374.3146134091848
 20
-633.4218362030947
 10
373.8070042154533
 20
-639.3720679521014
 10
373.4752527459144
 20
-643.2256998858702
 10
373.1901771905179
 20
-646.5154357927115
 10
372.9526628777226
 20
-649.2412756726248
 10
372.7634437823108
 20
-651.4032195256104
 10
372.6231017127009
 20
-653.0012673516684
 10
372.4924249567231
 20
-654.4851347097708
 10
372.3036593823085
 20
-656.6216526471747
 10
372.0267986269305
 20
-659.7405831667325
 10
371.66039492617
 20
-663.8419262684441
 10
371.2025590022508
 20
-668.9256819523097
 10
370.6509785985909
 20
-674.9918502183293
 10
370.0029494288025
 20
-682.0404310665026
 10
369.2554236325762
 20
-690.0714244968296
 10
368.4050818074402
 20
-699.0848305085574
  0
LWPOLYLINE
  5
3AC
330
A
100
AcDbEntity
  8
0
  6
Continuous
 62
     7
100
AcDbPolyline
 90
        9
 70
   128
 43
0.0
 10
385.2070066497343
 20
-485.7283037372156
 10
385.4171494706037
 20
-484.4102812311322
 10
385.8703527790735
 20
-483.1549136255459
 10
386.5505870965922
 20
-482.0066023794301
 10
387.433793019359
 20
-481.0059624444977
 10
388.488732182316
 20
-480.1883857432586
 10
389.6780921378942
 20
-479.5827893819027
 10
390.9598060707341
 20
-479.2105928728288
 10
392.2885406710137
 20
-479.0849605417321
  0
LWPOLYLINE
  5
3B7
330
A
100
AcDbEntity
  8
0
  6
Continuous
 62
     7
100
AcDbPolyline
 90
        9
 70
   128
 43
0.0
 10
412.2435913883692
 20
-485.884919794966
 10
412.4280861191097
 20
-484.5475830414641
 10
412.8624843469888
 20
-483.2693805855549
 10
413.5310666619786
 20
-482.0965662727033
 10
414.4096393200167
 20
-481.071580306131
 10
415.466409733186
 20
-480.2315134786795
 10
416.6631369364833
 20
-479.6067649818371
 10
417.9565153996541
 20
-479.2199423612974
 10
419.2997421086003
 20
-479.0850434259606
  0
LWPOLYLINE
  5
3C2
330
A
100
AcDbEntity
  8
0
  6
Continuous
 62
     7
100
AcDbPolyline
 90
        9
 70
   128
 43
0.0
 10
641.1897198079834
 20
-479.0851832539964
 10
642.6959644982958
 20
-479.2593176771785
 10
644.1307943267418
 20
-479.7498575293567
 10
645.4286269655315
 20
-480.5343815137736
 10
646.5301418709691
 20
-481.5770310860324
 10
647.3849916707312
 20
-482.8301494546013
 10
647.9541034108908
 20
-484.2364598484111
 10
648.2114644786967
 20
-485.7316834886177
 10
648.1453115712291
 20
-487.2474776038712
  0
LWPOLYLINE
  5
3CD
330
A
100
AcDbEntity
  8
0
  6
Continuous
 62
     7
100
AcDbPolyline
 90
       47
 70
   128
 43
0.0
 10
624.1610008563293
 20
-699.0848305085578
 10
625.1000792647972
 20
-687.5218233279384
 10
625.9592378331197
 20
-677.1252155817192
 10
626.7358902471995
 20
-667.8950072701371
 10
627.4265474090704
 20
-659.831198393192
 10
628.0272521041293
 20
-652.9337889508842
 10
628.5339469597451
 20
-647.2027789432131
 10
628.8499409895185
 20
-643.6699710664405
 10
629.1094073783145
 20
-640.7932628716512
 10
629.3110740536694
 20
-638.5726543588451
 10
629.4539064051593
 20
-637.0081455280224
 10
629.5862544539545
 20
-635.5648111128833
 10
629.7736765654507
 20
-633.5318336938432
 10
630.0334193997863
 20
-630.7361095039098
 10
630.3675530621473
 20
-627.1776385430825
 10
630.7789728471345
 20
-622.856420811362
 10
631.2558592956754
 20
-617.933125728879
 10
631.725974673986
 20
-613.1711171296672
 10
632.1789850973766
 20
-608.6691735973434
 10
633.0683201439884
 20
-600.0798248939011
 10
633.8682622628753
 20
-592.6320489330704
 10
634.5686417167329
 20
-586.3217578034799
 10
634.8404549320323
 20
-583.9240199470542
 10
635.1295961286476
 20
-581.4036380415258
 10
635.5183585324347
 20
-578.0621365873158
 10
636.0138610135437
 20
-573.8783826566406
 10
636.6177995920221
 20
-568.8866916918071
 10
637.2350581233497
 20
-563.8990582408665
 10
637.8216113822948
 20
-559.2589215086746
 10
638.8080433853165
 20
-551.6545303664056
 10
639.6666178368469
 20
-545.2181143065967
 10
640.388440672526
 20
-539.9220180614533
 10
640.6960405435244
 20
-537.693199682088
 10
640.9753122285945
 20
-535.6830992549332
 10
641.225648959521
 20
-533.8917167799886
 10
641.4465308945385
 20
-532.3190522572548
 10
641.6375156126816
 20
-530.9651056867314
 10
641.8166724128028
 20
-529.6998203421388
 10
642.1185890677809
 20
-527.5776646359705
 10
642.5073467946804
 20
-524.8630398063566
 10
643.0148718295011
 20
-521.3478589624737
 10
643.6441328771121
 20
-517.032122104322
 10
644.3985793396292
 20
-511.9158292319013
 10
645.2820246580491
 20
-505.9989803452119
 10
646.298493409984
 20
-499.2815754442538
 10
647.4520244285688
 20
-491.7636145290264
 10
648.152529318837
 20
-487.261778278215
  0
LINE
  5
3FE
330
A
100
AcDbEntity
  8
0
  6
Continuous
 62
     7
100
AcDbLine
 10
551.2343475218792
 20
-479.0849605086099
 30
0.0
 11
551.2234978540749
 21
-479.0849687607791
 31
0.0
  0
LINE
  5
3FF
330
A
100
AcDbEntity
  8
0
  6
Continuous
 62
     7
100
AcDbLine
 10
420.8186261023743
 20
996.9280174332597
 30
0.0
 11
602.8186261023742
 21
996.9280174332597
 31
0.0
  0
LINE
  5
400
330
A
100
AcDbEntity
  8
0
  6
Continuous
 62
     7
100
AcDbLine
 10
420.8186261023743
 20
990.2430289516564
 30
0.0
 11
602.8186261023742
 21
990.2430289516564
 31
0.0
  0
LWPOLYLINE
  5
401
330
A
100
AcDbEntity
  8
0
  6
Continuous
 62
     7
100
AcDbPolyline
 90
        9
 70
   128
 43
0.0
 10
536.2203750998364
 20
978.3052957567063
 10
536.468286196854
 20
978.3718226001518
 10
536.7814441922154
 20
978.4280090200272
 10
537.1204693852186
 20
978.4667653345806
 10
537.4432837382828
 20
978.4838379901342
 10
537.7150778978963
 20
978.4782061809679
 10
537.9095619805645
 20
978.4511001441405
 10
538.0078028445122
 20
978.4053372571715
 10
538.0037102741783
 20
978.3808783688108
  0
LWPOLYLINE
  5
40C
330
A
100
AcDbEntity
  8
0
  6
Continuous
 62
     7
100
AcDbPolyline
 90
        4
 70
   128
 43
0.0
 10
536.0292316491889
 20
978.1788587346163
 10
536.0223803171134
 20
978.1945971456018
 10
536.1094503107905
 20
978.2610798338708
 10
536.2203750998364
 20
978.3052957567063
  0
LWPOLYLINE
  5
412
330
A
100
AcDbEntity
  8
0
  6
Continuous
 62
     7
100
AcDbPolyline
 90
        4
 70
   128
 43
0.0
 10
460.6744853227623
 20
978.43283228837
 10
460.498559860031
 20
978.4689138075419
 10
460.4240596048472
 20
978.4841949380421
 10
460.4303323269427
 20
978.4829082885561
  0
LWPOLYLINE
  5
418
330
A
100
AcDbEntity
  8
0
  6
Continuous
 62
     7
100
AcDbPolyline
 90
        9
 70
   128
 43
0.0
 10
462.4050558015143
 20
978.0781585893915
 10
462.4043369196498
 20
978.0783058241144
 10
462.2960275562522
 20
978.1004896728118
 10
462.0928314047167
 20
978.1421131142618
 10
461.8140111227375
 20
978.1992381865874
 10
461.4871820327027
 20
978.2662148542147
 10
461.1486636740135
 20
978.3356046234578
 10
460.8400603730079
 20
978.3988780279036
 10
460.6744853227623
 20
978.4328322883698
  0
LINE
  5
423
330
A
100
AcDbEntity
  8
0
  6
Continuous
 62
     7
100
AcDbLine
 10
445.8186261023743
 20
1023.928017433259
 30
0.0
 11
577.8186261023742
 21
1023.928017433259
 31
0.0
  0
LINE
  5
424
330
A
100
AcDbEntity
  8
0
  6
Continuous
 62
     7
100
AcDbLine
 10
541.5783856215923
 20
-467.0719825667402
 30
0.0
 11
550.8186261023745
 21
-467.0719825667402
 31
0.0
  0
LINE
  5
425
330
A
100
AcDbEntity
  8
0
  6
Continuous
 62
     7
100
AcDbLine
 10
541.5783856215923
 20
-477.0719825667403
 30
0.0
 11
550.8186261023745
 21
-477.0719825667403
 31
0.0
  0
LINE
  5
426
330
A
100
AcDbEntity
  8
0
  6
Continuous
 62
     7
100
AcDbLine
 10
522.3391438792299
 20
-467.0719825667402
 30
0.0
 11
522.3391438792299
 21
-477.0719825667403
 31
0.0
  0
LINE
  5
427
330
A
100
AcDbEntity
  8
0
  6
Continuous
 62
     7
100
AcDbLine
 10
522.3391438792299
 20
-467.0719825667402
 30
0.0
 11
541.5783856215923
 21
-467.0719825667402
 31
0.0
  0
LINE
  5
428
330
A
100
AcDbEntity
  8
0
  6
Continuous
 62
     7
100
AcDbLine
 10
522.3391438792299
 20
-477.0719825667403
 30
0.0
 11
541.5783856215923
 21
-477.0719825667403
 31
0.0
  0
LINE
  5
429
330
A
100
AcDbEntity
  8
0
  6
Continuous
 62
     7
100
AcDbLine
 10
479.9279986607299
 20
-467.0719825667402
 30
0.0
 11
479.9279986607299
 21
-477.0719825667403
 31
0.0
  0
LINE
  5
42A
330
A
100
AcDbEntity
  8
0
  6
Continuous
 62
     7
100
AcDbLine
 10
479.9279986607299
 20
-467.0719825667402
 30
0.0
 11
522.3391438792299
 21
-467.0719825667402
 31
0.0
  0
LINE
  5
42B
330
A
100
AcDbEntity
  8
0
  6
Continuous
 62
     7
100
AcDbLine
 10
479.9279986607299
 20
-477.0719825667403
 30
0.0
 11
522.3391438792299
 21
-477.0719825667403
 31
0.0
  0
LINE
  5
42C
330
A
100
AcDbEntity
  8
0
  6
Continuous
 62
     7
100
AcDbLine
 10
443.6441286188617
 20
-467.0719825667402
 30
0.0
 11
479.9279986607299
 21
-467.0719825667402
 31
0.0
  0
LINE
  5
42D
330
A
100
AcDbEntity
  8
0
  6
Continuous
 62
     7
100
AcDbLine
 10
443.6441286188617
 20
-477.0719825667403
 30
0.0
 11
479.9279986607299
 21
-477.0719825667403
 31
0.0
  0
LINE
  5
42E
330
A
100
AcDbEntity
  8
0
  6
Continuous
 62
     7
100
AcDbLine
 10
438.8186261023743
 20
-467.0719825667402
 30
0.0
 11
443.6441286188617
 21
-467.0719825667402
 31
0.0
  0
LINE
  5
42F
330
A
100
AcDbEntity
  8
0
  6
Continuous
 62
     7
100
AcDbLine
 10
438.8186261023743
 20
-477.0719825667403
 30
0.0
 11
443.6441286188617
 21
-477.0719825667403
 31
0.0
  0
LINE
  5
430
330
A
100
AcDbEntity
  8
0
  6
Continuous
 62
     7
100
AcDbLine
 10
448.8186261023742
 20
-467.0719825667402
 30
0.0
 11
447.8186641105181
 21
-467.0632639175825
 31
0.0
  0
LINE
  5
431
330
A
100
AcDbEntity
  8
0
  6
Continuous
 62
     7
100
AcDbLine
 10
474.3568846944077
 20
-486.348548536971
 30
0.0
 11
476.918788879514
 21
-699.0848305085569
 31
0.0
  0
LINE
  5
432
330
A
100
AcDbEntity
  8
0
  6
Continuous
 62
     7
100
AcDbLine
 10
474.3568842441223
 20
-486.34851114601
 30
0.0
 11
474.3568846944077
 21
-486.3485485369713
 31
0.0
  0
LINE
  5
433
330
A
100
AcDbEntity
  8
0
  6
Continuous
 62
     7
100
AcDbLine
 10
607.1652710704835
 20
-699.0848305085571
 30
0.0
 11
476.918788879514
 21
-699.0848305085571
 31
0.0
  0
LWPOLYLINE
  5
434
330
A
100
AcDbEntity
  8
0
  6
Continuous
 62
     7
100
AcDbPolyline
 90
        7
 70
   128
 43
0.0
 10
474.3568843374879
 20
-486.3485111478675
 10
474.4602789706477
 20
-483.9906879775076
 10
474.7919205447238
 20
-481.8798882329081
 10
475.3144189795935
 20
-480.2540884221579
 10
475.9688665764686
 20
-479.2965851037927
 10
476.3421025150309
 20
-479.1009223037906
 10
476.4847785746193
 20
-479.0849605085575
  0
LINE
  5
43D
330
A
100
AcDbEntity
  8
0
  6
Continuous
 62
     7
100
AcDbLine
 10
476.4847785746365
 20
-479.0849605085575
 30
0.0
 11
599.494817465761
 21
-479.0849605085577
 31
0.0
  0
LINE
  5
43E
330
A
100
AcDbEntity
  8
0
  6
Continuous
 62
     7
100
AcDbLine
 10
476.918788879514
 20
-699.0848305085571
 30
0.0
 11
368.4877960447821
 21
-699.0848305085571
 31
0.0
  0
LINE
  5
43F
330
A
100
AcDbEntity
  8
0
  6
Continuous
 62
     7
100
AcDbLine
 10
392.3826828376566
 20
-479.0849605085575
 30
0.0
 11
419.1219888271016
 21
-479.0849605085577
 31
0.0
  0
LINE
  5
440
330
A
100
AcDbEntity
  8
0
  6
Continuous
 62
     7
100
AcDbLine
 10
476.4847785746365
 20
-479.0849605085575
 30
0.0
 11
419.3847240567266
 21
-479.0849605085575
 31
0.0
  0
LINE
  5
441
330
A
100
AcDbEntity
  8
0
  6
Continuous
 62
     7
100
AcDbLine
 10
648.1139399075484
 20
-487.2432536777147
 30
0.0
 11
648.1100722271694
 21
-487.2551306176925
 31
0.0
  0
LINE
  5
442
330
A
100
AcDbEntity
  8
0
  6
Continuous
 62
     7
100
AcDbLine
 10
600.136142786846
 20
-479.0849605085573
 30
0.0
 11
641.0918362487815
 21
-479.0849605085579
 31
0.0
  0
LINE
  5
443
330
A
100
AcDbEntity
  8
0
  6
Continuous
 62
     7
100
AcDbLine
 10
607.169214791891
 20
-699.0848305085576
 30
0.0
 11
624.1553695059356
 21
-699.0848305085576
 31
0.0
  0
LINE
  5
444
330
A
100
AcDbEntity
  8
0
  6
PHANTOM
 62
     7
100
AcDbLine
 10
541.5783856215923
 20
-467.0719825667402
 30
0.0
 11
541.5783856215923
 21
-477.0719825667403
 31
0.0
  0
LINE
  5
445
330
A
100
AcDbEntity
  8
0
  6
PHANTOM
 62
     7
100
AcDbLine
 10
443.6441286188617
 20
-467.0719825667402
 30
0.0
 11
443.6441286188617
 21
-477.0719825667403
 31
0.0
  0
LWPOLYLINE
  5
446
330
A
100
AcDbEntity
  8
0
  6
PHANTOM
 62
     7
100
AcDbPolyline
 90
       34
 70
   128
 43
0.0
 10
606.5420364441173
 20
-486.4153688244511
 10
606.5858010455784
 20
-486.4082461614248
 10
606.0184198782563
 20
-486.3690192656547
 10
604.600593480456
 20
-486.3166450189805
 10
598.8454789976344
 20
-486.1204195390532
 10
592.3000557002047
 20
-486.2561086010678
 10
588.0876214333301
 20
-486.4349212688371
 10
583.0414305709023
 20
-486.4688381874388
 10
579.6740806816044
 20
-486.4245668096906
 10
575.9962709455959
 20
-486.3456790689105
 10
572.0375092501594
 20
-486.2346496294153
 10
567.3650227236975
 20
-486.0727342779088
 10
562.4740569203473
 20
-485.9021590838948
 10
557.5006893048957
 20
-485.7771608645479
 10
549.5986025030869
 20
-485.7209163556931
 10
541.6875516637985
 20
-485.7996486623808
 10
536.9059294640266
 20
-485.893756264231
 10
532.1449408753761
 20
-485.9871821414421
 10
527.4904744175634
 20
-486.0433010605557
 10
522.7738837956723
 20
-486.0450228970382
 10
518.491756849262
 20
-486.0486832417917
 10
514.2450516940497
 20
-486.1316054713155
 10
510.661153727433
 20
-486.2644617470016
 10
507.8080768735726
 20
-486.3762300708584
 10
505.2102239492142
 20
-486.4674160001702
 10
501.9364931599024
 20
-486.5923505393658
 10
498.4524678154139
 20
-486.709266344134
 10
494.3746886041422
 20
-486.7621291109122
 10
489.6285325330765
 20
-486.6982750852923
 10
484.1145911588622
 20
-486.5646958425488
 10
479.3513179402295
 20
-486.4544752259169
 10
474.3569248692709
 20
-486.3485119542651
 10
474.3568842441223
 20
-486.3485111460098
 10
474.3568842441223
 20
-486.3485111460098
  0
LWPOLYLINE
  5
46A
330
A
100
AcDbEntity
  8
0
  6
PHANTOM
 62
     7
100
AcDbPolyline
 90
       18
 70
   128
 43
0.0
 10
474.3568846944077
 20
-486.348548536971
 10
474.3568440816702
 20
-486.3485477690082
 10
467.6834780036476
 20
-486.2467987950394
 10
460.831701279025
 20
-486.2034046304105
 10
453.9032749683668
 20
-486.2395611340933
 10
446.9999601322381
 20
-486.3764641650602
 10
441.4438589366003
 20
-486.5173787934876
 10
435.8586640477083
 20
-486.6096586778877
 10
430.3190165650768
 20
-486.6266807453239
 10
424.8995575882211
 20
-486.5418219228599
 10
422.4083212756935
 20
-486.4647070516619
 10
420.054352591355
 20
-486.3811305945166
 10
417.8067966290942
 20
-486.3006859856183
 10
415.8139051511432
 20
-486.2296354661536
 10
413.5562315659318
 20
-486.1291034721345
 10
412.7632956353122
 20
-486.054653652484
 10
412.3363395528334
 20
-485.9718427801632
 10
412.3461579103641
 20
-485.9092194305846
  0
LWPOLYLINE
  5
47E
330
A
100
AcDbEntity
  8
0
  6
PHANTOM
 62
     7
100
AcDbPolyline
 90
       14
 70
   128
 43
0.0
 10
412.3093253666614
 20
-485.6432275645789
 10
411.8889709852405
 20
-485.6527536596177
 10
410.3393257265657
 20
-485.7168956392804
 10
408.2140657931914
 20
-485.8131102873327
 10
405.6555346650827
 20
-485.9100921648425
 10
402.8495360053669
 20
-485.9915196822338
 10
396.6604518522771
 20
-486.0998204875327
 10
392.2111235222452
 20
-486.1360954926628
 10
389.4837994023798
 20
-486.1134544353565
 10
387.1972652316797
 20
-486.0249934186008
 10
386.1736878423262
 20
-485.9296985845075
 10
385.5128068849257
 20
-485.82910559327
 10
385.2189633709281
 20
-485.7496311314562
 10
385.2422917297353
 20
-485.7344797765478
  0
LWPOLYLINE
  5
48E
330
A
100
AcDbEntity
  8
0
  6
PHANTOM
 62
     7
100
AcDbPolyline
 90
       14
 70
   128
 43
0.0
 10
648.1100722271694
 20
-487.2551306176925
 10
648.0835903331161
 20
-487.3364516771746
 10
647.6347210315108
 20
-487.4339086081035
 10
646.7463169015514
 20
-487.4858036055137
 10
645.496312438777
 20
-487.5003638854797
 10
643.4417381429161
 20
-487.491365561944
 10
641.0867636517476
 20
-487.4694568439207
 10
638.1195151321128
 20
-487.4416563095297
 10
634.9927498632363
 20
-487.4148699850596
 10
627.4607859986859
 20
-487.3645494537158
 10
620.9469200897565
 20
-487.3197923777054
 10
614.4091089619061
 20
-487.2766541316179
 10
608.0828311803858
 20
-487.2383920366468
 10
606.5749597943745
 20
-487.2306648664498
  0
ENDSEC
  0
SECTION
  2
OBJECTS
  0
DICTIONARY
  5
19
330
0
100
AcDbDictionary
281
     1
  3
ACAD_COLOR
350
4A2
  3
ACAD_GROUP
350
1A
  3
ACAD_LAYOUT
350
4A3
  3
ACAD_MATERIAL
350
4A1
  3
ACAD_MLINESTYLE
350
1B
  3
ACAD_PLOTSETTINGS
350
4A4
  3
ACAD_PLOTSTYLENAME
350
49F
  3
ACDBHEADERROUNDTRIPXREC
350
4BD
  3
AcDbVariableDictionary
350
4B5
  3
ASE_INDEX_DICTIONARY
350
4AA
  0
DICTIONARY
  5
4A2
102
{ACAD_REACTORS
330
19
102
}
330
19
100
AcDbDictionary
281
     1
  0
DICTIONARY
  5
1A
102
{ACAD_REACTORS
330
19
102
}
330
19
100
AcDbDictionary
281
     1
  0
DICTIONARY
  5
4A3
102
{ACAD_REACTORS
330
19
102
}
330
19
100
AcDbDictionary
281
     1
  3
Layout1
350
4A6
  3
Model
350
4A5
  0
DICTIONARY
  5
4A1
102
{ACAD_REACTORS
330
19
102
}
330
19
100
AcDbDictionary
281
     1
  0
DICTIONARY
  5
1B
102
{ACAD_REACTORS
330
19
102
}
330
19
100
AcDbDictionary
281
     1
  3
STANDARD
350
1C
  0
DICTIONARY
  5
4A4
102
{ACAD_REACTORS
330
19
102
}
330
19
100
AcDbDictionary
281
     1
  0
ACDBDICTIONARYWDFLT
  5
49F
102
{ACAD_REACTORS
330
19
102
}
330
19
100
AcDbDictionary
281
     1
  3
Normal
350
4A0
100
AcDbDictionaryWithDefault
340
4A0
  0
DICTIONARY
  5
4BD
102
{ACAD_REACTORS
330
19
102
}
330
19
100
AcDbDictionary
281
     1
  3
COLORDICT
350
4BF
  3
MATERIALDICT
350
4BE
  0
DICTIONARY
  5
4B5
102
{ACAD_REACTORS
330
19
102
}
330
19
100
AcDbDictionary
281
     1
  3
DIMASSOC
350
4B6
  3
PROJECTNAME
350
4B7
  0
DICTIONARY
  5
4AA
102
{ACAD_REACTORS
330
19
102
}
330
19
100
AcDbDictionary
281
     1
  3
ASEBlockHierarchyIndexRecord
350
4AC
1001
DCO15
1040
1521898315.687
  0
LAYOUT
  5
4A6
102
{ACAD_XDICTIONARY
360
4C2
102
}
102
{ACAD_REACTORS
330
4A3
102
}
330
4A3
100
AcDbPlotSettings
  1

  2
ProgeSOFT PDF Wizard
  4

  6

 40
0.0
 41
0.0
 42
0.0
 43
0.0
 44
0.0
 45
0.0
 46
0.0
 47
0.0
 48
0.0
 49
0.0
140
0.0
141
0.0
142
1.0
143
1.0
 70
   688
 72
     0
 73
     0
 74
     5
  7

 75
    16
147
1.0
148
0.0
149
0.0
100
AcDbLayout
  1
Layout1
 70
     1
 71
     1
 10
0.0
 20
0.0
 11
12.0
 21
9.0
 12
0.0
 22
0.0
 32
0.0
 14
1.000000000000000E+20
 24
1.000000000000000E+20
 34
1.000000000000000E+20
 15
-1.000000000000000E+20
 25
-1.000000000000000E+20
 35
-1.000000000000000E+20
146
0.0
 13
0.0
 23
0.0
 33
0.0
 16
1.0
 26
0.0
 36
0.0
 17
0.0
 27
1.0
 37
0.0
 76
     0
330
B
  0
LAYOUT
  5
4A5
102
{ACAD_XDICTIONARY
360
4C0
102
}
102
{ACAD_REACTORS
330
4A3
102
}
330
4A3
100
AcDbPlotSettings
  1

  2
ProgeSOFT PDF Wizard
  4

  6

 40
0.0
 41
0.0
 42
0.0
 43
0.0
 44
0.0
 45
0.0
 46
0.0
 47
0.0
 48
0.0
 49
0.0
140
0.0
141
0.0
142
1.0
143
1.0
 70
  1712
 72
     0
 73
     0
 74
     0
  7

 75
     0
147
1.0
148
0.0
149
0.0
100
AcDbLayout
  1
Model
 70
     1
 71
     0
 10
0.0
 20
0.0
 11
12.0
 21
9.0
 12
0.0
 22
0.0
 32
0.0
 14
0.0
 24
0.0
 34
0.0
 15
0.0
 25
0.0
 35
0.0
146
0.0
 13
0.0
 23
0.0
 33
0.0
 16
1.0
 26
0.0
 36
0.0
 17
0.0
 27
1.0
 37
0.0
 76
     0
330
A
  0
MLINESTYLE
  5
1C
102
{ACAD_REACTORS
330
1B
102
}
330
1B
100
AcDbMlineStyle
  2
STANDARD
 70
     0
  3

 62
     0
 51
90.0
 52
90.0
 71
     2
 49
0.5
 62
   256
  6
BYLAYER
 49
-0.5
 62
   256
  6
BYLAYER
  0
ACDBPLACEHOLDER
  5
4A0
102
{ACAD_REACTORS
330
49F
102
}
330
49F
  0
XRECORD
  5
4BF
102
{ACAD_REACTORS
330
4BD
102
}
330
4BD
100
AcDbXrecord
280
     1
340
4A2
  0
XRECORD
  5
4BE
102
{ACAD_REACTORS
330
4BD
102
}
330
4BD
100
AcDbXrecord
280
     1
340
4A1
  0
DICTIONARYVAR
  5
4B6
102
{ACAD_REACTORS
330
4B5
102
}
330
4B5
100
DictionaryVariables
280
     0
  1
1
  0
DICTIONARYVAR
  5
4B7
102
{ACAD_REACTORS
330
4B5
102
}
330
4B5
100
DictionaryVariables
280
     0
  1

  0
XRECORD
  5
4AC
102
{ACAD_REACTORS
330
4AA
102
}
330
4AA
100
AcDbXrecord
280
     1
  0
DICTIONARY
  5
4C2
330
4A6
100
AcDbDictionary
280
     1
281
     1
  3
ACAD_XREC_ROUNDTRIP
360
4C3
  0
DICTIONARY
  5
4C0
330
4A5
100
AcDbDictionary
280
     1
281
     1
  3
ACAD_XREC_ROUNDTRIP
360
4C1
  0
XRECORD
  5
4C3
102
{ACAD_REACTORS
330
4C2
102
}
330
4C2
100
AcDbXrecord
280
     1
102
SHADEPLOT
 70
     0
102
SHADEPLOTRESLEVEL
 70
     2
102
SHADEPLOTCUSTOMDPI
 70
   300
  0
XRECORD
  5
4C1
102
{ACAD_REACTORS
330
4C0
102
}
330
4C0
100
AcDbXrecord
280
     1
102
SHADEPLOT
 70
     0
102
SHADEPLOTRESLEVEL
 70
     2
102
SHADEPLOTCUSTOMDPI
 70
   300
  0
ENDSEC
  0
EOF
