  0
SECTION
  2
HEADER
  9
$ACADVER
  1
AC1015
  9
$ACADMAINTVER
 70
    20
  9
$DWGCODEPAGE
  3
ANSI_1252
  9
$INSBASE
 10
0.0
 20
0.0
 30
0.0
  9
$EXTMIN
 10
-167.3679529691967
 20
-1139.213352237954
 30
0.0
  9
$EXTMAX
 10
652.6834799871182
 20
1014.039404708097
 30
0.0
  9
$LIMMIN
 10
0.0
 20
0.0
  9
$LIMMAX
 10
0.0
 20
0.0
  9
$ORTHOMODE
 70
     0
  9
$REGENMODE
 70
     1
  9
$FILLMODE
 70
     1
  9
$QTEXTMODE
 70
     0
  9
$MIRRTEXT
 70
     1
  9
$LTSCALE
 40
1.0
  9
$ATTMODE
 70
     1
  9
$TEXTSIZE
 40
0.0
  9
$TRACEWID
 40
0.05
  9
$TEXTSTYLE
  7
STANDARD
  9
$CLAYER
  8
0
  9
$CELTYPE
  6
CONTINUOUS
  9
$CECOLOR
 62
   256
  9
$CELTSCALE
 40
1.0
  9
$DISPSILH
 70
     0
  9
$DIMSCALE
 40
1.0
  9
$DIMASZ
 40
6.0
  9
$DIMEXO
 40
1.0
  9
$DIMDLI
 40
0.38
  9
$DIMRND
 40
0.0
  9
$DIMDLE
 40
1.0
  9
$DIMEXE
 40
0.18
  9
$DIMTP
 40
0.0
  9
$DIMTM
 40
0.0
  9
$DIMTXT
 40
3.5
  9
$DIMCEN
 40
0.09
  9
$DIMTSZ
 40
0.0
  9
$DIMTOL
 70
     0
  9
$DIMLIM
 70
     0
  9
$DIMTIH
 70
     1
  9
$DIMTOH
 70
     1
  9
$DIMSE1
 70
     0
  9
$DIMSE2
 70
     0
  9
$DIMTAD
 70
     1
  9
$DIMZIN
 70
     0
  9
$DIMBLK
  1

  9
$DIMASO
 70
     1
  9
$DIMSHO
 70
     1
  9
$DIMPOST
  1

  9
$DIMAPOST
  1

  9
$DIMALT
 70
     0
  9
$DIMALTD
 70
     2
  9
$DIMALTF
 40
0.0394
  9
$DIMLFAC
 40
1.0
  9
$DIMTOFL
 70
     0
  9
$DIMTVP
 40
0.0
  9
$DIMTIX
 70
     0
  9
$DIMSOXD
 70
     0
  9
$DIMSAH
 70
     0
  9
$DIMBLK1
  1

  9
$DIMBLK2
  1

  9
$DIMSTYLE
  2
STANDARD
  9
$DIMCLRD
 70
     0
  9
$DIMCLRE
 70
     0
  9
$DIMCLRT
 70
     0
  9
$DIMTFAC
 40
1.0
  9
$DIMGAP
 40
1.0
  9
$DIMJUST
 70
     0
  9
$DIMSD1
 70
     0
  9
$DIMSD2
 70
     0
  9
$DIMTOLJ
 70
     1
  9
$DIMTZIN
 70
     0
  9
$DIMALTZ
 70
     0
  9
$DIMALTTZ
 70
     0
  9
$DIMUPT
 70
     0
  9
$DIMDEC
 70
     4
  9
$DIMTDEC
 70
     4
  9
$DIMALTU
 70
     2
  9
$DIMALTTD
 70
     2
  9
$DIMTXSTY
  7
STANDARD
  9
$DIMAUNIT
 70
     0
  9
$DIMADEC
 70
     0
  9
$DIMALTRND
 40
0.0
  9
$DIMAZIN
 70
     0
  9
$DIMDSEP
 70
    46
  9
$DIMATFIT
 70
     3
  9
$DIMFRAC
 70
     0
  9
$DIMLDRBLK
  1

  9
$DIMLUNIT
 70
     2
  9
$DIMLWD
 70
    -2
  9
$DIMLWE
 70
    -2
  9
$DIMTMOVE
 70
     0
  9
$LUNITS
 70
     2
  9
$LUPREC
 70
     2
  9
$SKETCHINC
 40
0.1
  9
$FILLETRAD
 40
0.0
  9
$AUNITS
 70
     0
  9
$AUPREC
 70
     2
  9
$MENU
  1
acad
  9
$ELEVATION
 40
0.0
  9
$PELEVATION
 40
0.0
  9
$THICKNESS
 40
0.0
  9
$LIMCHECK
 70
     0
  9
$CHAMFERA
 40
0.0
  9
$CHAMFERB
 40
0.0
  9
$CHAMFERC
 40
0.0
  9
$CHAMFERD
 40
0.0
  9
$SKPOLY
 70
     0
  9
$TDCREATE
 40
2444972.041666667
  9
$TDUCREATE
 40
2444972.000000000
  9
$TDUPDATE
 40
2453768.764737223
  9
$TDUUPDATE
 40
2453768.723070556
  9
$TDINDWG
 40
0.0072298148
  9
$TDUSRTIMER
 40
0.0072298148
  9
$USRTIMER
 70
     1
  9
$ANGBASE
 50
0.0
  9
$ANGDIR
 70
     0
  9
$PDMODE
 70
     0
  9
$PDSIZE
 40
-1.0
  9
$PLINEWID
 40
0.0
  9
$SPLFRAME
 70
     0
  9
$SPLINETYPE
 70
     6
  9
$SPLINESEGS
 70
     8
  9
$HANDSEED
  5
7DD
  9
$SURFTAB1
 70
     6
  9
$SURFTAB2
 70
     6
  9
$SURFTYPE
 70
     6
  9
$SURFU
 70
     6
  9
$SURFV
 70
     6
  9
$UCSBASE
  2

  9
$UCSNAME
  2

  9
$UCSORG
 10
0.0
 20
0.0
 30
0.0
  9
$UCSXDIR
 10
1.0
 20
0.0
 30
0.0
  9
$UCSYDIR
 10
0.0
 20
1.0
 30
0.0
  9
$UCSORTHOREF
  2

  9
$UCSORTHOVIEW
 70
     1
  9
$UCSORGTOP
 10
0.0
 20
0.0
 30
0.0
  9
$UCSORGBOTTOM
 10
0.0
 20
0.0
 30
0.0
  9
$UCSORGLEFT
 10
0.0
 20
0.0
 30
0.0
  9
$UCSORGRIGHT
 10
0.0
 20
0.0
 30
0.0
  9
$UCSORGFRONT
 10
0.0
 20
0.0
 30
0.0
  9
$UCSORGBACK
 10
0.0
 20
0.0
 30
0.0
  9
$PUCSBASE
  2

  9
$PUCSNAME
  2

  9
$PUCSORG
 10
0.0
 20
0.0
 30
0.0
  9
$PUCSXDIR
 10
1.0
 20
0.0
 30
0.0
  9
$PUCSYDIR
 10
0.0
 20
1.0
 30
0.0
  9
$PUCSORTHOREF
  2

  9
$PUCSORTHOVIEW
 70
     0
  9
$PUCSORGTOP
 10
0.0
 20
0.0
 30
0.0
  9
$PUCSORGBOTTOM
 10
0.0
 20
0.0
 30
0.0
  9
$PUCSORGLEFT
 10
0.0
 20
0.0
 30
0.0
  9
$PUCSORGRIGHT
 10
0.0
 20
0.0
 30
0.0
  9
$PUCSORGFRONT
 10
0.0
 20
0.0
 30
0.0
  9
$PUCSORGBACK
 10
0.0
 20
0.0
 30
0.0
  9
$USERI1
 70
     0
  9
$USERI2
 70
     0
  9
$USERI3
 70
     0
  9
$USERI4
 70
     0
  9
$USERI5
 70
     0
  9
$USERR1
 40
0.0
  9
$USERR2
 40
0.0
  9
$USERR3
 40
0.0
  9
$USERR4
 40
0.0
  9
$USERR5
 40
0.0
  9
$WORLDVIEW
 70
     1
  9
$SHADEDGE
 70
     3
  9
$SHADEDIF
 70
    70
  9
$TILEMODE
 70
     1
  9
$MAXACTVP
 70
    16
  9
$PINSBASE
 10
0.0
 20
0.0
 30
0.0
  9
$PLIMCHECK
 70
     0
  9
$PEXTMIN
 10
1.000000000000000E+20
 20
1.000000000000000E+20
 30
1.000000000000000E+20
  9
$PEXTMAX
 10
-1.000000000000000E+20
 20
-1.000000000000000E+20
 30
-1.000000000000000E+20
  9
$PLIMMIN
 10
0.0
 20
0.0
  9
$PLIMMAX
 10
12.0
 20
9.0
  9
$UNITMODE
 70
     0
  9
$VISRETAIN
 70
     0
  9
$PLINEGEN
 70
     1
  9
$PSLTSCALE
 70
     1
  9
$TREEDEPTH
 70
  3020
  9
$CMLSTYLE
  2
STANDARD
  9
$CMLJUST
 70
     0
  9
$CMLSCALE
 40
1.0
  9
$PROXYGRAPHICS
 70
     0
  9
$MEASUREMENT
 70
     0
  9
$CELWEIGHT
370
    -1
  9
$ENDCAPS
280
     0
  9
$JOINSTYLE
280
     0
  9
$LWDISPLAY
290
     0
  9
$INSUNITS
 70
     0
  9
$HYPERLINKBASE
  1

  9
$STYLESHEET
  1

  9
$XEDIT
290
     1
  9
$CEPSNTYPE
380
     0
  9
$PSTYLEMODE
290
     1
  9
$FINGERPRINTGUID
  2
{10BCF1C5-CD8E-4E77-A9EA-0C648B1F48DA}
  9
$VERSIONGUID
  2
{B11CAFF6-840C-484B-AE4D-2488F2D7B1B8}
  9
$EXTNAMES
290
     1
  9
$PSVPSCALE
 40
0.0
  9
$OLESTARTUP
290
     0
  0
ENDSEC
  0
SECTION
  2
CLASSES
  0
CLASS
  1
IMAGE
  2
AcDbRasterImage
  3
ISM
 90
    32895
280
     0
281
     1
  0
CLASS
  1
DICTIONARYVAR
  2
AcDbDictionaryVar
  3
ObjectDBX Classes
 90
        0
280
     0
281
     0
  0
CLASS
  1
RASTERVARIABLES
  2
AcDbRasterVariables
  3
ISM
 90
    32768
280
     0
281
     0
  0
CLASS
  1
IMAGEDEF
  2
AcDbRasterImageDef
  3
ISM
 90
    32768
280
     0
281
     0
  0
CLASS
  1
IMAGEDEF_REACTOR
  2
AcDbRasterImageDefReactor
  3
ISM
 90
    32769
280
     0
281
     0
  0
CLASS
  1
IDBUFFER
  2
AcDbIdBuffer
  3
ObjectDBX Classes
 90
    32768
280
     0
281
     0
  0
CLASS
  1
SPATIAL_FILTER
  2
AcDbSpatialFilter
  3
ObjectDBX Classes
 90
    32768
280
     0
281
     0
  0
CLASS
  1
SORTENTSTABLE
  2
AcDbSortentsTable
  3
ObjectDBX Classes
 90
    32768
280
     0
281
     0
  0
CLASS
  1
LAYER_INDEX
  2
AcDbLayerIndex
  3
ObjectDBX Classes
 90
    32768
280
     0
281
     0
  0
CLASS
  1
SPATIAL_INDEX
  2
AcDbSpatialIndex
  3
ObjectDBX Classes
 90
    32768
280
     0
281
     0
  0
CLASS
  1
OBJECT_PTR
  2
CAseDLPNTableRecord
  3
ASE-LPNTableRecord
 90
    32769
280
     0
281
     0
  0
CLASS
  1
LAYOUT
  2
AcDbLayout
  3
ObjectDBX Classes
 90
        0
280
     0
281
     0
  0
CLASS
  1
PLOTSETTINGS
  2
AcDbPlotSettings
  3
ObjectDBX Classes
 90
    32768
280
     0
281
     0
  0
CLASS
  1
ACDBDICTIONARYWDFLT
  2
AcDbDictionaryWithDefault
  3
ObjectDBX Classes
 90
        0
280
     0
281
     0
  0
CLASS
  1
ACDBPLACEHOLDER
  2
AcDbPlaceHolder
  3
ObjectDBX Classes
 90
        0
280
     0
281
     0
  0
CLASS
  1
VBA_PROJECT
  2
AcDbVbaProject
  3
acad
 90
    32768
280
     0
281
     0
  0
CLASS
  1
WIPEOUT
  2
AcDbWipeout
  3
"WipeOut|Product Desc: Object Enabler for WipeOut entity^I^I^I^I^I^I|Company: Autodesk, Inc.^I^I^I^I^I^I|WEB Address: www.autodesk.com"
 90
    32895
280
     0
281
     1
  0
CLASS
  1
WIPEOUTVARIABLES
  2
AcDbWipeoutVariables
  3
"WipeOut|Product Desc:     WipeOut Dbx Application|Company:          Autodesk, Inc.|WEB Address:      www.autodesk.com"
 90
    32768
280
     0
281
     0
  0
CLASS
  1
RTEXT
  2
RText
  3
RText|AutoCAD Express Tool|expresstools@autodesk.com
 90
    32768
280
     0
281
     1
  0
CLASS
  1
ARCALIGNEDTEXT
  2
AcDbArcAlignedText
  3
ATEXT|AutoCAD Express Tool|expresstools@autodesk.com
 90
    32768
280
     0
281
     1
  0
ENDSEC
  0
SECTION
  2
TABLES
  0
TABLE
  2
VPORT
  5
7
330
0
100
AcDbSymbolTable
 70
     2
  0
VPORT
  5
7D5
330
7
100
AcDbSymbolTableRecord
100
AcDbViewportTableRecord
  2
*Active
 70
     0
 10
0.0
 20
0.0
 11
1.0
 21
1.0
 12
359.0078950503762
 22
-62.58697376492841
 13
0.0
 23
0.0
 14
1.0
 24
1.0
 15
0.0
 25
0.0
 16
0.0
 26
0.0
 36
1.0
 17
0.0
 27
0.0
 37
0.0
 40
2171.125359141748
 41
1.569570871261378
 42
50.0
 43
0.0
 44
0.0
 50
0.0
 51
0.0
 71
     0
 72
  2000
 73
     1
 74
     1
 75
     0
 76
     0
 77
     0
 78
     0
281
     0
 65
     1
110
0.0
120
0.0
130
0.0
111
1.0
121
0.0
131
0.0
112
0.0
122
1.0
132
0.0
 79
     1
146
0.0
  0
ENDTAB
  0
TABLE
  2
LTYPE
  5
4
330
0
100
AcDbSymbolTable
 70
     6
  0
LTYPE
  5
11
330
4
100
AcDbSymbolTableRecord
100
AcDbLinetypeTableRecord
  2
BYBLOCK
 70
     0
  3

 72
    65
 73
     0
 40
0.0
  0
LTYPE
  5
12
330
4
100
AcDbSymbolTableRecord
100
AcDbLinetypeTableRecord
  2
BYLAYER
 70
     0
  3

 72
    65
 73
     0
 40
0.0
  0
LTYPE
  5
13
330
4
100
AcDbSymbolTableRecord
100
AcDbLinetypeTableRecord
  2
CONTINUOUS
 70
     0
  3
Solid line
 72
    65
 73
     0
 40
0.0
  0
LTYPE
  5
1E
330
4
100
AcDbSymbolTableRecord
100
AcDbLinetypeTableRecord
  2
HIDDEN
 70
     0
  3
Hidden __ __ __ __ __ __ __ __ __ __ __ __ __ __
 72
    65
 73
     2
 40
1.905
 49
1.27
 74
     0
 49
-0.635
 74
     0
  0
LTYPE
  5
1F
330
4
100
AcDbSymbolTableRecord
100
AcDbLinetypeTableRecord
  2
PHANTOM
 70
     0
  3
Phantom ______  __  __  ______  __  __  ______
 72
    65
 73
     6
 40
12.7
 49
6.349999999999999
 74
     0
 49
-1.27
 74
     0
 49
1.27
 74
     0
 49
-1.27
 74
     0
 49
1.27
 74
     0
 49
-1.27
 74
     0
  0
LTYPE
  5
20
330
4
100
AcDbSymbolTableRecord
100
AcDbLinetypeTableRecord
  2
CENTER
 70
     0
  3
Center ____ _ ____ _ ____ _ ____ _ ____ _ ____
 72
    65
 73
     4
 40
10.16
 49
6.349999999999999
 74
     0
 49
-1.27
 74
     0
 49
1.27
 74
     0
 49
-1.27
 74
     0
  0
LTYPE
  5
21
330
4
100
AcDbSymbolTableRecord
100
AcDbLinetypeTableRecord
  2
CENTERX2
 70
     0
  3
Center (2x) ________  __  ________  __  _____
 72
    65
 73
     4
 40
20.32
 49
12.7
 74
     0
 49
-2.54
 74
     0
 49
2.54
 74
     0
 49
-2.54
 74
     0
  0
LTYPE
  5
22
330
4
100
AcDbSymbolTableRecord
100
AcDbLinetypeTableRecord
  2
DOT2
 70
     0
  3
Dot (.5x) ........................................
 72
    65
 73
     2
 40
0.635
 49
0.0
 74
     0
 49
-0.635
 74
     0
  0
ENDTAB
  0
TABLE
  2
LAYER
  5
2
330
0
100
AcDbSymbolTable
 70
     2
  0
LAYER
  5
14
330
2
100
AcDbSymbolTableRecord
100
AcDbLayerTableRecord
  2
0
 70
     0
 62
     7
  6
CONTINUOUS
370
    -3
390
7BA
  0
LAYER
  5
26
330
2
100
AcDbSymbolTableRecord
100
AcDbLayerTableRecord
  2
DEFPOINTS
 70
     0
 62
     7
  6
CONTINUOUS
290
     0
370
    -3
390
7BA
  0
ENDTAB
  0
TABLE
  2
STYLE
  5
3
330
0
100
AcDbSymbolTable
 70
     1
  0
STYLE
  5
17
330
3
100
AcDbSymbolTableRecord
100
AcDbTextStyleTableRecord
  2
STANDARD
 70
     0
 40
0.0
 41
1.0
 50
0.0
 71
     0
 42
0.0
  3
Century Gothic
  4

  0
ENDTAB
  0
TABLE
  2
VIEW
  5
5
330
0
100
AcDbSymbolTable
 70
     0
  0
ENDTAB
  0
TABLE
  2
UCS
  5
6
330
0
100
AcDbSymbolTable
 70
     0
  0
ENDTAB
  0
TABLE
  2
APPID
  5
8
330
0
100
AcDbSymbolTable
 70
     2
  0
APPID
  5
16
330
8
100
AcDbSymbolTableRecord
100
AcDbRegAppTableRecord
  2
ACAD
 70
     0
  0
APPID
  5
7C5
330
8
100
AcDbSymbolTableRecord
100
AcDbRegAppTableRecord
  2
DCO15
 70
     0
  0
ENDTAB
  0
TABLE
  2
DIMSTYLE
  5
9
330
0
100
AcDbSymbolTable
 70
     1
100
AcDbDimStyleTable
 71
     0
  0
DIMSTYLE
105
18
330
9
100
AcDbSymbolTableRecord
100
AcDbDimStyleTableRecord
  2
STANDARD
 70
     0
289
     0
340
17
  0
ENDTAB
  0
TABLE
  2
BLOCK_RECORD
  5
1
330
0
100
AcDbSymbolTable
 70
     0
  0
BLOCK_RECORD
  5
A
330
1
100
AcDbSymbolTableRecord
100
AcDbBlockTableRecord
  2
*MODEL_SPACE
340
7BF
  0
BLOCK_RECORD
  5
B
330
1
100
AcDbSymbolTableRecord
100
AcDbBlockTableRecord
  2
*PAPER_SPACE
340
7C0
  0
ENDTAB
  0
ENDSEC
  0
SECTION
  2
BLOCKS
  0
BLOCK
  5
D
330
A
100
AcDbEntity
  8
0
100
AcDbBlockBegin
  2
*MODEL_SPACE
 70
     0
 10
0.0
 20
0.0
 30
0.0
  3
*MODEL_SPACE
  1

  0
ENDBLK
  5
E
330
A
100
AcDbEntity
  8
0
100
AcDbBlockEnd
  0
BLOCK
  5
F
330
B
100
AcDbEntity
 67
     1
  8
0
100
AcDbBlockBegin
  2
*PAPER_SPACE
 70
     0
 10
0.0
 20
0.0
 30
0.0
  3
*PAPER_SPACE
  1

  0
ENDBLK
  5
10
330
B
100
AcDbEntity
 67
     1
  8
0
100
AcDbBlockEnd
  0
ENDSEC
  0
SECTION
  2
ENTITIES
  0
ARC
  5
27
330
A
100
AcDbEntity
  8
0
  6
Continuous
 62
     7
100
AcDbCircle
 10
88.94722629760982
 20
1214.277480501909
 30
0.0
 40
251.0000000000002
100
AcDbArc
 50
248.7431291678446
 51
257.5669771989553
  0
ARC
  5
28
330
A
100
AcDbEntity
  8
0
  6
Continuous
 62
     7
100
AcDbCircle
 10
88.94722629760982
 20
1214.277480501909
 30
0.0
 40
251.0000000000001
100
AcDbArc
 50
258.0282833405025
 51
269.7717293582164
  0
ARC
  5
29
330
A
100
AcDbEntity
  8
0
  6
Continuous
 62
     7
100
AcDbCircle
 10
88.94722629760982
 20
1214.277480501909
 30
0.0
 40
251.0000000000001
100
AcDbArc
 50
270.2282706417853
 51
281.971716659499
  0
ARC
  5
2A
330
A
100
AcDbEntity
  8
0
  6
Continuous
 62
     7
100
AcDbCircle
 10
88.94722629760982
 20
1214.277480501909
 30
0.0
 40
251.0000000000002
100
AcDbArc
 50
282.4330228010463
 51
291.256870832157
  0
LINE
  5
2B
330
A
100
AcDbEntity
  8
0
  6
Continuous
 62
     7
100
AcDbLine
 10
-2.052773702390153
 20
987.0394047080973
 30
0.0
 11
-2.052773702390153
 21
980.3544162264941
 31
0.0
  0
LINE
  5
2C
330
A
100
AcDbEntity
  8
0
  6
Continuous
 62
     7
100
AcDbLine
 10
179.9472262976098
 20
980.3544162264941
 30
0.0
 11
179.9472262976098
 21
987.0394047080973
 31
0.0
  0
LINE
  5
2D
330
A
100
AcDbEntity
  8
0
  6
Continuous
 62
     7
100
AcDbLine
 10
22.94722629760984
 20
1014.039404708097
 30
0.0
 11
22.94722629760984
 21
987.0394047080973
 31
0.0
  0
LINE
  5
2E
330
A
100
AcDbEntity
  8
0
  6
Continuous
 62
     7
100
AcDbLine
 10
154.9472262976098
 20
987.0394047080973
 30
0.0
 11
154.9472262976098
 21
1014.039404708097
 31
0.0
  0
LINE
  5
2F
330
A
100
AcDbEntity
  8
0
  6
Continuous
 62
     7
100
AcDbLine
 10
87.94722629760984
 20
963.2794725416866
 30
0.0
 11
87.94722629760984
 21
-511.9605952919026
 31
0.0
  0
LINE
  5
30
330
A
100
AcDbEntity
  8
0
  6
Continuous
 62
     7
100
AcDbLine
 10
89.94722629760984
 20
-511.9605952919026
 30
0.0
 11
89.94722629760984
 21
963.2794725416866
 31
0.0
  0
LINE
  5
31
330
A
100
AcDbEntity
  8
0
  6
Continuous
 62
     7
100
AcDbLine
 10
141.0118589259371
 20
968.7367017516631
 30
0.0
 11
244.2111489397435
 21
-521.9605952919026
 31
0.0
  0
LINE
  5
32
330
A
100
AcDbEntity
  8
0
  6
Continuous
 62
     7
100
AcDbLine
 10
246.2159358476216
 20
-521.9605952919026
 30
0.0
 11
142.9870752480355
 21
969.1638441504913
 31
0.0
  0
LINE
  5
33
330
A
100
AcDbEntity
  8
0
  6
Continuous
 62
     7
100
AcDbLine
 10
34.90737734718431
 20
969.1638441504913
 30
0.0
 11
-68.32148325240178
 21
-521.9605952919026
 31
0.0
  0
LINE
  5
34
330
A
100
AcDbEntity
  8
0
  6
Continuous
 62
     7
100
AcDbLine
 10
-66.31669634452395
 20
-521.9605952919026
 30
0.0
 11
36.8825936692824
 21
968.7367017516631
 31
0.0
  0
LINE
  5
35
330
A
100
AcDbEntity
  8
0
  6
Continuous
 62
     7
100
AcDbLine
 10
273.9472262976099
 20
-531.9605952919026
 30
0.0
 11
273.9472262976099
 21
-521.9605952919026
 31
0.0
  0
LINE
  5
36
330
A
100
AcDbEntity
  8
0
  6
Continuous
 62
     7
100
AcDbLine
 10
-96.05277370239015
 20
-521.9605952919026
 30
0.0
 11
-96.05277370239015
 21
-531.9605952919026
 31
0.0
  0
LINE
  5
37
330
A
100
AcDbEntity
  8
0
  6
Continuous
 62
     7
100
AcDbLine
 10
228.3050906738789
 20
-531.9605952919026
 30
0.0
 11
228.3050906738789
 21
-534.482834215132
 31
0.0
  0
LINE
  5
38
330
A
100
AcDbEntity
  8
0
  6
Continuous
 62
     7
100
AcDbLine
 10
261.305090673879
 20
-534.4828342151311
 30
0.0
 11
261.305090673879
 21
-531.9605952919026
 31
0.0
  0
LINE
  5
39
330
A
100
AcDbEntity
  8
0
  6
Continuous
 62
     7
100
AcDbLine
 10
72.44722629760985
 20
-531.9605952919026
 30
0.0
 11
72.44722629760985
 21
-534.4828342151317
 31
0.0
  0
LINE
  5
3A
330
A
100
AcDbEntity
  8
0
  6
Continuous
 62
     7
100
AcDbLine
 10
105.4472262976098
 20
-534.4828342151317
 30
0.0
 11
105.4472262976098
 21
-531.9605952919026
 31
0.0
  0
LINE
  5
3B
330
A
100
AcDbEntity
  8
0
  6
Continuous
 62
     7
100
AcDbLine
 10
-82.55277370239014
 20
-531.9605952919026
 30
0.0
 11
-82.55277370239014
 21
-534.4718987551114
 31
0.0
  0
LINE
  5
3C
330
A
100
AcDbEntity
  8
0
  6
Continuous
 62
     7
100
AcDbLine
 10
-49.55277370239016
 20
-534.4718987551093
 30
0.0
 11
-49.55277370239016
 21
-531.9605952919026
 31
0.0
  0
LWPOLYLINE
  5
3D
330
A
100
AcDbEntity
  8
0
  6
Continuous
 62
     7
100
AcDbPolyline
 90
       24
 70
   128
 43
0.0
 10
309.9168360685289
 20
-689.4828342151315
 10
310.1505148052177
 20
-679.4279044847431
 10
310.3578730670406
 20
-670.5425288713966
 10
310.5387260587904
 20
-662.8267073756235
 10
310.6928242066601
 20
-656.2804399974234
 10
310.8198920498
 20
-650.9037267367965
 10
310.9196600776633
 20
-646.6965675937428
 10
310.9796570154121
 20
-644.1729192439525
 10
311.0219294680456
 20
-642.3977855294089
 10
311.0469365018277
 20
-641.3488382545785
 10
311.0698573379934
 20
-640.3881532343511
 10
311.0976721737919
 20
-639.2233350343811
 10
311.1303952309917
 20
-637.8543836546683
 10
311.1680438836394
 20
-636.2812990952134
 10
311.2499316153965
 20
-632.8671315054914
 10
311.3486145818068
 20
-628.7668496171901
 10
311.4643174885689
 20
-623.9804534303092
 10
311.6748452139018
 20
-615.3325258941753
 10
311.9173895736187
 20
-605.4744367770983
 10
312.1935387742071
 20
-594.4093110050827
 10
312.5058938251013
 20
-582.1371485781286
 10
312.8583723966841
 20
-568.6579494962358
 10
313.2565180228703
 20
-553.9717137594045
 10
313.6636690075197
 20
-539.6286590556425
  0
LWPOLYLINE
  5
57
330
A
100
AcDbEntity
  8
0
  6
Continuous
 62
     7
100
AcDbPolyline
 90
        9
 70
   128
 43
0.0
 10
308.7010496500033
 20
-534.4829966485056
 10
309.6859267880341
 20
-534.5891588166645
 10
310.6305288978713
 20
-534.8875765683912
 10
311.4977458291519
 20
-535.36652610218
 10
312.2535076275719
 20
-536.0071911471062
 10
312.868123025574
 20
-536.7844021890403
 10
313.3174459095748
 20
-537.6676252938215
 10
313.583823937267
 20
-538.6221616799398
 10
313.6567920371055
 20
-539.610510913671
  0
LWPOLYLINE
  5
62
330
A
100
AcDbEntity
  8
0
  6
Continuous
 62
     7
100
AcDbPolyline
 90
        5
 70
   128
 43
0.0
 10
154.1480300357353
 20
-535.611055596771
 10
154.6166482234207
 20
-535.2674252498867
 10
155.4600711852085
 20
-534.831465755166
 10
156.3701435754482
 20
-534.5667499370549
 10
157.3133603851458
 20
-534.483023510248
  0
LWPOLYLINE
  5
69
330
A
100
AcDbEntity
  8
0
  6
Continuous
 62
     7
100
AcDbPolyline
 90
        8
 70
   128
 43
0.0
 10
313.4753764614893
 20
-689.4828342151318
 10
313.4789635374286
 20
-674.7123430343746
 10
313.5679459086157
 20
-658.7602125591571
 10
313.5600220583097
 20
-641.6264427894794
 10
313.4032714205144
 20
-623.3110337253407
 10
313.1187268295712
 20
-603.8139853667416
 10
312.7485767857002
 20
-583.1352977136819
 10
312.6347471585846
 20
-577.2096441156929
  0
LWPOLYLINE
  5
73
330
A
100
AcDbEntity
  8
0
  6
Continuous
 62
     7
100
AcDbPolyline
 90
       33
 70
   128
 43
0.0
 10
-125.9447238161315
 20
-540.3816203195623
 10
-125.2617609664679
 20
-544.0996069719512
 10
-124.2824350354828
 20
-549.4444381302421
 10
-123.5266967242226
 20
-553.5783088138457
 10
-122.9933186744204
 20
-556.5012190227617
 10
-122.6073749044402
 20
-558.6191699748646
 10
-122.1473770387075
 20
-561.1470066397155
 10
-121.2460424551648
 20
-566.1120203080541
 10
-120.1288484900989
 20
-572.2903326432988
 10
-118.7994816783176
 20
-579.6819436454499
 10
-117.6419832033363
 20
-586.1583717969871
 10
-116.3663746579708
 20
-593.3454210440415
 10
-115.0418496633323
 20
-600.8715241394751
 10
-113.8387900725867
 20
-607.7746599257213
 10
-112.7641969762369
 20
-614.0055632220771
 10
-111.8161199516445
 20
-619.5642340285421
 10
-110.9924124023656
 20
-624.4506723451165
 10
-110.0881444007937
 20
-629.8925272494544
 10
-109.3926484667735
 20
-634.1528440452697
 10
-108.8998731530567
 20
-637.2316227325622
 10
-108.583860611538
 20
-639.249469968242
 10
-108.257089501253
 20
-641.3319303274538
 10
-107.8761330715669
 20
-643.7546352959178
 10
-107.6224733402
 20
-645.3715756894371
 10
-107.35060685577
 20
-647.1110041422871
 10
-107.0462794372953
 20
-649.0680323053721
 10
-106.6111165045857
 20
-651.8880133321328
 10
-106.031268552765
 20
-655.691994323778
 10
-105.3138777288962
 20
-660.4799752803082
 10
-104.4683023858611
 20
-666.2519562017232
 10
-103.5060933627403
 20
-673.0079370880231
 10
-102.4406872334427
 20
-680.7479179392077
 10
-101.2866799397076
 20
-689.4718987551105
  0
LWPOLYLINE
  5
96
330
A
100
AcDbEntity
  8
0
  6
Continuous
 62
     7
100
AcDbPolyline
 90
       23
 70
   128
 43
0.0
 10
-4.142985021823641
 20
-689.4718987551087
 10
-4.066916025726285
 20
-673.5457806696587
 10
-3.963304355778282
 20
-658.9010204111249
 10
-3.843915122575369
 20
-645.5376179795073
 10
-3.719933548205683
 20
-633.4555733748059
 10
-3.600141541585846
 20
-622.6548865970205
 10
-3.490361230954447
 20
-613.1355576461515
 10
-3.393815651431139
 20
-604.9036410485646
 10
-3.352281654441111
 20
-601.388379979787
 10
-3.316292244313345
 20
-598.3522022997998
 10
-3.285929100839135
 20
-595.795108008603
 10
-3.261228603519156
 20
-593.7170971061966
 10
-3.242203941425159
 20
-592.118169592581
 10
-3.228863016926999
 20
-590.9983254677555
 10
-3.21182089946756
 20
-589.5703920140475
 10
-3.182341340685096
 20
-587.1074035477626
 10
-3.139014064810333
 20
-583.502713469642
 10
-3.081650271933717
 20
-578.7563217796857
 10
-3.010023337979866
 20
-572.8682284778942
 10
-2.923885158678973
 20
-565.8384335642669
 10
-2.82298701233366
 20
-557.6669370388043
 10
-2.707105439375773
 20
-548.3537389015061
 10
-2.596577621769041
 20
-539.5348259601327
  0
LWPOLYLINE
  5
AF
330
A
100
AcDbEntity
  8
0
  6
Continuous
 62
     7
100
AcDbPolyline
 90
        9
 70
   128
 43
0.0
 10
-125.9321278434275
 20
-540.38388218216
 10
-126.0129821814997
 20
-539.2991625649847
 10
-125.8574506639846
 20
-538.2226179289631
 10
-125.4728940369053
 20
-537.2051972507062
 10
-124.8775119790704
 20
-536.2950513830506
 10
-124.0994817768874
 20
-535.5352542487785
 10
-123.1756247949773
 20
-534.9617643071385
 10
-122.149663853731
 20
-534.6017227696005
 10
-121.0701539858435
 20
-534.4721691041638
  0
LWPOLYLINE
  5
BA
330
A
100
AcDbEntity
  8
0
  6
Continuous
 62
     7
100
AcDbPolyline
 90
        9
 70
   128
 43
0.0
 10
-7.617400835320683
 20
-534.4719197972565
 10
-6.678598315484577
 20
-534.5582294504061
 10
-5.726098107507709
 20
-534.8381771258117
 10
-4.847711363692774
 20
-535.3011061552101
 10
-4.078124758935514
 20
-535.9287359021331
 10
-3.447728551913317
 20
-536.696281852083
 10
-2.981416502057854
 20
-537.5734343299416
 10
-2.697602838166626
 20
-538.5255554008265
 10
-2.607495097648085
 20
-539.5150466898995
  0
LINE
  5
C5
330
A
100
AcDbEntity
  8
0
  6
Continuous
 62
     7
100
AcDbLine
 10
-7.667468854989908
 20
-538.4739886838139
 30
0.0
 11
-7.617397914001788
 21
-538.4720039287453
 31
0.0
  0
LWPOLYLINE
  5
C6
330
A
100
AcDbEntity
  8
0
  6
Continuous
 62
     7
100
AcDbPolyline
 90
       34
 70
   128
 43
0.0
 10
-163.8174153962345
 20
-539.6485968337487
 10
-163.5503220673761
 20
-547.4558260125843
 10
-163.2923325167527
 20
-555.6139437793659
 10
-163.0909154769453
 20
-562.696422364501
 10
-162.941460999974
 20
-568.7032617679892
 10
-162.8367631261874
 20
-573.6344619898308
 10
-162.7714005873481
 20
-577.2917278721722
 10
-162.7306955853779
 20
-579.9969405238722
 10
-162.7081790894972
 20
-581.7500999449312
 10
-162.6963752393477
 20
-582.7956889831556
 10
-162.68223551002
 20
-584.2377629271728
 10
-162.6627030464095
 20
-586.9290302301545
 10
-162.6514590926054
 20
-590.5307314011943
 10
-162.6631950645026
 20
-594.8733078731562
 10
-162.725785866055
 20
-600.3788485341823
 10
-162.8375913913988
 20
-605.3175182424737
 10
-162.9913175077436
 20
-609.6893169980302
 10
-163.1768928648123
 20
-613.6046641832986
 10
-163.4096741544959
 20
-617.9087718427904
 10
-163.6885556301829
 20
-622.7253383132311
 10
-164.003707142319
 20
-628.0543635946205
 10
-164.2983246402323
 20
-633.221405300357
 10
-164.5165012095322
 20
-637.3107811367077
 10
-164.6780067189374
 20
-640.4313528405302
 10
-164.7636205466169
 20
-642.0823001154166
 10
-164.8488735684422
 20
-643.7183238352375
 10
-164.9762624347142
 20
-646.1465479153063
 10
-165.1545216390291
 20
-649.5150499339223
 10
-165.3848983251972
 20
-653.8238298910854
 10
-165.668809536563
 20
-659.0728877867957
 10
-166.0077361337587
 20
-665.2622236210531
 10
-166.403109099905
 20
-672.3918373938576
 10
-166.8561914996344
 20
-680.4617291052093
 10
-167.3679529691967
 20
-689.4718987551081
  0
LWPOLYLINE
  5
EA
330
A
100
AcDbEntity
  8
0
  6
Continuous
 62
     7
100
AcDbPolyline
 90
        9
 70
   128
 43
0.0
 10
-163.8163732512142
 20
-539.6575623169844
 10
-163.7529546023804
 20
-538.6569099052853
 10
-163.4911622082142
 20
-537.6890307147133
 10
-163.041523550196
 20
-536.7928461596451
 10
-162.4221199887882
 20
-536.0043945915263
 10
-161.6578596560335
 20
-535.355382085348
 10
-160.7794758225644
 20
-534.8719074403562
 10
-159.8222910177805
 20
-534.5734126666513
 10
-158.824796601746
 20
-534.4719011618566
  0
LWPOLYLINE
  5
F5
330
A
100
AcDbEntity
  8
0
  6
Continuous
 62
     7
100
AcDbPolyline
 90
       26
 70
   128
 43
0.0
 10
157.5591342814927
 20
-689.482834215132
 10
157.1138350192543
 20
-675.4810550458456
 10
156.6991310534787
 20
-662.5576517292754
 10
156.3327227303767
 20
-650.7126242654219
 10
156.0239792068342
 20
-639.9459726542846
 10
155.7757793691356
 20
-630.2576968958639
 10
155.5862055483915
 20
-621.6477969901596
 10
155.4490583163141
 20
-614.1162729371719
 10
155.356040495957
 20
-607.6631247369001
 10
155.2984262286716
 20
-602.2883523893454
 10
155.2674350815426
 20
-597.9919558945068
 10
155.2568449680235
 20
-595.5833313692444
 10
155.2518668269223
 20
-593.5869382954474
 10
155.2497071731182
 20
-591.7494717350867
 10
155.2496905238347
 20
-590.0654624514079
 10
155.2512559605774
 20
-588.5349104444109
 10
155.2539178223476
 20
-587.1578157140957
 10
155.25908265328
 20
-585.3414351954913
 10
155.2699253593665
 20
-582.7470138206374
 10
155.2913746971443
 20
-579.2114117431949
 10
155.3292431446082
 20
-574.734628963164
 10
155.3902864821577
 20
-569.3166654805446
 10
155.4816672168078
 20
-562.9575212953366
 10
155.6104227357748
 20
-555.6571964075402
 10
155.7855631266895
 20
-547.4156908171554
 10
155.9834102929988
 20
-539.6234573011684
  0
LWPOLYLINE
  5
111
330
A
100
AcDbEntity
  8
0
  6
Continuous
 62
     7
100
AcDbPolyline
 90
        9
 70
   128
 43
0.0
 10
150.9842269808977
 20
-534.4828342154648
 10
151.9658132865792
 20
-534.5801209674013
 10
152.9193490252246
 20
-534.8724645104923
 10
153.7958924759084
 20
-535.348245320151
 10
154.560567751246
 20
-535.9885330422411
 10
155.1829499718227
 20
-536.7678519259913
 10
155.6382758104832
 20
-537.6551944524874
 10
155.9084287749304
 20
-538.6152550610046
 10
155.9826600262364
 20
-539.6098348857147
  0
LWPOLYLINE
  5
11C
330
A
100
AcDbEntity
  8
0
  6
Continuous
 62
     7
100
AcDbPolyline
 90
        5
 70
   128
 43
0.0
 10
-4.587901804012917
 20
-535.4852065686885
 10
-4.251100213940081
 20
-535.2531143613488
 10
-3.418055553813068
 20
-534.8310647786976
 10
-2.521058346162758
 20
-534.571285531399
 10
-1.59139905791468
 20
-534.4828386476028
  0
LINE
  5
123
330
A
100
AcDbEntity
  8
0
  6
Continuous
 62
     7
100
AcDbLine
 10
56.16661378898695
 20
-534.4828362945703
 30
0.0
 11
56.1620372240838
 21
-534.4828342151591
 31
0.0
  0
LINE
  5
124
330
A
100
AcDbEntity
  8
0
  6
Continuous
 62
     7
100
AcDbLine
 10
88.94722629760984
 20
980.3544162264941
 30
0.0
 11
179.9472262976098
 21
980.3544162264941
 31
0.0
  0
LINE
  5
125
330
A
100
AcDbEntity
  8
0
  6
Continuous
 62
     7
100
AcDbLine
 10
-2.052773702390153
 20
980.3544162264941
 30
0.0
 11
88.94722629760984
 21
980.3544162264941
 31
0.0
  0
LINE
  5
126
330
A
100
AcDbEntity
  8
0
  6
Continuous
 62
     7
100
AcDbLine
 10
88.94722629760984
 20
987.0394047080973
 30
0.0
 11
179.9472262976098
 21
987.0394047080973
 31
0.0
  0
LINE
  5
127
330
A
100
AcDbEntity
  8
0
  6
Continuous
 62
     7
100
AcDbLine
 10
-2.052773702390153
 20
987.0394047080973
 30
0.0
 11
88.94722629760984
 21
987.0394047080973
 31
0.0
  0
LINE
  5
128
330
A
100
AcDbEntity
  8
0
  6
Continuous
 62
     7
100
AcDbLine
 10
88.94722629760984
 20
1014.039404708097
 30
0.0
 11
154.9472262976098
 21
1014.039404708097
 31
0.0
  0
LINE
  5
129
330
A
100
AcDbEntity
  8
0
  6
Continuous
 62
     7
100
AcDbLine
 10
22.94722629760984
 20
1014.039404708097
 30
0.0
 11
88.94722629760984
 21
1014.039404708097
 31
0.0
  0
LINE
  5
12A
330
A
100
AcDbEntity
  8
0
  6
Continuous
 62
     7
100
AcDbLine
 10
19.98346769934317
 20
-511.9605952919026
 30
0.0
 11
19.98346769934317
 21
-531.9605952919026
 31
0.0
  0
LINE
  5
12B
330
A
100
AcDbEntity
  8
0
  6
Continuous
 62
     7
100
AcDbLine
 10
19.98346769934317
 20
-511.9605952919026
 30
0.0
 11
157.9109848958765
 21
-511.9605952919026
 31
0.0
  0
LINE
  5
12C
330
A
100
AcDbEntity
  8
0
  6
Continuous
 62
     7
100
AcDbLine
 10
157.9109848958765
 20
-511.9605952919026
 30
0.0
 11
157.9109848958765
 21
-531.9605952919026
 31
0.0
  0
LINE
  5
12D
330
A
100
AcDbEntity
  8
0
  6
Continuous
 62
     7
100
AcDbLine
 10
19.98346769934317
 20
-531.9605952919026
 30
0.0
 11
157.9109848958765
 21
-531.9605952919026
 31
0.0
  0
LINE
  5
12E
330
A
100
AcDbEntity
  8
0
  6
Continuous
 62
     7
100
AcDbLine
 10
215.6629550501479
 20
-521.9605952919026
 30
0.0
 11
215.6629550501479
 21
-531.9605952919026
 31
0.0
  0
LINE
  5
12F
330
A
100
AcDbEntity
  8
0
  6
Continuous
 62
     7
100
AcDbLine
 10
273.9472262976099
 20
-521.9605952919026
 30
0.0
 11
215.6629550501479
 21
-521.9605952919026
 31
0.0
  0
LINE
  5
130
330
A
100
AcDbEntity
  8
0
  6
Continuous
 62
     7
100
AcDbLine
 10
215.6629550501479
 20
-531.9605952919026
 30
0.0
 11
273.9472262976099
 21
-531.9605952919026
 31
0.0
  0
LINE
  5
131
330
A
100
AcDbEntity
  8
0
  6
Continuous
 62
     7
100
AcDbLine
 10
-37.76850245492825
 20
-521.9605952919026
 30
0.0
 11
-96.05277370239015
 21
-521.9605952919026
 31
0.0
  0
LINE
  5
132
330
A
100
AcDbEntity
  8
0
  6
Continuous
 62
     7
100
AcDbLine
 10
-37.76850245492825
 20
-521.9605952919026
 30
0.0
 11
-37.76850245492825
 21
-531.9605952919026
 31
0.0
  0
LINE
  5
133
330
A
100
AcDbEntity
  8
0
  6
Continuous
 62
     7
100
AcDbLine
 10
-96.05277370239015
 20
-531.9605952919026
 30
0.0
 11
-37.76850245492825
 21
-531.9605952919026
 31
0.0
  0
LINE
  5
134
330
A
100
AcDbEntity
  8
0
  6
Continuous
 62
     7
100
AcDbLine
 10
215.6629550501479
 20
-521.9605952919026
 30
0.0
 11
157.9109848958765
 21
-511.9605952919026
 31
0.0
  0
LINE
  5
135
330
A
100
AcDbEntity
  8
0
  6
Continuous
 62
     7
100
AcDbLine
 10
157.9109848958765
 20
-531.9605952919026
 30
0.0
 11
215.6629550501479
 21
-531.9605952919026
 31
0.0
  0
LINE
  5
136
330
A
100
AcDbEntity
  8
0
  6
Continuous
 62
     7
100
AcDbLine
 10
19.98346769934317
 20
-511.9605952919026
 30
0.0
 11
-37.76850245492825
 21
-521.9605952919026
 31
0.0
  0
LINE
  5
137
330
A
100
AcDbEntity
  8
0
  6
Continuous
 62
     7
100
AcDbLine
 10
-37.76850245492825
 20
-531.9605952919026
 30
0.0
 11
19.98346769934317
 21
-531.9605952919026
 31
0.0
  0
LINE
  5
138
330
A
100
AcDbEntity
  8
0
  6
Continuous
 62
     7
100
AcDbLine
 10
233.3405526667737
 20
-689.482834215132
 30
0.0
 11
233.3405526645729
 21
-539.8793622617954
 31
0.0
  0
LINE
  5
139
330
A
100
AcDbEntity
  8
0
  6
Continuous
 62
     7
100
AcDbLine
 10
233.3405307650177
 20
-539.8786238874637
 30
0.0
 11
233.3405526645729
 21
-539.8793622617954
 31
0.0
  0
LWPOLYLINE
  5
13A
330
A
100
AcDbEntity
  8
0
  6
Continuous
 62
     7
100
AcDbPolyline
 90
        3
 70
   128
 43
0.0
 10
313.6429693926872
 20
-539.6278725666916
 10
313.6620849562723
 20
-539.6233207223459
 10
313.6196517372616
 20
-539.6156662674278
  0
LINE
  5
13F
330
A
100
AcDbEntity
  8
0
  6
Continuous
 62
     7
100
AcDbLine
 10
233.3405526667743
 20
-689.482834215132
 30
0.0
 11
309.9012119022863
 21
-689.482834215132
 31
0.0
  0
LWPOLYLINE
  5
140
330
A
100
AcDbEntity
  8
0
  6
Continuous
 62
     7
100
AcDbPolyline
 90
        7
 70
   128
 43
0.0
 10
233.3405307650177
 20
-539.8786238874637
 10
233.4525861286138
 20
-538.2064786105707
 10
233.9719034034149
 20
-536.678232746757
 10
234.8399335610863
 20
-535.4661841797902
 10
235.9588130951791
 20
-534.7069820258878
 10
236.8819904350904
 20
-534.4888305581991
 10
237.0649107275748
 20
-534.482834215132
  0
LINE
  5
149
330
A
100
AcDbEntity
  8
0
  6
Continuous
 62
     7
100
AcDbLine
 10
237.0649107275757
 20
-534.482834215132
 30
0.0
 11
308.6387835728757
 21
-534.4828342151317
 31
0.0
  0
LINE
  5
14A
330
A
100
AcDbEntity
  8
0
  6
Continuous
 62
     7
100
AcDbLine
 10
233.3405526667743
 20
-689.482834215132
 30
0.0
 11
157.9090238833889
 21
-689.4828342151322
 31
0.0
  0
LINE
  5
14B
330
A
100
AcDbEntity
  8
0
  6
Continuous
 62
     7
100
AcDbLine
 10
157.2891305968073
 20
-534.4828342151322
 30
0.0
 11
237.0649107275757
 21
-534.482834215132
 31
0.0
  0
LINE
  5
14C
330
A
100
AcDbEntity
  8
0
  6
Continuous
 62
     7
100
AcDbLine
 10
309.9168360685289
 20
-689.482834215132
 30
0.0
 11
314.8443278408759
 21
-689.482834215132
 31
0.0
  0
LINE
  5
14D
330
A
100
AcDbEntity
  8
0
  6
Continuous
 62
     7
100
AcDbLine
 10
-127.8220258029156
 20
-539.8902235542006
 30
0.0
 11
-110.4900627437608
 21
-689.4718987551091
 31
0.0
  0
LWPOLYLINE
  5
14E
330
A
100
AcDbEntity
  8
0
  6
Continuous
 62
     7
100
AcDbPolyline
 90
        3
 70
   128
 43
0.0
 10
-125.9200696858988
 20
-540.3811307585014
 10
-125.9400280805257
 20
-540.3791610274972
 10
-125.9123217335165
 20
-540.3757531586628
  0
LINE
  5
153
330
A
100
AcDbEntity
  8
0
  6
Continuous
 62
     7
100
AcDbLine
 10
-50.19923663133299
 20
-538.8028534243576
 30
0.0
 11
-50.19924827066441
 21
-538.8027108259712
 31
0.0
  0
LINE
  5
154
330
A
100
AcDbEntity
  8
0
  6
Continuous
 62
     7
100
AcDbLine
 10
-50.19923663133299
 20
-538.8028534243578
 30
0.0
 11
-37.90115251831849
 21
-689.4718987551093
 31
0.0
  0
LINE
  5
155
330
A
100
AcDbEntity
  8
0
  6
Continuous
 62
     7
100
AcDbLine
 10
-37.90115251831833
 20
-689.4718987551096
 30
0.0
 11
-101.2887775264702
 21
-689.4718987551105
 31
0.0
  0
LINE
  5
156
330
A
100
AcDbEntity
  8
0
  6
Continuous
 62
     7
100
AcDbLine
 10
-101.2866799397078
 20
-689.4718987551085
 30
0.0
 11
-110.4900627437583
 21
-689.4718987551089
 31
0.0
  0
LWPOLYLINE
  5
157
330
A
100
AcDbEntity
  8
0
  6
Continuous
 62
     7
100
AcDbPolyline
 90
        3
 70
   128
 43
0.0
 10
-121.9762765268839
 20
-539.6536491438246
 10
-122.0071164190804
 20
-539.6533512095889
 10
-121.9814766919417
 20
-539.6526721649908
  0
LINE
  5
15C
330
A
100
AcDbEntity
  8
0
  6
Continuous
 62
     7
100
AcDbLine
 10
-2.635813016324456
 20
-539.5344823009895
 30
0.0
 11
-2.674580044408084
 21
-539.526733777721
 31
0.0
  0
LINE
  5
15D
330
A
100
AcDbEntity
  8
0
  6
Continuous
 62
     7
100
AcDbLine
 10
-37.90115251831827
 20
-689.4718987551096
 30
0.0
 11
-4.234678366638155
 21
-689.4718987551087
 31
0.0
  0
LWPOLYLINE
  5
15E
330
A
100
AcDbEntity
  8
0
  6
Continuous
 62
     7
100
AcDbPolyline
 90
        7
 70
   128
 43
0.0
 10
-125.8862709313579
 20
-534.471898755109
 10
-125.977600958155
 20
-534.477427682171
 10
-126.4694740447084
 20
-534.7025455148362
 10
-127.0499476715024
 20
-535.4682685638638
 10
-127.499225529932
 20
-536.6853700636904
 10
-127.7666551347953
 20
-538.2166312500187
 10
-127.8221195675272
 20
-539.8894143286317
  0
LWPOLYLINE
  5
167
330
A
100
AcDbEntity
  8
0
  6
Continuous
 62
     7
100
AcDbPolyline
 90
        5
 70
   128
 43
0.0
 10
-47.31907707681906
 20
-534.4718987551093
 10
-48.30999280039364
 20
-534.7714960971736
 10
-49.22094432512958
 20
-535.6911176690068
 10
-49.87401013297324
 20
-537.0886842487469
 10
-50.19924827066441
 20
-538.8027108259712
  0
LINE
  5
16E
330
A
100
AcDbEntity
  8
0
  6
Continuous
 62
     7
100
AcDbLine
 10
-127.8220258029156
 20
-539.8902235542006
 30
0.0
 11
-127.8221195675272
 21
-539.8894143286314
 31
0.0
  0
LINE
  5
16F
330
A
100
AcDbEntity
  8
0
  6
Continuous
 62
     7
100
AcDbLine
 10
-125.8862709313579
 20
-534.471898755109
 30
0.0
 11
-121.3455750774111
 21
-534.4718987551086
 31
0.0
  0
LINE
  5
170
330
A
100
AcDbEntity
  8
0
  6
Continuous
 62
     7
100
AcDbLine
 10
-121.0238885037192
 20
-534.4718987551116
 30
0.0
 11
-47.31907707681876
 21
-534.4718987551093
 31
0.0
  0
LWPOLYLINE
  5
171
330
A
100
AcDbEntity
  8
0
  6
Continuous
 62
     7
100
AcDbPolyline
 90
        4
 70
   128
 43
0.0
 10
-3.560091383163571
 20
-534.9569923628337
 10
-4.01303136000726
 20
-534.696046565865
 10
-5.100331849701253
 20
-534.4778950981763
 10
-5.315771846645889
 20
-534.471898755109
  0
LINE
  5
177
330
A
100
AcDbEntity
  8
0
  6
Continuous
 62
     7
100
AcDbLine
 10
-47.31907707681876
 20
-534.4718987551093
 30
0.0
 11
-7.644812287500996
 21
-534.4718987551105
 31
0.0
  0
LINE
  5
178
330
A
100
AcDbEntity
  8
0
  6
Continuous
 62
     7
100
AcDbLine
 10
-7.674614570715276
 20
-534.471898755109
 30
0.0
 11
-5.315771846661779
 21
-534.471898755109
 31
0.0
  0
LINE
  5
179
330
A
100
AcDbEntity
  8
0
  6
Continuous
 62
     7
100
AcDbLine
 10
-110.4900627437583
 20
-689.4718987551089
 30
0.0
 11
-167.2881135812781
 21
-689.4718987551081
 31
0.0
  0
LINE
  5
17A
330
A
100
AcDbEntity
  8
0
  6
Continuous
 62
     7
100
AcDbLine
 10
-158.7465389336862
 20
-534.4718987551077
 30
0.0
 11
-125.8862709313579
 21
-534.471898755109
 31
0.0
  0
LINE
  5
17B
330
A
100
AcDbEntity
  8
0
  6
Continuous
 62
     7
100
AcDbLine
 10
-5.315771846661807
 20
-534.471898755109
 30
0.0
 11
-0.1584929358632303
 21
-534.471898755108
 31
0.0
  0
LINE
  5
17C
330
A
100
AcDbEntity
  8
0
  6
Continuous
 62
     7
100
AcDbLine
 10
64.40214527517013
 20
-539.6003651682373
 30
0.0
 11
65.63682363887176
 21
-689.4828342151318
 31
0.0
  0
LINE
  5
17D
330
A
100
AcDbEntity
  8
0
  6
Continuous
 62
     7
100
AcDbLine
 10
64.40214505816048
 20
-539.6003388245897
 30
0.0
 11
64.40214527517006
 21
-539.6003651682373
 31
0.0
  0
LINE
  5
17E
330
A
100
AcDbEntity
  8
0
  6
Continuous
 62
     7
100
AcDbLine
 10
155.9112259563163
 20
-539.6214692315002
 30
0.0
 11
155.9263320584508
 21
-539.6192620036798
 31
0.0
  0
LINE
  5
17F
330
A
100
AcDbEntity
  8
0
  6
Continuous
 62
     7
100
AcDbLine
 10
65.63682363887179
 20
-689.4828342151318
 30
0.0
 11
157.5590138833889
 21
-689.4828342151324
 31
0.0
  0
LWPOLYLINE
  5
180
330
A
100
AcDbEntity
  8
0
  6
Continuous
 62
     7
100
AcDbPolyline
 90
        7
 70
   128
 43
0.0
 10
64.40214512652087
 20
-539.6003388258986
 10
64.43365006230042
 20
-537.9391442469847
 10
64.53470314098503
 20
-536.4519890026975
 10
64.6939113800307
 20
-535.3065384591754
 10
64.89332525668548
 20
-534.6319334498788
 10
65.00705234422958
 20
-534.4940800320549
 10
65.05052653954699
 20
-534.4828342151317
  0
LINE
  5
189
330
A
100
AcDbEntity
  8
0
  6
Continuous
 62
     7
100
AcDbLine
 10
65.05052653956609
 20
-534.4828342151317
 30
0.0
 11
150.9621127046435
 21
-534.4828342151331
 31
0.0
  0
LINE
  5
18A
330
A
100
AcDbEntity
  8
0
  6
Continuous
 62
     7
100
AcDbLine
 10
65.63682363887179
 20
-689.4828342151318
 30
0.0
 11
-3.884839238160353
 21
-689.4828342151311
 31
0.0
  0
LINE
  5
18B
330
A
100
AcDbEntity
  8
0
  6
Continuous
 62
     7
100
AcDbLine
 10
65.05052653956609
 20
-534.4828342151317
 30
0.0
 11
-1.557625502372178
 21
-534.4828342151306
 31
0.0
  0
LINE
  5
18C
330
A
100
AcDbEntity
  8
0
  6
Continuous
 62
     7
100
AcDbLine
 10
150.8021891841923
 20
-534.4828342151311
 30
0.0
 11
156.9391205968073
 21
-534.4828342151311
 31
0.0
  0
LINE
  5
18D
330
A
100
AcDbEntity
  8
0
  6
PHANTOM
 62
     7
100
AcDbLine
 10
233.3405526645728
 20
-539.8786236802388
 30
0.0
 11
233.3405327585966
 21
-539.8786238685995
 31
0.0
  0
LWPOLYLINE
  5
18E
330
A
100
AcDbEntity
  8
0
  6
PHANTOM
 62
     7
100
AcDbPolyline
 90
       36
 70
   128
 43
0.0
 10
313.6196517372616
 20
-539.6156662674278
 10
313.0703875701938
 20
-539.5165854552012
 10
311.905122029773
 20
-539.4457560539251
 10
309.8479917724995
 20
-539.3349586827459
 10
307.3695814692054
 20
-539.2405741194316
 10
304.7066769886037
 20
-539.1729490311369
 10
301.4969220006206
 20
-539.1216063554138
 10
298.4428053919952
 20
-539.096324492263
 10
295.6941396621551
 20
-539.0936647992146
 10
293.9709721623221
 20
-539.1101457604263
 10
292.5566933510337
 20
-539.1553367273472
 10
291.1520372088031
 20
-539.257939589264
 10
290.4338884084992
 20
-539.3488219628499
 10
289.9220506779674
 20
-539.425124848035
 10
289.4657252225567
 20
-539.4506822531151
 10
288.9104183914517
 20
-539.4347305896785
 10
287.9627579628253
 20
-539.3724057455909
 10
286.0594039307699
 20
-539.2343937871008
 10
283.1593813519453
 20
-539.1426757757158
 10
280.8251485061022
 20
-539.1092253917141
 10
278.3885697146777
 20
-539.0862238982776
 10
273.922034839598
 20
-539.0462691176954
 10
269.4455238300318
 20
-539.0273139338841
 10
264.9763148648609
 20
-539.071795699591
 10
259.5227612345957
 20
-539.2576099772687
 10
254.0994485436924
 20
-539.5083332002497
 10
251.2138792622724
 20
-539.6272631064889
 10
248.3168616445091
 20
-539.7224345665676
 10
246.0677040005405
 20
-539.776821497753
 10
243.4798951089037
 20
-539.7922046450916
 10
241.3269415928505
 20
-539.7701616653307
 10
239.3911041885576
 20
-539.7728809688864
 10
237.5903609063455
 20
-539.8097041390692
 10
233.3405725898197
 20
-539.878623794878
 10
233.3405526645728
 20
-539.8786236802388
 10
233.3405526645728
 20
-539.8786236802388
  0
LWPOLYLINE
  5
1B4
330
A
100
AcDbEntity
  8
0
  6
PHANTOM
 62
     7
100
AcDbPolyline
 90
       27
 70
   128
 43
0.0
 10
233.3405526645729
 20
-539.8793622617954
 10
233.3405326984804
 20
-539.8793620856521
 10
230.8000105895115
 20
-539.8109632608567
 10
228.7557879722989
 20
-539.6977154104503
 10
226.955929861482
 20
-539.6015117313118
 10
224.8388469256918
 20
-539.5494766664479
 10
222.1355830343971
 20
-539.5161644528768
 10
219.7424262988077
 20
-539.4891830302217
 10
217.0039235851947
 20
-539.4631000740928
 10
214.8519647957197
 20
-539.4497946995929
 10
212.5601646129961
 20
-539.4472037761643
 10
210.1860262567527
 20
-539.4550994091917
 10
207.8084727757161
 20
-539.4677869823198
 10
203.9906241465109
 20
-539.4962076739329
 10
200.2953624575489
 20
-539.5311985997806
 10
196.6805542789743
 20
-539.5694791826984
 10
193.3589730406155
 20
-539.6004716445896
 10
191.2183137183656
 20
-539.6113598859297
 10
189.007448779454
 20
-539.6058254913698
 10
185.6911118113138
 20
-539.5521542598725
 10
182.8691530435535
 20
-539.5008136392053
 10
179.6709917469452
 20
-539.4592936319882
 10
173.0672579240303
 20
-539.4059565259385
 10
166.7457731449275
 20
-539.3672126112963
 10
160.900194148328
 20
-539.334971599972
 10
157.3571737938583
 20
-539.3147426722529
 10
155.9259542202301
 20
-539.3055397299566
  0
LWPOLYLINE
  5
1D1
330
A
100
AcDbEntity
  8
0
  6
PHANTOM
 62
     7
100
AcDbPolyline
 90
       31
 70
   128
 43
0.0
 10
-50.19924827066449
 20
-538.8027108259712
 10
-50.19927261466297
 20
-538.8027100541332
 10
-53.69920043397005
 20
-538.6908872891514
 10
-57.46708972447076
 20
-538.5789551517087
 10
-60.07185771172139
 20
-538.5163432828313
 10
-62.75498649363995
 20
-538.4745843634459
 10
-65.54957368519009
 20
-538.4575716972764
 10
-68.27784619901997
 20
-538.4699025262477
 10
-70.90685741130193
 20
-538.5174416188642
 10
-73.32466482409675
 20
-538.5871008008422
 10
-76.59584987885637
 20
-538.7066736279426
 10
-79.44522930187106
 20
-538.8300071610278
 10
-83.79894609991731
 20
-539.0498157817527
 10
-88.02088236504019
 20
-539.2273623276781
 10
-90.86001722859151
 20
-539.2870655140118
 10
-94.19212596451691
 20
-539.3527718007151
 10
-96.5700329448396
 20
-539.4242492816157
 10
-99.19451915849034
 20
-539.5071099001518
 10
-101.6500031893196
 20
-539.570752148252
 10
-104.1488249700301
 20
-539.6264119680949
 10
-107.841295968212
 20
-539.7071424571797
 10
-111.4915947829646
 20
-539.7949326200937
 10
-116.1581715587937
 20
-539.9426937991307
 10
-118.940404374461
 20
-540.062296835182
 10
-121.5067275730488
 20
-540.2014457370849
 10
-122.8281205555089
 20
-540.2854527864637
 10
-123.9400626722552
 20
-540.3541156647376
 10
-124.7709747765205
 20
-540.3906780708815
 10
-125.3464171867776
 20
-540.4009364560105
 10
-125.7836251362346
 20
-540.3945967243178
 10
-125.9200696858988
 20
-540.3811307585014
  0
LWPOLYLINE
  5
1F2
330
A
100
AcDbEntity
  8
0
  6
PHANTOM
 62
     7
100
AcDbPolyline
 90
        4
 70
   128
 43
0.0
 10
-125.8994202431558
 20
-539.9640705178892
 10
-127.8219981539086
 20
-539.8902243677801
 10
-127.8220258029156
 20
-539.8902235542006
 10
-127.8220258029156
 20
-539.8902235542006
  0
LWPOLYLINE
  5
1F8
330
A
100
AcDbEntity
  8
0
  6
PHANTOM
 62
     7
100
AcDbPolyline
 90
       21
 70
   128
 43
0.0
 10
-2.674580044408084
 20
-539.526733777721
 10
-2.858974150752952
 20
-539.4898781791823
 10
-3.717205293541816
 20
-539.4483581719653
 10
-5.95347688870558
 20
-539.3950210659157
 10
-8.635120244058422
 20
-539.3562771512733
 10
-11.95273254175939
 20
-539.3240361399491
 10
-14.49312381061561
 20
-539.30380721223
 10
-17.46256109050804
 20
-539.283622146705
 10
-20.05978721564014
 20
-539.2719197156778
 10
-21.79594770087585
 20
-539.2781192768961
 10
-23.53047092298509
 20
-539.302080995416
 10
-24.20834925410798
 20
-539.3103457004005
 10
-26.231331050876
 20
-539.3235417319742
 10
-28.15770886318939
 20
-539.3212556265041
 10
-30.43174059816878
 20
-539.3029549848405
 10
-32.5852346137343
 20
-539.2711433082142
 10
-38.52256113194458
 20
-539.1436380422369
 10
-44.26350122776698
 20
-538.9861637785586
 10
-50.19921228971003
 20
-538.8028541938821
 10
-50.19923663133297
 20
-538.8028534243576
 10
-50.19923663133299
 20
-538.8028534243576
  0
LWPOLYLINE
  5
20F
330
A
100
AcDbEntity
  8
0
  6
PHANTOM
 62
     7
100
AcDbPolyline
 90
       15
 70
   128
 43
0.0
 10
-127.8221195675272
 20
-539.8894143286317
 10
-127.822147237775
 20
-539.8894134688334
 10
-130.8592913048346
 20
-539.8180929145843
 10
-133.966839981079
 20
-539.7771593336922
 10
-138.4494706949257
 20
-539.7405732850584
 10
-142.7933370798931
 20
-539.7041789989856
 10
-146.0237782699681
 20
-539.6673892606043
 10
-148.9679089438294
 20
-539.6314894230259
 10
-151.282050664034
 20
-539.6038522755841
 10
-153.1144053365761
 20
-539.5669522163499
 10
-157.5057174147104
 20
-539.4287023647064
 10
-161.330089351568
 20
-539.5243015330692
 10
-162.8757520178023
 20
-539.6502832598049
 10
-163.7015728873638
 20
-539.674179284758
 10
-163.7228285075798
 20
-539.6452605124593
  0
LWPOLYLINE
  5
220
330
A
100
AcDbEntity
  8
0
  6
PHANTOM
 62
     7
100
AcDbPolyline
 90
       30
 70
   128
 43
0.0
 10
155.9263320584508
 20
-539.6192620036798
 10
155.9569536145297
 20
-539.6147877356067
 10
155.5341181608763
 20
-539.5778876763728
 10
153.1272151566653
 20
-539.4396378247292
 10
150.1245791870584
 20
-539.5352369930921
 10
147.9846279689969
 20
-539.6612187198277
 10
145.1885981533569
 20
-539.685114744781
 10
142.1419320705041
 20
-539.6290731446733
 10
138.5163625851993
 20
-539.5201181632208
 10
133.881653679972
 20
-539.3443267332651
 10
128.8523385272056
 20
-539.1977963429652
 10
123.3953444780387
 20
-539.1581695064931
 10
117.8862199289745
 20
-539.2136400280744
 10
112.8660982900444
 20
-539.3145273564835
 10
107.8324417845198
 20
-539.3853043191354
 10
104.3255245414955
 20
-539.3865174319198
 10
101.0164807527915
 20
-539.3890963127027
 10
97.57993511352886
 20
-539.4475188271161
 10
94.52759995230838
 20
-539.5411221675694
 10
91.98486378152233
 20
-539.6198680786365
 10
89.60042234029808
 20
-539.6841127486147
 10
86.55931424386226
 20
-539.7721348623337
 10
83.38670130094413
 20
-539.8545074098223
 10
79.85321516869706
 20
-539.8917516538788
 10
75.98183460827475
 20
-539.8467635637895
 10
71.68927224030183
 20
-539.7526508598808
 10
68.09359346003171
 20
-539.6749953795485
 10
64.40217480303376
 20
-539.6003393940427
 10
64.4021450581605
 20
-539.6003388245897
 10
64.4021450581605
 20
-539.6003388245897
  0
LWPOLYLINE
  5
240
330
A
100
AcDbEntity
  8
0
  6
PHANTOM
 62
     7
100
AcDbPolyline
 90
       26
 70
   128
 43
0.0
 10
64.40214527517013
 20
-539.6003651682373
 10
64.40211553376652
 20
-539.600364627172
 10
57.95688263536587
 20
-539.5131811110784
 10
51.48958110231546
 20
-539.5079379652458
 10
45.11539494758859
 20
-539.6200330087396
 10
41.3090340797001
 20
-539.7193138283431
 10
37.48089297937011
 20
-539.7843292398619
 10
33.63236802194808
 20
-539.7963220671881
 10
29.76485558278344
 20
-539.7365351342147
 10
26.15614001222247
 20
-539.6233207223459
 10
22.79577299795582
 20
-539.5165854552012
 10
20.83618402024569
 20
-539.4457560539251
 10
19.49112598843561
 20
-539.3349586827459
 10
19.01023265258642
 20
-539.2405741194316
 10
18.90742316221035
 20
-539.1729490311369
 10
18.71000376400587
 20
-539.1216063554138
 10
18.15211210875146
 20
-539.096324492263
 10
17.10022235408255
 20
-539.0936647992146
 10
15.96559567280306
 20
-539.1101457604263
 10
14.49734804923511
 20
-539.1553367273472
 10
11.64554205984759
 20
-539.257939589264
 10
8.345928502573526
 20
-539.3488219628499
 10
3.511886210978781
 20
-539.425124848035
 10
0.0189781962634944
 20
-539.4506822531151
 10
-2.177344018381877
 20
-539.4347305896785
 10
-2.595154723325915
 20
-539.4212942016484
  0
LINE
  5
25C
330
A
100
AcDbEntity
  8
0
  6
PHANTOM
 62
     7
100
AcDbLine
 10
-6.529849584907057
 20
-539.1408151494041
 30
0.0
 11
-6.519626778289031
 21
-539.1265137217039
 31
0.0
  0
LINE
  5
25D
330
A
100
AcDbEntity
  8
0
  6
Continuous
 62
     7
100
AcDbLine
 10
179.9417316262284
 20
-1039.04260381607
 30
0.0
 11
245.2135423936826
 21
-1039.042603816067
 31
0.0
  0
LINE
  5
25E
330
A
100
AcDbEntity
  8
0
  6
Continuous
 62
     7
100
AcDbLine
 10
245.2135423936825
 20
-1037.042603816066
 30
0.0
 11
179.9417316262284
 21
-1037.04260381607
 31
0.0
  0
LINE
  5
25F
330
A
100
AcDbEntity
  8
0
  6
Continuous
 62
     7
100
AcDbLine
 10
-2.04727903100875
 20
-1037.04260381607
 30
0.0
 11
-67.31908979846283
 21
-1037.042603816067
 31
0.0
  0
LINE
  5
260
330
A
100
AcDbEntity
  8
0
  6
Continuous
 62
     7
100
AcDbLine
 10
-67.31908979846294
 20
-1039.042603816066
 30
0.0
 11
-2.047279031008777
 21
-1039.04260381607
 31
0.0
  0
LWPOLYLINE
  5
261
330
A
100
AcDbEntity
  8
0
  6
Continuous
 62
     7
100
AcDbPolyline
 90
        3
 70
   128
 43
0.0
 10
235.460534505896
 20
-974.2427278895624
 10
234.1507843127984
 20
-975.9258782097141
 10
233.2773505580649
 20
-976.9189808367823
  0
LINE
  5
266
330
A
100
AcDbEntity
  8
0
  6
Continuous
 62
     7
100
AcDbLine
 10
233.409553420076
 20
-1111.948072732539
 30
0.0
 11
236.2071181596036
 21
-1115.060263072473
 31
0.0
  0
LWPOLYLINE
  5
267
330
A
100
AcDbEntity
  8
0
  6
Continuous
 62
     7
100
AcDbPolyline
 90
        4
 70
   128
 43
0.0
 10
230.9727164784093
 20
-1108.942221255262
 10
231.4438450597599
 20
-1109.684305922064
 10
233.0343908135926
 20
-1111.7391874879
 10
233.2956944764216
 20
-1112.046893365171
  0
LWPOLYLINE
  5
26D
330
A
100
AcDbEntity
  8
0
  6
Continuous
 62
     7
100
AcDbPolyline
 90
       29
 70
   128
 43
0.0
 10
233.3434984078083
 20
-976.9762474347128
 10
233.3059283623164
 20
-977.0170800070744
 10
231.9535119246506
 20
-978.2821991184297
 10
230.7674950381017
 20
-979.1290390929253
 10
229.4549633527047
 20
-979.7185312991381
 10
227.8727946685782
 20
-980.0956305032592
 10
226.0821183855805
 20
-980.2073766905754
 10
224.1276313310878
 20
-980.0274439056943
 10
222.0863486908856
 20
-979.5400934736418
 10
219.7979239902893
 20
-978.6972154948998
 10
217.1487794071317
 20
-977.5002268313212
 10
213.8865907231621
 20
-975.7610598938427
 10
210.1239357097236
 20
-973.5085207531705
 10
205.1037380962747
 20
-970.3718247509639
 10
200.846564906202
 20
-967.8570603972698
 10
197.2970578996149
 20
-966.0073767355365
 10
194.2186488502318
 20
-964.6337105331754
 10
191.8606460849068
 20
-963.7719720040085
 10
190.011562022044
 20
-963.3239823894612
 10
188.2120768782884
 20
-963.1331579795352
 10
186.4775888698741
 20
-963.2106063018591
 10
184.7898953053035
 20
-963.563758653016
 10
183.185798774587
 20
-964.1819350279554
 10
181.6726095109236
 20
-965.0459290793271
 10
180.2661743563665
 20
-966.1331929911488
 10
178.9423341410763
 20
-967.4414629874295
 10
177.6517147500225
 20
-968.9916058907927
 10
176.2756758820227
 20
-970.8612672721598
 10
175.3141866805608
 20
-972.3364656100942
  0
LWPOLYLINE
  5
28C
330
A
100
AcDbEntity
  8
0
  6
Continuous
 62
     7
100
AcDbPolyline
 90
        3
 70
   128
 43
0.0
 10
309.2680513818019
 20
-1086.723486489408
 10
310.9432806459173
 20
-1083.095574832263
 10
312.5868818960795
 20
-1079.535981326251
  0
LWPOLYLINE
  5
291
330
A
100
AcDbEntity
  8
0
  6
Continuous
 62
     7
100
AcDbPolyline
 90
        3
 70
   128
 43
0.0
 10
170.1888058882697
 20
-985.6653225277799
 10
170.2119363035603
 20
-991.5314018841931
 10
170.2335665088827
 20
-997.5549656384671
  0
LWPOLYLINE
  5
296
330
A
100
AcDbEntity
  8
0
  6
Continuous
 62
     7
100
AcDbPolyline
 90
        3
 70
   128
 43
0.0
 10
174.5777917434383
 20
-1087.172007625426
 10
178.1027054212658
 20
-1088.780527375451
 10
181.595236337733
 20
-1090.812228005413
  0
LWPOLYLINE
  5
29B
330
A
100
AcDbEntity
  8
0
  6
Continuous
 62
     7
100
AcDbPolyline
 90
        4
 70
   128
 43
0.0
 10
205.7987011835295
 20
-1087.264631072434
 10
206.3511202716628
 20
-1087.1330112615
 10
206.9881992410672
 20
-1087.01649430292
 10
207.1612970852794
 20
-1086.992418642356
  0
LWPOLYLINE
  5
2A1
330
A
100
AcDbEntity
  8
0
  6
Continuous
 62
     7
100
AcDbPolyline
 90
        3
 70
   128
 43
0.0
 10
273.550305180258
 20
-956.5936506501216
 10
268.7291933895468
 20
-956.1983094433299
 10
263.6494203735484
 20
-954.7761095744844
  0
LWPOLYLINE
  5
2A6
330
A
100
AcDbEntity
  8
0
  6
Continuous
 62
     7
100
AcDbPolyline
 90
        3
 70
   128
 43
0.0
 10
310.2123677558977
 20
-1001.054783380326
 10
310.4631112220322
 20
-1000.628308941424
 10
310.8669310661308
 20
-1000.21527106395
  0
LWPOLYLINE
  5
2AB
330
A
100
AcDbEntity
  8
0
  6
Continuous
 62
     7
100
AcDbPolyline
 90
        3
 70
   128
 43
0.0
 10
-131.1131122942092
 20
-1072.204701858022
 10
-129.0835074099251
 20
-1072.859793135811
 10
-127.8515642616066
 20
-1073.340891287033
  0
LWPOLYLINE
  5
2B0
330
A
100
AcDbEntity
  8
0
  6
Continuous
 62
     7
100
AcDbPolyline
 90
       29
 70
   128
 43
0.0
 10
-127.8203751591637
 20
-1073.259146310716
 10
-127.769155379884
 20
-1073.280485042976
 10
-126.1177786226817
 20
-1074.11864456989
 10
-124.9163676821375
 20
-1074.943499556857
 10
-123.9135139307896
 20
-1075.975257687314
 10
-123.0180230312624
 20
-1077.333034400784
 10
-122.3005686046797
 20
-1078.977500243132
 10
-121.8011761723641
 20
-1080.875657942534
 10
-121.5609759959306
 20
-1082.960519841091
 10
-121.5703348686893
 20
-1085.399216892561
 10
-121.7890754729966
 20
-1088.297992743025
 10
-122.3076235692134
 20
-1091.958277502187
 10
-123.137414170753
 20
-1096.264430412617
 10
-124.3679355504002
 20
-1102.054686281106
 10
-125.2750020719512
 20
-1106.915220577906
 10
-125.7991332645417
 20
-1110.883295190516
 10
-126.0370793540385
 20
-1114.245874969396
 10
-126.0403642471848
 20
-1116.756404703019
 10
-125.8289127859619
 20
-1118.64719682428
 10
-125.3927689090555
 20
-1120.403425527114
 10
-124.726761454841
 20
-1122.006822223161
 10
-123.8176816016015
 20
-1123.471950194177
 10
-122.6881524983828
 20
-1124.767879094763
 10
-121.3587224550689
 20
-1125.894308510397
 10
-119.8559994271432
 20
-1126.844059087794
 10
-118.1738477454689
 20
-1127.640607277565
 10
-116.2757720689077
 20
-1128.323212697598
 10
-114.0482320546137
 20
-1128.976804414147
 10
-112.3331503877711
 20
-1129.375761174752
  0
LWPOLYLINE
  5
2CF
330
A
100
AcDbEntity
  8
0
  6
Continuous
 62
     7
100
AcDbPolyline
 90
        3
 70
   128
 43
0.0
 10
-50.65943095794176
 20
-964.3776377135012
 10
-54.64151492404029
 20
-964.0442560008374
 10
-58.54858340978888
 20
-963.7172287156534
  0
LWPOLYLINE
  5
2D4
330
A
100
AcDbEntity
  8
0
  6
Continuous
 62
     7
100
AcDbPolyline
 90
        3
 70
   128
 43
0.0
 10
-98.05513842553253
 20
-1129.633306130631
 10
-92.55073800931922
 20
-1127.605253347826
 10
-86.89783756451863
 20
-1125.52474746493
  0
LWPOLYLINE
  5
2D9
330
A
100
AcDbEntity
  8
0
  6
Continuous
 62
     7
100
AcDbPolyline
 90
        3
 70
   128
 43
0.0
 10
-4.171177050074359
 20
-1090.791677524184
 10
-3.865254391888811
 20
-1086.929195996777
 10
-3.150596226887153
 20
-1082.952407926052
  0
LWPOLYLINE
  5
2DE
330
A
100
AcDbEntity
  8
0
  6
Continuous
 62
     7
100
AcDbPolyline
 90
        3
 70
   128
 43
0.0
 10
-160.7252887650794
 20
-1042.448365354895
 10
-159.447870634146
 20
-1047.11394318482
 10
-159.0469166611888
 20
-1052.373789406201
  0
LWPOLYLINE
  5
2E3
330
A
100
AcDbEntity
  8
0
  6
Continuous
 62
     7
100
AcDbPolyline
 90
        3
 70
   128
 43
0.0
 10
-131.4846543234585
 20
-992.7906927009695
 10
-131.9711685228736
 20
-992.7009337648502
 10
-132.4974116893966
 20
-992.4627345112762
  0
LINE
  5
2E8
330
A
100
AcDbEntity
  8
0
  6
Continuous
 62
     7
100
AcDbLine
 10
16.15902827453588
 20
-1092.810447602559
 30
0.0
 11
17.49349054424996
 21
-1094.134963033586
 31
0.0
  0
CIRCLE
  5
2E9
330
A
100
AcDbEntity
  8
0
  6
Continuous
 62
     7
100
AcDbCircle
 10
88.94722629760984
 20
-1038.042603816072
 30
0.0
 40
66.0
  0
CIRCLE
  5
2EA
330
A
100
AcDbEntity
  8
0
  6
Continuous
 62
     7
100
AcDbCircle
 10
88.94722629760984
 20
-1038.042603816072
 30
0.0
 40
91.0
  0
LWPOLYLINE
  5
2EB
330
A
100
AcDbEntity
  8
0
  6
Continuous
 62
     7
100
AcDbPolyline
 90
       20
 70
   128
 43
0.0
 10
245.2135423936826
 20
-1037.042603816066
 10
245.3876061902644
 20
-1037.057796063054
 10
245.5563811464675
 20
-1037.102911195281
 10
245.7147391206521
 20
-1037.176578412282
 10
245.8578684859055
 20
-1037.276559372948
 10
245.9814203288915
 20
-1037.39981620638
 10
246.081640589381
 20
-1037.542603816067
 10
246.1554841254733
 20
-1037.700583672741
 10
246.2007072386905
 20
-1037.8689556384
 10
246.2159358476216
 20
-1038.042603816067
 10
246.2007072386905
 20
-1038.216251993734
 10
246.1554841254733
 20
-1038.384623959393
 10
246.081640589381
 20
-1038.542603816067
 10
245.9814203288915
 20
-1038.685391425753
 10
245.8578684859055
 20
-1038.808648259186
 10
245.7147391206521
 20
-1038.908629219851
 10
245.5563811464675
 20
-1038.982296436853
 10
245.3876061902644
 20
-1039.027411569079
 10
245.2135423936826
 20
-1039.042603816067
 10
245.2135423936826
 20
-1039.042603816067
  0
LWPOLYLINE
  5
301
330
A
100
AcDbEntity
  8
0
  6
Continuous
 62
     7
100
AcDbPolyline
 90
       20
 70
   128
 43
0.0
 10
-67.31908979846288
 20
-1039.042603816066
 10
-67.49315359504463
 20
-1039.027411569079
 10
-67.66192855124778
 20
-1038.982296436852
 10
-67.82028652543234
 20
-1038.908629219851
 10
-67.96341589068572
 20
-1038.808648259186
 10
-68.08696773367163
 20
-1038.685391425753
 10
-68.18718799416121
 20
-1038.542603816067
 10
-68.26103153025336
 20
-1038.384623959393
 10
-68.30625464347059
 20
-1038.216251993734
 10
-68.32148325240178
 20
-1038.042603816067
 10
-68.30625464347059
 20
-1037.8689556384
 10
-68.26103153025336
 20
-1037.700583672741
 10
-68.18718799416121
 20
-1037.542603816067
 10
-68.08696773367163
 20
-1037.39981620638
 10
-67.96341589068569
 20
-1037.276559372948
 10
-67.82028652543232
 20
-1037.176578412283
 10
-67.66192855124778
 20
-1037.102911195281
 10
-67.49315359504463
 20
-1037.057796063054
 10
-67.31908979846288
 20
-1037.042603816067
 10
-67.31908979846283
 20
-1037.042603816067
  0
LINE
  5
317
330
A
100
AcDbEntity
  8
0
  6
Continuous
 62
     7
100
AcDbLine
 10
215.6629550501479
 20
-1048.042603816067
 30
0.0
 11
179.2477682383648
 21
-1049.303692804529
 31
0.0
  0
LINE
  5
318
330
A
100
AcDbEntity
  8
0
  6
Continuous
 62
     7
100
AcDbLine
 10
215.6629550501479
 20
-1028.042603816067
 30
0.0
 11
215.6629550501479
 21
-1037.042603816068
 31
0.0
  0
LINE
  5
319
330
A
100
AcDbEntity
  8
0
  6
Continuous
 62
     7
100
AcDbLine
 10
215.6629550501479
 20
-1039.042603816068
 30
0.0
 11
215.6629550501479
 21
-1048.042603816067
 31
0.0
  0
LINE
  5
31A
330
A
100
AcDbEntity
  8
0
  6
Continuous
 62
     7
100
AcDbLine
 10
179.2477682383635
 20
-1026.781514827604
 30
0.0
 11
215.6629550501479
 21
-1028.042603816067
 31
0.0
  0
LINE
  5
31B
330
A
100
AcDbEntity
  8
0
  6
Continuous
 62
     7
100
AcDbLine
 10
-37.76850245492825
 20
-1028.042603816067
 30
0.0
 11
-37.76850245492825
 21
-1037.042603816068
 31
0.0
  0
LINE
  5
31C
330
A
100
AcDbEntity
  8
0
  6
Continuous
 62
     7
100
AcDbLine
 10
-37.76850245492825
 20
-1039.042603816068
 30
0.0
 11
-37.76850245492825
 21
-1048.042603816067
 31
0.0
  0
LINE
  5
31D
330
A
100
AcDbEntity
  8
0
  6
Continuous
 62
     7
100
AcDbLine
 10
-37.76850245492825
 20
-1028.042603816067
 30
0.0
 11
-1.353315643143809
 21
-1026.781514827604
 31
0.0
  0
LINE
  5
31E
330
A
100
AcDbEntity
  8
0
  6
Continuous
 62
     7
100
AcDbLine
 10
-1.3533156431451
 20
-1049.303692804529
 30
0.0
 11
-37.76850245492825
 21
-1048.042603816067
 31
0.0
  0
ARC
  5
31F
330
A
100
AcDbEntity
  8
0
  6
Continuous
 62
     7
100
AcDbCircle
 10
243.9472262976098
 20
-1038.042603816067
 30
0.0
 40
30.0
100
AcDbArc
 50
199.4712206344915
 51
160.5287793655093
  0
ARC
  5
320
330
A
100
AcDbEntity
  8
0
  6
Continuous
 62
     7
100
AcDbCircle
 10
-66.05277370239015
 20
-1038.042603816067
 30
0.0
 40
30.00000000000001
100
AcDbArc
 50
19.47122063449067
 51
340.5287793655101
  0
LWPOLYLINE
  5
321
330
A
100
AcDbEntity
  8
0
  6
Continuous
 62
     7
100
AcDbPolyline
 90
       35
 70
   128
 43
0.0
 10
235.3756818414972
 20
-974.4819547005034
 10
237.2423753617827
 20
-971.8543913502386
 10
240.0098578941482
 20
-968.0913566479778
 10
243.0890010509172
 20
-964.5894270505985
 10
245.8332500823098
 20
-962.1504883036708
 10
248.8910508018223
 20
-960.1303583255036
 10
251.9975858867349
 20
-958.7983864471146
 10
255.2944532938223
 20
-958.0483969358052
 10
265.2327788793303
 20
-956.9925149218207
 10
275.2131967577648
 20
-956.5552783462246
 10
280.6012038038679
 20
-956.8714926798703
 10
285.8959952889307
 20
-957.9198189636453
 10
290.4101406460235
 20
-959.5189987460408
 10
294.5738447702861
 20
-961.861784839346
 10
298.5259314772246
 20
-965.3554971136204
 10
301.8005639099282
 20
-969.5157137763038
 10
304.7129635908634
 20
-974.2628987538138
 10
307.399552451497
 20
-979.1477482677473
 10
309.6998059468142
 20
-983.6528263274598
 10
311.387160021652
 20
-988.3953850370092
 10
311.8799398610434
 20
-991.9480112233632
 10
311.703112405839
 20
-995.5337820017469
 10
310.7553521801627
 20
-999.5358339965168
 10
309.1967026752478
 20
-1003.351363254677
 10
307.393194641016
 20
-1006.713709810618
 10
305.4060657990005
 20
-1009.974435142285
 10
302.7208551492335
 20
-1014.188051531458
 10
300.1815737656558
 20
-1018.48849854603
 10
298.1062954695266
 20
-1023.004095474929
 10
296.8941308854352
 20
-1027.565124443767
 10
296.5087135233452
 20
-1032.2734543503
 10
296.7368016882598
 20
-1036.016878482409
 10
297.3685868511052
 20
-1039.715253172363
 10
297.36859339497
 20
-1039.715282444424
 10
297.36859339497
 20
-1039.715282444424
  0
LWPOLYLINE
  5
346
330
A
100
AcDbEntity
  8
0
  6
Continuous
 62
     7
100
AcDbPolyline
 90
        7
 70
   128
 43
0.0
 10
297.3685933799306
 20
-1039.71528237715
 10
297.131510442766
 20
-1039.76804665695
 10
296.3710593581914
 20
-1039.937289776175
 10
295.1729751771661
 20
-1040.203930887026
 10
293.6723326571651
 20
-1040.537908281521
 10
292.8165059212169
 20
-1040.728377900403
 10
292.4893509586707
 20
-1040.801188296429
  0
LWPOLYLINE
  5
34F
330
A
100
AcDbEntity
  8
0
  6
Continuous
 62
     7
100
AcDbPolyline
 90
        7
 70
   128
 43
0.0
 10
236.9926754370339
 20
-980.3626699818016
 10
236.8203703576256
 20
-980.2027646772071
 10
235.8923926289712
 20
-979.3415680003255
 10
234.7972593340817
 20
-978.3252449472891
 10
233.9496426374831
 20
-977.538626189054
 10
233.4451045373064
 20
-977.0703966973389
 10
233.3660188776528
 20
-976.9969646233445
  0
LINE
  5
358
330
A
100
AcDbEntity
  8
0
  6
Continuous
 62
     7
100
AcDbLine
 10
297.3685933949699
 20
-1039.715282444424
 30
0.0
 11
297.3685927604764
 21
-1039.715282444424
 31
0.0
  0
LWPOLYLINE
  5
359
330
A
100
AcDbEntity
  8
0
  6
Continuous
 62
     7
100
AcDbPolyline
 90
       43
 70
   128
 43
0.0
 10
297.3685927604765
 20
-1039.715282444424
 10
297.368599274326
 20
-1039.715311723717
 10
299.3191006783182
 20
-1045.864260859678
 10
302.1388974119076
 20
-1051.720297321342
 10
305.4827897151778
 20
-1057.286487279844
 10
307.6829165415196
 20
-1060.536351233074
 10
309.8853436267174
 20
-1063.808555999793
 10
311.8124560058902
 20
-1067.202659172195
 10
313.1866387141574
 20
-1070.818218342476
 10
313.6620849562723
 20
-1074.485484959731
 10
313.0703875701938
 20
-1078.276873079901
 10
311.905122029773
 20
-1080.786346084898
 10
309.8479917724995
 20
-1082.966461126696
 10
307.3695814692054
 20
-1084.380284704336
 10
304.7066769886037
 20
-1085.458910246427
 10
301.4969220006206
 20
-1086.837254856765
 10
298.4428053919952
 20
-1088.542558293255
 10
295.6941396621551
 20
-1090.662388498878
 10
293.9709721623221
 20
-1092.497014671748
 10
292.5566933510337
 20
-1094.574246547502
 10
291.1520372088031
 20
-1098.120328117973
 10
290.4338884084992
 20
-1101.893088310469
 10
289.9220506779674
 20
-1107.22366236708
 10
289.4657252225567
 20
-1111.106826320551
 10
288.9104183914517
 20
-1113.646218759978
 10
287.9627579628253
 20
-1116.053536621288
 10
286.0594039307699
 20
-1118.522811979191
 10
283.1593813519454
 20
-1120.372680087787
 10
280.8251485061022
 20
-1121.196826153383
 10
278.3885697146777
 20
-1121.64933019119
 10
273.922034839598
 20
-1121.706097372726
 10
269.4455238300318
 20
-1121.20152768515
 10
264.9763148648609
 20
-1120.621979894829
 10
259.5227612345957
 20
-1120.504717397918
 10
254.0994485436924
 20
-1121.141422724007
 10
251.2138792622724
 20
-1121.722584204958
 10
248.3168616445091
 20
-1122.234948133975
 10
246.0677040005405
 20
-1122.36232549086
 10
243.4798951089037
 20
-1121.837905060513
 10
241.3269415928505
 20
-1120.479215701131
 10
239.3911041885576
 20
-1118.596028171277
 10
237.5903609063455
 20
-1116.573122113137
 10
236.195984889974
 20
-1115.075910002767
  0
LINE
  5
386
330
A
100
AcDbEntity
  8
0
  6
Continuous
 62
     7
100
AcDbLine
 10
233.3673944794384
 20
-1111.98596963244
 30
0.0
 11
237.0649107275748
 21
-1108.6974066197
 31
0.0
  0
LWPOLYLINE
  5
387
330
A
100
AcDbEntity
  8
0
  6
Continuous
 62
     7
100
AcDbPolyline
 90
       23
 70
   128
 43
0.0
 10
231.0515901758365
 20
-1108.877984575974
 10
230.8000105895115
 20
-1108.533766748075
 10
228.7557879722989
 20
-1104.702707603963
 10
226.955929861482
 20
-1100.747749260399
 10
224.8388469256918
 20
-1096.573111406275
 10
222.1355830343971
 20
-1092.774368626967
 10
219.7424262988077
 20
-1090.420891967739
 10
217.0039235851948
 20
-1088.488805565064
 10
214.8519647957197
 20
-1087.457068574478
 10
212.5601646129961
 20
-1086.80762186968
 10
210.1860262567527
 20
-1086.617767431546
 10
207.8084727757161
 20
-1086.829524467582
 10
203.990624146511
 20
-1087.790477283109
 10
200.2953624575489
 20
-1089.223198628356
 10
196.6805542789744
 20
-1090.853003842699
 10
193.3589730406155
 20
-1092.275138455413
 10
191.2183137183656
 20
-1092.964354697996
 10
189.0074487794541
 20
-1093.326613540887
 10
185.6911118113138
 20
-1092.886692358561
 10
182.8691530435535
 20
-1091.586233498651
 10
179.6709917469452
 20
-1089.508887476501
 10
173.0672579240303
 20
-1084.725534405151
 10
168.8416026330254
 20
-1081.279909104835
  0
LWPOLYLINE
  5
3A0
330
A
100
AcDbEntity
  8
0
  6
Continuous
 62
     7
100
AcDbPolyline
 90
       11
 70
   128
 43
0.0
 10
177.8139803284307
 20
-1001.544461798866
 10
175.2714221220019
 20
-998.1934758119644
 10
172.7932606547463
 20
-994.2701545873251
 10
170.9257678246243
 20
-990.0444867322105
 10
170.307411027479
 20
-987.2889075104188
 10
170.2386093706246
 20
-984.4709458625189
 10
170.6529571955816
 20
-982.0086846111582
 10
171.4059592984333
 20
-979.6235643665252
 10
172.9551661588271
 20
-976.2579839886525
 10
174.8328873057631
 20
-973.0568517328343
 10
175.3257602263192
 20
-972.3576793161678
  0
LWPOLYLINE
  5
3AD
330
A
100
AcDbEntity
  8
0
  6
Continuous
 62
     7
100
AcDbPolyline
 90
       25
 70
   128
 43
0.0
 10
309.2610022621666
 20
-1086.719313946886
 10
308.0296750367221
 20
-1088.800860595162
 10
306.3756233000174
 20
-1090.91045329269
 10
302.3193639342582
 20
-1095.685972357216
 10
298.8382698698393
 20
-1100.397576816273
 10
296.0451101401305
 20
-1105.595235856635
 10
294.0460463923161
 20
-1111.310720633405
 10
292.8183961190252
 20
-1117.342319772873
 10
292.1105834056319
 20
-1121.098305791412
 10
291.1366624505069
 20
-1124.704459317105
 10
289.6365997797301
 20
-1128.044701847094
 10
287.3685498495598
 20
-1130.999567624248
 10
284.3827552989264
 20
-1133.395193445783
 10
280.9649660378506
 20
-1135.013856087383
 10
277.3739621058438
 20
-1135.699898429985
 10
273.6912983177243
 20
-1135.630860526336
 10
269.9404376437009
 20
-1135.093499603895
 10
266.1448092612752
 20
-1134.374636423035
 10
262.3279030154836
 20
-1133.76062861178
 10
258.5399615369419
 20
-1133.333604628143
 10
254.8998595690308
 20
-1132.651759473392
 10
251.5344420524044
 20
-1131.219216553625
 10
247.9759506880899
 20
-1128.421782927038
 10
245.0292714182026
 20
-1124.825211838377
 10
243.2732980629168
 20
-1121.707525465241
  0
LWPOLYLINE
  5
3C8
330
A
100
AcDbEntity
  8
0
  6
Continuous
 62
     7
100
AcDbPolyline
 90
        3
 70
   128
 43
0.0
 10
174.6113301664448
 20
-1087.103133971328
 10
173.3631053776729
 20
-1086.662321254708
 10
167.4870947017335
 20
-1083.665859567895
  0
LWPOLYLINE
  5
3CD
330
A
100
AcDbEntity
  8
0
  6
Continuous
 62
     7
100
AcDbPolyline
 90
        7
 70
   128
 43
0.0
 10
249.6639613152038
 20
-959.7989617565946
 10
251.4349023983962
 20
-958.3212612991873
 10
254.3037143566456
 20
-956.5387542546321
 10
257.3549053454534
 20
-955.1436047003985
 10
260.4281955276495
 20
-954.4285273806899
 10
263.3626668375819
 20
-954.6870282384574
 10
263.6432195028688
 20
-954.8177174423839
  0
LWPOLYLINE
  5
3D6
330
A
100
AcDbEntity
  8
0
  6
Continuous
 62
     7
100
AcDbPolyline
 90
       19
 70
   128
 43
0.0
 10
295.0584025871047
 20
-962.2901422408277
 10
295.0715864181522
 20
-962.2886142799885
 10
299.2695064348447
 20
-961.4661545903066
 10
301.7733266926007
 20
-960.9752163867883
 10
304.226741975728
 20
-960.900586388487
 10
306.5669614468094
 20
-961.5808849109665
 10
308.7006653825989
 20
-962.9828131070082
 10
311.0375221230569
 20
-965.6058646640008
 10
312.568449571422
 20
-968.6335154495404
 10
313.297693219938
 20
-971.7950035667767
 10
313.4832719380436
 20
-976.7292095925844
 10
313.4276518676715
 20
-981.8428942574895
 10
314.0319299664941
 20
-987.0710198647996
 10
314.5249588076343
 20
-989.6586779291329
 10
314.8443278408759
 20
-992.1525341623633
 10
314.7474958291445
 20
-994.4929979933929
 10
314.0082052051244
 20
-996.6242036673953
 10
312.6295158638773
 20
-998.5427407684117
 10
310.8615548875333
 20
-1000.210757821914
  0
LINE
  5
3EB
330
A
100
AcDbEntity
  8
0
  6
Continuous
 62
     7
100
AcDbLine
 10
-90.76283908925816
 20
-991.6372232600279
 30
0.0
 11
-90.76283887224859
 21
-991.6372238562567
 31
0.0
  0
LWPOLYLINE
  5
3EC
330
A
100
AcDbEntity
  8
0
  6
Continuous
 62
     7
100
AcDbPolyline
 90
       37
 70
   128
 43
0.0
 10
-90.76283887224873
 20
-991.6372238562567
 10
-90.76281358658063
 20
-991.6372077211322
 10
-85.65180222768068
 20
-987.7012714801846
 10
-81.11335526057326
 20
-983.0486468675758
 10
-77.02652615550665
 20
-978.0026668581053
 10
-74.72514067257823
 20
-974.823704979526
 10
-72.40354842693564
 20
-971.6349405564425
 10
-69.8732459737724
 20
-968.6631956208215
 10
-66.9457298682821
 20
-966.1352922046292
 10
-63.66223868146473
 20
-964.4342398252865
 10
-59.8971268176141
 20
-963.6935223844592
 10
-57.14044926560959
 20
-963.9302234972076
 10
-54.38823126293502
 20
-965.1176503609006
 10
-52.21200543278084
 20
-966.9630380915242
 10
-50.28766199816881
 20
-969.0964381193026
 10
-47.89464087790384
 20
-971.6411995748611
 10
-45.24761042221864
 20
-973.9278822892442
 10
-42.31552257380119
 20
-975.7857585618289
 10
-40.0021799019877
 20
-976.7775272392057
 10
-37.56650859494104
 20
-977.3960594580415
 10
-33.75386121537556
 20
-977.5031731426601
 10
-29.96300494688328
 20
-976.8876522891613
 10
-24.77884502737657
 20
-975.5454587247314
 10
-20.97379201733588
 20
-974.6461440959345
 10
-18.39761755876198
 20
-974.2994384613027
 10
-15.81135977298006
 20
-974.3665967731379
 10
-12.84001452162739
 20
-975.3106225999832
 10
-10.10984097249533
 20
-977.4030602617814
 10
-8.537042343714606
 20
-979.3146470867402
 10
-7.278468611043406
 20
-981.4495167011386
 10
-5.697480011307224
 20
-985.6272710441688
 10
-4.640563486304428
 20
-990.0063884035878
 10
-3.656600777441163
 20
-994.4042881072185
 10
-1.901566286226341
 20
-999.5690583466394
 10
0.5516231941574135
 20
-1004.44753921561
 10
2.084659168499106
 20
-1006.960318443117
 10
3.014388175558144
 20
-1008.568738972758
  0
LINE
  5
413
330
A
100
AcDbEntity
  8
0
  6
Continuous
 62
     7
100
AcDbLine
 10
-1.470693461946809
 20
-1026.785579721615
 30
0.0
 11
-5.315771846645916
 21
-1024.710872871457
 31
0.0
  0
LWPOLYLINE
  5
414
330
A
100
AcDbEntity
  8
0
  6
Continuous
 62
     7
100
AcDbPolyline
 90
       35
 70
   128
 43
0.0
 10
-130.8592913048346
 20
-1072.202616892446
 10
-133.966839981079
 20
-1071.34717835982
 10
-138.4494706949257
 20
-1070.033629114208
 10
-142.7933370798932
 20
-1068.337911474261
 10
-146.0237782699681
 20
-1066.593327089649
 10
-148.9679089438294
 20
-1064.410859462359
 10
-151.282050664034
 20
-1061.947232579606
 10
-153.1144053365761
 20
-1059.105702125608
 10
-157.5057174147104
 20
-1050.127863827696
 10
-161.330089351568
 20
-1040.898882511224
 10
-162.8757520178023
 20
-1035.727660377543
 10
-163.7015728873638
 20
-1030.393635184601
 10
-163.7427640885626
 20
-1025.604774405008
 10
-162.9653359659497
 20
-1020.890892328888
 10
-161.0340135846076
 20
-1015.982225640886
 10
-158.2446789397857
 20
-1011.482199808851
 10
-154.7798836032089
 20
-1007.121806433496
 10
-151.1084940684868
 20
-1002.926521775193
 10
-147.6618384898643
 20
-999.2241630960306
 10
-143.7824001493741
 20
-996.0165183136821
 10
-140.612564168943
 20
-994.3383870174946
 10
-137.1825632770933
 20
-993.2781446367465
 10
-133.0977114613822
 20
-992.7999655302411
 10
-128.9791972460307
 20
-992.9596291046619
 10
-125.2027889225308
 20
-993.5043820449839
 10
-121.4590712986011
 20
-994.2564386090944
 10
-116.5811709395795
 20
-995.3385695605916
 10
-111.6715872311504
 20
-996.2538740345506
 10
-106.7185271383377
 20
-996.6595726266772
 10
-102.0179771683449
 20
-996.2386709598915
 10
-97.46177379752763
 20
-994.9905011415131
 10
-94.02211651096747
 20
-993.4958419178615
 10
-90.76286435786437
 20
-991.6372394208837
 10
-90.76283908925821
 20
-991.6372232600277
 10
-90.76283908925821
 20
-991.6372232600277
  0
LWPOLYLINE
  5
439
330
A
100
AcDbEntity
  8
0
  6
Continuous
 62
     7
100
AcDbPolyline
 90
        7
 70
   128
 43
0.0
 10
-90.76283914733108
 20
-991.6372232971692
 10
-90.63216980281238
 20
-991.8419619371972
 10
-90.21304370362024
 20
-992.4986676539466
 10
-89.55271409604495
 20
-993.5333018869865
 10
-88.725628033157
 20
-994.8292175931365
 10
-88.25393515491922
 20
-995.5682872152291
 10
-88.07362217587714
 20
-995.8508096973028
  0
LWPOLYLINE
  5
442
330
A
100
AcDbEntity
  8
0
  6
Continuous
 62
     7
100
AcDbPolyline
 90
        7
 70
   128
 43
0.0
 10
-125.8862709313579
 20
-1068.671816859495
 10
-125.977600958155
 20
-1068.888421506335
 10
-126.4694740447085
 20
-1070.054981941064
 10
-127.0499476715024
 20
-1071.431673573313
 10
-127.499225529932
 20
-1072.497212188796
 10
-127.7666551347953
 20
-1073.131466836303
 10
-127.8086098242071
 20
-1073.230898295562
  0
LWPOLYLINE
  5
44B
330
A
100
AcDbEntity
  8
0
  6
Continuous
 62
     7
100
AcDbPolyline
 90
       30
 70
   128
 43
0.0
 10
-16.97932411594352
 20
-1048.76255079912
 10
-17.44438343640189
 20
-1050.47378308395
 10
-17.67788581944075
 20
-1052.84883771205
 10
-17.50432426856393
 20
-1055.224549287128
 10
-16.87072594222519
 20
-1057.520443623357
 10
-15.85856823571357
 20
-1059.682187913195
 10
-13.64978683068241
 20
-1062.941126877641
 10
-11.03961522242663
 20
-1065.923517458784
 10
-8.271762077859664
 20
-1068.762899816745
 10
-5.799344985316895
 20
-1071.397766511703
 10
-4.41954495982863
 20
-1073.173602442367
 10
-3.322972655068576
 20
-1075.12723608965
 10
-2.602109298668373
 20
-1078.394035372482
 10
-2.858974150752979
 20
-1081.490592328364
 10
-3.71720529354183
 20
-1085.206375083103
 10
-5.953476888705594
 20
-1093.047858129171
 10
-8.63512024405845
 20
-1100.751080080403
 10
-11.9527325417594
 20
-1108.179327441035
 10
-14.49312381061562
 20
-1112.874357754945
 10
-17.46256109050804
 20
-1117.295740218166
 10
-20.05978721564015
 20
-1119.957441509622
 10
-21.79594770087585
 20
-1120.96167232329
 10
-23.53047092298509
 20
-1121.344625917901
 10
-24.20834925410796
 20
-1121.348080459058
 10
-26.23133105087601
 20
-1120.987871830015
 10
-28.15770886318943
 20
-1120.238456493689
 10
-30.43174059816878
 20
-1118.989799072301
 10
-32.5852346137343
 20
-1117.536555185637
 10
-38.52256113194458
 20
-1112.804293113242
 10
-39.17557050833933
 20
-1112.237054187849
  0
LINE
  5
46B
330
A
100
AcDbEntity
  8
0
  6
Continuous
 62
     7
100
AcDbLine
 10
-50.19923663133302
 20
-1103.08480506376
 30
0.0
 11
-50.19924827066443
 21
-1103.08477308496
 31
0.0
  0
LWPOLYLINE
  5
46C
330
A
100
AcDbEntity
  8
0
  6
Continuous
 62
     7
100
AcDbPolyline
 90
        5
 70
   128
 43
0.0
 10
-47.31907707681906
 20
-1099.052800669836
 10
-48.30999280039364
 20
-1100.439992401052
 10
-49.22094432512963
 20
-1101.715242295783
 10
-49.87401013297326
 20
-1102.629475914849
 10
-50.19924827066443
 20
-1103.08477308496
  0
LWPOLYLINE
  5
473
330
A
100
AcDbEntity
  8
0
  6
Continuous
 62
     7
100
AcDbPolyline
 90
       11
 70
   128
 43
0.0
 10
-85.7415916829686
 20
-1117.037000487621
 10
-88.02088236504019
 20
-1120.572328379643
 10
-90.86001722859155
 20
-1124.242893311103
 10
-94.19212596451693
 20
-1127.443026068393
 10
-96.5700329448396
 20
-1128.966554988065
 10
-99.1945191584903
 20
-1129.99500704401
 10
-101.6500031893195
 20
-1130.447790396555
 10
-104.1488249700302
 20
-1130.555959044988
 10
-107.841295968212
 20
-1130.251277073418
 10
-111.4915947829646
 20
-1129.581648080688
 10
-112.3171744104934
 20
-1129.357630084414
  0
LWPOLYLINE
  5
480
330
A
100
AcDbEntity
  8
0
  6
Continuous
 62
     7
100
AcDbPolyline
 90
       20
 70
   128
 43
0.0
 10
-50.66094092445195
 20
-964.385688812797
 10
-48.28378818511786
 20
-964.8308270373375
 10
-45.73570048233088
 20
-965.6636040519495
 10
-39.8608580473307
 20
-967.8419173310437
 10
-34.24279381424973
 20
-969.5016121032592
 10
-28.40327507757407
 20
-970.3486196000005
 10
-22.34875613908474
 20
-970.2723141297758
 10
-16.26102581376298
 20
-969.362999630329
 10
-12.48946726268488
 20
-968.7435031376132
 10
-8.767690820509821
 20
-968.4253123266611
 10
-5.11583791378789
 20
-968.6924799202571
 10
-1.563453585396348
 20
-969.8131260866016
 10
1.708900201413052
 20
-971.7995029061786
 10
4.398898314195875
 20
-974.4575590255371
 10
6.271762920593615
 20
-977.5973586213128
 10
7.466433708613121
 20
-981.081542961545
 10
8.244349520421357
 20
-984.7899873182315
 10
8.867020457380789
 20
-988.6025769885918
 10
9.595500669285231
 20
-992.3992986616028
 10
9.81362937339264
 20
-993.3031388828277
  0
LWPOLYLINE
  5
496
330
A
100
AcDbEntity
  8
0
  6
Continuous
 62
     7
100
AcDbPolyline
 90
       17
 70
   128
 43
0.0
 10
-37.90115251831835
 20
-1136.873513467747
 10
-39.26395790850726
 20
-1136.193989953083
 10
-43.67523360561729
 20
-1133.415962736265
 10
-47.54093627534697
 20
-1130.248125542387
 10
-51.12943392026952
 20
-1126.881722636462
 10
-54.70962389898978
 20
-1123.507784301839
 10
-58.54799434344368
 20
-1120.322741427411
 10
-62.83228471850211
 20
-1117.699550628647
 10
-66.39457900988762
 20
-1116.451871852669
 10
-70.24542390590376
 20
-1116.072591004019
 10
-74.0914325418037
 20
-1116.632437254032
 10
-77.54592876194464
 20
-1118.150983972027
 10
-79.67943910832365
 20
-1119.907477476715
 10
-81.60800761411028
 20
-1121.93590031638
 10
-83.72723687794481
 20
-1123.840092209132
 10
-86.29426915664097
 20
-1125.286546569115
 10
-86.92041986404836
 20
-1125.471548981207
  0
LINE
  5
4A9
330
A
100
AcDbEntity
  8
0
  6
Continuous
 62
     7
100
AcDbLine
 10
-50.19923663133297
 20
-1103.08480506376
 30
0.0
 11
-37.90115251831849
 21
-1136.873513467747
 31
0.0
  0
LWPOLYLINE
  5
4AA
330
A
100
AcDbEntity
  8
0
  6
Continuous
 62
     7
100
AcDbPolyline
 90
       15
 70
   128
 43
0.0
 10
-4.247367930839962
 20
-1090.783717892618
 10
-4.234678366638183
 20
-1092.107432344227
 10
-5.044957118579926
 20
-1098.688361560426
 10
-7.011374349786617
 20
-1106.750790001112
 10
-9.747605276133983
 20
-1114.445500964529
 10
-13.12972158823948
 20
-1122.147254114894
 10
-15.66331806410866
 20
-1127.431987659642
 10
-18.51313195605715
 20
-1132.69183431168
 10
-20.24902107048861
 20
-1135.11281962981
 10
-22.22638188908688
 20
-1137.09723082955
 10
-24.50225084644778
 20
-1138.486337482937
 10
-27.57617210896954
 20
-1139.213352237954
 10
-30.95524255302307
 20
-1139.075090654639
 10
-34.45754256175663
 20
-1138.239246481676
 10
-37.9011525183183
 20
-1136.873513467747
  0
LWPOLYLINE
  5
4BB
330
A
100
AcDbEntity
  8
0
  6
Continuous
 62
     7
100
AcDbPolyline
 90
        7
 70
   128
 43
0.0
 10
-149.5436708187536
 20
-1063.7979054584
 10
-151.5379525574035
 20
-1062.639168512914
 10
-154.1941527508057
 20
-1060.553020400182
 10
-156.5487332711177
 20
-1058.163007993891
 10
-158.2718133003356
 20
-1055.519630735523
 10
-159.0325502498327
 20
-1052.673717199248
 10
-159.0056972320783
 20
-1052.365385589679
  0
LWPOLYLINE
  5
4C4
330
A
100
AcDbEntity
  8
0
  6
Continuous
 62
     7
100
AcDbPolyline
 90
       19
 70
   128
 43
0.0
 10
-162.7285402106759
 20
-1020.289050064229
 10
-162.7344851599857
 20
-1020.277183908866
 10
-164.9431176670524
 20
-1016.613727227475
 10
-166.26080563758
 20
-1014.428816562219
 10
-167.1700523430456
 20
-1012.148885287656
 10
-167.3311830404527
 20
-1009.717122521499
 10
-166.743571185694
 20
-1007.232608995553
 10
-165.0779610709501
 20
-1004.139545491238
 10
-162.7565079947729
 20
-1001.66542670944
 10
-160.0350969574884
 20
-999.8988692151952
 10
-155.4619316253641
 20
-998.0368844110714
 10
-150.6376166962864
 20
-996.3401670187543
 10
-145.9314609245231
 20
-993.9842070788515
 10
-143.6684835312625
 20
-992.6358803329563
 10
-141.4342558741179
 20
-991.4828225427886
 10
-139.2018207843522
 20
-990.7733290947311
 10
-136.9462902539284
 20
-990.7391197686601
 10
-134.6719155713045
 20
-991.3784856347211
 10
-132.49981398826
 20
-992.4693300863205
  0
LWPOLYLINE
  5
4D9
330
A
100
AcDbEntity
  8
0
  6
Continuous
 62
     7
100
AcDbPolyline
 90
        9
 70
   128
 43
0.0
 10
2.965615507516908
 20
-1067.344907303506
 10
0.0189781962635083
 20
-1065.862754452515
 10
-2.177344018381849
 20
-1064.472413354961
 10
-4.115363892918083
 20
-1062.758552643214
 10
-5.784738306584519
 20
-1060.125442992728
 10
-6.5311795796021
 20
-1056.767621019659
 10
-6.50726890340128
 20
-1054.292285083747
 10
-6.099124581137899
 20
-1051.847884477616
 10
-5.163430208978289
 20
-1049.171745286352
  0
LWPOLYLINE
  5
4E4
330
A
100
AcDbEntity
  8
0
  6
Continuous
 62
     7
100
AcDbPolyline
 90
       13
 70
   128
 43
0.0
 10
150.1033265605748
 20
-1105.378710299554
 10
147.9846279689969
 20
-1110.284420006244
 10
145.1885981533568
 20
-1114.901347787528
 10
142.141932070504
 20
-1118.596305170365
 10
138.5163625851993
 20
-1121.707627175656
 10
133.8816536799719
 20
-1124.226453918087
 10
128.8523385272056
 20
-1125.880723951648
 10
123.3953444780387
 20
-1126.9938515542
 10
117.8862199289745
 20
-1127.847702350743
 10
112.8660982900444
 20
-1128.468406142554
 10
107.8324417845198
 20
-1128.431949705761
 10
104.3255245414955
 20
-1127.67994156707
 10
104.1416983840032
 20
-1127.60258065013
  0
LWPOLYLINE
  5
4F3
330
A
100
AcDbEntity
  8
0
  6
Continuous
 62
     7
100
AcDbPolyline
 90
        4
 70
   128
 43
0.0
 10
16.16536012286203
 20
-1092.805250690446
 10
14.63048481178258
 20
-1090.936250699941
 10
13.21383513310723
 20
-1088.660427291794
 10
10.55076904175672
 20
-1083.983212471967
  0
LWPOLYLINE
  5
4F9
330
A
100
AcDbEntity
  8
0
  6
Continuous
 62
     7
100
AcDbPolyline
 90
        8
 70
   128
 43
0.0
 10
9.302684729316446
 20
-1081.992188074225
 10
6.87678186599766
 20
-1078.332844545916
 10
2.947896911495023
 20
-1073.93042886929
 10
-1.739181887905005
 20
-1070.097112494461
 10
-6.987149968377237
 20
-1066.88057018958
 10
-10.27453610809041
 20
-1064.930820929516
 10
-13.33011138094603
 20
-1062.782257449044
 10
-14.82049284140555
 20
-1061.333720511825
  0
LWPOLYLINE
  5
503
330
A
100
AcDbEntity
  8
0
  6
Continuous
 62
     7
100
AcDbPolyline
 90
       10
 70
   128
 43
0.0
 10
90.2808074986607
 20
-947.1669404632029
 10
94.15976631232469
 20
-945.4085011445936
 10
99.72381466495594
 20
-943.2110499047997
 10
102.6097622406638
 20
-942.4722755695198
 10
105.4000634395084
 20
-942.2231514311702
 10
108.0363807528918
 20
-942.6219343655057
 10
110.8584571312164
 20
-944.0408872530602
 10
113.3581024351407
 20
-946.3188263843509
 10
115.5037496169569
 20
-949.2103552193819
 10
116.7397189672598
 20
-951.4994056463088
  0
LWPOLYLINE
  5
50F
330
A
100
AcDbEntity
  8
0
  6
Continuous
 62
     7
100
AcDbPolyline
 90
       17
 70
   128
 43
0.0
 10
137.9481097620092
 20
-1122.016455720616
 10
137.9450364397506
 20
-1122.029367062749
 10
137.2821225352595
 20
-1126.255419306029
 10
136.8870965789482
 20
-1128.776151480748
 10
136.1181083908687
 20
-1131.107132680742
 10
134.6784346904501
 20
-1133.073543850574
 10
132.6312833838248
 20
-1134.599082011434
 10
129.367169114475
 20
-1135.897872576803
 10
125.9984999876757
 20
-1136.300956247381
 10
122.7782569160217
 20
-1135.904928503666
 10
118.078148264368
 20
-1134.3917176035
 10
113.2918797041712
 20
-1132.59046867179
 10
108.1723733684721
 20
-1131.37018007262
 10
105.5721443853906
 20
-1130.948444454433
 10
103.1194554431999
 20
-1130.395604111954
 10
100.9532573504959
 20
-1129.504126010137
 10
99.57470281670245
 20
-1128.382563338254
  0
LWPOLYLINE
  5
522
330
A
100
AcDbEntity
  8
0
  6
PHANTOM
 62
     7
100
AcDbPolyline
 90
       33
 70
   128
 43
0.0
 10
292.4893509587006
 20
-1040.801188296398
 10
291.7709540611748
 20
-1036.566784270394
 10
291.5160045964001
 20
-1032.280974258665
 10
291.9863326505165
 20
-1026.685370678875
 10
293.4361960928336
 20
-1021.265429796858
 10
295.6386110394466
 20
-1016.434307120751
 10
298.3241538858377
 20
-1011.825624914576
 10
301.1764494565795
 20
-1007.315519470835
 10
304.6980613010098
 20
-1001.169889372047
 10
305.972673884072
 20
-998.079776202101
 10
306.7524984976249
 20
-994.839062535024
 10
306.8877490809665
 20
-992.1946568564241
 10
306.5291941764235
 20
-989.5746457231927
 10
305.0387071311563
 20
-985.4532734921603
 10
303.0158934254007
 20
-981.5375323652299
 10
300.4528122279242
 20
-976.8605326043839
 10
297.6693921690419
 20
-972.3178867650275
 10
294.9635363222963
 20
-968.8594048020858
 10
291.6976657406523
 20
-965.9515530597602
 10
288.282979718784
 20
-964.0409943706448
 10
284.5817658779582
 20
-962.7397653993082
 10
279.962304604183
 20
-961.8272454210549
 10
275.2602083082687
 20
-961.554782707957
 10
265.5876956985677
 20
-961.9807467900335
 10
255.9577555967414
 20
-963.003292988645
 10
253.5504082943497
 20
-963.5486039849954
 10
251.2819533666736
 20
-964.5187652966152
 10
248.8257643164911
 20
-966.1509767778463
 10
246.6216738890226
 20
-968.120187380502
 10
243.8352740455027
 20
-971.299768433715
 10
241.3311049148394
 20
-974.716052864311
 10
239.2563968369112
 20
-977.615616473707
 10
236.9926754370339
 20
-980.3626699818016
  0
LWPOLYLINE
  5
545
330
A
100
AcDbEntity
  8
0
  6
PHANTOM
 62
     7
100
AcDbPolyline
 90
       41
 70
   128
 43
0.0
 10
237.0649107275757
 20
-1108.697406619683
 10
241.298346555667
 20
-1113.234859319819
 10
242.8539747205145
 20
-1115.000982338909
 10
244.5254374020287
 20
-1116.646844699384
 10
245.4056647002989
 20
-1117.234026107074
 10
246.2360989731393
 20
-1117.373817235794
 10
247.6679882635577
 20
-1117.283023759847
 10
250.4495497051562
 20
-1116.783463878932
 10
253.2211107091185
 20
-1116.219241048153
 10
259.3399801706054
 20
-1115.514342490627
 10
265.4902249436415
 20
-1115.665474697649
 10
269.6026813646694
 20
-1116.224747691208
 10
273.72025611454
 20
-1116.729342319946
 10
277.8300546583989
 20
-1116.696476348357
 10
281.0967551080154
 20
-1115.830668945799
 10
282.7158842502379
 20
-1114.813478683352
 10
283.5355207172396
 20
-1113.732464471524
 10
284.1687606549947
 20
-1112.061867352475
 10
284.5312226209454
 20
-1110.300817433484
 10
284.9424475316718
 20
-1106.776200486745
 10
285.4766967934488
 20
-1101.254110996386
 10
286.4109344484811
 20
-1096.551657547826
 10
288.2050239770542
 20
-1092.133812353539
 10
290.0558384254748
 20
-1089.409995097865
 10
292.3088950242188
 20
-1087.003335901957
 10
295.5444373622094
 20
-1084.487365216788
 10
299.1325571620752
 20
-1082.447052769606
 10
302.9112611687167
 20
-1080.802682888744
 10
304.9645813743555
 20
-1080.003672062107
 10
306.8767728660092
 20
-1078.94775598242
 10
307.7061186672955
 20
-1078.072125023182
 10
308.3051381789784
 20
-1076.763182525885
 10
308.6643204612167
 20
-1074.434361645544
 10
308.3608236866625
 20
-1072.101629875875
 10
307.1042369780394
 20
-1068.856618578879
 10
305.3211319004175
 20
-1065.827583953716
 10
303.2882641737287
 20
-1062.908996664997
 10
301.2823895179046
 20
-1059.995327377336
 10
297.6466140042429
 20
-1053.917193118125
 10
294.5995676296986
 20
-1047.516531990122
 10
292.4893509587006
 20
-1040.801188296398
  0
LWPOLYLINE
  5
570
330
A
100
AcDbEntity
  8
0
  6
PHANTOM
 62
     7
100
AcDbPolyline
 90
       23
 70
   128
 43
0.0
 10
171.2137029910203
 20
-1076.775684525899
 10
176.2047347750063
 20
-1080.833212090626
 10
182.5239305855776
 20
-1085.402771815202
 10
185.3572509633577
 20
-1087.249293853951
 10
187.2526390462856
 20
-1088.137289509166
 10
188.7008300779022
 20
-1088.337539667128
 10
190.1689861613686
 20
-1088.077741345734
 10
191.5903173552795
 20
-1087.599882472911
 10
194.605201825889
 20
-1086.304882819126
 10
198.6317132036426
 20
-1084.508562247629
 10
202.7530425727965
 20
-1082.946296680966
 10
207.0055193407816
 20
-1081.894441959446
 10
210.228863852718
 20
-1081.618550078135
 10
213.4475433545026
 20
-1081.887125000365
 10
216.5690861480431
 20
-1082.761865257444
 10
219.500419324985
 20
-1084.156702197774
 10
222.9114597749362
 20
-1086.554032143822
 10
225.8928561816742
 20
-1089.475613165887
 10
229.0468593591428
 20
-1093.87394662252
 10
231.5198820216453
 20
-1098.709059404906
 10
233.0848470629776
 20
-1102.21209149927
 10
234.8466118402404
 20
-1105.616773612355
 10
237.0649107275757
 20
-1108.697406619683
  0
LWPOLYLINE
  5
589
330
A
100
AcDbEntity
  8
0
  6
PHANTOM
 62
     7
100
AcDbPolyline
 90
       34
 70
   128
 43
0.0
 10
236.9926754370339
 20
-980.3626699818016
 10
234.3741489928129
 20
-982.7387757731861
 10
232.5211625643514
 20
-983.9054426370882
 10
230.5045727106044
 20
-984.7516342407161
 10
228.3634012735307
 20
-985.2218813000385
 10
226.1716931851201
 20
-985.3358425440834
 10
223.0439917022795
 20
-984.9641216656703
 10
220.002100634091
 20
-984.1171875729674
 10
214.9966004703296
 20
-982.0027631075133
 10
210.2094974356375
 20
-979.3888142468579
 10
205.5359999989928
 20
-976.528772521255
 10
200.8713166293738
 20
-973.6760694609582
 10
195.7260358443613
 20
-970.8204325651728
 10
191.4450350527619
 20
-968.9591239416357
 10
188.1598933117394
 20
-968.2051746609216
 10
186.3496810476788
 20
-968.3191299431072
 10
184.69741332505
 20
-969.1002225887284
 10
182.9870757145898
 20
-970.530924859732
 10
181.5072749597951
 20
-972.2125959929336
 10
179.0566170741806
 20
-975.7131190321585
 10
177.424872631988
 20
-978.486414801223
 10
176.0767617816647
 20
-981.4011272570166
 10
175.2206250051978
 20
-984.893178490501
 10
175.2740972129001
 20
-986.723616415065
 10
175.684103892753
 20
-988.5134587665996
 10
177.2720462473569
 20
-992.0556134561278
 10
179.3728409606317
 20
-995.344166168245
 10
184.1348648063045
 20
-1001.650420417881
 10
188.7487144622675
 20
-1008.054745102473
 10
191.2013886390038
 20
-1012.480518067848
 10
193.016544380652
 20
-1017.193345413186
 10
193.7855104772698
 20
-1020.766730887753
 10
193.9768698390636
 20
-1024.411783612557
 10
193.5935524934295
 20
-1027.278321576075
  0
LWPOLYLINE
  5
5AD
330
A
100
AcDbEntity
  8
0
  6
PHANTOM
 62
     7
100
AcDbPolyline
 90
        9
 70
   128
 43
0.0
 10
188.6738626554116
 20
-1027.107948519541
 10
188.7096246143379
 20
-1026.998048736758
 10
189.0816688491289
 20
-1024.230094797577
 10
188.9153204171208
 20
-1021.371813624109
 10
188.2925664380769
 20
-1018.572172805643
 10
186.6967687807555
 20
-1014.510227533535
 10
184.5532049323807
 20
-1010.697787850155
 10
179.9810095310774
 20
-1004.400516174696
 10
177.8139803284307
 20
-1001.544461798866
  0
LWPOLYLINE
  5
5B8
330
A
100
AcDbEntity
  8
0
  6
PHANTOM
 62
     7
100
AcDbPolyline
 90
       41
 70
   128
 43
0.0
 10
-5.315771846661821
 20
-1024.710872871462
 10
-2.499881355862903
 20
-1019.180844240399
 10
-1.3723247553271
 20
-1017.114982285086
 10
-0.3973939462536547
 20
-1014.981403056924
 10
-0.1466793770991404
 20
-1013.953432090909
 10
-0.2993439340082393
 20
-1013.125267750792
 10
-0.8743968737064955
 20
-1011.81078514846
 10
-2.295179650367712
 20
-1009.367831929598
 10
-3.773305372741036
 20
-1006.956392079567
 10
-6.528469955860219
 20
-1001.447625104731
 10
-8.489959734919242
 20
-995.6165952163749
 10
-9.370957964408413
 20
-991.5608676348163
 10
-10.30508762139995
 20
-987.5190314995862
 10
-11.74160541938744
 20
-983.6683249593187
 10
-13.67247560257281
 20
-980.8947542244114
 10
-15.18209656741453
 20
-979.7211700767171
 10
-16.47824982715295
 20
-979.3206923726149
 10
-18.26467842650028
 20
-979.297019342016
 10
-20.04349333375695
 20
-979.5587310529938
 10
-23.49619707260993
 20
-980.3777960321928
 10
-28.86798782710457
 20
-981.7644317821903
 10
-33.60637672897932
 20
-982.4948693541546
 10
-38.37140801552713
 20
-982.3199687096662
 10
-41.56397481397089
 20
-981.5123723982198
 10
-44.59608544193633
 20
-980.2183176612878
 10
-48.06694518307846
 20
-978.038415056382
 10
-51.21142098201286
 20
-975.3645133135668
 10
-54.04901611083854
 20
-972.3761006647245
 10
-55.50211755958323
 20
-970.7198886168201
 10
-57.14836211587626
 20
-969.2841609514982
 10
-58.25483903662659
 20
-968.8043142481289
 10
-59.68971938160952
 20
-968.6891047338239
 10
-62.00094275364929
 20
-969.1480874449615
 10
-64.08919157354862
 20
-970.2311223786452
 10
-66.70872677751768
 20
-972.5217868650078
 10
-68.94523040867572
 20
-975.2333484051716
 10
-70.99252363576008
 20
-978.1418348497711
 10
-73.04442762750804
 20
-981.02327404944
 10
-77.51249707675142
 20
-986.5186298209499
 10
-82.4849998691455
 20
-991.5710718506803
 10
-88.07362217591677
 20
-995.8508096972854
  0
LWPOLYLINE
  5
5E3
330
A
100
AcDbEntity
  8
0
  6
PHANTOM
 62
     7
100
AcDbPolyline
 90
       33
 70
   128
 43
0.0
 10
-88.07362217591677
 20
-995.8508096972854
 10
-91.80695418272142
 20
-997.9741334325582
 10
-95.74710037235115
 20
-999.6795409177586
 10
-101.1661094336021
 20
-1001.15138625431
 10
-106.755070387873
 20
-1001.642689233702
 10
-112.0481109924251
 20
-1001.225437430567
 10
-117.2973654023459
 20
-1000.278114783707
 10
-122.5110207467076
 20
-999.1403805938633
 10
-129.4904861883876
 20
-997.9330772175938
 10
-132.8301859099231
 20
-997.792214128207
 10
-136.1421763550516
 20
-998.1678080462353
 10
-138.6733632814957
 20
-998.9451540803182
 10
-141.0127354099282
 20
-1000.178182061566
 10
-144.375781890094
 20
-1002.988374060537
 10
-147.3635318984149
 20
-1006.228459514519
 10
-150.8818486625828
 20
-1010.236596130802
 10
-154.1985537091955
 20
-1014.405831801735
 10
-156.5230064843704
 20
-1018.131375070487
 10
-158.1384997845563
 20
-1022.19483342618
 10
-158.7659462836849
 20
-1026.057038239914
 10
-158.7228118576843
 20
-1029.980088093364
 10
-158.0003513406248
 20
-1034.633061978087
 10
-156.6481708925024
 20
-1039.144774905767
 10
-152.9397014387661
 20
-1048.088275333158
 10
-148.6851888276739
 20
-1056.787727588048
 10
-147.3494028389712
 20
-1058.863386738646
 10
-145.6618921339785
 20
-1060.663222383919
 10
-143.2880489185253
 20
-1062.413035904882
 10
-140.6837529225308
 20
-1063.810693722561
 10
-136.7429191957926
 20
-1065.34157232654
 10
-132.6761856408746
 20
-1066.52628348923
 10
-129.2418951594539
 20
-1067.484162199077
 10
-125.8862709313579
 20
-1068.671816859495
  0
LWPOLYLINE
  5
606
330
A
100
AcDbEntity
  8
0
  6
PHANTOM
 62
     7
100
AcDbPolyline
 90
        5
 70
   128
 43
0.0
 10
-39.17557050833933
 20
-1112.237054187849
 10
-44.26350122776701
 20
-1107.817405009612
 10
-50.19921228971005
 20
-1103.084822582128
 10
-50.19923663133297
 20
-1103.08480506376
 10
-50.19923663133302
 20
-1103.08480506376
  0
LWPOLYLINE
  5
60D
330
A
100
AcDbEntity
  8
0
  6
PHANTOM
 62
     7
100
AcDbPolyline
 90
       30
 70
   128
 43
0.0
 10
-47.31907707681878
 20
-1099.052800669837
 10
-41.36697139230211
 20
-1103.770903949059
 10
-35.61456755005024
 20
-1108.750175589755
 10
-29.67024876138194
 20
-1113.479147795304
 10
-26.0286497396407
 20
-1115.716906549672
 10
-25.02647319865392
 20
-1116.138525176835
 10
-23.97362621538694
 20
-1116.356206491738
 10
-23.82305837590688
 20
-1116.356083594648
 10
-23.63560985785992
 20
-1116.316449760055
 10
-23.08352458374661
 20
-1115.980379690578
 10
-21.39958618897547
 20
-1114.219316110088
 10
-18.70661041526253
 20
-1110.187783692814
 10
-16.40420794662184
 20
-1105.907213146607
 10
-13.23781145507127
 20
-1098.801297876846
 10
-10.68414372763621
 20
-1091.430846920306
 10
-8.551454431046796
 20
-1083.929863775876
 10
-7.785343938811695
 20
-1080.635865792206
 10
-7.599161878096172
 20
-1078.551071195884
 10
-7.906298786544946
 20
-1077.121727182259
 10
-8.652568306142734
 20
-1075.830968003582
 10
-9.587732661366644
 20
-1074.658790929144
 10
-11.83578549869704
 20
-1072.268642206784
 10
-14.90092268282042
 20
-1069.099336996921
 10
-17.77854976905208
 20
-1065.760880493922
 10
-20.22140260267859
 20
-1062.124614957595
 10
-21.5831049196413
 20
-1059.190022486266
 10
-22.43158027161376
 20
-1056.073595076369
 10
-22.67722382057634
 20
-1052.841125559713
 10
-22.36908083386112
 20
-1049.609511074028
 10
-22.09277047208789
 20
-1048.585467789052
  0
LINE
  5
62D
330
A
100
AcDbEntity
  8
0
  6
PHANTOM
 62
     7
100
AcDbLine
 10
-6.854950007624968
 20
-1026.9720411196
 30
0.0
 11
-5.315771846661821
 21
-1024.710872871462
 31
0.0
  0
LWPOLYLINE
  5
62E
330
A
100
AcDbEntity
  8
0
  6
PHANTOM
 62
     7
100
AcDbPolyline
 90
       39
 70
   128
 43
0.0
 10
-125.8862709313579
 20
-1068.671816859495
 10
-122.7578730632327
 20
-1070.319750793136
 10
-121.0278061364654
 20
-1071.661964898372
 10
-119.5429317799578
 20
-1073.267524929536
 10
-118.3687203265734
 20
-1075.118733962164
 10
-117.5120234719625
 20
-1077.139288838739
 10
-116.7915899289585
 20
-1080.205502870297
 10
-116.5470596270404
 20
-1083.353613980082
 10
-116.8219868110106
 20
-1088.780421306037
 10
-117.64100960044
 20
-1094.172849866646
 10
-118.7301394420153
 20
-1099.542692802031
 10
-119.8153877824235
 20
-1104.901743252313
 10
-120.7390190294963
 20
-1110.713410978244
 10
-121.0238885037192
 20
-1115.372840873884
 10
-120.6087844301435
 20
-1118.717730167208
 10
-119.8825724343701
 20
-1120.379798271857
 10
-118.5834765958239
 20
-1121.665272639768
 10
-116.6540863145554
 20
-1122.783135275585
 10
-114.5677106938488
 20
-1123.598527723094
 10
-110.4401206637178
 20
-1124.704143462686
 10
-107.2759856262817
 20
-1125.288958657604
 10
-104.0759707736133
 20
-1125.55887810377
 10
-100.5016999751081
 20
-1125.169031651623
 10
-98.79993953673075
 20
-1124.492737571319
 10
-97.25826843003149
 20
-1123.495295182186
 10
-94.47284007831408
 20
-1120.791629214737
 10
-92.10112547060406
 20
-1117.692776654955
 10
-87.80389296563816
 20
-1111.061072004861
 10
-83.36382583902585
 20
-1104.535063483208
 10
-80.04382361564834
 20
-1100.716600154193
 10
-76.23603436311218
 20
-1097.399029814067
 10
-73.14115229601637
 20
-1095.454268235272
 10
-69.78137190448993
 20
-1094.027767799708
 10
-66.19190662822116
 20
-1093.239655349656
 10
-62.51623960361897
 20
-1093.102737283216
 10
-59.12142827698612
 20
-1093.53024478766
 10
-55.82274590534939
 20
-1094.445035241528
 10
-51.4152835335507
 20
-1096.450350784467
 10
-47.31907707681878
 20
-1099.052800669837
  0
LWPOLYLINE
  5
657
330
A
100
AcDbEntity
  8
0
  6
PHANTOM
 62
     7
100
AcDbPolyline
 90
       14
 70
   128
 43
0.0
 10
-50.19924827066449
 20
-1103.08477308496
 10
-50.19927261466294
 20
-1103.084755569995
 10
-53.69920043397005
 20
-1100.828731353298
 10
-57.46708972447076
 20
-1099.081713484155
 10
-60.07185771172139
 20
-1098.344905045161
 10
-62.75498649363992
 20
-1097.996443846413
 10
-65.54957368519007
 20
-1098.092804500796
 10
-68.27784619901997
 20
-1098.689893281754
 10
-70.90685741130193
 20
-1099.823799412406
 10
-73.32466482409675
 20
-1101.366530285071
 10
-76.59584987885634
 20
-1104.25535667207
 10
-79.44522930187104
 20
-1107.573578969502
 10
-83.79894609991731
 20
-1114.023831009899
 10
-85.7415916829686
 20
-1117.037000487621
  0
LWPOLYLINE
  5
667
330
A
100
AcDbEntity
  8
0
  6
PHANTOM
 62
     7
100
AcDbPolyline
 90
        6
 70
   128
 43
0.0
 10
-0.8654635845097431
 20
-1051.922540739604
 10
-1.253940973597822
 20
-1053.01702778183
 10
-1.557625502372164
 20
-1056.382845660568
 10
-1.155554100101874
 20
-1058.252228926965
 10
-0.4200652042011255
 20
-1059.3921639024
 10
0.7445488301274922
 20
-1060.395986013261
  0
LWPOLYLINE
  5
66F
330
A
100
AcDbEntity
  8
0
  6
PHANTOM
 62
     7
100
AcDbPolyline
 90
        6
 70
   128
 43
0.0
 10
124.4764428846266
 20
-1121.6821520184
 10
127.6321011984572
 20
-1121.040292744311
 10
131.8074683826772
 20
-1119.680490468868
 10
135.6569487316971
 20
-1117.606119852536
 10
138.6201780360488
 20
-1115.050814152169
 10
140.2153667701947
 20
-1113.106728660568
  0
ARC
  5
677
330
A
100
AcDbEntity
  8
0
  6
Continuous
 62
     7
100
AcDbCircle
 10
551.471875745529
 20
1214.277480501909
 30
0.0
 40
251.0000000000002
100
AcDbArc
 50
248.7431291678446
 51
269.7717293582165
  0
ARC
  5
678
330
A
100
AcDbEntity
  8
0
  6
Continuous
 62
     7
100
AcDbCircle
 10
551.471875745529
 20
1214.277480501909
 30
0.0
 40
251.0000000000002
100
AcDbArc
 50
270.2282706417853
 51
291.256870832157
  0
LINE
  5
679
330
A
100
AcDbEntity
  8
0
  6
Continuous
 62
     7
100
AcDbLine
 10
460.471875745529
 20
987.0394047080973
 30
0.0
 11
460.471875745529
 21
980.3544162264941
 31
0.0
  0
LINE
  5
67A
330
A
100
AcDbEntity
  8
0
  6
Continuous
 62
     7
100
AcDbLine
 10
642.4718757455291
 20
980.3544162264941
 30
0.0
 11
642.4718757455291
 21
987.0394047080973
 31
0.0
  0
LINE
  5
67B
330
A
100
AcDbEntity
  8
0
  6
Continuous
 62
     7
100
AcDbLine
 10
485.471875745529
 20
1014.039404708097
 30
0.0
 11
485.471875745529
 21
987.0394047080973
 31
0.0
  0
LINE
  5
67C
330
A
100
AcDbEntity
  8
0
  6
Continuous
 62
     7
100
AcDbLine
 10
617.4718757455291
 20
987.0394047080973
 30
0.0
 11
617.4718757455291
 21
1014.039404708097
 31
0.0
  0
LINE
  5
67D
330
A
100
AcDbEntity
  8
0
  6
Continuous
 62
     7
100
AcDbLine
 10
550.4718757455293
 20
968.9502308174651
 30
0.0
 11
550.4718757455297
 21
-521.9605952919026
 31
0.0
  0
LINE
  5
67E
330
A
100
AcDbEntity
  8
0
  6
Continuous
 62
     7
100
AcDbLine
 10
552.4718757455295
 20
-521.9605952919026
 30
0.0
 11
552.4718757455291
 21
968.9502308174651
 31
0.0
  0
LINE
  5
67F
330
A
100
AcDbEntity
  8
0
  6
Continuous
 62
     7
100
AcDbLine
 10
581.4718757455295
 20
-531.9605952919026
 30
0.0
 11
581.4718757455295
 21
-521.9605952919026
 31
0.0
  0
LINE
  5
680
330
A
100
AcDbEntity
  8
0
  6
Continuous
 62
     7
100
AcDbLine
 10
521.4718757455297
 20
-521.9605952919026
 30
0.0
 11
521.4718757455297
 21
-531.9605952919026
 31
0.0
  0
LINE
  5
681
330
A
100
AcDbEntity
  8
0
  6
Continuous
 62
     7
100
AcDbLine
 10
534.9718757455296
 20
-531.9605952919026
 30
0.0
 11
534.9718757455296
 21
-534.4718987551074
 31
0.0
  0
LINE
  5
682
330
A
100
AcDbEntity
  8
0
  6
Continuous
 62
     7
100
AcDbLine
 10
567.9718757455296
 20
-534.471898755109
 30
0.0
 11
567.9718757455296
 21
-531.9605952919026
 31
0.0
  0
LINE
  5
683
330
A
100
AcDbEntity
  8
0
  6
Continuous
 62
     7
100
AcDbLine
 10
481.471875745529
 20
-511.9605952919026
 30
0.0
 11
481.471875745529
 21
-531.9605952919026
 31
0.0
  0
LINE
  5
684
330
A
100
AcDbEntity
  8
0
  6
Continuous
 62
     7
100
AcDbLine
 10
621.4718757455291
 20
-531.9605952919026
 30
0.0
 11
621.4718757455291
 21
-511.9605952919026
 31
0.0
  0
LWPOLYLINE
  5
685
330
A
100
AcDbEntity
  8
0
  6
Continuous
 62
     7
100
AcDbPolyline
 90
       21
 70
   128
 43
0.0
 10
506.2093081879395
 20
-539.4582176979914
 10
506.1902190126807
 20
-543.9130429622787
 10
506.1591411761841
 20
-548.6846748376721
 10
506.1283710228945
 20
-552.5369646903373
 10
506.1021423001775
 20
-555.4699125202744
 10
506.0802059728912
 20
-557.7614286766796
 10
505.9839305479106
 20
-566.7649749831713
 10
505.9462594891005
 20
-570.0171693526236
 10
505.9074977642001
 20
-573.2886490468835
 10
505.8681592952426
 20
-576.5794140659505
 10
505.8261579935695
 20
-580.0800059368018
 10
505.7734545668573
 20
-584.3499944152717
 10
505.688541018228
 20
-590.9498050765075
 10
505.5813373004145
 20
-598.8547291926546
 10
505.4491963656764
 20
-608.0647667637126
 10
505.2896189796067
 20
-618.5799177896817
 10
505.1006878926291
 20
-630.4001822705617
 10
504.885808811055
 20
-643.2797337444862
 10
504.6429001209283
 20
-657.4182036498854
 10
504.3755804674247
 20
-672.8155919867599
 10
504.0911021218542
 20
-689.4718987551093
  0
LWPOLYLINE
  5
69C
330
A
100
AcDbEntity
  8
0
  6
Continuous
 62
     7
100
AcDbPolyline
 90
        9
 70
   128
 43
0.0
 10
506.2107701370004
 20
-539.46681769482
 10
506.3075701554907
 20
-538.492782164941
 10
506.5922805631998
 20
-537.5562709154881
 10
507.0539899392753
 20
-536.6931753929959
 10
507.6750034430032
 20
-535.9365734134724
 10
508.4315209620209
 20
-535.3154614673625
 10
509.2945492428014
 20
-534.8536434397965
 10
510.2310130463498
 20
-534.5688183355166
 10
511.2050227444787
 20
-534.4719019710788
  0
LWPOLYLINE
  5
6A7
330
A
100
AcDbEntity
  8
0
  6
Continuous
 62
     7
100
AcDbPolyline
 90
        9
 70
   128
 43
0.0
 10
638.9900446887121
 20
-534.4718987552843
 10
639.9824521888745
 20
-534.571367345817
 10
640.9362840230973
 20
-534.8662167796736
 10
641.8125222490422
 20
-535.3446917108848
 10
642.5762318275773
 20
-535.9877156600744
 10
643.1969641623948
 20
-536.7696516872391
 10
643.6499710654276
 20
-537.6593245196062
 10
643.9171914507567
 20
-538.6212634891625
 10
643.9879714181732
 20
-539.6171167247512
  0
LWPOLYLINE
  5
6B2
330
A
100
AcDbEntity
  8
0
  6
Continuous
 62
     7
100
AcDbPolyline
 90
        6
 70
   128
 43
0.0
 10
639.7346924559019
 20
-689.4718987551093
 10
640.2794573132939
 20
-669.9147001285781
 10
640.5974892300549
 20
-658.5291886788895
 10
640.7095996114636
 20
-654.5217606194655
 10
641.6740422476216
 20
-620.197436395483
 10
643.9886470622293
 20
-539.6236251541077
  0
LWPOLYLINE
  5
6BA
330
A
100
AcDbEntity
  8
0
  6
Continuous
 62
     7
100
AcDbPolyline
 90
        3
 70
   128
 43
0.0
 10
477.1126591477415
 20
-539.4933833003925
 10
477.4409455145227
 20
-613.7697023316259
 10
477.7739879058199
 20
-689.4718987551087
  0
LWPOLYLINE
  5
6BF
330
A
100
AcDbEntity
  8
0
  6
Continuous
 62
     7
100
AcDbPolyline
 90
        9
 70
   128
 43
0.0
 10
477.1149961895686
 20
-539.5014809267544
 10
477.2043553928031
 20
-538.5302833789283
 10
477.4805163474016
 20
-537.5949128985879
 10
477.9329715389291
 20
-536.730958944202
 10
478.5445057188976
 20
-535.9712936814238
 10
479.2918509194192
 20
-535.3448212459812
 10
480.1465717648495
 20
-534.8753779842112
 10
481.0761473956258
 20
-534.5808255154602
 10
482.045208838705
 20
-534.4723711239794
  0
LWPOLYLINE
  5
6CA
330
A
100
AcDbEntity
  8
0
  6
Continuous
 62
     7
100
AcDbPolyline
 90
       14
 70
   128
 43
0.0
 10
652.6834799871182
 20
-689.4718987551093
 10
651.1767012242233
 20
-681.8074029143401
 10
649.8825260090227
 20
-675.1419395474985
 10
648.7957852700311
 20
-669.4755086545844
 10
647.9109976071646
 20
-664.8081102355978
 10
647.222795461533
 20
-661.1397442905389
 10
646.7226905656033
 20
-658.4507791254274
 10
646.2853816562281
 20
-656.082174916434
 10
645.491388784882
 20
-651.7365563689958
 10
644.6476136795484
 20
-647.0462240710581
 10
643.6747310983345
 20
-641.5288484496293
 10
642.8753223489423
 20
-636.8901181059851
 10
642.0899822793066
 20
-632.2167420663268
 10
641.4472906249762
 20
-628.267482163054
  0
LWPOLYLINE
  5
6DA
330
A
100
AcDbEntity
  8
0
  6
Continuous
 62
     7
100
AcDbPolyline
 90
        8
 70
   128
 43
0.0
 10
610.4354186134959
 20
-534.4828356879194
 10
611.4466545910655
 20
-534.5869613497758
 10
612.4159276513645
 20
-534.8934813154293
 10
613.303168259986
 20
-535.389724117145
 10
614.0716980859722
 20
-536.0551751870143
 10
614.6897462759215
 20
-536.8623249246655
 10
615.131762854057
 20
-537.7778059380717
 10
615.3245850062265
 20
-538.4546101245515
  0
LWPOLYLINE
  5
6E4
330
A
100
AcDbEntity
  8
0
  6
Continuous
 62
     7
100
AcDbPolyline
 90
        9
 70
   128
 43
0.0
 10
467.379269335459
 20
-539.2691065278675
 10
467.5106433692504
 20
-538.3248101156488
 10
467.8188575003132
 20
-537.4226174432275
 10
468.2927055995336
 20
-536.5953306651905
 10
468.9149593751323
 20
-535.8730284882382
 10
469.662994763355
 20
-535.2819725617845
 10
470.5096145000351
 20
-534.8436526501134
 10
471.4240369657605
 20
-534.5740053019697
 10
472.373015351955
 20
-534.4828344253965
  0
LWPOLYLINE
  5
6EF
330
A
100
AcDbEntity
  8
0
  6
Continuous
 62
     7
100
AcDbPolyline
 90
       35
 70
   128
 43
0.0
 10
467.3781173501523
 20
-539.2820058954537
 10
467.0572595574645
 20
-547.2654909903718
 10
466.719983095709
 20
-555.50570386634
 10
466.4227718491235
 20
-562.6304132403006
 10
466.1674023291485
 20
-568.6396191122539
 10
465.9558639370752
 20
-573.5333214821998
 10
465.798637376043
 20
-577.1189151617188
 10
465.6834380076629
 20
-579.7171715156751
 10
465.6114497953268
 20
-581.3280905440681
 10
465.5544362133339
 20
-582.5967774238423
 10
465.4751060757361
 20
-584.3513395790969
 10
465.3373783829092
 20
-587.3671602176925
 10
465.1765273270412
 20
-590.8390197541835
 10
464.9974860764605
 20
-594.6371997354282
 10
464.727051206219
 20
-600.2352243228266
 10
464.4483720334878
 20
-605.8197002192091
 10
464.1993024348258
 20
-610.6431597673718
 10
463.9820440494017
 20
-614.7136200639839
 10
463.7795108948153
 20
-618.3837027612828
 10
463.5311521949479
 20
-622.7070739126792
 10
463.2414499070348
 20
-627.4790847960616
 10
462.9644825843029
 20
-631.8105190383915
 10
462.6992172868775
 20
-635.7584800081657
 10
462.3935831128282
 20
-639.6556649554234
 10
462.0918094977871
 20
-643.1372443491121
 10
461.9286997765623
 20
-644.9427022809522
 10
461.8088604872954
 20
-646.2260986072143
 10
461.6467719667135
 20
-647.8973833479003
 10
461.3661570522824
 20
-650.6360415772445
 10
460.9451960700257
 20
-654.4420732952469
 10
460.3538623227044
 20
-659.3154785019074
 10
459.556265567077
 20
-665.2562571972262
 10
458.5167419425576
 20
-672.2644093812036
 10
457.2118241214041
 20
-680.3399350538389
 10
455.650649599528
 20
-689.4828342151322
  0
LWPOLYLINE
  5
714
330
A
100
AcDbEntity
  8
0
  6
Continuous
 62
     7
100
AcDbPolyline
 90
       20
 70
   128
 43
0.0
 10
648.398537197037
 20
-667.3799606427253
 10
648.1742871626984
 20
-663.6515063391956
 10
647.7764093259944
 20
-657.0227649955809
 10
647.4387228984228
 20
-651.3848742928147
 10
647.1609587336147
 20
-646.7378342308974
 10
646.942831778872
 20
-643.0816448098283
 10
646.784072375348
 20
-640.4163060296085
 10
646.6735642772055
 20
-638.5587168972644
 10
646.5619470019644
 20
-636.6804330106532
 10
646.3174580230916
 20
-632.5584684894773
 10
646.0306960167428
 20
-627.7120444653701
 10
645.6817874543008
 20
-621.8128968325897
 10
645.2707473987222
 20
-614.8589429053994
 10
644.8016481258041
 20
-606.850182683799
 10
644.3256435904515
 20
-598.5133941119059
 10
643.9114670418607
 20
-590.9518789308621
 10
643.5612512590552
 20
-584.1770979151958
 10
643.2736415013247
 20
-578.1890510649075
 10
643.0435100031522
 20
-572.9704307166421
 10
643.036035419528
 20
-572.7850314559248
  0
LINE
  5
72A
330
A
100
AcDbEntity
  8
0
  6
Continuous
 62
     7
100
AcDbLine
 10
460.471875745529
 20
980.3544162264941
 30
0.0
 11
642.4718757455291
 21
980.3544162264941
 31
0.0
  0
LINE
  5
72B
330
A
100
AcDbEntity
  8
0
  6
Continuous
 62
     7
100
AcDbLine
 10
460.471875745529
 20
987.0394047080973
 30
0.0
 11
642.4718757455291
 21
987.0394047080973
 31
0.0
  0
LINE
  5
72C
330
A
100
AcDbEntity
  8
0
  6
Continuous
 62
     7
100
AcDbLine
 10
485.471875745529
 20
1014.039404708097
 30
0.0
 11
617.4718757455291
 21
1014.039404708097
 31
0.0
  0
LINE
  5
72D
330
A
100
AcDbEntity
  8
0
  6
Continuous
 62
     7
100
AcDbLine
 10
581.4718757455295
 20
-521.9605952919026
 30
0.0
 11
521.4718757455297
 21
-521.9605952919026
 31
0.0
  0
LINE
  5
72E
330
A
100
AcDbEntity
  8
0
  6
Continuous
 62
     7
100
AcDbLine
 10
521.4718757455297
 20
-531.9605952919026
 30
0.0
 11
581.4718757455295
 21
-531.9605952919026
 31
0.0
  0
LINE
  5
72F
330
A
100
AcDbEntity
  8
0
  6
Continuous
 62
     7
100
AcDbLine
 10
563.4718757455292
 20
-511.9605952919026
 30
0.0
 11
561.4718757455294
 21
-521.9605952919026
 31
0.0
  0
LINE
  5
730
330
A
100
AcDbEntity
  8
0
  6
Continuous
 62
     7
100
AcDbLine
 10
541.4718757455296
 20
-521.9605952919026
 30
0.0
 11
539.4718757455293
 21
-511.9605952919026
 31
0.0
  0
LINE
  5
731
330
A
100
AcDbEntity
  8
0
  6
Continuous
 62
     7
100
AcDbLine
 10
563.4718757455292
 20
-511.9605952919026
 30
0.0
 11
552.4718757455294
 21
-511.9605952919026
 31
0.0
  0
LINE
  5
732
330
A
100
AcDbEntity
  8
0
  6
Continuous
 62
     7
100
AcDbLine
 10
550.4718757455297
 20
-511.9605952919026
 30
0.0
 11
539.4718757455293
 21
-511.9605952919026
 31
0.0
  0
LINE
  5
733
330
A
100
AcDbEntity
  8
0
  6
Continuous
 62
     7
100
AcDbLine
 10
539.4718757455293
 20
-511.9605952919026
 30
0.0
 11
539.4718757455293
 21
-521.9605952919026
 31
0.0
  0
LINE
  5
734
330
A
100
AcDbEntity
  8
0
  6
Continuous
 62
     7
100
AcDbLine
 10
563.4718757455292
 20
-511.9605952919026
 30
0.0
 11
563.4718757455292
 21
-521.9605952919026
 31
0.0
  0
LINE
  5
735
330
A
100
AcDbEntity
  8
0
  6
Continuous
 62
     7
100
AcDbLine
 10
481.471875745529
 20
-511.9605952919026
 30
0.0
 11
539.4718757455293
 21
-511.9605952919026
 31
0.0
  0
LINE
  5
736
330
A
100
AcDbEntity
  8
0
  6
Continuous
 62
     7
100
AcDbLine
 10
481.471875745529
 20
-531.9605952919026
 30
0.0
 11
521.4718757455285
 21
-531.9605952919026
 31
0.0
  0
LINE
  5
737
330
A
100
AcDbEntity
  8
0
  6
Continuous
 62
     7
100
AcDbLine
 10
563.4718757455292
 20
-511.9605952919026
 30
0.0
 11
621.4718757455291
 21
-511.9605952919026
 31
0.0
  0
LINE
  5
738
330
A
100
AcDbEntity
  8
0
  6
Continuous
 62
     7
100
AcDbLine
 10
581.4718757455286
 20
-531.9605952919026
 30
0.0
 11
621.4718757455291
 21
-531.9605952919026
 31
0.0
  0
LINE
  5
739
330
A
100
AcDbEntity
  8
0
  6
Continuous
 62
     7
100
AcDbLine
 10
553.1445543739624
 20
-689.4718987551073
 30
0.0
 11
553.1445543739623
 21
-689.4828342151322
 31
0.0
  0
LINE
  5
73A
330
A
100
AcDbEntity
  8
0
  6
Continuous
 62
     7
100
AcDbLine
 10
505.0664957857196
 20
-539.5894297082143
 30
0.0
 11
505.8804363959247
 21
-575.5524027325007
 31
0.0
  0
LINE
  5
73B
330
A
100
AcDbEntity
  8
0
  6
Continuous
 62
     7
100
AcDbLine
 10
505.0664951894908
 20
-539.5894033645669
 30
0.0
 11
505.0664957857197
 21
-539.5894297082143
 31
0.0
  0
LINE
  5
73C
330
A
100
AcDbEntity
  8
0
  6
Continuous
 62
     7
100
AcDbLine
 10
586.69215381736
 20
-539.8902235542002
 30
0.0
 11
586.6921879448877
 21
-539.8894143286312
 31
0.0
  0
LINE
  5
73D
330
A
100
AcDbEntity
  8
0
  6
Continuous
 62
     7
100
AcDbLine
 10
586.6921538173598
 20
-539.8902235542002
 30
0.0
 11
580.3838351593663
 21
-689.4718987551091
 31
0.0
  0
LINE
  5
73E
330
A
100
AcDbEntity
  8
0
  6
Continuous
 62
     7
100
AcDbLine
 10
580.999671346186
 20
-689.4718987551093
 30
0.0
 11
504.1845414477365
 21
-689.4718987551093
 31
0.0
  0
LWPOLYLINE
  5
73F
330
A
100
AcDbEntity
  8
0
  6
Continuous
 62
     7
100
AcDbPolyline
 90
        7
 70
   128
 43
0.0
 10
505.0664952266321
 20
-539.5894033658756
 10
505.2712338666601
 20
-537.9282087869619
 10
505.9279395834095
 20
-536.4410535426746
 10
506.9625738164495
 20
-535.2956029991527
 10
508.2584895225992
 20
-534.6209979898559
 10
508.997559144692
 20
-534.4831445720322
 10
509.2800816267656
 20
-534.4718987551089
  0
LINE
  5
748
330
A
100
AcDbEntity
  8
0
  6
Continuous
 62
     7
100
AcDbLine
 10
509.2800816267482
 20
-534.4718987551089
 30
0.0
 11
511.403405362021
 21
-534.4718987551089
 31
0.0
  0
LINE
  5
749
330
A
100
AcDbEntity
  8
0
  6
Continuous
 62
     7
100
AcDbLine
 10
582.1010887889578
 20
-534.471898755109
 30
0.0
 11
511.22148605767
 21
-534.4718987551089
 31
0.0
  0
LWPOLYLINE
  5
74A
330
A
100
AcDbEntity
  8
0
  6
Continuous
 62
     7
100
AcDbPolyline
 90
        7
 70
   128
 43
0.0
 10
582.1010887889578
 20
-534.471898755109
 10
582.3176934357977
 20
-534.477427682171
 10
583.4842538705266
 20
-534.7025455148362
 10
584.8609455027758
 20
-535.4682685638638
 10
585.9264841182588
 20
-536.68537006369
 10
586.560738765766
 20
-538.2166312500182
 10
586.6921879448876
 20
-539.8894143286312
  0
LWPOLYLINE
  5
753
330
A
100
AcDbEntity
  8
0
  6
Continuous
 62
     7
100
AcDbPolyline
 90
        5
 70
   128
 43
0.0
 10
612.482072599299
 20
-534.4718987551093
 10
613.8692643305151
 20
-534.7714960971736
 10
615.1445142252462
 20
-535.6911176690068
 10
616.0587478443115
 20
-537.0886842487469
 10
616.4261713479919
 20
-538.4718987551116
  0
LINE
  5
75A
330
A
100
AcDbEntity
  8
0
  6
Continuous
 62
     7
100
AcDbLine
 10
582.1010887889578
 20
-534.471898755109
 30
0.0
 11
638.9881500332331
 21
-534.4718987551093
 31
0.0
  0
LINE
  5
75B
330
A
100
AcDbEntity
  8
0
  6
Continuous
 62
     7
100
AcDbLine
 10
640.9050442018289
 20
-647.5659259891748
 30
0.0
 11
650.30278539721
 21
-689.4718987551093
 31
0.0
  0
LINE
  5
75C
330
A
100
AcDbEntity
  8
0
  6
Continuous
 62
     7
100
AcDbLine
 10
650.3027853972102
 20
-689.4718987551093
 30
0.0
 11
639.7346924559019
 21
-689.4718987551093
 31
0.0
  0
LINE
  5
75D
330
A
100
AcDbEntity
  8
0
  6
Continuous
 62
     7
100
AcDbLine
 10
580.3838351593669
 20
-689.4718987551089
 30
0.0
 11
639.6930631463775
 21
-689.4718987551096
 31
0.0
  0
LINE
  5
75E
330
A
100
AcDbEntity
  8
0
  6
Continuous
 62
     7
100
AcDbLine
 10
477.1447084062639
 20
-539.4990925184433
 30
0.0
 11
477.1637581954625
 21
-539.4933921431992
 31
0.0
  0
LINE
  5
75F
330
A
100
AcDbEntity
  8
0
  6
Continuous
 62
     7
100
AcDbLine
 10
504.0911021218543
 20
-689.4718987551089
 30
0.0
 11
477.8507056159348
 21
-689.4718987551091
 31
0.0
  0
LINE
  5
760
330
A
100
AcDbEntity
  8
0
  6
Continuous
 62
     7
100
AcDbLine
 10
509.2800816267482
 20
-534.4718987551089
 30
0.0
 11
482.1183766632866
 21
-534.4718987551089
 31
0.0
  0
LINE
  5
761
330
A
100
AcDbEntity
  8
0
  6
Continuous
 62
     7
100
AcDbLine
 10
652.5929598918321
 20
-689.4718987551093
 30
0.0
 11
650.3027853972102
 21
-689.4718987551093
 31
0.0
  0
LINE
  5
762
330
A
100
AcDbEntity
  8
0
  6
Continuous
 62
     7
100
AcDbLine
 10
472.4125263480813
 20
-534.4828342151322
 30
0.0
 11
481.7685375348088
 21
-534.4828342151322
 31
0.0
  0
LINE
  5
763
330
A
100
AcDbEntity
  8
0
  6
Continuous
 62
     7
100
AcDbLine
 10
477.500866487457
 20
-689.4828342151313
 30
0.0
 11
455.6737325662677
 21
-689.4828342151322
 31
0.0
  0
LWPOLYLINE
  5
764
330
A
100
AcDbEntity
  8
0
  6
PHANTOM
 62
     7
100
AcDbPolyline
 90
       26
 70
   128
 43
0.0
 10
586.6921879448876
 20
-539.8894143286312
 10
586.692176385557
 20
-539.889413468833
 10
585.6318888219089
 20
-539.8180929145842
 10
584.7764502892825
 20
-539.7771593336922
 10
583.4629010436716
 20
-539.7405732850586
 10
581.7671834037245
 20
-539.704178998986
 10
580.0225990191127
 20
-539.667389260605
 10
577.8401313918221
 20
-539.6314894230267
 10
575.3765045090696
 20
-539.6038522755848
 10
572.534974055071
 20
-539.5669522163506
 10
563.5571357571593
 20
-539.4287023647065
 10
554.3281544406872
 20
-539.5243015330688
 10
549.1569323070065
 20
-539.6502832598044
 10
543.8229071140644
 20
-539.6741792847576
 10
539.0340463344707
 20
-539.61813768465
 10
534.3201642583517
 20
-539.5091827031974
 10
529.4114975703495
 20
-539.3333912732418
 10
524.9114717383148
 20
-539.186860882942
 10
520.5510783629594
 20
-539.14723404647
 10
516.3557937046564
 20
-539.2027045680516
 10
512.6534350254937
 20
-539.3035918964605
 10
509.445790243145
 20
-539.3743688591126
 10
507.7676589469576
 20
-539.3755819718973
 10
506.7074165662096
 20
-539.3781608526803
 10
506.229237459704
 20
-539.4365833670936
 10
506.2661429642236
 20
-539.4582193508592
  0
LWPOLYLINE
  5
780
330
A
100
AcDbEntity
  8
0
  6
PHANTOM
 62
     7
100
AcDbPolyline
 90
        4
 70
   128
 43
0.0
 10
506.2221107751602
 20
-539.6358218281362
 10
505.0665113503464
 20
-539.5894039340198
 10
505.0664951894906
 20
-539.5894033645669
 10
505.0664951894906
 20
-539.5894033645669
  0
LWPOLYLINE
  5
786
330
A
100
AcDbEntity
  8
0
  6
PHANTOM
 62
     7
100
AcDbPolyline
 90
       26
 70
   128
 43
0.0
 10
643.9720849903549
 20
-539.6196475024477
 10
643.9852309744504
 20
-539.6264119680949
 10
643.6805490028815
 20
-539.70714245718
 10
643.0109200101514
 20
-539.7949326200942
 10
641.7446615610307
 20
-539.9426937991312
 10
640.6191940230861
 20
-540.0622968351824
 10
639.0848283843555
 20
-540.2014457370853
 10
637.9403365458135
 20
-540.2854527864642
 10
636.5944725589399
 20
-540.3541156647384
 10
635.0801720804167
 20
-540.3906780708824
 10
633.4476653173312
 20
-540.4009364560112
 10
631.1911726231609
 20
-540.394596724318
 10
628.8940194432536
 20
-540.3791610274972
 10
623.5516031035014
 20
-540.3407020814812
 10
617.4334499399885
 20
-540.3052489589031
 10
612.316390403773
 20
-540.2737155458079
 10
607.1909914441781
 20
-540.2433226726506
 10
602.0442590910598
 20
-540.2163652716283
 10
596.8631993742735
 20
-540.1951382749372
 10
594.4740895013467
 20
-540.1854343000151
 10
592.1478825725158
 20
-540.1637587883977
 10
589.7200387542462
 20
-540.0966782253084
 10
587.8988787752664
 20
-539.9793990831723
 10
586.6921654307358
 20
-539.8902243677796
 10
586.6921538173598
 20
-539.8902235542002
 10
586.6921538173598
 20
-539.8902235542002
  0
LWPOLYLINE
  5
7A2
330
A
100
AcDbEntity
  8
0
  6
PHANTOM
 62
     7
100
AcDbPolyline
 90
       12
 70
   128
 43
0.0
 10
505.0664957857196
 20
-539.5894297082143
 10
505.0664796505952
 20
-539.5894291671492
 10
501.1305434096475
 20
-539.5022456510556
 10
496.4779187970386
 20
-539.497002505223
 10
491.431938787568
 20
-539.6090975487169
 10
488.2529769089889
 20
-539.7083783683204
 10
485.0642124859054
 20
-539.7733937798392
 10
482.0924675502841
 20
-539.7853866071655
 10
479.5645641340922
 20
-539.7255996741923
 10
477.8635117547493
 20
-539.6123852623235
 10
477.1227943139219
 20
-539.5056499951789
 10
477.1447084062639
 20
-539.4990925184433
  0
LWPOLYLINE
  5
7B0
330
A
100
AcDbEntity
  8
0
  6
PHANTOM
 62
     7
100
AcDbPolyline
 90
        6
 70
   128
 43
0.0
 10
477.1121979681593
 20
-539.3890392726082
 10
474.7588955853499
 20
-539.3672126112963
 10
471.2010480513306
 20
-539.334971599972
 10
469.2373782004614
 20
-539.3147426722529
 10
467.7591202248628
 20
-539.2945576067278
 10
467.4478969077581
 20
-539.2847013017321
  0
ENDSEC
  0
SECTION
  2
OBJECTS
  0
DICTIONARY
  5
19
330
0
100
AcDbDictionary
281
     1
  3
ACAD_COLOR
350
7BC
  3
ACAD_GROUP
350
1A
  3
ACAD_LAYOUT
350
7BD
  3
ACAD_MATERIAL
350
7BB
  3
ACAD_MLINESTYLE
350
1B
  3
ACAD_PLOTSETTINGS
350
7BE
  3
ACAD_PLOTSTYLENAME
350
7B9
  3
ACDBHEADERROUNDTRIPXREC
350
7D6
  3
AcDbVariableDictionary
350
7CF
  3
ASE_INDEX_DICTIONARY
350
7C4
  0
DICTIONARY
  5
7BC
102
{ACAD_REACTORS
330
19
102
}
330
19
100
AcDbDictionary
281
     1
  0
DICTIONARY
  5
1A
102
{ACAD_REACTORS
330
19
102
}
330
19
100
AcDbDictionary
281
     1
  0
DICTIONARY
  5
7BD
102
{ACAD_REACTORS
330
19
102
}
330
19
100
AcDbDictionary
281
     1
  3
Layout1
350
7C0
  3
Model
350
7BF
  0
DICTIONARY
  5
7BB
102
{ACAD_REACTORS
330
19
102
}
330
19
100
AcDbDictionary
281
     1
  0
DICTIONARY
  5
1B
102
{ACAD_REACTORS
330
19
102
}
330
19
100
AcDbDictionary
281
     1
  3
STANDARD
350
1C
  0
DICTIONARY
  5
7BE
102
{ACAD_REACTORS
330
19
102
}
330
19
100
AcDbDictionary
281
     1
  0
ACDBDICTIONARYWDFLT
  5
7B9
102
{ACAD_REACTORS
330
19
102
}
330
19
100
AcDbDictionary
281
     1
  3
Normal
350
7BA
100
AcDbDictionaryWithDefault
340
7BA
  0
DICTIONARY
  5
7D6
102
{ACAD_REACTORS
330
19
102
}
330
19
100
AcDbDictionary
281
     1
  3
COLORDICT
350
7D8
  3
MATERIALDICT
350
7D7
  0
DICTIONARY
  5
7CF
102
{ACAD_REACTORS
330
19
102
}
330
19
100
AcDbDictionary
281
     1
  3
DIMASSOC
350
7D0
  3
PROJECTNAME
350
7D1
  0
DICTIONARY
  5
7C4
102
{ACAD_REACTORS
330
19
102
}
330
19
100
AcDbDictionary
281
     1
  3
ASEBlockHierarchyIndexRecord
350
7C6
1001
DCO15
1040
1521898587.578
  0
LAYOUT
  5
7C0
102
{ACAD_XDICTIONARY
360
7DB
102
}
102
{ACAD_REACTORS
330
7BD
102
}
330
7BD
100
AcDbPlotSettings
  1

  2
ProgeSOFT PDF Wizard
  4

  6

 40
0.0
 41
0.0
 42
0.0
 43
0.0
 44
0.0
 45
0.0
 46
0.0
 47
0.0
 48
0.0
 49
0.0
140
0.0
141
0.0
142
1.0
143
1.0
 70
   688
 72
     0
 73
     0
 74
     5
  7

 75
    16
147
1.0
148
0.0
149
0.0
100
AcDbLayout
  1
Layout1
 70
     1
 71
     1
 10
0.0
 20
0.0
 11
12.0
 21
9.0
 12
0.0
 22
0.0
 32
0.0
 14
1.000000000000000E+20
 24
1.000000000000000E+20
 34
1.000000000000000E+20
 15
-1.000000000000000E+20
 25
-1.000000000000000E+20
 35
-1.000000000000000E+20
146
0.0
 13
0.0
 23
0.0
 33
0.0
 16
1.0
 26
0.0
 36
0.0
 17
0.0
 27
1.0
 37
0.0
 76
     0
330
B
  0
LAYOUT
  5
7BF
102
{ACAD_XDICTIONARY
360
7D9
102
}
102
{ACAD_REACTORS
330
7BD
102
}
330
7BD
100
AcDbPlotSettings
  1

  2
ProgeSOFT PDF Wizard
  4

  6

 40
0.0
 41
0.0
 42
0.0
 43
0.0
 44
0.0
 45
0.0
 46
0.0
 47
0.0
 48
0.0
 49
0.0
140
0.0
141
0.0
142
1.0
143
1.0
 70
  1712
 72
     0
 73
     0
 74
     0
  7

 75
     0
147
1.0
148
0.0
149
0.0
100
AcDbLayout
  1
Model
 70
     1
 71
     0
 10
0.0
 20
0.0
 11
12.0
 21
9.0
 12
0.0
 22
0.0
 32
0.0
 14
0.0
 24
0.0
 34
0.0
 15
0.0
 25
0.0
 35
0.0
146
0.0
 13
0.0
 23
0.0
 33
0.0
 16
1.0
 26
0.0
 36
0.0
 17
0.0
 27
1.0
 37
0.0
 76
     0
330
A
  0
MLINESTYLE
  5
1C
102
{ACAD_REACTORS
330
1B
102
}
330
1B
100
AcDbMlineStyle
  2
STANDARD
 70
     0
  3

 62
     0
 51
90.0
 52
90.0
 71
     2
 49
0.5
 62
   256
  6
BYLAYER
 49
-0.5
 62
   256
  6
BYLAYER
  0
ACDBPLACEHOLDER
  5
7BA
102
{ACAD_REACTORS
330
7B9
102
}
330
7B9
  0
XRECORD
  5
7D8
102
{ACAD_REACTORS
330
7D6
102
}
330
7D6
100
AcDbXrecord
280
     1
340
7BC
  0
XRECORD
  5
7D7
102
{ACAD_REACTORS
330
7D6
102
}
330
7D6
100
AcDbXrecord
280
     1
340
7BB
  0
DICTIONARYVAR
  5
7D0
102
{ACAD_REACTORS
330
7CF
102
}
330
7CF
100
DictionaryVariables
280
     0
  1
1
  0
DICTIONARYVAR
  5
7D1
102
{ACAD_REACTORS
330
7CF
102
}
330
7CF
100
DictionaryVariables
280
     0
  1

  0
XRECORD
  5
7C6
102
{ACAD_REACTORS
330
7C4
102
}
330
7C4
100
AcDbXrecord
280
     1
  0
DICTIONARY
  5
7DB
330
7C0
100
AcDbDictionary
280
     1
281
     1
  3
ACAD_XREC_ROUNDTRIP
360
7DC
  0
DICTIONARY
  5
7D9
330
7BF
100
AcDbDictionary
280
     1
281
     1
  3
ACAD_XREC_ROUNDTRIP
360
7DA
  0
XRECORD
  5
7DC
102
{ACAD_REACTORS
330
7DB
102
}
330
7DB
100
AcDbXrecord
280
     1
102
SHADEPLOT
 70
     0
102
SHADEPLOTRESLEVEL
 70
     2
102
SHADEPLOTCUSTOMDPI
 70
   300
  0
XRECORD
  5
7DA
102
{ACAD_REACTORS
330
7D9
102
}
330
7D9
100
AcDbXrecord
280
     1
102
SHADEPLOT
 70
     0
102
SHADEPLOTRESLEVEL
 70
     2
102
SHADEPLOTCUSTOMDPI
 70
   300
  0
ENDSEC
  0
EOF
