  0
SECTION
  2
HEADER
  9
$ACADVER
  1
AC1015
  9
$ACADMAINTVER
 70
    20
  9
$DWGCODEPAGE
  3
ANSI_1252
  9
$INSBASE
 10
0.0
 20
0.0
 30
0.0
  9
$EXTMIN
 10
-91.7914574192639
 20
-1310.329416497417
 30
0.0
  9
$EXTMAX
 10
772.4152212828196
 20
1014.069843927213
 30
0.0
  9
$LIMMIN
 10
0.0
 20
0.0
  9
$LIMMAX
 10
0.0
 20
0.0
  9
$ORTHOMODE
 70
     0
  9
$REGENMODE
 70
     1
  9
$FILLMODE
 70
     1
  9
$QTEXTMODE
 70
     0
  9
$MIRRTEXT
 70
     1
  9
$LTSCALE
 40
1.0
  9
$ATTMODE
 70
     1
  9
$TEXTSIZE
 40
0.0
  9
$TRACEWID
 40
0.05
  9
$TEXTSTYLE
  7
STANDARD
  9
$CLAYER
  8
0
  9
$CELTYPE
  6
CONTINUOUS
  9
$CECOLOR
 62
   256
  9
$CELTSCALE
 40
1.0
  9
$DISPSILH
 70
     0
  9
$DIMSCALE
 40
1.0
  9
$DIMASZ
 40
6.0
  9
$DIMEXO
 40
1.0
  9
$DIMDLI
 40
0.38
  9
$DIMRND
 40
0.0
  9
$DIMDLE
 40
1.0
  9
$DIMEXE
 40
0.18
  9
$DIMTP
 40
0.0
  9
$DIMTM
 40
0.0
  9
$DIMTXT
 40
3.5
  9
$DIMCEN
 40
0.09
  9
$DIMTSZ
 40
0.0
  9
$DIMTOL
 70
     0
  9
$DIMLIM
 70
     0
  9
$DIMTIH
 70
     1
  9
$DIMTOH
 70
     1
  9
$DIMSE1
 70
     0
  9
$DIMSE2
 70
     0
  9
$DIMTAD
 70
     1
  9
$DIMZIN
 70
     0
  9
$DIMBLK
  1

  9
$DIMASO
 70
     1
  9
$DIMSHO
 70
     1
  9
$DIMPOST
  1

  9
$DIMAPOST
  1

  9
$DIMALT
 70
     0
  9
$DIMALTD
 70
     2
  9
$DIMALTF
 40
0.0394
  9
$DIMLFAC
 40
1.0
  9
$DIMTOFL
 70
     0
  9
$DIMTVP
 40
0.0
  9
$DIMTIX
 70
     0
  9
$DIMSOXD
 70
     0
  9
$DIMSAH
 70
     0
  9
$DIMBLK1
  1

  9
$DIMBLK2
  1

  9
$DIMSTYLE
  2
STANDARD
  9
$DIMCLRD
 70
     0
  9
$DIMCLRE
 70
     0
  9
$DIMCLRT
 70
     0
  9
$DIMTFAC
 40
1.0
  9
$DIMGAP
 40
1.0
  9
$DIMJUST
 70
     0
  9
$DIMSD1
 70
     0
  9
$DIMSD2
 70
     0
  9
$DIMTOLJ
 70
     1
  9
$DIMTZIN
 70
     0
  9
$DIMALTZ
 70
     0
  9
$DIMALTTZ
 70
     0
  9
$DIMUPT
 70
     0
  9
$DIMDEC
 70
     4
  9
$DIMTDEC
 70
     4
  9
$DIMALTU
 70
     2
  9
$DIMALTTD
 70
     2
  9
$DIMTXSTY
  7
STANDARD
  9
$DIMAUNIT
 70
     0
  9
$DIMADEC
 70
     0
  9
$DIMALTRND
 40
0.0
  9
$DIMAZIN
 70
     0
  9
$DIMDSEP
 70
    46
  9
$DIMATFIT
 70
     3
  9
$DIMFRAC
 70
     0
  9
$DIMLDRBLK
  1

  9
$DIMLUNIT
 70
     2
  9
$DIMLWD
 70
    -2
  9
$DIMLWE
 70
    -2
  9
$DIMTMOVE
 70
     0
  9
$LUNITS
 70
     2
  9
$LUPREC
 70
     2
  9
$SKETCHINC
 40
0.1
  9
$FILLETRAD
 40
0.0
  9
$AUNITS
 70
     0
  9
$AUPREC
 70
     2
  9
$MENU
  1
acad
  9
$ELEVATION
 40
0.0
  9
$PELEVATION
 40
0.0
  9
$THICKNESS
 40
0.0
  9
$LIMCHECK
 70
     0
  9
$CHAMFERA
 40
0.0
  9
$CHAMFERB
 40
0.0
  9
$CHAMFERC
 40
0.0
  9
$CHAMFERD
 40
0.0
  9
$SKPOLY
 70
     0
  9
$TDCREATE
 40
2444972.041666667
  9
$TDUCREATE
 40
2444972.000000000
  9
$TDUPDATE
 40
2453768.764502674
  9
$TDUUPDATE
 40
2453768.722836007
  9
$TDINDWG
 40
0.0071719329
  9
$TDUSRTIMER
 40
0.0071719329
  9
$USRTIMER
 70
     1
  9
$ANGBASE
 50
0.0
  9
$ANGDIR
 70
     0
  9
$PDMODE
 70
     0
  9
$PDSIZE
 40
-1.0
  9
$PLINEWID
 40
0.0
  9
$SPLFRAME
 70
     0
  9
$SPLINETYPE
 70
     6
  9
$SPLINESEGS
 70
     8
  9
$HANDSEED
  5
437
  9
$SURFTAB1
 70
     6
  9
$SURFTAB2
 70
     6
  9
$SURFTYPE
 70
     6
  9
$SURFU
 70
     6
  9
$SURFV
 70
     6
  9
$UCSBASE
  2

  9
$UCSNAME
  2

  9
$UCSORG
 10
0.0
 20
0.0
 30
0.0
  9
$UCSXDIR
 10
1.0
 20
0.0
 30
0.0
  9
$UCSYDIR
 10
0.0
 20
1.0
 30
0.0
  9
$UCSORTHOREF
  2

  9
$UCSORTHOVIEW
 70
     1
  9
$UCSORGTOP
 10
0.0
 20
0.0
 30
0.0
  9
$UCSORGBOTTOM
 10
0.0
 20
0.0
 30
0.0
  9
$UCSORGLEFT
 10
0.0
 20
0.0
 30
0.0
  9
$UCSORGRIGHT
 10
0.0
 20
0.0
 30
0.0
  9
$UCSORGFRONT
 10
0.0
 20
0.0
 30
0.0
  9
$UCSORGBACK
 10
0.0
 20
0.0
 30
0.0
  9
$PUCSBASE
  2

  9
$PUCSNAME
  2

  9
$PUCSORG
 10
0.0
 20
0.0
 30
0.0
  9
$PUCSXDIR
 10
1.0
 20
0.0
 30
0.0
  9
$PUCSYDIR
 10
0.0
 20
1.0
 30
0.0
  9
$PUCSORTHOREF
  2

  9
$PUCSORTHOVIEW
 70
     0
  9
$PUCSORGTOP
 10
0.0
 20
0.0
 30
0.0
  9
$PUCSORGBOTTOM
 10
0.0
 20
0.0
 30
0.0
  9
$PUCSORGLEFT
 10
0.0
 20
0.0
 30
0.0
  9
$PUCSORGRIGHT
 10
0.0
 20
0.0
 30
0.0
  9
$PUCSORGFRONT
 10
0.0
 20
0.0
 30
0.0
  9
$PUCSORGBACK
 10
0.0
 20
0.0
 30
0.0
  9
$USERI1
 70
     0
  9
$USERI2
 70
     0
  9
$USERI3
 70
     0
  9
$USERI4
 70
     0
  9
$USERI5
 70
     0
  9
$USERR1
 40
0.0
  9
$USERR2
 40
0.0
  9
$USERR3
 40
0.0
  9
$USERR4
 40
0.0
  9
$USERR5
 40
0.0
  9
$WORLDVIEW
 70
     1
  9
$SHADEDGE
 70
     3
  9
$SHADEDIF
 70
    70
  9
$TILEMODE
 70
     1
  9
$MAXACTVP
 70
    16
  9
$PINSBASE
 10
0.0
 20
0.0
 30
0.0
  9
$PLIMCHECK
 70
     0
  9
$PEXTMIN
 10
1.000000000000000E+20
 20
1.000000000000000E+20
 30
1.000000000000000E+20
  9
$PEXTMAX
 10
-1.000000000000000E+20
 20
-1.000000000000000E+20
 30
-1.000000000000000E+20
  9
$PLIMMIN
 10
0.0
 20
0.0
  9
$PLIMMAX
 10
12.0
 20
9.0
  9
$UNITMODE
 70
     0
  9
$VISRETAIN
 70
     0
  9
$PLINEGEN
 70
     1
  9
$PSLTSCALE
 70
     1
  9
$TREEDEPTH
 70
  3020
  9
$CMLSTYLE
  2
STANDARD
  9
$CMLJUST
 70
     0
  9
$CMLSCALE
 40
1.0
  9
$PROXYGRAPHICS
 70
     0
  9
$MEASUREMENT
 70
     0
  9
$CELWEIGHT
370
    -1
  9
$ENDCAPS
280
     0
  9
$JOINSTYLE
280
     0
  9
$LWDISPLAY
290
     0
  9
$INSUNITS
 70
     0
  9
$HYPERLINKBASE
  1

  9
$STYLESHEET
  1

  9
$XEDIT
290
     1
  9
$CEPSNTYPE
380
     0
  9
$PSTYLEMODE
290
     1
  9
$FINGERPRINTGUID
  2
{7EDC33AC-5675-4D6A-883E-19A968D68685}
  9
$VERSIONGUID
  2
{B9E5E6F3-811D-4BF1-90F1-03BC929E1FBC}
  9
$EXTNAMES
290
     1
  9
$PSVPSCALE
 40
0.0
  9
$OLESTARTUP
290
     0
  0
ENDSEC
  0
SECTION
  2
CLASSES
  0
CLASS
  1
IMAGE
  2
AcDbRasterImage
  3
ISM
 90
    32895
280
     0
281
     1
  0
CLASS
  1
DICTIONARYVAR
  2
AcDbDictionaryVar
  3
ObjectDBX Classes
 90
        0
280
     0
281
     0
  0
CLASS
  1
RASTERVARIABLES
  2
AcDbRasterVariables
  3
ISM
 90
    32768
280
     0
281
     0
  0
CLASS
  1
IMAGEDEF
  2
AcDbRasterImageDef
  3
ISM
 90
    32768
280
     0
281
     0
  0
CLASS
  1
IMAGEDEF_REACTOR
  2
AcDbRasterImageDefReactor
  3
ISM
 90
    32769
280
     0
281
     0
  0
CLASS
  1
IDBUFFER
  2
AcDbIdBuffer
  3
ObjectDBX Classes
 90
    32768
280
     0
281
     0
  0
CLASS
  1
SPATIAL_FILTER
  2
AcDbSpatialFilter
  3
ObjectDBX Classes
 90
    32768
280
     0
281
     0
  0
CLASS
  1
SORTENTSTABLE
  2
AcDbSortentsTable
  3
ObjectDBX Classes
 90
    32768
280
     0
281
     0
  0
CLASS
  1
LAYER_INDEX
  2
AcDbLayerIndex
  3
ObjectDBX Classes
 90
    32768
280
     0
281
     0
  0
CLASS
  1
SPATIAL_INDEX
  2
AcDbSpatialIndex
  3
ObjectDBX Classes
 90
    32768
280
     0
281
     0
  0
CLASS
  1
OBJECT_PTR
  2
CAseDLPNTableRecord
  3
ASE-LPNTableRecord
 90
    32769
280
     0
281
     0
  0
CLASS
  1
LAYOUT
  2
AcDbLayout
  3
ObjectDBX Classes
 90
        0
280
     0
281
     0
  0
CLASS
  1
PLOTSETTINGS
  2
AcDbPlotSettings
  3
ObjectDBX Classes
 90
    32768
280
     0
281
     0
  0
CLASS
  1
ACDBDICTIONARYWDFLT
  2
AcDbDictionaryWithDefault
  3
ObjectDBX Classes
 90
        0
280
     0
281
     0
  0
CLASS
  1
ACDBPLACEHOLDER
  2
AcDbPlaceHolder
  3
ObjectDBX Classes
 90
        0
280
     0
281
     0
  0
CLASS
  1
VBA_PROJECT
  2
AcDbVbaProject
  3
acad
 90
    32768
280
     0
281
     0
  0
CLASS
  1
WIPEOUT
  2
AcDbWipeout
  3
"WipeOut|Product Desc: Object Enabler for WipeOut entity^I^I^I^I^I^I|Company: Autodesk, Inc.^I^I^I^I^I^I|WEB Address: www.autodesk.com"
 90
    32895
280
     0
281
     1
  0
CLASS
  1
WIPEOUTVARIABLES
  2
AcDbWipeoutVariables
  3
"WipeOut|Product Desc:     WipeOut Dbx Application|Company:          Autodesk, Inc.|WEB Address:      www.autodesk.com"
 90
    32768
280
     0
281
     0
  0
CLASS
  1
RTEXT
  2
RText
  3
RText|AutoCAD Express Tool|expresstools@autodesk.com
 90
    32768
280
     0
281
     1
  0
CLASS
  1
ARCALIGNEDTEXT
  2
AcDbArcAlignedText
  3
ATEXT|AutoCAD Express Tool|expresstools@autodesk.com
 90
    32768
280
     0
281
     1
  0
ENDSEC
  0
SECTION
  2
TABLES
  0
TABLE
  2
VPORT
  5
7
330
0
100
AcDbSymbolTable
 70
     2
  0
VPORT
  5
42F
330
7
100
AcDbSymbolTableRecord
100
AcDbViewportTableRecord
  2
*Active
 70
     0
 10
0.0
 20
0.0
 11
1.0
 21
1.0
 12
465.6360263701501
 22
-145.5960539483474
 13
0.0
 23
0.0
 14
1.0
 24
1.0
 15
0.0
 25
0.0
 16
0.0
 26
0.0
 36
1.0
 17
0.0
 27
0.0
 37
0.0
 40
2338.654009792344
 41
1.569570871261378
 42
50.0
 43
0.0
 44
0.0
 50
0.0
 51
0.0
 71
     0
 72
  2000
 73
     1
 74
     1
 75
     0
 76
     0
 77
     0
 78
     0
281
     0
 65
     1
110
0.0
120
0.0
130
0.0
111
1.0
121
0.0
131
0.0
112
0.0
122
1.0
132
0.0
 79
     1
146
0.0
  0
ENDTAB
  0
TABLE
  2
LTYPE
  5
4
330
0
100
AcDbSymbolTable
 70
     6
  0
LTYPE
  5
11
330
4
100
AcDbSymbolTableRecord
100
AcDbLinetypeTableRecord
  2
BYBLOCK
 70
     0
  3

 72
    65
 73
     0
 40
0.0
  0
LTYPE
  5
12
330
4
100
AcDbSymbolTableRecord
100
AcDbLinetypeTableRecord
  2
BYLAYER
 70
     0
  3

 72
    65
 73
     0
 40
0.0
  0
LTYPE
  5
13
330
4
100
AcDbSymbolTableRecord
100
AcDbLinetypeTableRecord
  2
CONTINUOUS
 70
     0
  3
Solid line
 72
    65
 73
     0
 40
0.0
  0
LTYPE
  5
1E
330
4
100
AcDbSymbolTableRecord
100
AcDbLinetypeTableRecord
  2
HIDDEN
 70
     0
  3
Hidden __ __ __ __ __ __ __ __ __ __ __ __ __ __
 72
    65
 73
     2
 40
1.905
 49
1.27
 74
     0
 49
-0.635
 74
     0
  0
LTYPE
  5
1F
330
4
100
AcDbSymbolTableRecord
100
AcDbLinetypeTableRecord
  2
PHANTOM
 70
     0
  3
Phantom ______  __  __  ______  __  __  ______
 72
    65
 73
     6
 40
12.7
 49
6.349999999999999
 74
     0
 49
-1.27
 74
     0
 49
1.27
 74
     0
 49
-1.27
 74
     0
 49
1.27
 74
     0
 49
-1.27
 74
     0
  0
LTYPE
  5
20
330
4
100
AcDbSymbolTableRecord
100
AcDbLinetypeTableRecord
  2
CENTER
 70
     0
  3
Center ____ _ ____ _ ____ _ ____ _ ____ _ ____
 72
    65
 73
     4
 40
10.16
 49
6.349999999999999
 74
     0
 49
-1.27
 74
     0
 49
1.27
 74
     0
 49
-1.27
 74
     0
  0
LTYPE
  5
21
330
4
100
AcDbSymbolTableRecord
100
AcDbLinetypeTableRecord
  2
CENTERX2
 70
     0
  3
Center (2x) ________  __  ________  __  _____
 72
    65
 73
     4
 40
20.32
 49
12.7
 74
     0
 49
-2.54
 74
     0
 49
2.54
 74
     0
 49
-2.54
 74
     0
  0
LTYPE
  5
22
330
4
100
AcDbSymbolTableRecord
100
AcDbLinetypeTableRecord
  2
DOT2
 70
     0
  3
Dot (.5x) ........................................
 72
    65
 73
     2
 40
0.635
 49
0.0
 74
     0
 49
-0.635
 74
     0
  0
ENDTAB
  0
TABLE
  2
LAYER
  5
2
330
0
100
AcDbSymbolTable
 70
     2
  0
LAYER
  5
14
330
2
100
AcDbSymbolTableRecord
100
AcDbLayerTableRecord
  2
0
 70
     0
 62
     7
  6
CONTINUOUS
370
    -3
390
414
  0
LAYER
  5
26
330
2
100
AcDbSymbolTableRecord
100
AcDbLayerTableRecord
  2
DEFPOINTS
 70
     0
 62
     7
  6
CONTINUOUS
290
     0
370
    -3
390
414
  0
ENDTAB
  0
TABLE
  2
STYLE
  5
3
330
0
100
AcDbSymbolTable
 70
     1
  0
STYLE
  5
17
330
3
100
AcDbSymbolTableRecord
100
AcDbTextStyleTableRecord
  2
STANDARD
 70
     0
 40
0.0
 41
1.0
 50
0.0
 71
     0
 42
0.0
  3
Century Gothic
  4

  0
ENDTAB
  0
TABLE
  2
VIEW
  5
5
330
0
100
AcDbSymbolTable
 70
     0
  0
ENDTAB
  0
TABLE
  2
UCS
  5
6
330
0
100
AcDbSymbolTable
 70
     0
  0
ENDTAB
  0
TABLE
  2
APPID
  5
8
330
0
100
AcDbSymbolTable
 70
     2
  0
APPID
  5
16
330
8
100
AcDbSymbolTableRecord
100
AcDbRegAppTableRecord
  2
ACAD
 70
     0
  0
APPID
  5
41F
330
8
100
AcDbSymbolTableRecord
100
AcDbRegAppTableRecord
  2
DCO15
 70
     0
  0
ENDTAB
  0
TABLE
  2
DIMSTYLE
  5
9
330
0
100
AcDbSymbolTable
 70
     1
100
AcDbDimStyleTable
 71
     0
  0
DIMSTYLE
105
18
330
9
100
AcDbSymbolTableRecord
100
AcDbDimStyleTableRecord
  2
STANDARD
 70
     0
289
     0
340
17
  0
ENDTAB
  0
TABLE
  2
BLOCK_RECORD
  5
1
330
0
100
AcDbSymbolTable
 70
     0
  0
BLOCK_RECORD
  5
A
330
1
100
AcDbSymbolTableRecord
100
AcDbBlockTableRecord
  2
*MODEL_SPACE
340
419
  0
BLOCK_RECORD
  5
B
330
1
100
AcDbSymbolTableRecord
100
AcDbBlockTableRecord
  2
*PAPER_SPACE
340
41A
  0
ENDTAB
  0
ENDSEC
  0
SECTION
  2
BLOCKS
  0
BLOCK
  5
D
330
A
100
AcDbEntity
  8
0
100
AcDbBlockBegin
  2
*MODEL_SPACE
 70
     0
 10
0.0
 20
0.0
 30
0.0
  3
*MODEL_SPACE
  1

  0
ENDBLK
  5
E
330
A
100
AcDbEntity
  8
0
100
AcDbBlockEnd
  0
BLOCK
  5
F
330
B
100
AcDbEntity
 67
     1
  8
0
100
AcDbBlockBegin
  2
*PAPER_SPACE
 70
     0
 10
0.0
 20
0.0
 30
0.0
  3
*PAPER_SPACE
  1

  0
ENDBLK
  5
10
330
B
100
AcDbEntity
 67
     1
  8
0
100
AcDbBlockEnd
  0
ENDSEC
  0
SECTION
  2
ENTITIES
  0
ARC
  5
27
330
A
100
AcDbEntity
  8
0
  6
Continuous
 62
     7
100
AcDbCircle
 10
88.94722629760982
 20
1214.277480501909
 30
0.0
 40
251.0000000000002
100
AcDbArc
 50
248.7431291678446
 51
259.548878662215
  0
ARC
  5
28
330
A
100
AcDbEntity
  8
0
  6
Continuous
 62
     7
100
AcDbCircle
 10
88.94722629760982
 20
1214.277480501909
 30
0.0
 40
251.0000000000002
100
AcDbArc
 50
260.0107458057888
 51
279.9892541942128
  0
ARC
  5
29
330
A
100
AcDbEntity
  8
0
  6
Continuous
 62
     7
100
AcDbCircle
 10
88.94722629760982
 20
1214.277480501909
 30
0.0
 40
251.0000000000002
100
AcDbArc
 50
280.4511213377866
 51
291.256870832157
  0
LINE
  5
2A
330
A
100
AcDbEntity
  8
0
  6
Continuous
 62
     7
100
AcDbLine
 10
-2.052773702390153
 20
987.0394047080973
 30
0.0
 11
-2.052773702390153
 21
980.3544162264941
 31
0.0
  0
LINE
  5
2B
330
A
100
AcDbEntity
  8
0
  6
Continuous
 62
     7
100
AcDbLine
 10
179.9472262976098
 20
980.3544162264941
 30
0.0
 11
179.9472262976098
 21
987.0394047080973
 31
0.0
  0
LINE
  5
2C
330
A
100
AcDbEntity
  8
0
  6
Continuous
 62
     7
100
AcDbLine
 10
22.94722629760984
 20
1014.039404708097
 30
0.0
 11
22.94722629760984
 21
987.0394047080973
 31
0.0
  0
LINE
  5
2D
330
A
100
AcDbEntity
  8
0
  6
Continuous
 62
     7
100
AcDbLine
 10
154.9472262976098
 20
987.0394047080973
 30
0.0
 11
154.9472262976098
 21
1014.039404708097
 31
0.0
  0
ARC
  5
2E
330
A
100
AcDbEntity
  8
0
  6
Continuous
 62
     7
100
AcDbCircle
 10
138.2251642678026
 20
-538.9605952919025
 30
0.0
 40
6.0
100
AcDbArc
 50
90.0
 51
180.0000000000004
  0
LINE
  5
2F
330
A
100
AcDbEntity
  8
0
  6
Continuous
 62
     7
100
AcDbLine
 10
132.2251642678026
 20
-538.9605952919025
 30
0.0
 11
132.2251642678026
 21
-702.9605952919024
 31
0.0
  0
ARC
  5
30
330
A
100
AcDbEntity
  8
0
  6
Continuous
 62
     7
100
AcDbCircle
 10
241.4055775187101
 20
-538.9605952919025
 30
0.0
 40
6.0
100
AcDbArc
 50
0.0
 51
90.0
  0
LINE
  5
31
330
A
100
AcDbEntity
  8
0
  6
Continuous
 62
     7
100
AcDbLine
 10
247.4055775187101
 20
-702.9605952919024
 30
0.0
 11
247.4055775187101
 21
-538.9605952919025
 31
0.0
  0
ARC
  5
32
330
A
100
AcDbEntity
  8
0
  6
Continuous
 62
     7
100
AcDbCircle
 10
88.87855510989528
 20
-538.9605952919025
 30
0.0
 40
6.00000000000007
100
AcDbArc
 50
90.0
 51
128.3707616546438
  0
ARC
  5
33
330
A
100
AcDbEntity
  8
0
  6
Continuous
 62
     7
100
AcDbCircle
 10
81.42958179285932
 20
-538.9605952919027
 30
0.0
 40
6.0
100
AcDbArc
 50
0.0
 51
90.0
  0
LINE
  5
34
330
A
100
AcDbEntity
  8
0
  6
Continuous
 62
     7
100
AcDbLine
 10
87.42958179285931
 20
-702.9605952919027
 30
0.0
 11
87.42958179285931
 21
-538.9605952919027
 31
0.0
  0
ARC
  5
35
330
A
100
AcDbEntity
  8
0
  6
Continuous
 62
     7
100
AcDbCircle
 10
-84.54881673214458
 20
-538.9605952919027
 30
0.0
 40
6.000000000000014
100
AcDbArc
 50
90.0
 51
180.0000000000004
  0
LINE
  5
36
330
A
100
AcDbEntity
  8
0
  6
Continuous
 62
     7
100
AcDbLine
 10
-90.5488167321446
 20
-538.9605952919027
 30
0.0
 11
-90.5488167321446
 21
-702.9605952919027
 31
0.0
  0
LINE
  5
37
330
A
100
AcDbEntity
  8
0
  6
Continuous
 62
     7
100
AcDbLine
 10
87.94722629760984
 20
963.2794725416866
 30
0.0
 11
87.94722629760984
 21
-511.9605952919026
 31
0.0
  0
LINE
  5
38
330
A
100
AcDbEntity
  8
0
  6
Continuous
 62
     7
100
AcDbLine
 10
89.94722629760984
 20
-511.9605952919026
 30
0.0
 11
89.94722629760984
 21
963.2794725416866
 31
0.0
  0
LINE
  5
39
330
A
100
AcDbEntity
  8
0
  6
Continuous
 62
     7
100
AcDbLine
 10
44.64630370407355
 20
1014.065768898754
 30
0.0
 11
44.645608391837
 21
1014.039404708097
 31
0.0
  0
LINE
  5
3A
330
A
100
AcDbEntity
  8
0
  6
Continuous
 62
     7
100
AcDbLine
 10
43.45184768617174
 20
968.7755172210247
 30
0.0
 11
4.13613062270951
 21
-521.9605952919026
 31
0.0
  0
LINE
  5
3B
330
A
100
AcDbEntity
  8
0
  6
Continuous
 62
     7
100
AcDbLine
 10
6.136826055810826
 20
-521.9605952919026
 30
0.0
 11
45.44304420207932
 21
968.4153462779995
 31
0.0
  0
LINE
  5
3C
330
A
100
AcDbEntity
  8
0
  6
Continuous
 62
     7
100
AcDbLine
 10
132.45140839314
 20
968.4153462779997
 30
0.0
 11
171.7576265394083
 21
-521.9605952919026
 31
0.0
  0
LINE
  5
3D
330
A
100
AcDbEntity
  8
0
  6
Continuous
 62
     7
100
AcDbLine
 10
173.7583219725095
 20
-521.9605952919026
 30
0.0
 11
134.4426049090476
 21
968.7755172210247
 31
0.0
  0
LINE
  5
3E
330
A
100
AcDbEntity
  8
0
  6
Continuous
 62
     7
100
AcDbLine
 10
133.2488442033823
 20
1014.039404708097
 30
0.0
 11
133.2481488911458
 21
1014.065768898754
 31
0.0
  0
LINE
  5
3F
330
A
100
AcDbEntity
  8
0
  6
Continuous
 62
     7
100
AcDbLine
 10
201.2196396571315
 20
-531.9605952919026
 30
0.0
 11
201.2196396571315
 21
-521.9605952919026
 31
0.0
  0
LINE
  5
40
330
A
100
AcDbEntity
  8
0
  6
Continuous
 62
     7
100
AcDbLine
 10
141.2196396571315
 20
-521.9605952919026
 30
0.0
 11
141.2196396571315
 21
-531.9605952919026
 31
0.0
  0
LINE
  5
41
330
A
100
AcDbEntity
  8
0
  6
Continuous
 62
     7
100
AcDbLine
 10
36.67481293808819
 20
-531.9605952919026
 30
0.0
 11
36.67481293808819
 21
-521.9605952919026
 31
0.0
  0
LINE
  5
42
330
A
100
AcDbEntity
  8
0
  6
Continuous
 62
     7
100
AcDbLine
 10
-23.3251870619118
 20
-521.9605952919026
 30
0.0
 11
-23.3251870619118
 21
-531.9605952919026
 31
0.0
  0
LINE
  5
43
330
A
100
AcDbEntity
  8
0
  6
Continuous
 62
     7
100
AcDbLine
 10
158.9472262976098
 20
-521.9605952919026
 30
0.0
 11
158.9472262976098
 21
-511.9605952919026
 31
0.0
  0
LINE
  5
44
330
A
100
AcDbEntity
  8
0
  6
Continuous
 62
     7
100
AcDbLine
 10
18.9472262976099
 20
-511.9605952919026
 30
0.0
 11
18.94722629760984
 21
-521.9605952919026
 31
0.0
  0
LINE
  5
45
330
A
100
AcDbEntity
  8
0
  6
Continuous
 62
     7
100
AcDbLine
 10
155.2196396571315
 20
-531.9605952919026
 30
0.0
 11
155.2196396571315
 21
-532.9605952919025
 31
0.0
  0
LINE
  5
46
330
A
100
AcDbEntity
  8
0
  6
Continuous
 62
     7
100
AcDbLine
 10
187.2196396571315
 20
-532.9605952919025
 30
0.0
 11
187.2196396571315
 21
-531.9605952919026
 31
0.0
  0
LINE
  5
47
330
A
100
AcDbEntity
  8
0
  6
Continuous
 62
     7
100
AcDbLine
 10
-9.325187061911806
 20
-531.9605952919026
 30
0.0
 11
-9.325187061911806
 21
-532.9605952919028
 31
0.0
  0
LINE
  5
48
330
A
100
AcDbEntity
  8
0
  6
Continuous
 62
     7
100
AcDbLine
 10
22.67481293808819
 20
-532.9605952919028
 30
0.0
 11
22.67481293808819
 21
-531.9605952919026
 31
0.0
  0
LINE
  5
49
330
A
100
AcDbEntity
  8
0
  6
Continuous
 62
     7
100
AcDbLine
 10
72.94722629760984
 20
-531.9605952919026
 30
0.0
 11
72.94722629760984
 21
-532.9605952919028
 31
0.0
  0
LINE
  5
4A
330
A
100
AcDbEntity
  8
0
  6
Continuous
 62
     7
100
AcDbLine
 10
104.9472262976098
 20
-532.9605952919025
 30
0.0
 11
104.9472262976098
 21
-531.9605952919026
 31
0.0
  0
LINE
  5
4B
330
A
100
AcDbEntity
  8
0
  6
Continuous
 62
     7
100
AcDbLine
 10
88.94722629760984
 20
980.3544162264941
 30
0.0
 11
179.9472262976098
 21
980.3544162264941
 31
0.0
  0
LINE
  5
4C
330
A
100
AcDbEntity
  8
0
  6
Continuous
 62
     7
100
AcDbLine
 10
-2.052773702390153
 20
980.3544162264941
 30
0.0
 11
88.94722629760984
 21
980.3544162264941
 31
0.0
  0
LINE
  5
4D
330
A
100
AcDbEntity
  8
0
  6
Continuous
 62
     7
100
AcDbLine
 10
88.94722629760984
 20
987.0394047080973
 30
0.0
 11
179.9472262976098
 21
987.0394047080973
 31
0.0
  0
LINE
  5
4E
330
A
100
AcDbEntity
  8
0
  6
Continuous
 62
     7
100
AcDbLine
 10
-2.052773702390153
 20
987.0394047080973
 30
0.0
 11
88.94722629760984
 21
987.0394047080973
 31
0.0
  0
LINE
  5
4F
330
A
100
AcDbEntity
  8
0
  6
Continuous
 62
     7
100
AcDbLine
 10
88.94722629760984
 20
1014.039404708097
 30
0.0
 11
154.9472262976098
 21
1014.039404708097
 31
0.0
  0
LINE
  5
50
330
A
100
AcDbEntity
  8
0
  6
Continuous
 62
     7
100
AcDbLine
 10
22.94722629760984
 20
1014.039404708097
 30
0.0
 11
88.94722629760984
 21
1014.039404708097
 31
0.0
  0
LINE
  5
51
330
A
100
AcDbEntity
  8
0
  6
Continuous
 62
     7
100
AcDbLine
 10
139.9613144222694
 20
-702.9605952919024
 30
0.0
 11
178.0305894569845
 21
-702.9605952919024
 31
0.0
  0
LINE
  5
52
330
A
100
AcDbEntity
  8
0
  6
Continuous
 62
     7
100
AcDbLine
 10
142.7829831556116
 20
-532.9605952919025
 30
0.0
 11
172.5518115598384
 21
-532.9605952919025
 31
0.0
  0
LINE
  5
53
330
A
100
AcDbEntity
  8
0
  6
Continuous
 62
     7
100
AcDbLine
 10
138.2251642678026
 20
-532.9605952919025
 30
0.0
 11
142.7829831556116
 21
-532.9605952919025
 31
0.0
  0
LINE
  5
54
330
A
100
AcDbEntity
  8
0
  6
Continuous
 62
     7
100
AcDbLine
 10
132.2251642678026
 20
-702.9605952919024
 30
0.0
 11
139.9613144222694
 21
-702.9605952919024
 31
0.0
  0
LINE
  5
55
330
A
100
AcDbEntity
  8
0
  6
Continuous
 62
     7
100
AcDbLine
 10
196.5019859624114
 20
-532.9605952919025
 30
0.0
 11
225.4837423516242
 21
-532.9605952919025
 31
0.0
  0
LINE
  5
56
330
A
100
AcDbEntity
  8
0
  6
Continuous
 62
     7
100
AcDbLine
 10
194.7377402739842
 20
-702.9605952919024
 30
0.0
 11
222.5419675111295
 21
-702.9605952919024
 31
0.0
  0
LWPOLYLINE
  5
57
330
A
100
AcDbEntity
  8
0
  6
Continuous
 62
     7
100
AcDbPolyline
 90
        7
 70
   128
 43
0.0
 10
236.8112522514415
 20
-532.9605952919025
 10
236.8519186639398
 20
-532.9607390474446
 10
238.1091705667683
 20
-533.10908497656
 10
239.9267078668737
 20
-533.8770589161283
 10
241.3914043334071
 20
-535.216307391952
 10
242.3411795561052
 20
-536.9766072092135
 10
242.6701225529938
 20
-538.9605952919025
  0
LINE
  5
60
330
A
100
AcDbEntity
  8
0
  6
Continuous
 62
     7
100
AcDbLine
 10
225.4837423516242
 20
-532.9605952919025
 30
0.0
 11
236.8112522514415
 21
-532.9605952919025
 31
0.0
  0
LINE
  5
61
330
A
100
AcDbEntity
  8
0
  6
Continuous
 62
     7
100
AcDbLine
 10
242.6701225529938
 20
-538.9605952919025
 30
0.0
 11
242.6701225529938
 21
-702.9605952919024
 31
0.0
  0
LINE
  5
62
330
A
100
AcDbEntity
  8
0
  6
Continuous
 62
     7
100
AcDbLine
 10
222.5419675111295
 20
-702.9605952919024
 30
0.0
 11
242.6701225529938
 21
-702.9605952919024
 31
0.0
  0
LINE
  5
63
330
A
100
AcDbEntity
  8
0
  6
Continuous
 62
     7
100
AcDbLine
 10
172.5518115598384
 20
-532.9605952919025
 30
0.0
 11
196.5019859624114
 21
-532.9605952919025
 31
0.0
  0
LINE
  5
64
330
A
100
AcDbEntity
  8
0
  6
Continuous
 62
     7
100
AcDbLine
 10
137.0907838930055
 20
-532.9605952919025
 30
0.0
 11
138.3537324965493
 21
-532.9605952919025
 31
0.0
  0
LINE
  5
65
330
A
100
AcDbEntity
  8
0
  6
Continuous
 62
     7
100
AcDbLine
 10
178.0305894569845
 20
-702.9605952919024
 30
0.0
 11
194.7377402739842
 21
-702.9605952919024
 31
0.0
  0
LINE
  5
66
330
A
100
AcDbEntity
  8
0
  6
Continuous
 62
     7
100
AcDbLine
 10
131.1330397278604
 20
-702.9605952919024
 30
0.0
 11
132.2251642678026
 21
-702.9605952919024
 31
0.0
  0
LINE
  5
67
330
A
100
AcDbEntity
  8
0
  6
Continuous
 62
     7
100
AcDbLine
 10
236.8112522514415
 20
-532.9605952919025
 30
0.0
 11
241.3908393363161
 21
-532.9605952919025
 31
0.0
  0
LINE
  5
68
330
A
100
AcDbEntity
  8
0
  6
Continuous
 62
     7
100
AcDbLine
 10
242.6701225529938
 20
-702.9605952919024
 30
0.0
 11
247.3877572284916
 21
-702.9605952919024
 31
0.0
  0
LINE
  5
69
330
A
100
AcDbEntity
  8
0
  6
Continuous
 62
     7
100
AcDbLine
 10
115.8148197158989
 20
-532.9605952919025
 30
0.0
 11
137.0907838930055
 21
-532.9605952919025
 31
0.0
  0
LINE
  5
6A
330
A
100
AcDbEntity
  8
0
  6
Continuous
 62
     7
100
AcDbLine
 10
116.8998773542202
 20
-702.9605952919024
 30
0.0
 11
131.1330397278604
 21
-702.9605952919024
 31
0.0
  0
LINE
  5
6B
330
A
100
AcDbEntity
  8
0
  6
Continuous
 62
     7
100
AcDbLine
 10
90.18124437727855
 20
-532.9605952919025
 30
0.0
 11
115.8148197158989
 21
-532.9605952919025
 31
0.0
  0
LINE
  5
6C
330
A
100
AcDbEntity
  8
0
  6
Continuous
 62
     7
100
AcDbLine
 10
87.42958179285931
 20
-702.9605952919024
 30
0.0
 11
116.8998773542202
 21
-702.9605952919024
 31
0.0
  0
LINE
  5
6D
330
A
100
AcDbEntity
  8
0
  6
Continuous
 62
     7
100
AcDbLine
 10
241.3908393363161
 20
-532.9605952919025
 30
0.0
 11
241.4055775187101
 21
-532.9605952919025
 31
0.0
  0
LINE
  5
6E
330
A
100
AcDbEntity
  8
0
  6
Continuous
 62
     7
100
AcDbLine
 10
247.3877572284916
 20
-702.9605952919024
 30
0.0
 11
247.4055775187101
 21
-702.9605952919024
 31
0.0
  0
LINE
  5
6F
330
A
100
AcDbEntity
  8
0
  6
Continuous
 62
     7
100
AcDbLine
 10
88.87855510989528
 20
-532.9605952919025
 30
0.0
 11
90.18124437727855
 21
-532.9605952919025
 31
0.0
  0
LINE
  5
70
330
A
100
AcDbEntity
  8
0
  6
Continuous
 62
     7
100
AcDbLine
 10
86.15688759541349
 20
-532.9605952919025
 30
0.0
 11
89.18970293414549
 21
-532.9605952919025
 31
0.0
  0
LINE
  5
71
330
A
100
AcDbEntity
  8
0
  6
Continuous
 62
     7
100
AcDbLine
 10
217.7657626400419
 20
-532.9605952919025
 30
0.0
 11
218.27783857124
 21
-532.9605952919025
 31
0.0
  0
LINE
  5
72
330
A
100
AcDbEntity
  8
0
  6
Continuous
 62
     7
100
AcDbLine
 10
81.42958179285932
 20
-532.9605952919025
 30
0.0
 11
86.15688759541349
 21
-532.9605952919025
 31
0.0
  0
LINE
  5
73
330
A
100
AcDbEntity
  8
0
  6
Continuous
 62
     7
100
AcDbLine
 10
218.27783857124
 20
-532.9605952919025
 30
0.0
 11
229.7878394564425
 21
-532.9605952919025
 31
0.0
  0
LINE
  5
74
330
A
100
AcDbEntity
  8
0
  6
Continuous
 62
     7
100
AcDbLine
 10
229.7878394564425
 20
-532.9605952919025
 30
0.0
 11
231.1564811882064
 21
-532.9605952919025
 31
0.0
  0
LINE
  5
75
330
A
100
AcDbEntity
  8
0
  6
Continuous
 62
     7
100
AcDbLine
 10
32.59675093052876
 20
-532.9605952919028
 30
0.0
 11
61.16188738733072
 21
-532.9605952919028
 31
0.0
  0
LINE
  5
76
330
A
100
AcDbEntity
  8
0
  6
Continuous
 62
     7
100
AcDbLine
 10
31.17512557303866
 20
-702.9605952919027
 30
0.0
 11
63.05058135899402
 21
-702.9605952919027
 31
0.0
  0
LINE
  5
77
330
A
100
AcDbEntity
  8
0
  6
Continuous
 62
     7
100
AcDbLine
 10
24.12061923402045
 20
-532.9605952919028
 30
0.0
 11
32.59675093052876
 21
-532.9605952919028
 31
0.0
  0
LINE
  5
78
330
A
100
AcDbEntity
  8
0
  6
Continuous
 62
     7
100
AcDbLine
 10
19.49236162987829
 20
-702.9605952919027
 30
0.0
 11
31.17512557303866
 21
-702.9605952919027
 31
0.0
  0
LINE
  5
79
330
A
100
AcDbEntity
  8
0
  6
Continuous
 62
     7
100
AcDbLine
 10
61.16188738733072
 20
-532.9605952919028
 30
0.0
 11
66.6369636411799
 21
-532.9605952919028
 31
0.0
  0
LINE
  5
7A
330
A
100
AcDbEntity
  8
0
  6
Continuous
 62
     7
100
AcDbLine
 10
63.05058135899402
 20
-702.9605952919027
 30
0.0
 11
72.55067790473137
 21
-702.9605952919027
 31
0.0
  0
LINE
  5
7B
330
A
100
AcDbEntity
  8
0
  6
Continuous
 62
     7
100
AcDbLine
 10
-2.665081796421817
 20
-532.9605952919028
 30
0.0
 11
24.12061923402045
 21
-532.9605952919028
 31
0.0
  0
LINE
  5
7C
330
A
100
AcDbEntity
  8
0
  6
Continuous
 62
     7
100
AcDbLine
 10
-6.383015960500657
 20
-702.9605952919027
 30
0.0
 11
19.49236162987829
 21
-702.9605952919027
 31
0.0
  0
LINE
  5
7D
330
A
100
AcDbEntity
  8
0
  6
Continuous
 62
     7
100
AcDbLine
 10
66.6369636411799
 20
-532.9605952919028
 30
0.0
 11
80.22319110402653
 21
-532.9605952919028
 31
0.0
  0
LINE
  5
7E
330
A
100
AcDbEntity
  8
0
  6
Continuous
 62
     7
100
AcDbLine
 10
72.55067790473137
 20
-702.9605952919027
 30
0.0
 11
85.07855212030261
 21
-702.9605952919027
 31
0.0
  0
LINE
  5
7F
330
A
100
AcDbEntity
  8
0
  6
Continuous
 62
     7
100
AcDbLine
 10
-60.55610413399653
 20
-702.9605952919027
 30
0.0
 11
-26.80531342947279
 21
-702.9605952919027
 31
0.0
  0
LINE
  5
80
330
A
100
AcDbEntity
  8
0
  6
Continuous
 62
     7
100
AcDbLine
 10
-57.70820474130866
 20
-532.9605952919028
 30
0.0
 11
-29.79478115253319
 21
-532.9605952919028
 31
0.0
  0
LINE
  5
81
330
A
100
AcDbEntity
  8
0
  6
Continuous
 62
     7
100
AcDbLine
 10
-29.79478115253319
 20
-532.9605952919028
 30
0.0
 11
-2.665081796421817
 21
-532.9605952919028
 31
0.0
  0
LINE
  5
82
330
A
100
AcDbEntity
  8
0
  6
Continuous
 62
     7
100
AcDbLine
 10
-26.80531342947279
 20
-702.9605952919027
 30
0.0
 11
-6.383015960500657
 21
-702.9605952919027
 31
0.0
  0
LWPOLYLINE
  5
83
330
A
100
AcDbEntity
  8
0
  6
Continuous
 62
     7
100
AcDbPolyline
 90
        7
 70
   128
 43
0.0
 10
-81.27222279347721
 20
-532.9605952919028
 10
-81.29835317877695
 20
-532.9607390474449
 10
-82.10923877669948
 20
-533.1090849765603
 10
-83.29009035631527
 20
-533.8770589161286
 10
-84.24745034270477
 20
-535.2163073919522
 10
-84.87046697360415
 20
-536.9766072092137
 10
-85.08660082993538
 20
-538.9605952919027
  0
LINE
  5
8C
330
A
100
AcDbEntity
  8
0
  6
Continuous
 62
     7
100
AcDbLine
 10
-81.27222279347721
 20
-532.9605952919028
 30
0.0
 11
-57.70820474130866
 21
-532.9605952919028
 31
0.0
  0
LINE
  5
8D
330
A
100
AcDbEntity
  8
0
  6
Continuous
 62
     7
100
AcDbLine
 10
-85.08660082993538
 20
-538.9605952919027
 30
0.0
 11
-85.08660082993538
 21
-702.9605952919027
 31
0.0
  0
LINE
  5
8E
330
A
100
AcDbEntity
  8
0
  6
Continuous
 62
     7
100
AcDbLine
 10
-85.08660082993538
 20
-702.9605952919027
 30
0.0
 11
-60.55610413399653
 21
-702.9605952919027
 31
0.0
  0
LINE
  5
8F
330
A
100
AcDbEntity
  8
0
  6
Continuous
 62
     7
100
AcDbLine
 10
80.22319110402653
 20
-532.9605952919028
 30
0.0
 11
81.42958179285932
 21
-532.9605952919028
 31
0.0
  0
LINE
  5
90
330
A
100
AcDbEntity
  8
0
  6
Continuous
 62
     7
100
AcDbLine
 10
85.07855212030261
 20
-702.9605952919027
 30
0.0
 11
87.42958179285931
 21
-702.9605952919027
 31
0.0
  0
LINE
  5
91
330
A
100
AcDbEntity
  8
0
  6
Continuous
 62
     7
100
AcDbLine
 10
-84.54881673214458
 20
-532.9605952919028
 30
0.0
 11
-81.27222279347721
 21
-532.9605952919028
 31
0.0
  0
LINE
  5
92
330
A
100
AcDbEntity
  8
0
  6
Continuous
 62
     7
100
AcDbLine
 10
-90.5488167321446
 20
-702.9605952919027
 30
0.0
 11
-85.08660082993538
 21
-702.9605952919027
 31
0.0
  0
LINE
  5
93
330
A
100
AcDbEntity
  8
0
  6
Continuous
 62
     7
100
AcDbLine
 10
71.09379947904145
 20
-532.9605952919028
 30
0.0
 11
71.36556073111552
 21
-532.9605952919028
 31
0.0
  0
LINE
  5
94
330
A
100
AcDbEntity
  8
0
  6
Continuous
 62
     7
100
AcDbLine
 10
71.36556073111552
 20
-532.9605952919028
 30
0.0
 11
71.39848062924098
 21
-532.9605952919028
 31
0.0
  0
LINE
  5
95
330
A
100
AcDbEntity
  8
0
  6
Continuous
 62
     7
100
AcDbLine
 10
-56.17101171337207
 20
-532.9605952919028
 30
0.0
 11
-51.65293896662149
 21
-532.9605952919028
 31
0.0
  0
LINE
  5
96
330
A
100
AcDbEntity
  8
0
  6
Continuous
 62
     7
100
AcDbLine
 10
50.4411025789438
 20
-532.9605952919028
 30
0.0
 11
52.87564785632135
 21
-532.9605952919028
 31
0.0
  0
LINE
  5
97
330
A
100
AcDbEntity
  8
0
  6
Continuous
 62
     7
100
AcDbLine
 10
-61.07133485540991
 20
-532.9605952919028
 30
0.0
 11
-56.17101171337207
 21
-532.9605952919028
 31
0.0
  0
LINE
  5
98
330
A
100
AcDbEntity
  8
0
  6
Continuous
 62
     7
100
AcDbLine
 10
52.87564785632135
 20
-532.9605952919028
 30
0.0
 11
70.6197900208436
 21
-532.9605952919028
 31
0.0
  0
LWPOLYLINE
  5
99
330
A
100
AcDbEntity
  8
0
  6
Continuous
 62
     7
100
AcDbPolyline
 90
        5
 70
   128
 43
0.0
 10
88.94722629760984
 20
1014.069843927213
 10
89.32990972997492
 20
1014.067526879624
 10
89.65433307879639
 20
1014.060928486348
 10
89.87110583012114
 20
1014.051053292947
 10
89.94722629760984
 20
1014.039404708097
  0
LWPOLYLINE
  5
A0
330
A
100
AcDbEntity
  8
0
  6
Continuous
 62
     7
100
AcDbPolyline
 90
        5
 70
   128
 43
0.0
 10
87.94722629760984
 20
1014.039404708097
 10
88.02334676509856
 20
1014.051053292947
 10
88.24011951642331
 20
1014.060928486348
 10
88.56454286524476
 20
1014.067526879624
 10
88.94722629760984
 20
1014.069843927213
  0
LWPOLYLINE
  5
A7
330
A
100
AcDbEntity
  8
0
  6
Continuous
 62
     7
100
AcDbPolyline
 90
        7
 70
   128
 43
0.0
 10
46.14595610838779
 20
1014.039404708097
 10
46.02887723078852
 20
1014.043371767315
 10
45.64635736107578
 20
1014.054619027384
 10
45.26377640427863
 20
1014.06355004526
 10
44.93937884296444
 20
1014.06880515443
 10
44.72255126517208
 20
1014.069584312163
 10
44.64630370407355
 20
1014.065768898754
  0
LWPOLYLINE
  5
B0
330
A
100
AcDbEntity
  8
0
  6
Continuous
 62
     7
100
AcDbPolyline
 90
        7
 70
   128
 43
0.0
 10
133.2481488911458
 20
1014.065768898754
 10
133.1719013300472
 20
1014.069584312163
 10
132.9550737522549
 20
1014.06880515443
 10
132.6306761909407
 20
1014.06355004526
 10
132.2480952341435
 20
1014.054619027384
 10
131.8655753644308
 20
1014.043371767315
 10
131.7484964868315
 20
1014.039404708097
  0
LINE
  5
B9
330
A
100
AcDbEntity
  8
0
  6
Continuous
 62
     7
100
AcDbLine
 10
201.2196396571315
 20
-521.9605952919026
 30
0.0
 11
141.2196396571315
 21
-521.9605952919026
 31
0.0
  0
LINE
  5
BA
330
A
100
AcDbEntity
  8
0
  6
Continuous
 62
     7
100
AcDbLine
 10
141.2196396571315
 20
-531.9605952919026
 30
0.0
 11
201.2196396571315
 21
-531.9605952919026
 31
0.0
  0
LINE
  5
BB
330
A
100
AcDbEntity
  8
0
  6
Continuous
 62
     7
100
AcDbLine
 10
36.67481293808819
 20
-521.9605952919026
 30
0.0
 11
-23.3251870619118
 21
-521.9605952919026
 31
0.0
  0
LINE
  5
BC
330
A
100
AcDbEntity
  8
0
  6
Continuous
 62
     7
100
AcDbLine
 10
-23.3251870619118
 20
-531.9605952919026
 30
0.0
 11
36.67481293808819
 21
-531.9605952919026
 31
0.0
  0
LINE
  5
BD
330
A
100
AcDbEntity
  8
0
  6
Continuous
 62
     7
100
AcDbLine
 10
88.94722629760984
 20
-511.9605952919026
 30
0.0
 11
158.9472262976098
 21
-511.9605952919026
 31
0.0
  0
LINE
  5
BE
330
A
100
AcDbEntity
  8
0
  6
Continuous
 62
     7
100
AcDbLine
 10
18.9472262976099
 20
-511.9605952919026
 30
0.0
 11
88.94722629760984
 21
-511.9605952919026
 31
0.0
  0
LINE
  5
BF
330
A
100
AcDbEntity
  8
0
  6
Continuous
 62
     7
100
AcDbLine
 10
36.65945497817089
 20
-531.9605952919026
 30
0.0
 11
141.2349976170488
 21
-531.9605952919026
 31
0.0
  0
LINE
  5
C0
330
A
100
AcDbEntity
  8
0
  6
PHANTOM
 62
     7
100
AcDbLine
 10
139.9613144222694
 20
-538.9605952919025
 30
0.0
 11
139.9613144222694
 21
-702.9605952919024
 31
0.0
  0
LINE
  5
C1
330
A
100
AcDbEntity
  8
0
  6
PHANTOM
 62
     7
100
AcDbLine
 10
178.0305894569845
 20
-538.9605952919025
 30
0.0
 11
139.9613144222694
 21
-538.9605952919025
 31
0.0
  0
LINE
  5
C2
330
A
100
AcDbEntity
  8
0
  6
PHANTOM
 62
     7
100
AcDbLine
 10
178.0305894569845
 20
-538.9605952919025
 30
0.0
 11
178.0305894569845
 21
-702.9605952919024
 31
0.0
  0
LWPOLYLINE
  5
C3
330
A
100
AcDbEntity
  8
0
  6
PHANTOM
 62
     7
100
AcDbPolyline
 90
        9
 70
   128
 43
0.0
 10
172.5518115598384
 20
-532.9605952919025
 10
173.6206681040475
 20
-533.0758836094831
 10
174.6484490906842
 20
-533.4173180968349
 10
175.5956574728185
 20
-533.9717776180872
 10
176.4258925635254
 20
-534.7179546047833
 10
177.1072488938702
 20
-535.627173893785
 10
177.6135423221869
 20
-536.6644946977121
 10
177.9253162759579
 20
-537.7900533598059
 10
178.0305894569845
 20
-538.9605952919025
  0
LWPOLYLINE
  5
CE
330
A
100
AcDbEntity
  8
0
  6
PHANTOM
 62
     7
100
AcDbPolyline
 90
        9
 70
   128
 43
0.0
 10
142.7829831556116
 20
-532.9605952919025
 10
142.232502893801
 20
-533.0758836094831
 10
141.703177279739
 20
-533.4173180968349
 10
141.2153479999245
 20
-533.9717776180874
 10
140.7877620600032
 20
-534.7179546047833
 10
140.4368513478533
 20
-535.627173893785
 10
140.1761011653497
 20
-536.6644946977118
 10
140.0155319957755
 20
-537.7900533598057
 10
139.9613144222694
 20
-538.9605952919025
  0
LINE
  5
D9
330
A
100
AcDbEntity
  8
0
  6
PHANTOM
 62
     7
100
AcDbLine
 10
139.9613144222694
 20
-538.9605952919025
 30
0.0
 11
132.2251642678026
 21
-538.9605952919025
 31
0.0
  0
LWPOLYLINE
  5
DA
330
A
100
AcDbEntity
  8
0
  6
PHANTOM
 62
     7
100
AcDbPolyline
 90
        9
 70
   128
 43
0.0
 10
225.4837423516242
 20
-532.9605952919025
 10
224.9098305506932
 20
-533.0758836094831
 10
224.3579738584184
 20
-533.4173180968349
 10
223.8493798179994
 20
-533.9717776180872
 10
223.4035934131864
 20
-534.7179546047833
 10
223.0377459655167
 20
-535.627173893785
 10
222.7658967872345
 20
-536.6644946977118
 10
222.5984928898065
 20
-537.7900533598057
 10
222.5419675111295
 20
-538.9605952919025
  0
LINE
  5
E5
330
A
100
AcDbEntity
  8
0
  6
PHANTOM
 62
     7
100
AcDbLine
 10
222.5419675111295
 20
-538.9605952919025
 30
0.0
 11
194.7377402739842
 21
-538.9605952919025
 31
0.0
  0
LWPOLYLINE
  5
E6
330
A
100
AcDbEntity
  8
0
  6
PHANTOM
 62
     7
100
AcDbPolyline
 90
        9
 70
   128
 43
0.0
 10
196.5019859624114
 20
-532.9605952919025
 10
196.1577987029405
 20
-533.0758836094831
 10
195.8268383668287
 20
-533.4173180968349
 10
195.521823574188
 20
-533.9717776180872
 10
195.2544758724453
 20
-534.7179546047833
 10
195.0350692838483
 20
-535.627173893785
 10
194.8720354805521
 20
-536.6644946977121
 10
194.7716397601871
 20
-537.7900533598059
 10
194.7377402739842
 20
-538.9605952919025
  0
LINE
  5
F1
330
A
100
AcDbEntity
  8
0
  6
PHANTOM
 62
     7
100
AcDbLine
 10
194.7377402739842
 20
-538.9605952919025
 30
0.0
 11
194.7377402739842
 21
-702.9605952919024
 31
0.0
  0
LINE
  5
F2
330
A
100
AcDbEntity
  8
0
  6
PHANTOM
 62
     7
100
AcDbLine
 10
222.5419675111295
 20
-538.9605952919025
 30
0.0
 11
222.5419675111295
 21
-702.9605952919024
 31
0.0
  0
LINE
  5
F3
330
A
100
AcDbEntity
  8
0
  6
PHANTOM
 62
     7
100
AcDbLine
 10
242.6701225529938
 20
-538.9605952919025
 30
0.0
 11
222.5419675111295
 21
-538.9605952919025
 31
0.0
  0
LINE
  5
F4
330
A
100
AcDbEntity
  8
0
  6
PHANTOM
 62
     7
100
AcDbLine
 10
194.7377402739842
 20
-538.9605952919025
 30
0.0
 11
178.0305894569845
 21
-538.9605952919025
 31
0.0
  0
LINE
  5
F5
330
A
100
AcDbEntity
  8
0
  6
PHANTOM
 62
     7
100
AcDbLine
 10
132.2251642678026
 20
-538.9605952919025
 30
0.0
 11
131.1330397278604
 21
-538.9605952919025
 31
0.0
  0
LWPOLYLINE
  5
F6
330
A
100
AcDbEntity
  8
0
  6
PHANTOM
 62
     7
100
AcDbPolyline
 90
        9
 70
   128
 43
0.0
 10
137.0907838930055
 20
-532.9605952919025
 10
135.9284856653376
 20
-533.0758836094831
 10
134.8108539067347
 20
-533.4173180968349
 10
133.7808385789046
 20
-533.9717776180872
 10
132.8780225932568
 20
-534.7179546047833
 10
132.1371006618145
 20
-535.627173893785
 10
131.5865459988894
 20
-536.6644946977118
 10
131.2475161114229
 20
-537.7900533598057
 10
131.1330397278604
 20
-538.9605952919025
  0
LINE
  5
101
330
A
100
AcDbEntity
  8
0
  6
PHANTOM
 62
     7
100
AcDbLine
 10
131.1330397278604
 20
-538.9605952919025
 30
0.0
 11
131.1330397278604
 21
-702.9605952919024
 31
0.0
  0
LWPOLYLINE
  5
102
330
A
100
AcDbEntity
  8
0
  6
PHANTOM
 62
     7
100
AcDbPolyline
 90
        9
 70
   128
 43
0.0
 10
247.3877572284916
 20
-538.9605952919025
 10
247.2725281327486
 20
-537.7900533598057
 10
246.9312690350478
 20
-536.6644946977118
 10
246.3770943311335
 20
-535.627173893785
 10
245.6313006440923
 20
-534.7179546047833
 10
244.7225484070715
 20
-533.9717776180872
 10
243.6857604589054
 20
-533.4173180968349
 10
242.5607799790049
 20
-533.0758836094831
 10
241.3908393363161
 20
-532.9605952919025
  0
LINE
  5
10D
330
A
100
AcDbEntity
  8
0
  6
PHANTOM
 62
     7
100
AcDbLine
 10
247.3877572284916
 20
-538.9605952919025
 30
0.0
 11
242.6701225529938
 21
-538.9605952919025
 31
0.0
  0
LINE
  5
10E
330
A
100
AcDbEntity
  8
0
  6
PHANTOM
 62
     7
100
AcDbLine
 10
247.3877572284916
 20
-538.9605952919025
 30
0.0
 11
247.3877572284916
 21
-702.9605952919024
 31
0.0
  0
LINE
  5
10F
330
A
100
AcDbEntity
  8
0
  6
PHANTOM
 62
     7
100
AcDbLine
 10
131.1330397278604
 20
-538.9605952919025
 30
0.0
 11
116.8998773542202
 21
-538.9605952919025
 31
0.0
  0
LWPOLYLINE
  5
110
330
A
100
AcDbEntity
  8
0
  6
PHANTOM
 62
     7
100
AcDbPolyline
 90
        9
 70
   128
 43
0.0
 10
115.8148197158989
 20
-532.9605952919025
 10
116.026503959965
 20
-533.0758836094831
 10
116.2300532972456
 20
-533.4173180968349
 10
116.4176454408607
 20
-533.9717776180872
 10
116.5820713299341
 20
-534.7179546047833
 10
116.7170121697598
 20
-535.627173893785
 10
116.817282259539
 20
-536.6644946977118
 10
116.8790282759535
 20
-537.7900533598057
 10
116.8998773542202
 20
-538.9605952919025
  0
LINE
  5
11B
330
A
100
AcDbEntity
  8
0
  6
PHANTOM
 62
     7
100
AcDbLine
 10
116.8998773542202
 20
-538.9605952919025
 30
0.0
 11
116.8998773542202
 21
-702.9605952919024
 31
0.0
  0
LINE
  5
11C
330
A
100
AcDbEntity
  8
0
  6
PHANTOM
 62
     7
100
AcDbLine
 10
116.8998773542202
 20
-538.9605952919025
 30
0.0
 11
87.42958179285931
 21
-538.9605952919025
 31
0.0
  0
LWPOLYLINE
  5
11D
330
A
100
AcDbEntity
  8
0
  6
PHANTOM
 62
     7
100
AcDbPolyline
 90
        7
 70
   128
 43
0.0
 10
90.18124437727855
 20
-532.9605952919025
 10
89.48668848663947
 20
-533.0758836094831
 10
88.81882398936619
 20
-533.4173180968349
 10
88.20331654354623
 20
-533.9717776180872
 10
87.66381975514191
 20
-534.7179546047833
 10
87.22106618317829
 20
-535.627173893785
 10
86.92215572130047
 20
-536.5457193078384
  0
LINE
  5
126
330
A
100
AcDbEntity
  8
0
  6
PHANTOM
 62
     7
100
AcDbLine
 10
247.4055775187101
 20
-538.9605952919025
 30
0.0
 11
247.3877572284916
 21
-538.9605952919025
 31
0.0
  0
LWPOLYLINE
  5
127
330
A
100
AcDbEntity
  8
0
  6
PHANTOM
 62
     7
100
AcDbPolyline
 90
        4
 70
   128
 43
0.0
 10
86.15688759541349
 20
-532.9605952919025
 10
85.10782483048343
 20
-533.0758836094831
 10
84.09907695928847
 20
-533.4173180968349
 10
83.92259764861178
 20
-533.503043449594
  0
LINE
  5
12D
330
A
100
AcDbEntity
  8
0
  6
PHANTOM
 62
     7
100
AcDbLine
 10
63.05058135899402
 20
-538.9605952919027
 30
0.0
 11
31.17512557303866
 21
-538.9605952919027
 31
0.0
  0
LWPOLYLINE
  5
12E
330
A
100
AcDbEntity
  8
0
  6
PHANTOM
 62
     7
100
AcDbPolyline
 90
        9
 70
   128
 43
0.0
 10
31.17512557303866
 20
-538.9605952919027
 10
31.20244170565448
 20
-537.7900533598059
 10
31.2833403598446
 20
-536.6644946977121
 10
31.41471264569698
 20
-535.6271738937851
 10
31.59150999994075
 20
-534.7179546047835
 10
31.8069381994014
 20
-533.9717776180874
 10
32.0527184591872
 20
-533.4173180968352
 10
32.31940558174972
 20
-533.0758836094832
 10
32.59675093052876
 20
-532.9605952919028
  0
LWPOLYLINE
  5
139
330
A
100
AcDbEntity
  8
0
  6
PHANTOM
 62
     7
100
AcDbPolyline
 90
        9
 70
   128
 43
0.0
 10
63.05058135899402
 20
-538.9605952919027
 10
63.01429063392439
 20
-537.7900533598059
 10
62.90681309092788
 20
-536.6644946977121
 10
62.73227903170774
 20
-535.6271738937851
 10
62.49739570227998
 20
-534.7179546047835
 10
62.21118953727041
 20
-533.9717776180874
 10
61.88465927909407
 20
-533.4173180968352
 10
61.53035330245241
 20
-533.0758836094832
 10
61.16188738733072
 20
-532.9605952919028
  0
LINE
  5
144
330
A
100
AcDbEntity
  8
0
  6
PHANTOM
 62
     7
100
AcDbLine
 10
31.17512557303866
 20
-538.9605952919027
 30
0.0
 11
31.17512557303866
 21
-702.9605952919027
 31
0.0
  0
LINE
  5
145
330
A
100
AcDbEntity
  8
0
  6
PHANTOM
 62
     7
100
AcDbLine
 10
63.05058135899402
 20
-538.9605952919027
 30
0.0
 11
63.05058135899402
 21
-702.9605952919027
 31
0.0
  0
LINE
  5
146
330
A
100
AcDbEntity
  8
0
  6
PHANTOM
 62
     7
100
AcDbLine
 10
31.17512557303866
 20
-538.9605952919027
 30
0.0
 11
19.49236162987829
 21
-538.9605952919027
 31
0.0
  0
LWPOLYLINE
  5
147
330
A
100
AcDbEntity
  8
0
  6
PHANTOM
 62
     7
100
AcDbPolyline
 90
        9
 70
   128
 43
0.0
 10
19.49236162987829
 20
-538.9605952919027
 10
19.5812923019635
 20
-537.7900533598059
 10
19.84466676236378
 20
-536.6644946977121
 10
20.27236367826805
 20
-535.6271738937851
 10
20.84794689705331
 20
-534.7179546047835
 10
21.54929707841243
 20
-533.9717776180874
 10
22.34946172819749
 20
-533.4173180968352
 10
23.21769096765475
 20
-533.0758836094832
 10
24.12061923402045
 20
-532.9605952919028
  0
LINE
  5
152
330
A
100
AcDbEntity
  8
0
  6
PHANTOM
 62
     7
100
AcDbLine
 10
19.49236162987829
 20
-538.9605952919027
 30
0.0
 11
19.49236162987829
 21
-702.9605952919027
 31
0.0
  0
LINE
  5
153
330
A
100
AcDbEntity
  8
0
  6
PHANTOM
 62
     7
100
AcDbLine
 10
72.55067790473137
 20
-538.9605952919027
 30
0.0
 11
63.05058135899402
 21
-538.9605952919027
 31
0.0
  0
LWPOLYLINE
  5
154
330
A
100
AcDbEntity
  8
0
  6
PHANTOM
 62
     7
100
AcDbPolyline
 90
        9
 70
   128
 43
0.0
 10
72.55067790473137
 20
-538.9605952919027
 10
72.43704754338182
 20
-537.7900533598059
 10
72.10052321039515
 20
-536.6644946977121
 10
71.55403734716306
 20
-535.6271738937851
 10
70.81859109893676
 20
-534.7179546047835
 10
69.92244725259253
 20
-533.9717776180874
 10
68.90004411358217
 20
-533.4173180968352
 10
67.79067206116754
 20
-533.0758836094832
 10
66.6369636411799
 20
-532.9605952919028
  0
LINE
  5
15F
330
A
100
AcDbEntity
  8
0
  6
PHANTOM
 62
     7
100
AcDbLine
 10
72.55067790473137
 20
-538.9605952919027
 30
0.0
 11
72.55067790473137
 21
-702.9605952919027
 31
0.0
  0
LINE
  5
160
330
A
100
AcDbEntity
  8
0
  6
PHANTOM
 62
     7
100
AcDbLine
 10
19.49236162987829
 20
-538.9605952919027
 30
0.0
 11
-6.383015960500657
 21
-538.9605952919027
 31
0.0
  0
LWPOLYLINE
  5
161
330
A
100
AcDbEntity
  8
0
  6
PHANTOM
 62
     7
100
AcDbPolyline
 90
        9
 70
   128
 43
0.0
 10
-6.383015960500657
 20
-538.9605952919027
 10
-6.311576898058627
 20
-537.7900533598059
 10
-6.100005073838718
 20
-536.6644946977121
 10
-5.756431074394829
 20
-535.6271738937851
 10
-5.294058255847097
 20
-534.7179546047835
 10
-4.730655346310633
 20
-533.9717776180874
 10
-4.087873603638936
 20
-533.4173180968352
 10
-3.390414769726721
 20
-533.0758836094832
 10
-2.665081796421817
 20
-532.9605952919028
  0
LINE
  5
16C
330
A
100
AcDbEntity
  8
0
  6
PHANTOM
 62
     7
100
AcDbLine
 10
-6.383015960500657
 20
-538.9605952919027
 30
0.0
 11
-6.383015960500657
 21
-702.9605952919027
 31
0.0
  0
LINE
  5
16D
330
A
100
AcDbEntity
  8
0
  6
PHANTOM
 62
     7
100
AcDbLine
 10
85.07855212030261
 20
-538.9605952919027
 30
0.0
 11
72.55067790473137
 21
-538.9605952919027
 31
0.0
  0
LWPOLYLINE
  5
16E
330
A
100
AcDbEntity
  8
0
  6
PHANTOM
 62
     7
100
AcDbPolyline
 90
        9
 70
   128
 43
0.0
 10
85.07855212030261
 20
-538.9605952919027
 10
84.98525771983379
 20
-537.7900533598059
 10
84.7089597699172
 20
-536.6644946977121
 10
84.2602762458185
 20
-535.6271738937851
 10
83.65644980374417
 20
-534.7179546047835
 10
82.92068515523332
 20
-533.9717776180874
 10
82.08125732310673
 20
-533.4173180968352
 10
81.17042504819639
 20
-533.0758836094832
 10
80.22319110402653
 20
-532.9605952919028
  0
LINE
  5
179
330
A
100
AcDbEntity
  8
0
  6
PHANTOM
 62
     7
100
AcDbLine
 10
85.07855212030261
 20
-538.9605952919027
 30
0.0
 11
85.07855212030261
 21
-702.9605952919027
 31
0.0
  0
LINE
  5
17A
330
A
100
AcDbEntity
  8
0
  6
PHANTOM
 62
     7
100
AcDbLine
 10
-60.55610413399653
 20
-538.9605952919027
 30
0.0
 11
-60.55610413399653
 21
-702.9605952919027
 31
0.0
  0
LINE
  5
17B
330
A
100
AcDbEntity
  8
0
  6
PHANTOM
 62
     7
100
AcDbLine
 10
-26.80531342947279
 20
-538.9605952919027
 30
0.0
 11
-60.55610413399653
 21
-538.9605952919027
 31
0.0
  0
LINE
  5
17C
330
A
100
AcDbEntity
  8
0
  6
PHANTOM
 62
     7
100
AcDbLine
 10
-26.80531342947279
 20
-538.9605952919027
 30
0.0
 11
-26.80531342947279
 21
-702.9605952919027
 31
0.0
  0
LWPOLYLINE
  5
17D
330
A
100
AcDbEntity
  8
0
  6
PHANTOM
 62
     7
100
AcDbPolyline
 90
        9
 70
   128
 43
0.0
 10
-60.55610413399653
 20
-538.9605952919027
 10
-60.50138254572623
 20
-537.7900533598059
 10
-60.33932070086431
 20
-536.6644946977121
 10
-60.0761465452235
 20
-535.6271738937851
 10
-59.72197371401531
 20
-534.7179546047835
 10
-59.29041287052064
 20
-533.9717776180874
 10
-58.79804865593291
 20
-533.4173180968352
 10
-58.26380235089768
 20
-533.0758836094832
 10
-57.70820474130866
 20
-532.9605952919028
  0
LWPOLYLINE
  5
188
330
A
100
AcDbEntity
  8
0
  6
PHANTOM
 62
     7
100
AcDbPolyline
 90
        9
 70
   128
 43
0.0
 10
-26.80531342947279
 20
-538.9605952919027
 10
-26.86275521351499
 20
-537.7900533598059
 10
-27.03287311009456
 20
-536.6644946977121
 10
-27.30912958384918
 20
-535.6271738937851
 10
-27.68090825341888
 20
-534.7179546047835
 10
-28.13392187302794
 20
-533.9717776180874
 10
-28.65076138332778
 20
-533.4173180968352
 10
-29.21156493178452
 20
-533.0758836094832
 10
-29.79478115253319
 20
-532.9605952919028
  0
LINE
  5
193
330
A
100
AcDbEntity
  8
0
  6
PHANTOM
 62
     7
100
AcDbLine
 10
-6.383015960500657
 20
-538.9605952919027
 30
0.0
 11
-26.80531342947279
 21
-538.9605952919027
 31
0.0
  0
LINE
  5
194
330
A
100
AcDbEntity
  8
0
  6
PHANTOM
 62
     7
100
AcDbLine
 10
-60.55610413399653
 20
-538.9605952919027
 30
0.0
 11
-85.08660082993538
 21
-538.9605952919027
 31
0.0
  0
LINE
  5
195
330
A
100
AcDbEntity
  8
0
  6
PHANTOM
 62
     7
100
AcDbLine
 10
87.42958179285931
 20
-538.9605952919027
 30
0.0
 11
85.07855212030261
 21
-538.9605952919027
 31
0.0
  0
LINE
  5
196
330
A
100
AcDbEntity
  8
0
  6
PHANTOM
 62
     7
100
AcDbLine
 10
-85.08660082993538
 20
-538.9605952919027
 30
0.0
 11
-90.5488167321446
 21
-538.9605952919027
 31
0.0
  0
LINE
  5
197
330
A
100
AcDbEntity
  8
0
  6
Continuous
 62
     7
100
AcDbLine
 10
89.94722629760984
 20
-1078.486134284013
 30
0.0
 11
89.94722629760984
 21
-1072.704323823153
 31
0.0
  0
LINE
  5
198
330
A
100
AcDbEntity
  8
0
  6
Continuous
 62
     7
100
AcDbLine
 10
87.94722629760984
 20
-1072.704323823153
 30
0.0
 11
87.94722629760984
 21
-1078.486134284013
 31
0.0
  0
LINE
  5
199
330
A
100
AcDbEntity
  8
0
  6
Continuous
 62
     7
100
AcDbLine
 10
9.643673078225292
 20
-1214.111866873152
 30
0.0
 11
4.636478339260271
 21
-1217.002772103578
 31
0.0
  0
LINE
  5
19A
330
A
100
AcDbEntity
  8
0
  6
Continuous
 62
     7
100
AcDbLine
 10
5.636478339260079
 20
-1218.734822911147
 30
0.0
 11
10.64367307822521
 21
-1215.843917680721
 31
0.0
  0
LINE
  5
19B
330
A
100
AcDbEntity
  8
0
  6
Continuous
 62
     7
100
AcDbLine
 10
167.2507795169938
 20
-1215.843917680722
 30
0.0
 11
172.257974255959
 21
-1218.734822911148
 31
0.0
  0
LINE
  5
19C
330
A
100
AcDbEntity
  8
0
  6
Continuous
 62
     7
100
AcDbLine
 10
173.2579742559588
 20
-1217.002772103579
 30
0.0
 11
168.2507795169938
 21
-1214.111866873154
 31
0.0
  0
CIRCLE
  5
19D
330
A
100
AcDbEntity
  8
0
  6
Continuous
 62
     7
100
AcDbCircle
 10
88.94722629760984
 20
-1169.480639612632
 30
0.0
 40
66.0
  0
CIRCLE
  5
19E
330
A
100
AcDbEntity
  8
0
  6
Continuous
 62
     7
100
AcDbCircle
 10
88.94722629760984
 20
-1169.480639612632
 30
0.0
 40
91.0
  0
ARC
  5
19F
330
A
100
AcDbEntity
  8
0
  6
Continuous
 62
     7
100
AcDbCircle
 10
138.5764558802653
 20
-1099.437326272618
 30
0.0
 40
120.7091741695944
100
AcDbArc
 50
100.3226011673623
 51
114.6634425776406
  0
LWPOLYLINE
  5
1A0
330
A
100
AcDbEntity
  8
0
  6
Continuous
 62
     7
100
AcDbPolyline
 90
        7
 70
   128
 43
0.0
 10
118.3605938333213
 20
-986.5235823776909
 10
118.3504336899735
 20
-986.4832073733266
 10
118.0393531887557
 20
-985.2334526298816
 10
117.5982424312662
 20
-983.4224654622046
 10
117.2485136971821
 20
-981.9601813815479
 10
117.0239550734539
 20
-981.0108629819783
 10
116.9465416380862
 20
-980.6818988657775
  0
ARC
  5
1A9
330
A
100
AcDbEntity
  8
0
  6
Continuous
 62
     7
100
AcDbCircle
 10
120.7402556375799
 20
-993.8001900266332
 30
0.0
 40
13.65583497597043
100
AcDbArc
 50
357.1399740529255
 51
106.1294830235085
  0
ARC
  5
1AA
330
A
100
AcDbEntity
  8
0
  6
Continuous
 62
     7
100
AcDbCircle
 10
102.6822085897029
 20
-1021.266293341382
 30
0.0
 40
34.691109915088
100
AcDbArc
 50
114.6634425776406
 51
172.8839328226992
  0
ARC
  5
1AB
330
A
100
AcDbEntity
  8
0
  6
Continuous
 62
     7
100
AcDbCircle
 10
275.8766969982882
 20
-1001.550553767372
 30
0.0
 40
141.6740835078113
100
AcDbArc
 50
177.1399740529228
 51
189.3999626634149
  0
ARC
  5
1AC
330
A
100
AcDbEntity
  8
0
  6
Continuous
 62
     7
100
AcDbCircle
 10
242.0082698697249
 20
-1235.273757399983
 30
0.0
 40
173.3288819706281
100
AcDbArc
 50
114.3805282343465
 51
123.3039413237923
  0
ARC
  5
1AD
330
A
100
AcDbEntity
  8
0
  6
Continuous
 62
     7
100
AcDbCircle
 10
19.93339680903538
 20
-1059.638047581724
 30
0.0
 40
21.85987611524446
100
AcDbArc
 50
92.52236217677831
 51
129.2941371508322
  0
ARC
  5
1AE
330
A
100
AcDbEntity
  8
0
  6
Continuous
 62
     7
100
AcDbCircle
 10
11.46573589507987
 20
-867.4183215327454
 30
0.0
 40
170.5462681829513
100
AcDbArc
 50
272.5223621767792
 51
284.7090042159163
  0
ARC
  5
1AF
330
A
100
AcDbEntity
  8
0
  6
Continuous
 62
     7
100
AcDbCircle
 10
164.4304605565162
 20
-1064.099820127294
 30
0.0
 40
14.60417339556093
100
AcDbArc
 50
294.3805282343494
 51
358.4476484370425
  0
ARC
  5
1B0
330
A
100
AcDbEntity
  8
0
  6
Continuous
 62
     7
100
AcDbCircle
 10
50.13059113850097
 20
-1014.705677418956
 30
0.0
 40
18.26844236794279
100
AcDbArc
 50
284.7090042159162
 51
352.8839328227012
  0
ARC
  5
1B1
330
A
100
AcDbEntity
  8
0
  6
Continuous
 62
     7
100
AcDbCircle
 10
1.355880798850475
 20
-1073.484153691939
 30
0.0
 40
14.16156320734595
100
AcDbArc
 50
161.3476736750147
 51
223.2713326939656
  0
ARC
  5
1B2
330
A
100
AcDbEntity
  8
0
  6
Continuous
 62
     7
100
AcDbCircle
 10
151.5208965731424
 20
-1063.749967362564
 30
0.0
 40
27.51847706234132
100
AcDbArc
 50
358.4476484370235
 51
92.44149343105505
  0
ARC
  5
1B3
330
A
100
AcDbEntity
  8
0
  6
Continuous
 62
     7
100
AcDbCircle
 10
149.7590615387276
 20
-1022.42910849048
 30
0.0
 40
13.83992523531988
100
AcDbArc
 50
189.399962663424
 51
272.4414934310559
  0
ARC
  5
1B4
330
A
100
AcDbEntity
  8
0
  6
Continuous
 62
     7
100
AcDbCircle
 10
42.67832076899245
 20
-1087.432716650705
 30
0.0
 40
57.77470863049394
100
AcDbArc
 50
129.294137150832
 51
161.3476736750152
  0
ARC
  5
1B5
330
A
100
AcDbEntity
  8
0
  6
Continuous
 62
     7
100
AcDbCircle
 10
153.4947822059876
 20
-1100.545048269006
 30
0.0
 40
12.12571028192354
100
AcDbArc
 50
123.3039413237922
 51
156.9154003987384
  0
ARC
  5
1B6
330
A
100
AcDbEntity
  8
0
  6
Continuous
 62
     7
100
AcDbCircle
 10
19.02774646393545
 20
-1107.477524133632
 30
0.0
 40
12.32369178048433
100
AcDbArc
 50
197.0204598493804
 51
243.6362847036661
  0
ARC
  5
1B7
330
A
100
AcDbEntity
  8
0
  6
Continuous
 62
     7
100
AcDbCircle
 10
-60.66822424375604
 20
-1131.874149816239
 30
0.0
 40
71.02283239262378
100
AcDbArc
 50
17.02045984938064
 51
43.27133269396463
  0
ARC
  5
1B8
330
A
100
AcDbEntity
  8
0
  6
Continuous
 62
     7
100
AcDbCircle
 10
126.7405895072641
 20
-1250.259923495825
 30
0.0
 40
120.7091741695945
100
AcDbArc
 50
343.8226011673628
 51
358.163442577641
  0
LWPOLYLINE
  5
1B9
330
A
100
AcDbEntity
  8
0
  6
Continuous
 62
     7
100
AcDbPolyline
 90
        7
 70
   128
 43
0.0
 10
236.8112522514415
 20
-1282.549919496567
 10
236.8519186639399
 20
-1282.558842073818
 10
238.1091705667683
 20
-1282.838083277502
 10
239.9267078668738
 20
-1283.25137661714
 10
241.3914043334071
 20
-1283.590860314703
 10
242.3411795561053
 20
-1283.813478879967
 10
242.6701225529938
 20
-1283.890982005847
  0
ARC
  5
1C2
330
A
100
AcDbEntity
  8
0
  6
Continuous
 62
     7
100
AcDbCircle
 10
229.2373661375058
 20
-1281.432754194374
 30
0.0
 40
13.65583497597044
100
AcDbArc
 50
240.6399740529286
 51
349.6294830235091
  0
ARC
  5
1C3
330
A
100
AcDbEntity
  8
0
  6
Continuous
 62
     7
100
AcDbCircle
 10
172.8875128690311
 20
-1139.684156851422
 30
0.0
 40
12.32369178048433
100
AcDbArc
 50
80.52045984938038
 51
104.4390820220209
  0
ARC
  5
1C4
330
A
100
AcDbEntity
  8
0
  6
Continuous
 62
     7
100
AcDbCircle
 10
186.6143020819585
 20
-1057.475773157042
 30
0.0
 40
71.02283239262397
100
AcDbArc
 50
260.5204598493812
 51
286.7713326939651
  0
ARC
  5
1C5
330
A
100
AcDbEntity
  8
0
  6
Continuous
 62
     7
100
AcDbCircle
 10
180.2734653234918
 20
-1169.793817731728
 30
0.0
 40
57.77470863049406
100
AcDbArc
 50
12.79413715083252
 51
44.84767367501511
  0
ARC
  5
1C6
330
A
100
AcDbEntity
  8
0
  6
Continuous
 62
     7
100
AcDbCircle
 10
211.1944959572999
 20
-1139.036764585437
 30
0.0
 40
14.16156320734621
100
AcDbArc
 50
44.84767367501595
 51
106.7713326939641
  0
ARC
  5
1C7
330
A
100
AcDbEntity
  8
0
  6
Continuous
 62
     7
100
AcDbCircle
 10
391.0988946738828
 20
-1240.030544967956
 30
0.0
 40
170.5462681829513
100
AcDbArc
 50
156.022362176778
 51
168.2090042159151
  0
ARC
  5
1C8
330
A
100
AcDbEntity
  8
0
  6
Continuous
 62
     7
100
AcDbCircle
 10
215.2966050729621
 20
-1161.840524282628
 30
0.0
 40
21.8598761152444
100
AcDbArc
 50
336.0223621767783
 51
12.79413715083249
  0
ARC
  5
1C9
330
A
100
AcDbEntity
  8
0
  6
Continuous
 62
     7
100
AcDbCircle
 10
242.0342050079846
 20
-1208.913756416508
 30
0.0
 40
18.26844236794291
100
AcDbArc
 50
168.2090042159122
 51
236.3839328227011
  0
ARC
  5
1CA
330
A
100
AcDbEntity
  8
0
  6
Continuous
 62
     7
100
AcDbCircle
 10
119.0927264477987
 20
-1263.116583209984
 30
0.0
 40
12.12571028192351
100
AcDbArc
 50
6.803941323794655
 51
58.12993967191157
  0
ARC
  5
1CB
330
A
100
AcDbEntity
  8
0
  6
Continuous
 62
     7
100
AcDbCircle
 10
212.7144676036222
 20
-1253.016672154113
 30
0.0
 40
34.69110991508795
100
AcDbArc
 50
358.163442577641
 51
56.38393282270006
  0
ARC
  5
1CC
330
A
100
AcDbEntity
  8
0
  6
Continuous
 62
     7
100
AcDbCircle
 10
-40.97514947407879
 20
-1282.21468940815
 30
0.0
 40
173.3288819706281
100
AcDbArc
 50
357.8805282343473
 51
6.803941323792239
  0
ARC
  5
1CD
330
A
100
AcDbEntity
  8
0
  6
Continuous
 62
     7
100
AcDbCircle
 10
146.8293376633635
 20
-1289.16507862842
 30
0.0
 40
14.60417339556096
100
AcDbArc
 50
177.880528234314
 51
241.947648437043
  0
ARC
  5
1CE
330
A
100
AcDbEntity
  8
0
  6
Continuous
 62
     7
100
AcDbCircle
 10
153.0797584422174
 20
-1416.811490952805
 30
0.0
 40
141.6740835078114
100
AcDbArc
 50
60.63997405292397
 51
72.89996266341375
  0
ARC
  5
1CF
330
A
100
AcDbEntity
  8
0
  6
Continuous
 62
     7
100
AcDbCircle
 10
190.668235536556
 20
-1294.628519917703
 30
0.0
 40
13.83992523531994
100
AcDbArc
 50
72.89996266341761
 51
155.9414934310546
  0
ARC
  5
1D0
330
A
100
AcDbEntity
  8
0
  6
Continuous
 62
     7
100
AcDbCircle
 10
152.9026521416039
 20
-1277.767969764931
 30
0.0
 40
27.51847706234132
100
AcDbArc
 50
241.9476484370431
 51
335.9414934310557
  0
ARC
  5
1D1
330
A
100
AcDbEntity
  8
0
  6
Continuous
 62
     7
100
AcDbCircle
 10
-76.89298175617421
 20
-1240.144304045263
 30
0.0
 40
13.65583497597066
100
AcDbArc
 50
124.1399740529274
 51
233.1294830235103
  0
ARC
  5
1D2
330
A
100
AcDbEntity
  8
0
  6
Continuous
 62
     7
100
AcDbCircle
 10
-3.261506832422947
 20
-1162.325665571546
 30
0.0
 40
120.7091741695946
100
AcDbArc
 50
227.3226011673634
 51
241.6634425776417
  0
LWPOLYLINE
  5
1D3
330
A
100
AcDbEntity
  8
0
  6
Continuous
 62
     7
100
AcDbPolyline
 90
        7
 70
   128
 43
0.0
 10
-81.27222279347723
 20
-1246.423958264764
 10
-81.298353178777
 20
-1246.456370800215
 10
-82.10923877669957
 20
-1247.456931914832
 10
-83.29009035631532
 20
-1248.89909791387
 10
-84.24745034270481
 20
-1250.058428227649
 10
-84.87046697360421
 20
-1250.809082793261
 10
-85.08660082993543
 20
-1251.068883458908
  0
ARC
  5
1DC
330
A
100
AcDbEntity
  8
0
  6
Continuous
 62
     7
100
AcDbCircle
 10
42.97547109325809
 20
-997.9729411071513
 30
0.0
 40
173.3288819706282
100
AcDbArc
 50
241.3805282343477
 51
250.3039413237934
  0
ARC
  5
1DD
330
A
100
AcDbEntity
  8
0
  6
Continuous
 62
     7
100
AcDbCircle
 10
-47.04262249940452
 20
-1162.944381439148
 30
0.0
 40
14.60417339556087
100
AcDbArc
 50
61.3805282343497
 51
125.4476484370426
  0
ARC
  5
1DE
330
A
100
AcDbEntity
  8
0
  6
Continuous
 62
     7
100
AcDbCircle
 10
-71.49286420194123
 20
-1199.739541965298
 30
0.0
 40
13.83992523531993
100
AcDbArc
 50
316.3999626634175
 51
39.44149343105545
  0
ARC
  5
1DF
330
A
100
AcDbEntity
  8
0
  6
Continuous
 62
     7
100
AcDbCircle
 10
-39.55285779306863
 20
-1173.464964305203
 30
0.0
 40
27.51847706234127
100
AcDbArc
 50
125.4476484370421
 51
219.441493431056
  0
ARC
  5
1E0
330
A
100
AcDbEntity
  8
0
  6
Continuous
 62
     7
100
AcDbCircle
 10
-11.35491361395187
 20
-1149.744716678449
 30
0.0
 40
12.12571028192369
100
AcDbArc
 50
250.3039413237939
 51
327.9724815265155
  0
ARC
  5
1E1
330
A
100
AcDbEntity
  8
0
  6
Continuous
 62
     7
100
AcDbCircle
 10
-164.0667071062586
 20
-1111.582547738163
 30
0.0
 40
141.6740835078112
100
AcDbArc
 50
304.1399740529252
 51
316.3999626634151
  0
ARC
  5
1E2
330
A
100
AcDbEntity
  8
0
  6
Continuous
 62
     7
100
AcDbCircle
 10
-44.08997232418873
 20
-1238.03658805754
 30
0.0
 40
34.69110991508805
100
AcDbArc
 50
241.6634425776417
 51
299.8839328227012
  0
ARC
  5
1E3
330
A
100
AcDbEntity
  8
0
  6
Continuous
 62
     7
100
AcDbCircle
 10
-17.70316029454721
 20
-1283.954453087737
 30
0.0
 40
18.26844236794294
100
AcDbArc
 50
51.70900421591618
 51
119.8839328227002
  0
ARC
  5
1E4
330
A
100
AcDbEntity
  8
0
  6
Continuous
 62
     7
100
AcDbCircle
 10
-112.0629821327579
 20
-1403.473322968636
 30
0.0
 40
170.5462681829513
100
AcDbArc
 50
39.52236217677856
 51
51.70900421591575
  0
ARC
  5
1E5
330
A
100
AcDbEntity
  8
0
  6
Continuous
 62
     7
100
AcDbCircle
 10
142.552134064412
 20
-1301.92857459472
 30
0.0
 40
71.02283239262378
100
AcDbArc
 50
144.2091569963787
 51
170.2713326939648
  0
ARC
  5
1E6
330
A
100
AcDbEntity
  8
0
  6
Continuous
 62
     7
100
AcDbCircle
 10
44.86412404149107
 20
-1246.137876036265
 30
0.0
 40
57.774708630494
100
AcDbArc
 50
256.2941371508332
 51
288.3476736750163
  0
ARC
  5
1E7
330
A
100
AcDbEntity
  8
0
  6
Continuous
 62
     7
100
AcDbCircle
 10
36.3545512725426
 20
-1281.030029393265
 30
0.0
 40
21.85987611524421
100
AcDbArc
 50
219.5223621767791
 51
256.2941371508334
  0
ARC
  5
1E8
330
A
100
AcDbEntity
  8
0
  6
Continuous
 62
     7
100
AcDbCircle
 10
58.59277151582021
 20
-1287.533898698186
 30
0.0
 40
14.16156320734609
100
AcDbArc
 50
288.3476736750159
 51
350.2713326939629
  0
LWPOLYLINE
  5
1E9
330
A
100
AcDbEntity
  8
0
  6
Continuous
 62
     7
100
AcDbPolyline
 90
        5
 70
   128
 43
0.0
 10
88.94722629760984
 20
-1118.481102993023
 10
89.32990972997492
 20
-1118.557188187779
 10
89.65433307879639
 20
-1118.773860490862
 10
89.87110583012114
 20
-1119.098133508265
 10
89.94722629760984
 20
-1119.480639612632
  0
LWPOLYLINE
  5
1F0
330
A
100
AcDbEntity
  8
0
  6
Continuous
 62
     7
100
AcDbPolyline
 90
        5
 70
   128
 43
0.0
 10
87.94722629760984
 20
-1119.480639612632
 10
88.02334676509856
 20
-1119.098133508265
 10
88.24011951642331
 20
-1118.773860490862
 10
88.56454286524476
 20
-1118.557188187779
 10
88.94722629760984
 20
-1118.481102993023
  0
LWPOLYLINE
  5
1F7
330
A
100
AcDbEntity
  8
0
  6
Continuous
 62
     7
100
AcDbPolyline
 90
       10
 70
   128
 43
0.0
 10
46.14595610838757
 20
-1195.346665016416
 10
46.02887723078852
 20
-1195.404412136828
 10
45.64635736107578
 20
-1195.480523787666
 10
45.26377640427863
 20
-1195.404412136828
 10
44.93937884296444
 20
-1195.1876644932
 10
44.72255126517208
 20
-1194.863278720701
 10
44.64630370407355
 20
-1194.480639612631
 10
44.72224415966022
 20
-1194.098000504562
 10
44.93881138597099
 20
-1193.773614732063
 10
45.14595610838776
 20
-1193.614614208847
  0
LWPOLYLINE
  5
203
330
A
100
AcDbEntity
  8
0
  6
Continuous
 62
     7
100
AcDbPolyline
 90
       20
 70
   128
 43
0.0
 10
5.636478339260161
 20
-1218.734822911147
 10
5.478428765407203
 20
-1218.80853037938
 10
5.309989200891013
 20
-1218.853684539825
 10
5.136277596644908
 20
-1218.868913406165
 10
4.962572091861586
 20
-1218.853754257003
 10
4.79415064040467
 20
-1218.808667695416
 10
4.636130642851302
 20
-1218.735023653762
 10
4.493313456865169
 20
-1218.635059768981
 10
4.370038510373458
 20
-1218.511813393128
 10
4.270051450245226
 20
-1218.369029304968
 10
4.196390332706537
 20
-1218.211045926767
 10
4.1512933135395
 20
-1218.042663503529
 10
4.136130642851315
 20
-1217.868998249978
 10
4.151363030718141
 20
-1217.695326896963
 10
4.196527648742634
 20
-1217.526926360666
 10
4.270252192860493
 20
-1217.368913406165
 10
4.370296580105126
 20
-1217.226089177126
 10
4.493621012395005
 20
-1217.102793315475
 10
4.636478339260189
 20
-1217.002772103578
 10
4.636478339260271
 20
-1217.002772103578
  0
LWPOLYLINE
  5
219
330
A
100
AcDbEntity
  8
0
  6
Continuous
 62
     7
100
AcDbPolyline
 90
        7
 70
   128
 43
0.0
 10
133.2481488911458
 20
-1194.480639612632
 10
133.1719013300472
 20
-1194.863278720702
 10
132.9550737522549
 20
-1195.1876644932
 10
132.6306761909407
 20
-1195.404412136828
 10
132.2480952341435
 20
-1195.480523787667
 10
131.8655753644308
 20
-1195.404412136828
 10
131.7484964868318
 20
-1195.346665016416
  0
LWPOLYLINE
  5
222
330
A
100
AcDbEntity
  8
0
  6
Continuous
 62
     7
100
AcDbPolyline
 90
        4
 70
   128
 43
0.0
 10
132.7484964868316
 20
-1193.614614208847
 10
132.9556412092483
 20
-1193.773614732064
 10
133.1722084355591
 20
-1194.098000504562
 10
133.2481488911458
 20
-1194.480639612632
  0
LWPOLYLINE
  5
228
330
A
100
AcDbEntity
  8
0
  6
Continuous
 62
     7
100
AcDbPolyline
 90
       20
 70
   128
 43
0.0
 10
173.2579742559589
 20
-1217.002772103579
 10
173.4008315828241
 20
-1217.102793315476
 10
173.524156015114
 20
-1217.226089177127
 10
173.6242004023586
 20
-1217.368913406167
 10
173.6979249464765
 20
-1217.526926360667
 10
173.7430895645009
 20
-1217.695326896965
 10
173.7583219523678
 20
-1217.868998249979
 10
173.7431592816796
 20
-1218.04266350353
 10
173.6980622625125
 20
-1218.211045926769
 10
173.6244011449738
 20
-1218.36902930497
 10
173.5244140848456
 20
-1218.51181339313
 10
173.4011391383539
 20
-1218.635059768982
 10
173.2583219523678
 20
-1218.735023653763
 10
173.1003019548144
 20
-1218.808667695417
 10
172.9318805033575
 20
-1218.853754257005
 10
172.7581749985741
 20
-1218.868913406166
 10
172.584463394328
 20
-1218.853684539826
 10
172.4160238298118
 20
-1218.808530379381
 10
172.2579742559589
 20
-1218.734822911148
 10
172.257974255959
 20
-1218.734822911148
  0
ARC
  5
23E
330
A
100
AcDbEntity
  8
0
  6
Continuous
 62
     7
100
AcDbCircle
 10
88.94722629760984
 20
-1074.480639612626
 30
0.0
 40
30.00000000000002
100
AcDbArc
 50
343.2365496623538
 51
196.7634503376477
  0
ARC
  5
23F
330
A
100
AcDbEntity
  8
0
  6
Continuous
 62
     7
100
AcDbCircle
 10
171.2196396571315
 20
-1216.980639612627
 30
0.0
 40
30.00000000000014
100
AcDbArc
 50
223.2365496623712
 51
76.76345033763539
  0
ARC
  5
240
330
A
100
AcDbEntity
  8
0
  6
Continuous
 62
     7
100
AcDbCircle
 10
6.674812938088193
 20
-1216.980639612627
 30
0.0
 40
30.00000000000015
100
AcDbArc
 50
103.2365496623647
 51
316.7634503376302
  0
ARC
  5
241
330
A
100
AcDbEntity
  8
0
  6
PHANTOM
 62
     7
100
AcDbCircle
 10
138.5764558802653
 20
-1099.437326272618
 30
0.0
 40
114.7091741695947
100
AcDbArc
 50
100.1505815271673
 51
114.6634425776406
  0
LINE
  5
242
330
A
100
AcDbEntity
  8
0
  6
PHANTOM
 62
     7
100
AcDbLine
 10
88.20604839163134
 20
-989.7398934032279
 30
0.0
 11
90.70977229671902
 21
-995.1925410726717
 31
0.0
  0
ARC
  5
243
330
A
100
AcDbEntity
  8
0
  6
PHANTOM
 62
     7
100
AcDbCircle
 10
120.7402556375799
 20
-993.8001900266332
 30
0.0
 40
7.655834975970445
100
AcDbArc
 50
357.139974052928
 51
108.1092463783902
  0
LINE
  5
244
330
A
100
AcDbEntity
  8
0
  6
PHANTOM
 62
     7
100
AcDbLine
 10
128.3865545953748
 20
-994.1821866592329
 30
0.0
 11
134.3790810658077
 21
-994.4815635139837
 31
0.0
  0
ARC
  5
245
330
A
100
AcDbEntity
  8
0
  6
PHANTOM
 62
     7
100
AcDbCircle
 10
275.8766969982882
 20
-1001.550553767372
 30
0.0
 40
147.6740835078111
100
AcDbArc
 50
177.139974052924
 51
189.3999626634151
  0
ARC
  5
246
330
A
100
AcDbEntity
  8
0
  6
PHANTOM
 62
     7
100
AcDbCircle
 10
149.7590615387276
 20
-1022.42910849048
 30
0.0
 40
19.83992523531955
100
AcDbArc
 50
189.3999626634198
 51
272.4414934310559
  0
ARC
  5
247
330
A
100
AcDbEntity
  8
0
  6
PHANTOM
 62
     7
100
AcDbCircle
 10
151.5208965731424
 20
-1063.749967362564
 30
0.0
 40
21.51847706234165
100
AcDbArc
 50
358.4476484370092
 51
92.44149343105501
  0
ARC
  5
248
330
A
100
AcDbEntity
  8
0
  6
PHANTOM
 62
     7
100
AcDbCircle
 10
164.4304605565162
 20
-1064.099820127294
 30
0.0
 40
8.604173395561165
100
AcDbArc
 50
294.3805282343502
 51
358.4476484370441
  0
ARC
  5
249
330
A
100
AcDbEntity
  8
0
  6
PHANTOM
 62
     7
100
AcDbCircle
 10
242.0082698697249
 20
-1235.273757399983
 30
0.0
 40
179.328881970628
100
AcDbArc
 50
114.3805282343465
 51
123.3039413237924
  0
ARC
  5
24A
330
A
100
AcDbEntity
  8
0
  6
PHANTOM
 62
     7
100
AcDbCircle
 10
153.4947822059876
 20
-1100.545048269006
 30
0.0
 40
18.12571028192342
100
AcDbArc
 50
123.3039413237925
 51
153.2731711944386
  0
ARC
  5
24B
330
A
100
AcDbEntity
  8
0
  6
PHANTOM
 62
     7
100
AcDbCircle
 10
19.02774646393545
 20
-1107.477524133632
 30
0.0
 40
6.32369178048438
100
AcDbArc
 50
197.0204598493808
 51
253.0394789739335
  0
ARC
  5
24C
330
A
100
AcDbEntity
  8
0
  6
PHANTOM
 62
     7
100
AcDbCircle
 10
-60.66822424375604
 20
-1131.874149816239
 30
0.0
 40
77.02283239262375
100
AcDbArc
 50
17.02045984938059
 51
43.27133269396463
  0
ARC
  5
24D
330
A
100
AcDbEntity
  8
0
  6
PHANTOM
 62
     7
100
AcDbCircle
 10
1.355880798850475
 20
-1073.484153691939
 30
0.0
 40
8.16156320734602
100
AcDbArc
 50
161.3476736750136
 51
223.2713326939659
  0
ARC
  5
24E
330
A
100
AcDbEntity
  8
0
  6
PHANTOM
 62
     7
100
AcDbCircle
 10
42.67832076899245
 20
-1087.432716650705
 30
0.0
 40
51.77470863049396
100
AcDbArc
 50
129.2941371508319
 51
161.3476736750152
  0
ARC
  5
24F
330
A
100
AcDbEntity
  8
0
  6
PHANTOM
 62
     7
100
AcDbCircle
 10
19.93339680903538
 20
-1059.638047581724
 30
0.0
 40
15.85987611524439
100
AcDbArc
 50
92.52236217677832
 51
129.2941371508323
  0
ARC
  5
250
330
A
100
AcDbEntity
  8
0
  6
PHANTOM
 62
     7
100
AcDbCircle
 10
11.46573589507987
 20
-867.4183215327454
 30
0.0
 40
176.5462681829514
100
AcDbArc
 50
272.5223621767791
 51
284.7090042159163
  0
ARC
  5
251
330
A
100
AcDbEntity
  8
0
  6
PHANTOM
 62
     7
100
AcDbCircle
 10
50.13059113850097
 20
-1014.705677418956
 30
0.0
 40
24.26844236794275
100
AcDbArc
 50
284.7090042159162
 51
352.8839328227013
  0
ARC
  5
252
330
A
100
AcDbEntity
  8
0
  6
PHANTOM
 62
     7
100
AcDbCircle
 10
102.6822085897029
 20
-1021.266293341382
 30
0.0
 40
28.69110991508807
100
AcDbArc
 50
114.6634425776405
 51
172.8839328226985
  0
LINE
  5
253
330
A
100
AcDbEntity
  8
0
  6
PHANTOM
 62
     7
100
AcDbLine
 10
68.25831604105975
 20
-1016.96876743219
 30
0.0
 11
74.21209946849709
 21
-1017.712045912419
 31
0.0
  0
LINE
  5
254
330
A
100
AcDbEntity
  8
0
  6
PHANTOM
 62
     7
100
AcDbLine
 10
130.1855415016237
 20
-1025.66947061533
 30
0.0
 11
136.1049751098486
 21
-1024.689518699257
 31
0.0
  0
LINE
  5
255
330
A
100
AcDbEntity
  8
0
  6
PHANTOM
 62
     7
100
AcDbLine
 10
167.9822195681392
 20
-1071.936707758506
 30
0.0
 11
170.4589890484857
 21
-1077.40165176016
 31
0.0
  0
LINE
  5
256
330
A
100
AcDbEntity
  8
0
  6
PHANTOM
 62
     7
100
AcDbLine
 10
143.5423115651886
 20
-1085.396130770773
 30
0.0
 11
146.8367934318852
 21
-1090.41074832648
 31
0.0
  0
LINE
  5
257
330
A
100
AcDbEntity
  8
0
  6
PHANTOM
 62
     7
100
AcDbLine
 10
18.97135882817918
 20
-1037.799351038724
 30
0.0
 11
19.23541466521623
 21
-1043.793537765456
 31
0.0
  0
LINE
  5
258
330
A
100
AcDbEntity
  8
0
  6
PHANTOM
 62
     7
100
AcDbLine
 10
6.089500424325586
 20
-1042.720579784702
 30
0.0
 11
9.889310536256342
 21
-1047.364009886822
 31
0.0
  0
LINE
  5
259
330
A
100
AcDbEntity
  8
0
  6
PHANTOM
 62
     7
100
AcDbLine
 10
54.76913043927464
 20
-1032.37542387175
 30
0.0
 11
56.29259014339698
 21
-1038.17879104348
 31
0.0
  0
LINE
  5
25A
330
A
100
AcDbEntity
  8
0
  6
PHANTOM
 62
     7
100
AcDbLine
 10
173.0314761311898
 20
-1064.332910035067
 30
0.0
 11
179.0292740689513
 21
-1064.495452022815
 31
0.0
  0
LINE
  5
25B
330
A
100
AcDbEntity
  8
0
  6
PHANTOM
 62
     7
100
AcDbLine
 10
-12.06187065753332
 20
-1068.954935400626
 30
0.0
 11
-6.377010338120145
 21
-1070.873883849324
 31
0.0
  0
LINE
  5
25C
330
A
100
AcDbEntity
  8
0
  6
PHANTOM
 62
     7
100
AcDbLine
 10
-8.955377240294993
 20
-1083.191255737648
 30
0.0
 11
-4.586682391496066
 21
-1079.078530933084
 31
0.0
  0
LINE
  5
25D
330
A
100
AcDbEntity
  8
0
  6
PHANTOM
 62
     7
100
AcDbLine
 10
150.6042265697214
 20
-1042.251023872538
 30
0.0
 11
150.3486313431358
 21
-1036.256470421267
 31
0.0
  0
LINE
  5
25E
330
A
100
AcDbEntity
  8
0
  6
PHANTOM
 62
     7
100
AcDbLine
 10
7.243828791397483
 20
-1111.084831077492
 30
0.0
 11
12.98103054024296
 21
-1109.328552029891
 31
0.0
  0
ARC
  5
25F
330
A
100
AcDbEntity
  8
0
  6
PHANTOM
 62
     7
100
AcDbCircle
 10
126.7405895072641
 20
-1250.259923495825
 30
0.0
 40
114.7091741695946
100
AcDbArc
 50
343.6505815271678
 51
358.1634425776404
  0
LINE
  5
260
330
A
100
AcDbEntity
  8
0
  6
PHANTOM
 62
     7
100
AcDbLine
 10
247.3877572284916
 20
-1254.128469676433
 30
0.0
 11
241.3908393363162
 21
-1253.936178765296
 31
0.0
  0
ARC
  5
261
330
A
100
AcDbEntity
  8
0
  6
PHANTOM
 62
     7
100
AcDbCircle
 10
229.2373661375058
 20
-1281.432754194374
 30
0.0
 40
7.655834975970489
100
AcDbArc
 50
240.639974052929
 51
351.6092463783896
  0
LINE
  5
262
330
A
100
AcDbEntity
  8
0
  6
PHANTOM
 62
     7
100
AcDbLine
 10
225.4837423516243
 20
-1288.105243808705
 30
0.0
 11
222.5419675111296
 21
-1293.334580362019
 31
0.0
  0
LINE
  5
263
330
A
100
AcDbEntity
  8
0
  6
PHANTOM
 62
     7
100
AcDbLine
 10
174.9171682274771
 20
-1127.528751542412
 30
0.0
 11
173.9289958220327
 21
-1133.446818397147
 31
0.0
  0
ARC
  5
264
330
A
100
AcDbEntity
  8
0
  6
PHANTOM
 62
     7
100
AcDbCircle
 10
153.0797584422174
 20
-1416.811490952805
 30
0.0
 40
147.6740835078111
100
AcDbArc
 50
60.63997405292405
 51
72.8999626634139
  0
ARC
  5
265
330
A
100
AcDbEntity
  8
0
  6
PHANTOM
 62
     7
100
AcDbCircle
 10
190.668235536556
 20
-1294.628519917703
 30
0.0
 40
19.83992523531976
100
AcDbArc
 50
72.89996266341761
 51
155.9414934310546
  0
ARC
  5
266
330
A
100
AcDbEntity
  8
0
  6
PHANTOM
 62
     7
100
AcDbCircle
 10
152.9026521416039
 20
-1277.767969764931
 30
0.0
 40
21.5184770623415
100
AcDbArc
 50
241.9476484370431
 51
335.9414934310558
  0
ARC
  5
267
330
A
100
AcDbEntity
  8
0
  6
PHANTOM
 62
     7
100
AcDbCircle
 10
146.8293376633635
 20
-1289.16507862842
 30
0.0
 40
8.604173395561101
100
AcDbArc
 50
177.8805282343129
 51
241.9476484370427
  0
ARC
  5
268
330
A
100
AcDbEntity
  8
0
  6
PHANTOM
 62
     7
100
AcDbCircle
 10
-40.97514947407879
 20
-1282.21468940815
 30
0.0
 40
179.3288819706281
100
AcDbArc
 50
357.8805282343449
 51
6.803941323792185
  0
ARC
  5
269
330
A
100
AcDbEntity
  8
0
  6
PHANTOM
 62
     7
100
AcDbCircle
 10
119.0927264477987
 20
-1263.116583209984
 30
0.0
 40
18.12571028192349
100
AcDbArc
 50
6.803941323791863
 51
46.7564904695918
  0
ARC
  5
26A
330
A
100
AcDbEntity
  8
0
  6
PHANTOM
 62
     7
100
AcDbCircle
 10
172.8875128690311
 20
-1139.684156851422
 30
0.0
 40
6.323691780484375
100
AcDbArc
 50
80.52045984938088
 51
93.7181920762444
  0
ARC
  5
26B
330
A
100
AcDbEntity
  8
0
  6
PHANTOM
 62
     7
100
AcDbCircle
 10
186.6143020819585
 20
-1057.475773157042
 30
0.0
 40
77.02283239262387
100
AcDbArc
 50
260.5204598493812
 51
286.7713326939652
  0
ARC
  5
26C
330
A
100
AcDbEntity
  8
0
  6
PHANTOM
 62
     7
100
AcDbCircle
 10
211.1944959572999
 20
-1139.036764585437
 30
0.0
 40
8.161563207346031
100
AcDbArc
 50
44.84767367501541
 51
106.7713326939642
  0
ARC
  5
26D
330
A
100
AcDbEntity
  8
0
  6
PHANTOM
 62
     7
100
AcDbCircle
 10
180.2734653234918
 20
-1169.793817731728
 30
0.0
 40
51.77470863049396
100
AcDbArc
 50
12.79413715083206
 51
44.84767367501503
  0
ARC
  5
26E
330
A
100
AcDbEntity
  8
0
  6
PHANTOM
 62
     7
100
AcDbCircle
 10
215.2966050729621
 20
-1161.840524282628
 30
0.0
 40
15.85987611524441
100
AcDbArc
 50
336.0223621767789
 51
12.79413715083269
  0
ARC
  5
26F
330
A
100
AcDbEntity
  8
0
  6
PHANTOM
 62
     7
100
AcDbCircle
 10
391.0988946738828
 20
-1240.030544967956
 30
0.0
 40
176.5462681829513
100
AcDbArc
 50
156.022362176778
 51
168.2090042159152
  0
ARC
  5
270
330
A
100
AcDbEntity
  8
0
  6
PHANTOM
 62
     7
100
AcDbCircle
 10
242.0342050079846
 20
-1208.913756416508
 30
0.0
 40
24.26844236794291
100
AcDbArc
 50
168.2090042159129
 51
236.3839328227011
  0
ARC
  5
271
330
A
100
AcDbEntity
  8
0
  6
PHANTOM
 62
     7
100
AcDbCircle
 10
212.7144676036222
 20
-1253.016672154113
 30
0.0
 40
28.69110991508796
100
AcDbArc
 50
358.163442577641
 51
56.38393282270002
  0
LINE
  5
272
330
A
100
AcDbEntity
  8
0
  6
PHANTOM
 62
     7
100
AcDbLine
 10
221.2348203940817
 20
-1129.049685048365
 30
0.0
 11
216.9809152468419
 21
-1133.281031287836
 31
0.0
  0
LINE
  5
273
330
A
100
AcDbEntity
  8
0
  6
PHANTOM
 62
     7
100
AcDbLine
 10
207.1081375724951
 20
-1125.477577750432
 30
0.0
 11
208.8394542322344
 21
-1131.222361699695
 31
0.0
  0
LINE
  5
274
330
A
100
AcDbEntity
  8
0
  6
PHANTOM
 62
     7
100
AcDbLine
 10
224.1512356545548
 20
-1205.18074239897
 30
0.0
 11
218.27783857124
 21
-1203.954689096006
 31
0.0
  0
LINE
  5
275
330
A
100
AcDbEntity
  8
0
  6
PHANTOM
 62
     7
100
AcDbLine
 10
235.2700642650783
 20
-1170.723942075049
 30
0.0
 11
229.7878394564426
 21
-1168.285661708155
 31
0.0
  0
LINE
  5
276
330
A
100
AcDbEntity
  8
0
  6
PHANTOM
 62
     7
100
AcDbLine
 10
236.6137446075884
 20
-1156.999682843879
 30
0.0
 11
230.7627124913285
 21
-1158.328375123715
 31
0.0
  0
LINE
  5
277
330
A
100
AcDbEntity
  8
0
  6
PHANTOM
 62
     7
100
AcDbLine
 10
231.9203367835654
 20
-1224.127094514701
 30
0.0
 11
228.5985861863169
 21
-1229.123690653042
 31
0.0
  0
LINE
  5
278
330
A
100
AcDbEntity
  8
0
  6
PHANTOM
 62
     7
100
AcDbLine
 10
138.2310505304993
 20
-1288.846867689417
 30
0.0
 11
132.23515523348
 21
-1288.62496774084
 31
0.0
  0
LINE
  5
279
330
A
100
AcDbEntity
  8
0
  6
PHANTOM
 62
     7
100
AcDbLine
 10
137.0907838930055
 20
-1260.96918910939
 30
0.0
 11
131.1330397278603
 21
-1261.680022748633
 31
0.0
  0
LINE
  5
27A
330
A
100
AcDbEntity
  8
0
  6
PHANTOM
 62
     7
100
AcDbLine
 10
142.7829831556116
 20
-1296.758418803763
 30
0.0
 11
139.9613144222694
 21
-1302.05352839274
 31
0.0
  0
LINE
  5
27B
330
A
100
AcDbEntity
  8
0
  6
PHANTOM
 62
     7
100
AcDbLine
 10
196.5019859624115
 20
-1275.665661765201
 30
0.0
 11
194.7377402739842
 21
-1281.400418704327
 31
0.0
  0
LINE
  5
27C
330
A
100
AcDbEntity
  8
0
  6
PHANTOM
 62
     7
100
AcDbLine
 10
172.5518115598384
 20
-1286.540391850041
 30
0.0
 11
178.0305894569845
 21
-1288.986407539635
 31
0.0
  0
ARC
  5
27D
330
A
100
AcDbEntity
  8
0
  6
PHANTOM
 62
     7
100
AcDbCircle
 10
-76.89298175617421
 20
-1240.144304045263
 30
0.0
 40
7.655834975970586
100
AcDbArc
 50
124.1399740529276
 51
235.1092463783921
  0
LINE
  5
27E
330
A
100
AcDbEntity
  8
0
  6
PHANTOM
 62
     7
100
AcDbLine
 10
-81.18956326497453
 20
-1233.807806864839
 30
0.0
 11
-84.55686273442708
 21
-1228.84179294188
 31
0.0
  0
ARC
  5
27F
330
A
100
AcDbEntity
  8
0
  6
PHANTOM
 62
     7
100
AcDbCircle
 10
-3.261506832422947
 20
-1162.325665571547
 30
0.0
 40
114.7091741695944
100
AcDbArc
 50
227.1505815271684
 51
241.6634425776416
  0
LINE
  5
280
330
A
100
AcDbEntity
  8
0
  6
PHANTOM
 62
     7
100
AcDbLine
 10
-60.55610413399656
 20
-1268.570824749535
 30
0.0
 11
-57.70820474130871
 21
-1263.289776648151
 31
0.0
  0
ARC
  5
281
330
A
100
AcDbEntity
  8
0
  6
PHANTOM
 62
     7
100
AcDbCircle
 10
-164.0667071062586
 20
-1111.582547738163
 30
0.0
 40
147.674083507811
100
AcDbArc
 50
304.1399740529254
 51
316.3999626634153
  0
ARC
  5
282
330
A
100
AcDbEntity
  8
0
  6
PHANTOM
 62
     7
100
AcDbCircle
 10
-71.49286420194123
 20
-1199.739541965298
 30
0.0
 40
19.83992523531972
100
AcDbArc
 50
316.3999626634179
 51
39.44149343105534
  0
ARC
  5
283
330
A
100
AcDbEntity
  8
0
  6
PHANTOM
 62
     7
100
AcDbCircle
 10
-39.55285779306863
 20
-1173.464964305203
 30
0.0
 40
21.51847706234148
100
AcDbArc
 50
125.4476484370422
 51
219.4414934310561
  0
ARC
  5
284
330
A
100
AcDbEntity
  8
0
  6
PHANTOM
 62
     7
100
AcDbCircle
 10
-47.04262249940452
 20
-1162.944381439148
 30
0.0
 40
8.604173395561208
100
AcDbArc
 50
61.38052823435165
 51
125.4476484370425
  0
ARC
  5
285
330
A
100
AcDbEntity
  8
0
  6
PHANTOM
 62
     7
100
AcDbCircle
 10
42.97547109325809
 20
-997.9729411071515
 30
0.0
 40
179.3288819706279
100
AcDbArc
 50
241.3805282343477
 51
250.3039413237934
  0
ARC
  5
286
330
A
100
AcDbEntity
  8
0
  6
PHANTOM
 62
     7
100
AcDbCircle
 10
-11.3549136139519
 20
-1149.744716678449
 30
0.0
 40
18.12571028192351
100
AcDbArc
 50
250.3039413237936
 51
301.2417796980158
  0
ARC
  5
287
330
A
100
AcDbEntity
  8
0
  6
PHANTOM
 62
     7
100
AcDbCircle
 10
142.552134064412
 20
-1301.92857459472
 30
0.0
 40
77.02283239262378
100
AcDbArc
 50
146.8645827592437
 51
170.2713326939649
  0
ARC
  5
288
330
A
100
AcDbEntity
  8
0
  6
PHANTOM
 62
     7
100
AcDbCircle
 10
58.59277151582021
 20
-1287.533898698186
 30
0.0
 40
8.161563207346002
100
AcDbArc
 50
288.3476736750159
 51
350.2713326939637
  0
ARC
  5
289
330
A
100
AcDbEntity
  8
0
  6
PHANTOM
 62
     7
100
AcDbCircle
 10
44.86412404149107
 20
-1246.137876036265
 30
0.0
 40
51.77470863049391
100
AcDbArc
 50
256.294137150833
 51
288.3476736750163
  0
ARC
  5
28A
330
A
100
AcDbEntity
  8
0
  6
PHANTOM
 62
     7
100
AcDbCircle
 10
36.3545512725426
 20
-1281.030029393265
 30
0.0
 40
15.85987611524439
100
AcDbArc
 50
219.5223621767794
 51
256.2941371508334
  0
ARC
  5
28B
330
A
100
AcDbEntity
  8
0
  6
PHANTOM
 62
     7
100
AcDbCircle
 10
-112.0629821327579
 20
-1403.473322968636
 30
0.0
 40
176.5462681829515
100
AcDbArc
 50
39.52236217677866
 51
51.70900421591579
  0
ARC
  5
28C
330
A
100
AcDbEntity
  8
0
  6
PHANTOM
 62
     7
100
AcDbCircle
 10
-17.70316029454721
 20
-1283.954453087737
 30
0.0
 40
24.26844236794291
100
AcDbArc
 50
51.70900421591603
 51
119.8839328227002
  0
ARC
  5
28D
330
A
100
AcDbEntity
  8
0
  6
PHANTOM
 62
     7
100
AcDbCircle
 10
-44.08997232418873
 20
-1238.03658805754
 30
0.0
 40
28.69110991508812
100
AcDbArc
 50
241.6634425776418
 51
299.8839328227011
  0
LINE
  5
28E
330
A
100
AcDbEntity
  8
0
  6
PHANTOM
 62
     7
100
AcDbLine
 10
-42.92130768067914
 20
-1155.391463858118
 30
0.0
 11
-40.04736642269479
 21
-1150.124542400031
 31
0.0
  0
LINE
  5
28F
330
A
100
AcDbEntity
  8
0
  6
PHANTOM
 62
     7
100
AcDbLine
 10
-17.46383071770471
 20
-1166.809959279822
 30
0.0
 11
-15.44164774929044
 21
-1161.160996893485
 31
0.0
  0
LINE
  5
290
330
A
100
AcDbEntity
  8
0
  6
PHANTOM
 62
     7
100
AcDbLine
 10
-52.03268900922633
 20
-1155.935027970501
 30
0.0
 11
-55.51244211071256
 21
-1151.047153345196
 31
0.0
  0
LINE
  5
291
330
A
100
AcDbEntity
  8
0
  6
PHANTOM
 62
     7
100
AcDbLine
 10
-56.17101171337207
 20
-1187.135436695125
 30
0.0
 11
-60.80465391922842
 21
-1190.947176443338
 31
0.0
  0
LINE
  5
292
330
A
100
AcDbEntity
  8
0
  6
PHANTOM
 62
     7
100
AcDbLine
 10
-57.12535752932746
 20
-1213.421551516364
 30
0.0
 11
-61.47038600162311
 21
-1209.283831422528
 31
0.0
  0
LINE
  5
293
330
A
100
AcDbEntity
  8
0
  6
PHANTOM
 62
     7
100
AcDbLine
 10
-26.80531342947285
 20
-1268.115046695476
 30
0.0
 11
-29.7947811525332
 21
-1262.912827675406
 31
0.0
  0
LINE
  5
294
330
A
100
AcDbEntity
  8
0
  6
PHANTOM
 62
     7
100
AcDbLine
 10
-6.383015960500642
 20
-1269.61603201681
 30
0.0
 11
-2.66508179642183
 21
-1264.906789450157
 31
0.0
  0
LINE
  5
295
330
A
100
AcDbEntity
  8
0
  6
PHANTOM
 62
     7
100
AcDbLine
 10
19.49236162987833
 20
-1294.941202752427
 30
0.0
 11
24.12061923402045
 21
-1291.122926760608
 31
0.0
  0
LINE
  5
296
330
A
100
AcDbEntity
  8
0
  6
PHANTOM
 62
     7
100
AcDbLine
 10
31.17512557303871
 20
-1302.267442917448
 30
0.0
 11
32.59675093052877
 21
-1296.438293636211
 31
0.0
  0
LINE
  5
297
330
A
100
AcDbEntity
  8
0
  6
PHANTOM
 62
     7
100
AcDbLine
 10
63.05058135899402
 20
-1300.97554308709
 30
0.0
 11
61.16188738733074
 21
-1295.280559761267
 31
0.0
  0
LINE
  5
298
330
A
100
AcDbEntity
  8
0
  6
PHANTOM
 62
     7
100
AcDbLine
 10
72.55067790473143
 20
-1289.92695567913
 30
0.0
 11
66.63696364117996
 21
-1288.913060413795
 31
0.0
  0
LINE
  5
299
330
A
100
AcDbEntity
  8
0
  6
Continuous
 62
     7
100
AcDbLine
 10
544.3667733810542
 20
987.0394047080973
 30
0.0
 11
544.3667733810542
 21
980.3544162264941
 31
0.0
  0
LINE
  5
29A
330
A
100
AcDbEntity
  8
0
  6
Continuous
 62
     7
100
AcDbLine
 10
726.3667733810542
 20
980.3544162264941
 30
0.0
 11
726.3667733810542
 21
987.0394047080973
 31
0.0
  0
ARC
  5
29B
330
A
100
AcDbEntity
  8
0
  6
Continuous
 62
     7
100
AcDbCircle
 10
635.3667733810541
 20
1214.277480501909
 30
0.0
 40
251.0000000000001
100
AcDbArc
 50
248.7431291678446
 51
257.9551385943345
  0
ARC
  5
29C
330
A
100
AcDbEntity
  8
0
  6
Continuous
 62
     7
100
AcDbCircle
 10
635.3667733810541
 20
1214.277480501909
 30
0.0
 40
251.0000000000002
100
AcDbArc
 50
258.418821185447
 51
275.6598395371107
  0
ARC
  5
29D
330
A
100
AcDbEntity
  8
0
  6
Continuous
 62
     7
100
AcDbCircle
 10
635.3667733810541
 20
1214.277480501909
 30
0.0
 40
251.0000000000002
100
AcDbArc
 50
276.1181364018035
 51
291.256870832157
  0
LINE
  5
29E
330
A
100
AcDbEntity
  8
0
  6
Continuous
 62
     7
100
AcDbLine
 10
569.3667733810542
 20
1014.039404708097
 30
0.0
 11
569.3667733810542
 21
987.0394047080973
 31
0.0
  0
LINE
  5
29F
330
A
100
AcDbEntity
  8
0
  6
Continuous
 62
     7
100
AcDbLine
 10
701.3667733810542
 20
987.0394047080973
 30
0.0
 11
701.3667733810542
 21
1014.039404708097
 31
0.0
  0
LINE
  5
2A0
330
A
100
AcDbEntity
  8
0
  6
Continuous
 62
     7
100
AcDbLine
 10
585.6873496825442
 20
-702.9605952919024
 30
0.0
 11
585.6873496825442
 21
-538.9605952919025
 31
0.0
  0
ARC
  5
2A1
330
A
100
AcDbEntity
  8
0
  6
Continuous
 62
     7
100
AcDbCircle
 10
579.6873496825441
 20
-538.9605952919025
 30
0.0
 40
6.0
100
AcDbArc
 50
0.0
 51
90.0
  0
LINE
  5
2A2
330
A
100
AcDbEntity
  8
0
  6
Continuous
 62
     7
100
AcDbLine
 10
592.6597640735597
 20
-702.9605952919024
 30
0.0
 11
592.6597640735597
 21
-538.9605952919025
 31
0.0
  0
ARC
  5
2A3
330
A
100
AcDbEntity
  8
0
  6
Continuous
 62
     7
100
AcDbCircle
 10
586.6597640735597
 20
-538.9605952919025
 30
0.0
 40
6.0
100
AcDbArc
 50
0.0
 51
90.0
  0
ARC
  5
2A4
330
A
100
AcDbEntity
  8
0
  6
Continuous
 62
     7
100
AcDbCircle
 10
452.0304888190903
 20
-538.9605952919025
 30
0.0
 40
6.000000000000109
100
AcDbArc
 50
90.0
 51
94.69391730124851
  0
ARC
  5
2A5
330
A
100
AcDbEntity
  8
0
  6
Continuous
 62
     7
100
AcDbCircle
 10
452.0304888190903
 20
-538.9605952919025
 30
0.0
 40
6.000000000000073
100
AcDbArc
 50
100.5547359632182
 51
180.0000000000004
  0
LINE
  5
2A6
330
A
100
AcDbEntity
  8
0
  6
Continuous
 62
     7
100
AcDbLine
 10
446.0304888190903
 20
-538.9605952919025
 30
0.0
 11
446.0304888190903
 21
-702.9605952919024
 31
0.0
  0
ARC
  5
2A7
330
A
100
AcDbEntity
  8
0
  6
Continuous
 62
     7
100
AcDbCircle
 10
765.1725805957003
 20
-538.9605952919025
 30
0.0
 40
6.0
100
AcDbArc
 50
0.0
 51
89.99999999999891
  0
LINE
  5
2A8
330
A
100
AcDbEntity
  8
0
  6
Continuous
 62
     7
100
AcDbLine
 10
771.1725805957002
 20
-702.9605952919024
 30
0.0
 11
771.1725805957002
 21
-538.9605952919025
 31
0.0
  0
ARC
  5
2A9
330
A
100
AcDbEntity
  8
0
  6
Continuous
 62
     7
100
AcDbCircle
 10
732.6138317410562
 20
-538.9605952919027
 30
0.0
 40
6.0
100
AcDbArc
 50
0.0
 51
90.0
  0
LINE
  5
2AA
330
A
100
AcDbEntity
  8
0
  6
Continuous
 62
     7
100
AcDbLine
 10
738.6138317410562
 20
-702.9605952919027
 30
0.0
 11
738.6138317410562
 21
-538.9605952919027
 31
0.0
  0
ARC
  5
2AB
330
A
100
AcDbEntity
  8
0
  6
Continuous
 62
     7
100
AcDbCircle
 10
620.2263418120155
 20
-538.9605952919027
 30
0.0
 40
6.0
100
AcDbArc
 50
90.0
 51
180.0000000000004
  0
LINE
  5
2AC
330
A
100
AcDbEntity
  8
0
  6
Continuous
 62
     7
100
AcDbLine
 10
614.2263418120156
 20
-538.9605952919027
 30
0.0
 11
614.2263418120156
 21
-702.9605952919027
 31
0.0
  0
ARC
  5
2AD
330
A
100
AcDbEntity
  8
0
  6
Continuous
 62
     7
100
AcDbCircle
 10
599.9976471473107
 20
-538.9605952919027
 30
0.0
 40
6.0
100
AcDbArc
 50
90.0
 51
180.0000000000004
  0
LINE
  5
2AE
330
A
100
AcDbEntity
  8
0
  6
Continuous
 62
     7
100
AcDbLine
 10
593.9976471473108
 20
-538.9605952919027
 30
0.0
 11
593.9976471473108
 21
-702.9605952919027
 31
0.0
  0
ARC
  5
2AF
330
A
100
AcDbEntity
  8
0
  6
Continuous
 62
     7
100
AcDbCircle
 10
763.7987184351869
 20
-538.9605952919027
 30
0.0
 40
6.0
100
AcDbArc
 50
0.0
 51
90.0
  0
LINE
  5
2B0
330
A
100
AcDbEntity
  8
0
  6
Continuous
 62
     7
100
AcDbLine
 10
769.798718435187
 20
-702.9605952919027
 30
0.0
 11
769.798718435187
 21
-538.9605952919027
 31
0.0
  0
LINE
  5
2B1
330
A
100
AcDbEntity
  8
0
  6
Continuous
 62
     7
100
AcDbLine
 10
584.367236761445
 20
1014.069843927213
 30
0.0
 11
584.3663097858423
 21
1014.039404708097
 31
0.0
  0
LINE
  5
2B2
330
A
100
AcDbEntity
  8
0
  6
Continuous
 62
     7
100
AcDbLine
 10
582.988721817341
 20
968.8033683955834
 30
0.0
 11
537.5899939963687
 21
-521.9605952919026
 31
0.0
  0
LINE
  5
2B3
330
A
100
AcDbEntity
  8
0
  6
Continuous
 62
     7
100
AcDbLine
 10
539.5909211867923
 20
-521.9605952919026
 30
0.0
 11
584.9769852510915
 21
968.3875269612705
 31
0.0
  0
LINE
  5
2B4
330
A
100
AcDbEntity
  8
0
  6
Continuous
 62
     7
100
AcDbLine
 10
660.060201633113
 20
968.4914033877875
 30
0.0
 11
682.7548153568411
 21
-521.9605952919026
 31
0.0
  0
LINE
  5
2B5
330
A
100
AcDbEntity
  8
0
  6
Continuous
 62
     7
100
AcDbLine
 10
684.75504719474
 20
-521.9605952919026
 30
0.0
 11
662.0572664317725
 21
968.6993963513005
 31
0.0
  0
LINE
  5
2B6
330
A
100
AcDbEntity
  8
0
  6
Continuous
 62
     7
100
AcDbLine
 10
661.3668893000034
 20
1014.039404708097
 30
0.0
 11
661.3666574755402
 21
1014.054629608539
 31
0.0
  0
LINE
  5
2B7
330
A
100
AcDbEntity
  8
0
  6
Continuous
 62
     7
100
AcDbLine
 10
712.8667733810544
 20
-531.9605952919026
 30
0.0
 11
712.8667733810544
 21
-521.9605952919026
 31
0.0
  0
LINE
  5
2B8
330
A
100
AcDbEntity
  8
0
  6
Continuous
 62
     7
100
AcDbLine
 10
652.8667733810545
 20
-521.9605952919026
 30
0.0
 11
652.8667733810545
 21
-531.9605952919026
 31
0.0
  0
LINE
  5
2B9
330
A
100
AcDbEntity
  8
0
  6
Continuous
 62
     7
100
AcDbLine
 10
666.8667733810544
 20
-531.9605952919026
 30
0.0
 11
666.8667733810544
 21
-532.9605952919028
 31
0.0
  0
LINE
  5
2BA
330
A
100
AcDbEntity
  8
0
  6
Continuous
 62
     7
100
AcDbLine
 10
698.8667733810545
 20
-532.9605952919028
 30
0.0
 11
698.8667733810545
 21
-531.9605952919026
 31
0.0
  0
LINE
  5
2BB
330
A
100
AcDbEntity
  8
0
  6
Continuous
 62
     7
100
AcDbLine
 10
705.3667733810542
 20
-521.9605952919026
 30
0.0
 11
705.3667733810542
 21
-511.9605952919026
 31
0.0
  0
LINE
  5
2BC
330
A
100
AcDbEntity
  8
0
  6
Continuous
 62
     7
100
AcDbLine
 10
565.3667733810542
 20
-511.9605952919026
 30
0.0
 11
565.3667733810542
 21
-521.9605952919026
 31
0.0
  0
LINE
  5
2BD
330
A
100
AcDbEntity
  8
0
  6
Continuous
 62
     7
100
AcDbLine
 10
510.3667733810541
 20
-521.9605952919026
 30
0.0
 11
510.3667733810541
 21
-531.9605952919026
 31
0.0
  0
LINE
  5
2BE
330
A
100
AcDbEntity
  8
0
  6
Continuous
 62
     7
100
AcDbLine
 10
524.3667733810541
 20
-531.9605952919026
 30
0.0
 11
524.3667733810541
 21
-532.9605952919025
 31
0.0
  0
LINE
  5
2BF
330
A
100
AcDbEntity
  8
0
  6
Continuous
 62
     7
100
AcDbLine
 10
556.3667733810542
 20
-532.9605952919025
 30
0.0
 11
556.3667733810542
 21
-531.9605952919026
 31
0.0
  0
LINE
  5
2C0
330
A
100
AcDbEntity
  8
0
  6
Continuous
 62
     7
100
AcDbLine
 10
544.3667733810542
 20
980.3544162264941
 30
0.0
 11
726.3667733810542
 21
980.3544162264941
 31
0.0
  0
LINE
  5
2C1
330
A
100
AcDbEntity
  8
0
  6
Continuous
 62
     7
100
AcDbLine
 10
544.3667733810542
 20
987.0394047080973
 30
0.0
 11
726.3667733810542
 21
987.0394047080973
 31
0.0
  0
LINE
  5
2C2
330
A
100
AcDbEntity
  8
0
  6
Continuous
 62
     7
100
AcDbLine
 10
569.3667733810542
 20
1014.039404708097
 30
0.0
 11
701.3667733810542
 21
1014.039404708097
 31
0.0
  0
LINE
  5
2C3
330
A
100
AcDbEntity
  8
0
  6
Continuous
 62
     7
100
AcDbLine
 10
536.7600176177522
 20
-532.9605952919025
 30
0.0
 11
544.9646647015121
 21
-532.9605952919025
 31
0.0
  0
LINE
  5
2C4
330
A
100
AcDbEntity
  8
0
  6
Continuous
 62
     7
100
AcDbLine
 10
534.8410691690542
 20
-702.9605952919024
 30
0.0
 11
549.0773895060763
 21
-702.9605952919024
 31
0.0
  0
LINE
  5
2C5
330
A
100
AcDbEntity
  8
0
  6
Continuous
 62
     7
100
AcDbLine
 10
549.0773895060763
 20
-702.9605952919024
 30
0.0
 11
576.9709648459205
 21
-702.9605952919024
 31
0.0
  0
LINE
  5
2C6
330
A
100
AcDbEntity
  8
0
  6
Continuous
 62
     7
100
AcDbLine
 10
544.9646647015121
 20
-532.9605952919025
 30
0.0
 11
575.214685798319
 21
-532.9605952919025
 31
0.0
  0
LINE
  5
2C7
330
A
100
AcDbEntity
  8
0
  6
Continuous
 62
     7
100
AcDbLine
 10
508.6067135531306
 20
-702.9605952919024
 30
0.0
 11
534.8410691690542
 21
-702.9605952919024
 31
0.0
  0
LINE
  5
2C8
330
A
100
AcDbEntity
  8
0
  6
Continuous
 62
     7
100
AcDbLine
 10
513.2501436552501
 20
-532.9605952919025
 30
0.0
 11
536.7600176177522
 21
-532.9605952919025
 31
0.0
  0
LINE
  5
2C9
330
A
100
AcDbEntity
  8
0
  6
Continuous
 62
     7
100
AcDbLine
 10
509.679671533884
 20
-532.9605952919025
 30
0.0
 11
513.2501436552501
 21
-532.9605952919025
 31
0.0
  0
LINE
  5
2CA
330
A
100
AcDbEntity
  8
0
  6
Continuous
 62
     7
100
AcDbLine
 10
576.9709648459205
 20
-702.9605952919024
 30
0.0
 11
585.6873496825442
 21
-702.9605952919024
 31
0.0
  0
LINE
  5
2CB
330
A
100
AcDbEntity
  8
0
  6
Continuous
 62
     7
100
AcDbLine
 10
575.214685798319
 20
-532.9605952919025
 30
0.0
 11
579.6873496825441
 21
-532.9605952919025
 31
0.0
  0
LINE
  5
2CC
330
A
100
AcDbEntity
  8
0
  6
Continuous
 62
     7
100
AcDbLine
 10
503.6854848071524
 20
-702.9605952919024
 30
0.0
 11
508.6067135531306
 21
-702.9605952919024
 31
0.0
  0
LINE
  5
2CD
330
A
100
AcDbEntity
  8
0
  6
Continuous
 62
     7
100
AcDbLine
 10
504.0649248119083
 20
-532.9605952919025
 30
0.0
 11
509.679671533884
 21
-532.9605952919025
 31
0.0
  0
LINE
  5
2CE
330
A
100
AcDbEntity
  8
0
  6
Continuous
 62
     7
100
AcDbLine
 10
578.9475148501342
 20
-532.9605952919025
 30
0.0
 11
585.8264783301291
 21
-532.9605952919025
 31
0.0
  0
LINE
  5
2CF
330
A
100
AcDbEntity
  8
0
  6
Continuous
 62
     7
100
AcDbLine
 10
498.2615576401782
 20
-702.9605952919024
 30
0.0
 11
503.6854848071524
 21
-702.9605952919024
 31
0.0
  0
LINE
  5
2D0
330
A
100
AcDbEntity
  8
0
  6
Continuous
 62
     7
100
AcDbLine
 10
585.6873496825442
 20
-702.9605952919024
 30
0.0
 11
590.0028705890104
 21
-702.9605952919024
 31
0.0
  0
LINE
  5
2D1
330
A
100
AcDbEntity
  8
0
  6
Continuous
 62
     7
100
AcDbLine
 10
590.0028705890104
 20
-702.9605952919024
 30
0.0
 11
592.6597640735597
 21
-702.9605952919024
 31
0.0
  0
LINE
  5
2D2
330
A
100
AcDbEntity
  8
0
  6
Continuous
 62
     7
100
AcDbLine
 10
585.8264783301291
 20
-532.9605952919025
 30
0.0
 11
586.6597640735597
 21
-532.9605952919025
 31
0.0
  0
LINE
  5
2D3
330
A
100
AcDbEntity
  8
0
  6
Continuous
 62
     7
100
AcDbLine
 10
583.0935212342165
 20
-532.9605952919025
 30
0.0
 11
583.3416682983994
 21
-532.9605952919025
 31
0.0
  0
LINE
  5
2D4
330
A
100
AcDbEntity
  8
0
  6
Continuous
 62
     7
100
AcDbLine
 10
483.5981796808471
 20
-532.9605952919025
 30
0.0
 11
504.0649248119083
 21
-532.9605952919025
 31
0.0
  0
LINE
  5
2D5
330
A
100
AcDbEntity
  8
0
  6
Continuous
 62
     7
100
AcDbLine
 10
482.8549012006178
 20
-702.9605952919024
 30
0.0
 11
498.2615576401782
 21
-702.9605952919024
 31
0.0
  0
LINE
  5
2D6
330
A
100
AcDbEntity
  8
0
  6
Continuous
 62
     7
100
AcDbLine
 10
583.3416682983994
 20
-532.9605952919025
 30
0.0
 11
595.7151639841231
 21
-532.9605952919025
 31
0.0
  0
LINE
  5
2D7
330
A
100
AcDbEntity
  8
0
  6
Continuous
 62
     7
100
AcDbLine
 10
455.6260271716555
 20
-702.9605952919024
 30
0.0
 11
482.8549012006178
 21
-702.9605952919024
 31
0.0
  0
LINE
  5
2D8
330
A
100
AcDbEntity
  8
0
  6
Continuous
 62
     7
100
AcDbLine
 10
461.0786748410995
 20
-532.9605952919025
 30
0.0
 11
483.5981796808471
 21
-532.9605952919025
 31
0.0
  0
LINE
  5
2D9
330
A
100
AcDbEntity
  8
0
  6
Continuous
 62
     7
100
AcDbLine
 10
592.6597640735597
 20
-702.9605952919024
 30
0.0
 11
593.9976471473108
 21
-702.9605952919024
 31
0.0
  0
LINE
  5
2DA
330
A
100
AcDbEntity
  8
0
  6
Continuous
 62
     7
100
AcDbLine
 10
595.7151639841231
 20
-532.9605952919025
 30
0.0
 11
599.9976471473107
 21
-532.9605952919025
 31
0.0
  0
LWPOLYLINE
  5
2DB
330
A
100
AcDbEntity
  8
0
  6
Continuous
 62
     7
100
AcDbPolyline
 90
        7
 70
   128
 43
0.0
 10
452.4097161461186
 20
-532.9605952919025
 10
452.3693411417539
 20
-532.9607390474446
 10
451.1195863983091
 20
-533.10908497656
 10
449.308599230632
 20
-533.8770589161283
 10
447.8463151499753
 20
-535.216307391952
 10
446.896996750406
 20
-536.9766072092135
 10
446.5680326342051
 20
-538.9605952919025
  0
LINE
  5
2E4
330
A
100
AcDbEntity
  8
0
  6
Continuous
 62
     7
100
AcDbLine
 10
452.4097161461186
 20
-532.9605952919025
 30
0.0
 11
461.0786748410995
 21
-532.9605952919025
 31
0.0
  0
LINE
  5
2E5
330
A
100
AcDbEntity
  8
0
  6
Continuous
 62
     7
100
AcDbLine
 10
446.5680326342051
 20
-538.9605952919025
 30
0.0
 11
446.5680326342051
 21
-702.9605952919024
 31
0.0
  0
LINE
  5
2E6
330
A
100
AcDbEntity
  8
0
  6
Continuous
 62
     7
100
AcDbLine
 10
446.5680326342051
 20
-702.9605952919024
 30
0.0
 11
455.6260271716555
 21
-702.9605952919024
 31
0.0
  0
LINE
  5
2E7
330
A
100
AcDbEntity
  8
0
  6
Continuous
 62
     7
100
AcDbLine
 10
452.0304888190903
 20
-532.9605952919025
 30
0.0
 11
452.4097161461186
 21
-532.9605952919025
 31
0.0
  0
LINE
  5
2E8
330
A
100
AcDbEntity
  8
0
  6
Continuous
 62
     7
100
AcDbLine
 10
446.0304888190903
 20
-702.9605952919024
 30
0.0
 11
446.5680326342051
 21
-702.9605952919024
 31
0.0
  0
LINE
  5
2E9
330
A
100
AcDbEntity
  8
0
  6
Continuous
 62
     7
100
AcDbLine
 10
508.1371576409658
 20
-532.9605952919025
 30
0.0
 11
508.1551674942277
 21
-532.9605952919025
 31
0.0
  0
LINE
  5
2EA
330
A
100
AcDbEntity
  8
0
  6
Continuous
 62
     7
100
AcDbLine
 10
508.1176240686509
 20
-532.9605952919025
 30
0.0
 11
508.1371576409658
 21
-532.9605952919025
 31
0.0
  0
LINE
  5
2EB
330
A
100
AcDbEntity
  8
0
  6
Continuous
 62
     7
100
AcDbLine
 10
763.7987184351869
 20
-532.9605952919025
 30
0.0
 11
765.1725805957003
 21
-532.9605952919025
 31
0.0
  0
LINE
  5
2EC
330
A
100
AcDbEntity
  8
0
  6
Continuous
 62
     7
100
AcDbLine
 10
769.798718435187
 20
-702.9605952919024
 30
0.0
 11
771.1725805957002
 21
-702.9605952919024
 31
0.0
  0
LWPOLYLINE
  5
2ED
330
A
100
AcDbEntity
  8
0
  6
Continuous
 62
     7
100
AcDbPolyline
 90
        7
 70
   128
 43
0.0
 10
712.3100920331925
 20
-532.9605952919028
 10
712.3425045686436
 20
-532.9607390474449
 10
713.3430656832602
 20
-533.1090849765603
 10
714.7852316822987
 20
-533.8770589161286
 10
715.9445619960774
 20
-535.2163073919522
 10
716.6952165616898
 20
-536.9766072092137
 10
716.9550172273367
 20
-538.9605952919027
  0
LINE
  5
2F6
330
A
100
AcDbEntity
  8
0
  6
Continuous
 62
     7
100
AcDbLine
 10
699.6939406332672
 20
-532.9605952919028
 30
0.0
 11
712.3100920331925
 21
-532.9605952919028
 31
0.0
  0
LINE
  5
2F7
330
A
100
AcDbEntity
  8
0
  6
Continuous
 62
     7
100
AcDbLine
 10
716.9550172273367
 20
-538.9605952919027
 30
0.0
 11
716.9550172273367
 21
-702.9605952919027
 31
0.0
  0
LINE
  5
2F8
330
A
100
AcDbEntity
  8
0
  6
Continuous
 62
     7
100
AcDbLine
 10
694.727926710308
 20
-702.9605952919027
 30
0.0
 11
716.9550172273367
 21
-702.9605952919027
 31
0.0
  0
LINE
  5
2F9
330
A
100
AcDbEntity
  8
0
  6
Continuous
 62
     7
100
AcDbLine
 10
679.3076852847929
 20
-532.9605952919028
 30
0.0
 11
699.6939406332672
 21
-532.9605952919028
 31
0.0
  0
LINE
  5
2FA
330
A
100
AcDbEntity
  8
0
  6
Continuous
 62
     7
100
AcDbLine
 10
675.1699651909565
 20
-702.9605952919027
 30
0.0
 11
694.727926710308
 21
-702.9605952919027
 31
0.0
  0
LINE
  5
2FB
330
A
100
AcDbEntity
  8
0
  6
Continuous
 62
     7
100
AcDbLine
 10
712.3100920331925
 20
-532.9605952919028
 30
0.0
 11
729.1759104165793
 21
-532.9605952919028
 31
0.0
  0
LINE
  5
2FC
330
A
100
AcDbEntity
  8
0
  6
Continuous
 62
     7
100
AcDbLine
 10
716.9550172273367
 20
-702.9605952919027
 30
0.0
 11
734.4569585179629
 21
-702.9605952919027
 31
0.0
  0
LINE
  5
2FD
330
A
100
AcDbEntity
  8
0
  6
Continuous
 62
     7
100
AcDbLine
 10
621.821161738929
 20
-532.9605952919028
 30
0.0
 11
653.0215704635537
 21
-532.9605952919028
 31
0.0
  0
LINE
  5
2FE
330
A
100
AcDbEntity
  8
0
  6
Continuous
 62
     7
100
AcDbLine
 10
616.9332871136248
 20
-702.9605952919027
 30
0.0
 11
656.8333102117663
 21
-702.9605952919027
 31
0.0
  0
LINE
  5
2FF
330
A
100
AcDbEntity
  8
0
  6
Continuous
 62
     7
100
AcDbLine
 10
653.0215704635537
 20
-532.9605952919028
 30
0.0
 11
679.3076852847929
 21
-532.9605952919028
 31
0.0
  0
LINE
  5
300
330
A
100
AcDbEntity
  8
0
  6
Continuous
 62
     7
100
AcDbLine
 10
656.8333102117663
 20
-702.9605952919027
 30
0.0
 11
675.1699651909565
 21
-702.9605952919027
 31
0.0
  0
LINE
  5
301
330
A
100
AcDbEntity
  8
0
  6
Continuous
 62
     7
100
AcDbLine
 10
729.1759104165793
 20
-532.9605952919028
 30
0.0
 11
732.6138317410562
 21
-532.9605952919028
 31
0.0
  0
LINE
  5
302
330
A
100
AcDbEntity
  8
0
  6
Continuous
 62
     7
100
AcDbLine
 10
734.4569585179629
 20
-702.9605952919027
 30
0.0
 11
738.6138317410562
 21
-702.9605952919027
 31
0.0
  0
LINE
  5
303
330
A
100
AcDbEntity
  8
0
  6
Continuous
 62
     7
100
AcDbLine
 10
620.2263418120155
 20
-532.9605952919028
 30
0.0
 11
621.821161738929
 21
-532.9605952919028
 31
0.0
  0
LINE
  5
304
330
A
100
AcDbEntity
  8
0
  6
Continuous
 62
     7
100
AcDbLine
 10
614.2263418120156
 20
-702.9605952919027
 30
0.0
 11
616.9332871136248
 21
-702.9605952919027
 31
0.0
  0
LINE
  5
305
330
A
100
AcDbEntity
  8
0
  6
Continuous
 62
     7
100
AcDbLine
 10
725.572144488223
 20
-532.9605952919028
 30
0.0
 11
730.7929232185858
 21
-532.9605952919028
 31
0.0
  0
LINE
  5
306
330
A
100
AcDbEntity
  8
0
  6
Continuous
 62
     7
100
AcDbLine
 10
620.6516420617624
 20
-532.9605952919028
 30
0.0
 11
633.7565607288011
 21
-532.9605952919028
 31
0.0
  0
LINE
  5
307
330
A
100
AcDbEntity
  8
0
  6
Continuous
 62
     7
100
AcDbLine
 10
730.7929232185858
 20
-532.9605952919028
 30
0.0
 11
757.0090605290361
 21
-532.9605952919028
 31
0.0
  0
LINE
  5
308
330
A
100
AcDbEntity
  8
0
  6
Continuous
 62
     7
100
AcDbLine
 10
738.6138317410562
 20
-702.9605952919027
 30
0.0
 11
760.8273365208548
 21
-702.9605952919027
 31
0.0
  0
LINE
  5
309
330
A
100
AcDbEntity
  8
0
  6
Continuous
 62
     7
100
AcDbLine
 10
600.3494595323006
 20
-532.9605952919028
 30
0.0
 11
620.6516420617624
 21
-532.9605952919028
 31
0.0
  0
LINE
  5
30A
330
A
100
AcDbEntity
  8
0
  6
Continuous
 62
     7
100
AcDbLine
 10
595.0083736009141
 20
-702.9605952919027
 30
0.0
 11
614.2263418120156
 21
-702.9605952919027
 31
0.0
  0
LINE
  5
30B
330
A
100
AcDbEntity
  8
0
  6
Continuous
 62
     7
100
AcDbLine
 10
757.0090605290361
 20
-532.9605952919028
 30
0.0
 11
762.3244274046392
 21
-532.9605952919028
 31
0.0
  0
LINE
  5
30C
330
A
100
AcDbEntity
  8
0
  6
Continuous
 62
     7
100
AcDbLine
 10
760.8273365208548
 20
-702.9605952919027
 30
0.0
 11
768.1535766858758
 21
-702.9605952919027
 31
0.0
  0
LINE
  5
30D
330
A
100
AcDbEntity
  8
0
  6
Continuous
 62
     7
100
AcDbLine
 10
599.9976471473107
 20
-532.9605952919028
 30
0.0
 11
600.3494595323006
 21
-532.9605952919028
 31
0.0
  0
LINE
  5
30E
330
A
100
AcDbEntity
  8
0
  6
Continuous
 62
     7
100
AcDbLine
 10
593.9976471473108
 20
-702.9605952919027
 30
0.0
 11
595.0083736009141
 21
-702.9605952919027
 31
0.0
  0
LINE
  5
30F
330
A
100
AcDbEntity
  8
0
  6
Continuous
 62
     7
100
AcDbLine
 10
762.3244274046392
 20
-532.9605952919028
 30
0.0
 11
763.7987184351869
 21
-532.9605952919028
 31
0.0
  0
LINE
  5
310
330
A
100
AcDbEntity
  8
0
  6
Continuous
 62
     7
100
AcDbLine
 10
768.1535766858758
 20
-702.9605952919027
 30
0.0
 11
769.798718435187
 21
-702.9605952919027
 31
0.0
  0
LINE
  5
311
330
A
100
AcDbEntity
  8
0
  6
Continuous
 62
     7
100
AcDbLine
 10
601.0565803250877
 20
-532.9605952919028
 30
0.0
 11
605.6825065436904
 21
-532.9605952919028
 31
0.0
  0
LINE
  5
312
330
A
100
AcDbEntity
  8
0
  6
Continuous
 62
     7
100
AcDbLine
 10
600.7086473421248
 20
-532.9605952919028
 30
0.0
 11
601.0565803250877
 21
-532.9605952919028
 31
0.0
  0
LINE
  5
313
330
A
100
AcDbEntity
  8
0
  6
Continuous
 62
     7
100
AcDbLine
 10
585.3667733810545
 20
1014.039404708097
 30
0.0
 11
584.367236761445
 21
1014.069843927213
 31
0.0
  0
LWPOLYLINE
  5
314
330
A
100
AcDbEntity
  8
0
  6
Continuous
 62
     7
100
AcDbPolyline
 90
        8
 70
   128
 43
0.0
 10
661.3666574755402
 20
1014.054629608539
 10
661.2905459052504
 20
1014.06355004526
 10
661.0737982616221
 20
1014.06880515443
 10
660.7494124891237
 20
1014.069584312163
 10
660.366773381054
 20
1014.065768898754
 10
659.9841342729842
 20
1014.05793977631
 10
659.6597485004857
 20
1014.047288857752
 10
659.5007479772694
 20
1014.039404708097
  0
LINE
  5
31E
330
A
100
AcDbEntity
  8
0
  6
Continuous
 62
     7
100
AcDbLine
 10
712.8667733810544
 20
-521.9605952919026
 30
0.0
 11
652.8667733810545
 21
-521.9605952919026
 31
0.0
  0
LINE
  5
31F
330
A
100
AcDbEntity
  8
0
  6
Continuous
 62
     7
100
AcDbLine
 10
652.8667733810545
 20
-531.9605952919026
 30
0.0
 11
712.8667733810544
 21
-531.9605952919026
 31
0.0
  0
LINE
  5
320
330
A
100
AcDbEntity
  8
0
  6
Continuous
 62
     7
100
AcDbLine
 10
566.8141418021068
 20
-521.9605952919026
 30
0.0
 11
566.8141418021068
 21
-531.9605952919026
 31
0.0
  0
LINE
  5
321
330
A
100
AcDbEntity
  8
0
  6
Continuous
 62
     7
100
AcDbLine
 10
565.3667733810542
 20
-511.9605952919026
 30
0.0
 11
682.6025487038811
 21
-511.9605952919026
 31
0.0
  0
LINE
  5
322
330
A
100
AcDbEntity
  8
0
  6
Continuous
 62
     7
100
AcDbLine
 10
684.60278054178
 20
-511.9605952919026
 30
0.0
 11
705.3667733810542
 21
-511.9605952919026
 31
0.0
  0
LINE
  5
323
330
A
100
AcDbEntity
  8
0
  6
Continuous
 62
     7
100
AcDbLine
 10
566.8141418021068
 20
-531.9605952919026
 30
0.0
 11
652.8667733810545
 21
-531.9605952919026
 31
0.0
  0
LINE
  5
324
330
A
100
AcDbEntity
  8
0
  6
Continuous
 62
     7
100
AcDbLine
 10
566.8141418021068
 20
-521.9605952919026
 30
0.0
 11
510.3667733810541
 21
-521.9605952919026
 31
0.0
  0
LINE
  5
325
330
A
100
AcDbEntity
  8
0
  6
Continuous
 62
     7
100
AcDbLine
 10
510.3667733810541
 20
-531.9605952919026
 30
0.0
 11
566.8141418021068
 21
-531.9605952919026
 31
0.0
  0
LINE
  5
326
330
A
100
AcDbEntity
  8
0
  6
PHANTOM
 62
     7
100
AcDbLine
 10
549.0773895060764
 20
-538.9605952919025
 30
0.0
 11
534.8410691690542
 21
-538.9605952919025
 31
0.0
  0
LWPOLYLINE
  5
327
330
A
100
AcDbEntity
  8
0
  6
PHANTOM
 62
     7
100
AcDbPolyline
 90
        9
 70
   128
 43
0.0
 10
534.8410691690542
 20
-538.9605952919025
 10
534.8779412254165
 20
-537.7900533598059
 10
534.9871404220557
 20
-536.6644946977118
 10
535.1644702950846
 20
-535.627173893785
 10
535.4031161569304
 20
-534.7179546047833
 10
535.6939069809564
 20
-533.9717776180874
 10
536.0256678388727
 20
-533.4173180968349
 10
536.3856493469633
 20
-533.0758836094832
 10
536.7600176177522
 20
-532.9605952919025
  0
LWPOLYLINE
  5
332
330
A
100
AcDbEntity
  8
0
  6
PHANTOM
 62
     7
100
AcDbPolyline
 90
        9
 70
   128
 43
0.0
 10
549.0773895060764
 20
-538.9605952919025
 10
548.9983646521779
 20
-537.7900533598057
 10
548.7643269713005
 20
-536.6644946977118
 10
548.3842704002702
 20
-535.627173893785
 10
547.8728002999736
 20
-534.7179546047833
 10
547.2495721795294
 20
-533.9717776180872
 10
546.5385363460958
 20
-533.4173180968349
 10
545.7670175079982
 20
-533.0758836094831
 10
544.9646647015121
 20
-532.9605952919025
  0
LINE
  5
33D
330
A
100
AcDbEntity
  8
0
  6
PHANTOM
 62
     7
100
AcDbLine
 10
534.8410691690542
 20
-538.9605952919025
 30
0.0
 11
534.8410691690542
 21
-702.9605952919024
 31
0.0
  0
LINE
  5
33E
330
A
100
AcDbEntity
  8
0
  6
PHANTOM
 62
     7
100
AcDbLine
 10
549.0773895060764
 20
-538.9605952919025
 30
0.0
 11
549.0773895060763
 21
-702.9605952919024
 31
0.0
  0
LINE
  5
33F
330
A
100
AcDbEntity
  8
0
  6
PHANTOM
 62
     7
100
AcDbLine
 10
576.9709648459205
 20
-538.9605952919025
 30
0.0
 11
549.0773895060764
 21
-538.9605952919025
 31
0.0
  0
LINE
  5
340
330
A
100
AcDbEntity
  8
0
  6
PHANTOM
 62
     7
100
AcDbLine
 10
576.9709648459205
 20
-538.9605952919025
 30
0.0
 11
576.9709648459205
 21
-702.9605952919024
 31
0.0
  0
LWPOLYLINE
  5
341
330
A
100
AcDbEntity
  8
0
  6
PHANTOM
 62
     7
100
AcDbPolyline
 90
        9
 70
   128
 43
0.0
 10
576.9709648459205
 20
-538.9605952919025
 10
576.9372184364872
 20
-537.7900533598057
 10
576.8372760637766
 20
-536.6644946977118
 10
576.6749784571234
 20
-535.627173893785
 10
576.456562622534
 20
-534.7179546047833
 10
576.1904221580424
 20
-533.9717776180872
 10
575.886784692446
 20
-533.4173180968349
 10
575.5573188432658
 20
-533.0758836094831
 10
575.214685798319
 20
-532.9605952919025
  0
LINE
  5
34C
330
A
100
AcDbEntity
  8
0
  6
PHANTOM
 62
     7
100
AcDbLine
 10
508.6067135531306
 20
-538.9605952919025
 30
0.0
 11
508.6067135531306
 21
-702.9605952919024
 31
0.0
  0
LINE
  5
34D
330
A
100
AcDbEntity
  8
0
  6
PHANTOM
 62
     7
100
AcDbLine
 10
534.8410691690542
 20
-538.9605952919025
 30
0.0
 11
508.6067135531306
 21
-538.9605952919025
 31
0.0
  0
LWPOLYLINE
  5
34E
330
A
100
AcDbEntity
  8
0
  6
PHANTOM
 62
     7
100
AcDbPolyline
 90
        9
 70
   128
 43
0.0
 10
508.6067135531306
 20
-538.9605952919025
 10
508.6959357605101
 20
-537.7900533598057
 10
508.9601736232551
 20
-536.6644946977118
 10
509.3892726284868
 20
-535.627173893785
 10
509.9667427420757
 20
-534.7179546047833
 10
510.6703921114053
 20
-533.9717776180872
 10
511.4731798858236
 20
-533.4173180968349
 10
512.3442553813681
 20
-533.0758836094831
 10
513.2501436552501
 20
-532.9605952919025
  0
LINE
  5
359
330
A
100
AcDbEntity
  8
0
  6
PHANTOM
 62
     7
100
AcDbLine
 10
508.6067135531306
 20
-538.9605952919025
 30
0.0
 11
503.6854848071524
 21
-538.9605952919025
 31
0.0
  0
LWPOLYLINE
  5
35A
330
A
100
AcDbEntity
  8
0
  6
PHANTOM
 62
     7
100
AcDbPolyline
 90
        9
 70
   128
 43
0.0
 10
503.6854848071524
 20
-538.9605952919025
 10
503.8006614243171
 20
-537.7900533598057
 10
504.1417651030058
 20
-536.6644946977118
 10
504.6956874201393
 20
-535.627173893785
 10
505.4411414517137
 20
-534.7179546047833
 10
506.3494798173507
 20
-533.9717776180872
 10
507.385795583061
 20
-533.4173180968349
 10
508.510263715141
 20
-533.0758836094832
 10
509.679671533884
 20
-532.9605952919025
  0
LINE
  5
365
330
A
100
AcDbEntity
  8
0
  6
PHANTOM
 62
     7
100
AcDbLine
 10
585.6873496825442
 20
-538.9605952919025
 30
0.0
 11
576.9709648459205
 21
-538.9605952919025
 31
0.0
  0
LINE
  5
366
330
A
100
AcDbEntity
  8
0
  6
PHANTOM
 62
     7
100
AcDbLine
 10
503.6854848071524
 20
-538.9605952919025
 30
0.0
 11
503.6854848071524
 21
-702.9605952919024
 31
0.0
  0
LINE
  5
367
330
A
100
AcDbEntity
  8
0
  6
PHANTOM
 62
     7
100
AcDbLine
 10
503.6854848071524
 20
-538.9605952919025
 30
0.0
 11
498.2615576401782
 21
-538.9605952919025
 31
0.0
  0
LWPOLYLINE
  5
368
330
A
100
AcDbEntity
  8
0
  6
PHANTOM
 62
     7
100
AcDbPolyline
 90
        9
 70
   128
 43
0.0
 10
498.2615576401782
 20
-538.9605952919025
 10
498.3730677131
 20
-537.7900533598057
 10
498.7033126622988
 20
-536.6644946977118
 10
499.2396013595804
 20
-535.627173893785
 10
499.9613245310625
 20
-534.7179546047833
 10
500.8407467600118
 20
-533.9717776180872
 10
501.8440723433557
 20
-533.4173180968349
 10
502.9327440415976
 20
-533.0758836094831
 10
504.0649248119083
 20
-532.9605952919025
  0
LINE
  5
373
330
A
100
AcDbEntity
  8
0
  6
PHANTOM
 62
     7
100
AcDbLine
 10
590.0028705890104
 20
-538.9605952919025
 30
0.0
 11
585.6873496825442
 21
-538.9605952919025
 31
0.0
  0
LWPOLYLINE
  5
374
330
A
100
AcDbEntity
  8
0
  6
PHANTOM
 62
     7
100
AcDbPolyline
 90
        9
 70
   128
 43
0.0
 10
590.0028705890104
 20
-538.9605952919025
 10
589.9226223828299
 20
-537.7900533598057
 10
589.6849616578481
 20
-536.6644946977118
 10
589.2990215824445
 20
-535.627173893785
 10
588.779633617279
 20
-534.7179546047833
 10
588.146757550577
 20
-533.9717776180872
 10
587.4247144546608
 20
-533.4173180968349
 10
586.6412520407799
 20
-533.0758836094831
 10
585.8264783301291
 20
-532.9605952919025
  0
LINE
  5
37F
330
A
100
AcDbEntity
  8
0
  6
PHANTOM
 62
     7
100
AcDbLine
 10
498.2615576401782
 20
-538.9605952919025
 30
0.0
 11
498.2615576401782
 21
-702.9605952919024
 31
0.0
  0
LINE
  5
380
330
A
100
AcDbEntity
  8
0
  6
PHANTOM
 62
     7
100
AcDbLine
 10
590.0028705890104
 20
-538.9605952919025
 30
0.0
 11
590.0028705890104
 21
-702.9605952919024
 31
0.0
  0
LINE
  5
381
330
A
100
AcDbEntity
  8
0
  6
PHANTOM
 62
     7
100
AcDbLine
 10
592.6597640735597
 20
-538.9605952919025
 30
0.0
 11
590.0028705890104
 21
-538.9605952919025
 31
0.0
  0
LINE
  5
382
330
A
100
AcDbEntity
  8
0
  6
PHANTOM
 62
     7
100
AcDbLine
 10
498.2615576401782
 20
-538.9605952919025
 30
0.0
 11
482.8549012006178
 21
-538.9605952919025
 31
0.0
  0
LWPOLYLINE
  5
383
330
A
100
AcDbEntity
  8
0
  6
PHANTOM
 62
     7
100
AcDbPolyline
 90
        9
 70
   128
 43
0.0
 10
482.8549012006178
 20
-538.9605952919025
 10
482.8691830881977
 20
-537.7900533598057
 10
482.9114799060071
 20
-536.6644946977118
 10
482.980166211058
 20
-535.627173893785
 10
483.0726024271669
 20
-534.7179546047833
 10
483.1852362823876
 20
-533.9717776180872
 10
483.3137393208298
 20
-533.4173180968349
 10
483.4531732427915
 20
-533.0758836094831
 10
483.5981796808471
 20
-532.9605952919025
  0
LINE
  5
38E
330
A
100
AcDbEntity
  8
0
  6
PHANTOM
 62
     7
100
AcDbLine
 10
482.8549012006178
 20
-538.9605952919025
 30
0.0
 11
482.8549012006178
 21
-702.9605952919024
 31
0.0
  0
LINE
  5
38F
330
A
100
AcDbEntity
  8
0
  6
PHANTOM
 62
     7
100
AcDbLine
 10
593.9976471473108
 20
-538.9605952919025
 30
0.0
 11
592.6597640735597
 21
-538.9605952919025
 31
0.0
  0
LWPOLYLINE
  5
390
330
A
100
AcDbEntity
  8
0
  6
PHANTOM
 62
     7
100
AcDbPolyline
 90
        4
 70
   128
 43
0.0
 10
597.0167000892295
 20
-533.7534852893819
 10
596.717685827827
 20
-533.4173180968349
 10
596.2262451879987
 20
-533.0758836094831
 10
595.7151639841231
 20
-532.9605952919025
  0
LINE
  5
396
330
A
100
AcDbEntity
  8
0
  6
PHANTOM
 62
     7
100
AcDbLine
 10
455.6260271716555
 20
-538.9605952919025
 30
0.0
 11
455.6260271716555
 21
-702.9605952919024
 31
0.0
  0
LINE
  5
397
330
A
100
AcDbEntity
  8
0
  6
PHANTOM
 62
     7
100
AcDbLine
 10
482.8549012006178
 20
-538.9605952919025
 30
0.0
 11
455.6260271716555
 21
-538.9605952919025
 31
0.0
  0
LWPOLYLINE
  5
398
330
A
100
AcDbEntity
  8
0
  6
PHANTOM
 62
     7
100
AcDbPolyline
 90
        9
 70
   128
 43
0.0
 10
455.6260271716555
 20
-538.9605952919025
 10
455.7307982676839
 20
-537.7900533598059
 10
456.0410852613049
 20
-536.6644946977118
 10
456.5449639973646
 20
-535.627173893785
 10
457.2230706986146
 20
-534.7179546047833
 10
458.0493461048128
 20
-533.9717776180872
 10
458.9920369154791
 20
-533.4173180968349
 10
460.0149160514272
 20
-533.0758836094832
 10
461.0786748410995
 20
-532.9605952919025
  0
LINE
  5
3A3
330
A
100
AcDbEntity
  8
0
  6
PHANTOM
 62
     7
100
AcDbLine
 10
455.6260271716555
 20
-538.9605952919025
 30
0.0
 11
446.5680326342051
 21
-538.9605952919025
 31
0.0
  0
LINE
  5
3A4
330
A
100
AcDbEntity
  8
0
  6
PHANTOM
 62
     7
100
AcDbLine
 10
446.5680326342051
 20
-538.9605952919025
 30
0.0
 11
446.0304888190903
 21
-538.9605952919025
 31
0.0
  0
LINE
  5
3A5
330
A
100
AcDbEntity
  8
0
  6
PHANTOM
 62
     7
100
AcDbLine
 10
771.1725805957002
 20
-538.9605952919025
 30
0.0
 11
769.798718435187
 21
-538.9605952919025
 31
0.0
  0
LINE
  5
3A6
330
A
100
AcDbEntity
  8
0
  6
PHANTOM
 62
     7
100
AcDbLine
 10
716.9550172273367
 20
-538.9605952919027
 30
0.0
 11
694.727926710308
 21
-538.9605952919027
 31
0.0
  0
LWPOLYLINE
  5
3A7
330
A
100
AcDbEntity
  8
0
  6
PHANTOM
 62
     7
100
AcDbPolyline
 90
        9
 70
   128
 43
0.0
 10
699.6939406332672
 20
-532.9605952919028
 10
698.7251193779005
 20
-533.0758836094832
 10
697.7935293800564
 20
-533.4173180968352
 10
696.9349711209103
 20
-533.9717776180874
 10
696.182438512876
 20
-534.7179546047835
 10
695.5648509620553
 20
-535.6271738937851
 10
695.1059420116792
 20
-536.6644946977121
 10
694.8233472753514
 20
-537.7900533598059
 10
694.727926710308
 20
-538.9605952919027
  0
LINE
  5
3B2
330
A
100
AcDbEntity
  8
0
  6
PHANTOM
 62
     7
100
AcDbLine
 10
694.727926710308
 20
-538.9605952919027
 30
0.0
 11
694.727926710308
 21
-702.9605952919027
 31
0.0
  0
LINE
  5
3B3
330
A
100
AcDbEntity
  8
0
  6
PHANTOM
 62
     7
100
AcDbLine
 10
694.727926710308
 20
-538.9605952919027
 30
0.0
 11
675.1699651909565
 21
-538.9605952919027
 31
0.0
  0
LWPOLYLINE
  5
3B4
330
A
100
AcDbEntity
  8
0
  6
PHANTOM
 62
     7
100
AcDbPolyline
 90
        9
 70
   128
 43
0.0
 10
679.3076852847929
 20
-532.9605952919028
 10
678.5004561392737
 20
-533.0758836094832
 10
677.7242483571175
 20
-533.4173180968352
 10
677.0088911680902
 20
-533.9717776180877
 10
676.3818753477893
 20
-534.7179546047835
 10
675.8672967625543
 20
-535.6271738937851
 10
675.4849303788367
 20
-536.6644946977124
 10
675.2494703223296
 20
-537.7900533598062
 10
675.1699651909565
 20
-538.9605952919027
  0
LINE
  5
3BF
330
A
100
AcDbEntity
  8
0
  6
PHANTOM
 62
     7
100
AcDbLine
 10
675.1699651909565
 20
-538.9605952919027
 30
0.0
 11
675.1699651909565
 21
-702.9605952919027
 31
0.0
  0
LWPOLYLINE
  5
3C0
330
A
100
AcDbEntity
  8
0
  6
PHANTOM
 62
     7
100
AcDbPolyline
 90
        9
 70
   128
 43
0.0
 10
734.4569585179629
 20
-538.9605952919027
 10
734.3554846595178
 20
-537.7900533598062
 10
734.0549626676552
 20
-536.6644946977121
 10
733.5669414339879
 20
-535.6271738937851
 10
732.9101753408401
 20
-534.7179546047835
 10
732.1099035408527
 20
-533.9717776180877
 10
731.196880030502
 20
-533.4173180968352
 10
730.206191791261
 20
-533.0758836094835
 10
729.1759104165793
 20
-532.9605952919028
  0
LINE
  5
3CB
330
A
100
AcDbEntity
  8
0
  6
PHANTOM
 62
     7
100
AcDbLine
 10
734.4569585179629
 20
-538.9605952919027
 30
0.0
 11
716.9550172273367
 21
-538.9605952919027
 31
0.0
  0
LINE
  5
3CC
330
A
100
AcDbEntity
  8
0
  6
PHANTOM
 62
     7
100
AcDbLine
 10
734.4569585179629
 20
-538.9605952919027
 30
0.0
 11
734.4569585179629
 21
-702.9605952919027
 31
0.0
  0
LWPOLYLINE
  5
3CD
330
A
100
AcDbEntity
  8
0
  6
PHANTOM
 62
     7
100
AcDbPolyline
 90
        9
 70
   128
 43
0.0
 10
653.0215704635537
 20
-532.9605952919028
 10
653.7652039984742
 20
-533.0758836094832
 10
654.4802601136822
 20
-533.4173180968352
 10
655.1392596036784
 20
-533.9717776180877
 10
655.7168774876331
 20
-534.7179546047835
 10
656.1909162341983
 20
-535.6271738937851
 10
656.5431588001872
 20
-536.6644946977124
 10
656.7600687013286
 20
-537.7900533598062
 10
656.8333102117665
 20
-538.9605952919027
  0
LINE
  5
3D8
330
A
100
AcDbEntity
  8
0
  6
PHANTOM
 62
     7
100
AcDbLine
 10
656.8333102117665
 20
-538.9605952919027
 30
0.0
 11
616.9332871136248
 21
-538.9605952919027
 31
0.0
  0
LWPOLYLINE
  5
3D9
330
A
100
AcDbEntity
  8
0
  6
PHANTOM
 62
     7
100
AcDbPolyline
 90
        9
 70
   128
 43
0.0
 10
621.821161738929
 20
-532.9605952919028
 10
620.867584704304
 20
-533.0758836094832
 10
619.9506531003475
 20
-533.4173180968352
 10
619.1056040943782
 20
-533.9717776180877
 10
618.3649124457867
 20
-534.7179546047835
 10
617.7570425192438
 20
-535.6271738937851
 10
617.3053544151293
 20
-536.6644946977124
 10
617.0272062539742
 20
-537.7900533598062
 10
616.9332871136248
 20
-538.9605952919027
  0
LINE
  5
3E4
330
A
100
AcDbEntity
  8
0
  6
PHANTOM
 62
     7
100
AcDbLine
 10
616.9332871136248
 20
-538.9605952919027
 30
0.0
 11
616.9332871136248
 21
-702.9605952919027
 31
0.0
  0
LINE
  5
3E5
330
A
100
AcDbEntity
  8
0
  6
PHANTOM
 62
     7
100
AcDbLine
 10
656.8333102117665
 20
-538.9605952919027
 30
0.0
 11
656.8333102117663
 21
-702.9605952919027
 31
0.0
  0
LINE
  5
3E6
330
A
100
AcDbEntity
  8
0
  6
PHANTOM
 62
     7
100
AcDbLine
 10
675.1699651909565
 20
-538.9605952919027
 30
0.0
 11
656.8333102117665
 21
-538.9605952919027
 31
0.0
  0
LINE
  5
3E7
330
A
100
AcDbEntity
  8
0
  6
PHANTOM
 62
     7
100
AcDbLine
 10
738.6138317410562
 20
-538.9605952919027
 30
0.0
 11
734.4569585179629
 21
-538.9605952919027
 31
0.0
  0
LINE
  5
3E8
330
A
100
AcDbEntity
  8
0
  6
PHANTOM
 62
     7
100
AcDbLine
 10
616.9332871136248
 20
-538.9605952919027
 30
0.0
 11
614.2263418120156
 21
-538.9605952919027
 31
0.0
  0
LINE
  5
3E9
330
A
100
AcDbEntity
  8
0
  6
PHANTOM
 62
     7
100
AcDbLine
 10
760.8273365208548
 20
-538.9605952919027
 30
0.0
 11
738.6138317410562
 21
-538.9605952919025
 31
0.0
  0
LWPOLYLINE
  5
3EA
330
A
100
AcDbEntity
  8
0
  6
PHANTOM
 62
     7
100
AcDbPolyline
 90
        9
 70
   128
 43
0.0
 10
760.8273365208548
 20
-538.9605952919027
 10
760.753969418329
 20
-537.7900533598059
 10
760.5366875673567
 20
-536.6644946977121
 10
760.1838409876177
 20
-535.6271738937851
 10
759.7089893752928
 20
-534.7179546047835
 10
759.1303810115439
 20
-533.9717776180874
 10
758.4702514913024
 20
-533.4173180968352
 10
757.7539692218262
 20
-533.0758836094832
 10
757.0090605290361
 20
-532.9605952919028
  0
LINE
  5
3F5
330
A
100
AcDbEntity
  8
0
  6
PHANTOM
 62
     7
100
AcDbLine
 10
760.8273365208548
 20
-538.9605952919027
 30
0.0
 11
760.8273365208548
 21
-702.9605952919027
 31
0.0
  0
LINE
  5
3F6
330
A
100
AcDbEntity
  8
0
  6
PHANTOM
 62
     7
100
AcDbLine
 10
614.2263418120156
 20
-538.9605952919027
 30
0.0
 11
595.0083736009141
 21
-538.9605952919027
 31
0.0
  0
LWPOLYLINE
  5
3F7
330
A
100
AcDbEntity
  8
0
  6
PHANTOM
 62
     7
100
AcDbPolyline
 90
        9
 70
   128
 43
0.0
 10
600.3494595323006
 20
-532.9605952919028
 10
599.3074653580306
 20
-533.0758836094832
 10
598.3055144355208
 20
-533.4173180968352
 10
597.3821111768224
 20
-533.9717776180874
 10
596.5727414513172
 20
-534.7179546047835
 10
595.908508883656
 20
-535.6271738937851
 10
595.4149395589086
 20
-536.6644946977121
 10
595.111001069428
 20
-537.7900533598059
 10
595.0083736009141
 20
-538.9605952919027
  0
LINE
  5
402
330
A
100
AcDbEntity
  8
0
  6
PHANTOM
 62
     7
100
AcDbLine
 10
595.0083736009141
 20
-538.9605952919027
 30
0.0
 11
595.0083736009141
 21
-702.9605952919027
 31
0.0
  0
LINE
  5
403
330
A
100
AcDbEntity
  8
0
  6
PHANTOM
 62
     7
100
AcDbLine
 10
768.1535766858758
 20
-538.9605952919027
 30
0.0
 11
760.8273365208548
 21
-538.9605952919027
 31
0.0
  0
LWPOLYLINE
  5
404
330
A
100
AcDbEntity
  8
0
  6
PHANTOM
 62
     7
100
AcDbPolyline
 90
        9
 70
   128
 43
0.0
 10
768.1535766858758
 20
-538.9605952919027
 10
768.0415712169492
 20
-537.7900533598059
 10
767.7098591175266
 20
-536.6644946977121
 10
767.1711878975627
 20
-535.6271738937851
 10
766.4462583899503
 20
-534.7179546047835
 10
765.5629292291219
 20
-533.9717776180874
 10
764.5551462593514
 20
-533.4173180968352
 10
763.4616380149957
 20
-533.0758836094832
 10
762.3244274046392
 20
-532.9605952919028
  0
LINE
  5
40F
330
A
100
AcDbEntity
  8
0
  6
PHANTOM
 62
     7
100
AcDbLine
 10
768.1535766858758
 20
-538.9605952919027
 30
0.0
 11
768.1535766858758
 21
-702.9605952919027
 31
0.0
  0
LINE
  5
410
330
A
100
AcDbEntity
  8
0
  6
PHANTOM
 62
     7
100
AcDbLine
 10
595.0083736009141
 20
-538.9605952919027
 30
0.0
 11
593.9976471473108
 21
-538.9605952919027
 31
0.0
  0
LINE
  5
411
330
A
100
AcDbEntity
  8
0
  6
PHANTOM
 62
     7
100
AcDbLine
 10
769.798718435187
 20
-538.9605952919027
 30
0.0
 11
768.1535766858758
 21
-538.9605952919027
 31
0.0
  0
ENDSEC
  0
SECTION
  2
OBJECTS
  0
DICTIONARY
  5
19
330
0
100
AcDbDictionary
281
     1
  3
ACAD_COLOR
350
416
  3
ACAD_GROUP
350
1A
  3
ACAD_LAYOUT
350
417
  3
ACAD_MATERIAL
350
415
  3
ACAD_MLINESTYLE
350
1B
  3
ACAD_PLOTSETTINGS
350
418
  3
ACAD_PLOTSTYLENAME
350
413
  3
ACDBHEADERROUNDTRIPXREC
350
430
  3
AcDbVariableDictionary
350
429
  3
ASE_INDEX_DICTIONARY
350
41E
  0
DICTIONARY
  5
416
102
{ACAD_REACTORS
330
19
102
}
330
19
100
AcDbDictionary
281
     1
  0
DICTIONARY
  5
1A
102
{ACAD_REACTORS
330
19
102
}
330
19
100
AcDbDictionary
281
     1
  0
DICTIONARY
  5
417
102
{ACAD_REACTORS
330
19
102
}
330
19
100
AcDbDictionary
281
     1
  3
Layout1
350
41A
  3
Model
350
419
  0
DICTIONARY
  5
415
102
{ACAD_REACTORS
330
19
102
}
330
19
100
AcDbDictionary
281
     1
  0
DICTIONARY
  5
1B
102
{ACAD_REACTORS
330
19
102
}
330
19
100
AcDbDictionary
281
     1
  3
STANDARD
350
1C
  0
DICTIONARY
  5
418
102
{ACAD_REACTORS
330
19
102
}
330
19
100
AcDbDictionary
281
     1
  0
ACDBDICTIONARYWDFLT
  5
413
102
{ACAD_REACTORS
330
19
102
}
330
19
100
AcDbDictionary
281
     1
  3
Normal
350
414
100
AcDbDictionaryWithDefault
340
414
  0
DICTIONARY
  5
430
102
{ACAD_REACTORS
330
19
102
}
330
19
100
AcDbDictionary
281
     1
  3
COLORDICT
350
432
  3
MATERIALDICT
350
431
  0
DICTIONARY
  5
429
102
{ACAD_REACTORS
330
19
102
}
330
19
100
AcDbDictionary
281
     1
  3
DIMASSOC
350
42A
  3
PROJECTNAME
350
42B
  0
DICTIONARY
  5
41E
102
{ACAD_REACTORS
330
19
102
}
330
19
100
AcDbDictionary
281
     1
  3
ASEBlockHierarchyIndexRecord
350
420
1001
DCO15
1040
1521898617.593
  0
LAYOUT
  5
41A
102
{ACAD_XDICTIONARY
360
435
102
}
102
{ACAD_REACTORS
330
417
102
}
330
417
100
AcDbPlotSettings
  1

  2
ProgeSOFT PDF Wizard
  4

  6

 40
0.0
 41
0.0
 42
0.0
 43
0.0
 44
0.0
 45
0.0
 46
0.0
 47
0.0
 48
0.0
 49
0.0
140
0.0
141
0.0
142
1.0
143
1.0
 70
   688
 72
     0
 73
     0
 74
     5
  7

 75
    16
147
1.0
148
0.0
149
0.0
100
AcDbLayout
  1
Layout1
 70
     1
 71
     1
 10
0.0
 20
0.0
 11
12.0
 21
9.0
 12
0.0
 22
0.0
 32
0.0
 14
1.000000000000000E+20
 24
1.000000000000000E+20
 34
1.000000000000000E+20
 15
-1.000000000000000E+20
 25
-1.000000000000000E+20
 35
-1.000000000000000E+20
146
0.0
 13
0.0
 23
0.0
 33
0.0
 16
1.0
 26
0.0
 36
0.0
 17
0.0
 27
1.0
 37
0.0
 76
     0
330
B
  0
LAYOUT
  5
419
102
{ACAD_XDICTIONARY
360
433
102
}
102
{ACAD_REACTORS
330
417
102
}
330
417
100
AcDbPlotSettings
  1

  2
ProgeSOFT PDF Wizard
  4

  6

 40
0.0
 41
0.0
 42
0.0
 43
0.0
 44
0.0
 45
0.0
 46
0.0
 47
0.0
 48
0.0
 49
0.0
140
0.0
141
0.0
142
1.0
143
1.0
 70
  1712
 72
     0
 73
     0
 74
     0
  7

 75
     0
147
1.0
148
0.0
149
0.0
100
AcDbLayout
  1
Model
 70
     1
 71
     0
 10
0.0
 20
0.0
 11
12.0
 21
9.0
 12
0.0
 22
0.0
 32
0.0
 14
0.0
 24
0.0
 34
0.0
 15
0.0
 25
0.0
 35
0.0
146
0.0
 13
0.0
 23
0.0
 33
0.0
 16
1.0
 26
0.0
 36
0.0
 17
0.0
 27
1.0
 37
0.0
 76
     0
330
A
  0
MLINESTYLE
  5
1C
102
{ACAD_REACTORS
330
1B
102
}
330
1B
100
AcDbMlineStyle
  2
STANDARD
 70
     0
  3

 62
     0
 51
90.0
 52
90.0
 71
     2
 49
0.5
 62
   256
  6
BYLAYER
 49
-0.5
 62
   256
  6
BYLAYER
  0
ACDBPLACEHOLDER
  5
414
102
{ACAD_REACTORS
330
413
102
}
330
413
  0
XRECORD
  5
432
102
{ACAD_REACTORS
330
430
102
}
330
430
100
AcDbXrecord
280
     1
340
416
  0
XRECORD
  5
431
102
{ACAD_REACTORS
330
430
102
}
330
430
100
AcDbXrecord
280
     1
340
415
  0
DICTIONARYVAR
  5
42A
102
{ACAD_REACTORS
330
429
102
}
330
429
100
DictionaryVariables
280
     0
  1
1
  0
DICTIONARYVAR
  5
42B
102
{ACAD_REACTORS
330
429
102
}
330
429
100
DictionaryVariables
280
     0
  1

  0
XRECORD
  5
420
102
{ACAD_REACTORS
330
41E
102
}
330
41E
100
AcDbXrecord
280
     1
  0
DICTIONARY
  5
435
330
41A
100
AcDbDictionary
280
     1
281
     1
  3
ACAD_XREC_ROUNDTRIP
360
436
  0
DICTIONARY
  5
433
330
419
100
AcDbDictionary
280
     1
281
     1
  3
ACAD_XREC_ROUNDTRIP
360
434
  0
XRECORD
  5
436
102
{ACAD_REACTORS
330
435
102
}
330
435
100
AcDbXrecord
280
     1
102
SHADEPLOT
 70
     0
102
SHADEPLOTRESLEVEL
 70
     2
102
SHADEPLOTCUSTOMDPI
 70
   300
  0
XRECORD
  5
434
102
{ACAD_REACTORS
330
433
102
}
330
433
100
AcDbXrecord
280
     1
102
SHADEPLOT
 70
     0
102
SHADEPLOTRESLEVEL
 70
     2
102
SHADEPLOTCUSTOMDPI
 70
   300
  0
ENDSEC
  0
EOF
