  0
SECTION
  2
HEADER
  9
$ACADVER
  1
AC1015
  9
$ACADMAINTVER
 70
    20
  9
$DWGCODEPAGE
  3
ANSI_1252
  9
$INSBASE
 10
0.0
 20
0.0
 30
0.0
  9
$EXTMIN
 10
-45.44036479353777
 20
-1085.56992480392
 30
0.0
  9
$EXTMAX
 10
483.6496245420765
 20
990.5023902463042
 30
0.0
  9
$LIMMIN
 10
0.0
 20
0.0
  9
$LIMMAX
 10
0.0
 20
0.0
  9
$ORTHOMODE
 70
     0
  9
$REGENMODE
 70
     1
  9
$FILLMODE
 70
     1
  9
$QTEXTMODE
 70
     0
  9
$MIRRTEXT
 70
     1
  9
$LTSCALE
 40
1.0
  9
$ATTMODE
 70
     1
  9
$TEXTSIZE
 40
0.0
  9
$TRACEWID
 40
0.05
  9
$TEXTSTYLE
  7
STANDARD
  9
$CLAYER
  8
0
  9
$CELTYPE
  6
CONTINUOUS
  9
$CECOLOR
 62
   256
  9
$CELTSCALE
 40
1.0
  9
$DISPSILH
 70
     0
  9
$DIMSCALE
 40
1.0
  9
$DIMASZ
 40
6.0
  9
$DIMEXO
 40
1.0
  9
$DIMDLI
 40
0.38
  9
$DIMRND
 40
0.0
  9
$DIMDLE
 40
1.0
  9
$DIMEXE
 40
0.18
  9
$DIMTP
 40
0.0
  9
$DIMTM
 40
0.0
  9
$DIMTXT
 40
3.5
  9
$DIMCEN
 40
0.09
  9
$DIMTSZ
 40
0.0
  9
$DIMTOL
 70
     0
  9
$DIMLIM
 70
     0
  9
$DIMTIH
 70
     1
  9
$DIMTOH
 70
     1
  9
$DIMSE1
 70
     0
  9
$DIMSE2
 70
     0
  9
$DIMTAD
 70
     1
  9
$DIMZIN
 70
     0
  9
$DIMBLK
  1

  9
$DIMASO
 70
     1
  9
$DIMSHO
 70
     1
  9
$DIMPOST
  1

  9
$DIMAPOST
  1

  9
$DIMALT
 70
     0
  9
$DIMALTD
 70
     2
  9
$DIMALTF
 40
0.0394
  9
$DIMLFAC
 40
1.0
  9
$DIMTOFL
 70
     0
  9
$DIMTVP
 40
0.0
  9
$DIMTIX
 70
     0
  9
$DIMSOXD
 70
     0
  9
$DIMSAH
 70
     0
  9
$DIMBLK1
  1

  9
$DIMBLK2
  1

  9
$DIMSTYLE
  2
STANDARD
  9
$DIMCLRD
 70
     0
  9
$DIMCLRE
 70
     0
  9
$DIMCLRT
 70
     0
  9
$DIMTFAC
 40
1.0
  9
$DIMGAP
 40
1.0
  9
$DIMJUST
 70
     0
  9
$DIMSD1
 70
     0
  9
$DIMSD2
 70
     0
  9
$DIMTOLJ
 70
     1
  9
$DIMTZIN
 70
     0
  9
$DIMALTZ
 70
     0
  9
$DIMALTTZ
 70
     0
  9
$DIMUPT
 70
     0
  9
$DIMDEC
 70
     4
  9
$DIMTDEC
 70
     4
  9
$DIMALTU
 70
     2
  9
$DIMALTTD
 70
     2
  9
$DIMTXSTY
  7
STANDARD
  9
$DIMAUNIT
 70
     0
  9
$DIMADEC
 70
     0
  9
$DIMALTRND
 40
0.0
  9
$DIMAZIN
 70
     0
  9
$DIMDSEP
 70
    46
  9
$DIMATFIT
 70
     3
  9
$DIMFRAC
 70
     0
  9
$DIMLDRBLK
  1

  9
$DIMLUNIT
 70
     2
  9
$DIMLWD
 70
    -2
  9
$DIMLWE
 70
    -2
  9
$DIMTMOVE
 70
     0
  9
$LUNITS
 70
     2
  9
$LUPREC
 70
     2
  9
$SKETCHINC
 40
0.1
  9
$FILLETRAD
 40
0.0
  9
$AUNITS
 70
     0
  9
$AUPREC
 70
     2
  9
$MENU
  1
acad
  9
$ELEVATION
 40
0.0
  9
$PELEVATION
 40
0.0
  9
$THICKNESS
 40
0.0
  9
$LIMCHECK
 70
     0
  9
$CHAMFERA
 40
0.0
  9
$CHAMFERB
 40
0.0
  9
$CHAMFERC
 40
0.0
  9
$CHAMFERD
 40
0.0
  9
$SKPOLY
 70
     0
  9
$TDCREATE
 40
2444972.041666667
  9
$TDUCREATE
 40
2444972.000000000
  9
$TDUPDATE
 40
2453768.766200625
  9
$TDUUPDATE
 40
2453768.724533959
  9
$TDINDWG
 40
0.0086973843
  9
$TDUSRTIMER
 40
0.0086973843
  9
$USRTIMER
 70
     1
  9
$ANGBASE
 50
0.0
  9
$ANGDIR
 70
     0
  9
$PDMODE
 70
     0
  9
$PDSIZE
 40
-1.0
  9
$PLINEWID
 40
0.0
  9
$SPLFRAME
 70
     0
  9
$SPLINETYPE
 70
     6
  9
$SPLINESEGS
 70
     8
  9
$HANDSEED
  5
332
  9
$SURFTAB1
 70
     6
  9
$SURFTAB2
 70
     6
  9
$SURFTYPE
 70
     6
  9
$SURFU
 70
     6
  9
$SURFV
 70
     6
  9
$UCSBASE
  2

  9
$UCSNAME
  2

  9
$UCSORG
 10
0.0
 20
0.0
 30
0.0
  9
$UCSXDIR
 10
1.0
 20
0.0
 30
0.0
  9
$UCSYDIR
 10
0.0
 20
1.0
 30
0.0
  9
$UCSORTHOREF
  2

  9
$UCSORTHOVIEW
 70
     1
  9
$UCSORGTOP
 10
0.0
 20
0.0
 30
0.0
  9
$UCSORGBOTTOM
 10
0.0
 20
0.0
 30
0.0
  9
$UCSORGLEFT
 10
0.0
 20
0.0
 30
0.0
  9
$UCSORGRIGHT
 10
0.0
 20
0.0
 30
0.0
  9
$UCSORGFRONT
 10
0.0
 20
0.0
 30
0.0
  9
$UCSORGBACK
 10
0.0
 20
0.0
 30
0.0
  9
$PUCSBASE
  2

  9
$PUCSNAME
  2

  9
$PUCSORG
 10
0.0
 20
0.0
 30
0.0
  9
$PUCSXDIR
 10
1.0
 20
0.0
 30
0.0
  9
$PUCSYDIR
 10
0.0
 20
1.0
 30
0.0
  9
$PUCSORTHOREF
  2

  9
$PUCSORTHOVIEW
 70
     0
  9
$PUCSORGTOP
 10
0.0
 20
0.0
 30
0.0
  9
$PUCSORGBOTTOM
 10
0.0
 20
0.0
 30
0.0
  9
$PUCSORGLEFT
 10
0.0
 20
0.0
 30
0.0
  9
$PUCSORGRIGHT
 10
0.0
 20
0.0
 30
0.0
  9
$PUCSORGFRONT
 10
0.0
 20
0.0
 30
0.0
  9
$PUCSORGBACK
 10
0.0
 20
0.0
 30
0.0
  9
$USERI1
 70
     0
  9
$USERI2
 70
     0
  9
$USERI3
 70
     0
  9
$USERI4
 70
     0
  9
$USERI5
 70
     0
  9
$USERR1
 40
0.0
  9
$USERR2
 40
0.0
  9
$USERR3
 40
0.0
  9
$USERR4
 40
0.0
  9
$USERR5
 40
0.0
  9
$WORLDVIEW
 70
     1
  9
$SHADEDGE
 70
     3
  9
$SHADEDIF
 70
    70
  9
$TILEMODE
 70
     1
  9
$MAXACTVP
 70
    16
  9
$PINSBASE
 10
0.0
 20
0.0
 30
0.0
  9
$PLIMCHECK
 70
     0
  9
$PEXTMIN
 10
1.000000000000000E+20
 20
1.000000000000000E+20
 30
1.000000000000000E+20
  9
$PEXTMAX
 10
-1.000000000000000E+20
 20
-1.000000000000000E+20
 30
-1.000000000000000E+20
  9
$PLIMMIN
 10
0.0
 20
0.0
  9
$PLIMMAX
 10
12.0
 20
9.0
  9
$UNITMODE
 70
     0
  9
$VISRETAIN
 70
     0
  9
$PLINEGEN
 70
     1
  9
$PSLTSCALE
 70
     1
  9
$TREEDEPTH
 70
  3020
  9
$CMLSTYLE
  2
STANDARD
  9
$CMLJUST
 70
     0
  9
$CMLSCALE
 40
1.0
  9
$PROXYGRAPHICS
 70
     0
  9
$MEASUREMENT
 70
     0
  9
$CELWEIGHT
370
    -1
  9
$ENDCAPS
280
     0
  9
$JOINSTYLE
280
     0
  9
$LWDISPLAY
290
     0
  9
$INSUNITS
 70
     0
  9
$HYPERLINKBASE
  1

  9
$STYLESHEET
  1

  9
$XEDIT
290
     1
  9
$CEPSNTYPE
380
     0
  9
$PSTYLEMODE
290
     1
  9
$FINGERPRINTGUID
  2
{B8B7A2AB-3041-4186-9ABF-6E6881A30C1A}
  9
$VERSIONGUID
  2
{A52D4E50-7D14-47F9-B8A2-C664106F48EB}
  9
$EXTNAMES
290
     1
  9
$PSVPSCALE
 40
0.0
  9
$OLESTARTUP
290
     0
  0
ENDSEC
  0
SECTION
  2
CLASSES
  0
CLASS
  1
IMAGE
  2
AcDbRasterImage
  3
ISM
 90
    32895
280
     0
281
     1
  0
CLASS
  1
DICTIONARYVAR
  2
AcDbDictionaryVar
  3
ObjectDBX Classes
 90
        0
280
     0
281
     0
  0
CLASS
  1
RASTERVARIABLES
  2
AcDbRasterVariables
  3
ISM
 90
    32768
280
     0
281
     0
  0
CLASS
  1
IMAGEDEF
  2
AcDbRasterImageDef
  3
ISM
 90
    32768
280
     0
281
     0
  0
CLASS
  1
IMAGEDEF_REACTOR
  2
AcDbRasterImageDefReactor
  3
ISM
 90
    32769
280
     0
281
     0
  0
CLASS
  1
IDBUFFER
  2
AcDbIdBuffer
  3
ObjectDBX Classes
 90
    32768
280
     0
281
     0
  0
CLASS
  1
SPATIAL_FILTER
  2
AcDbSpatialFilter
  3
ObjectDBX Classes
 90
    32768
280
     0
281
     0
  0
CLASS
  1
SORTENTSTABLE
  2
AcDbSortentsTable
  3
ObjectDBX Classes
 90
    32768
280
     0
281
     0
  0
CLASS
  1
LAYER_INDEX
  2
AcDbLayerIndex
  3
ObjectDBX Classes
 90
    32768
280
     0
281
     0
  0
CLASS
  1
SPATIAL_INDEX
  2
AcDbSpatialIndex
  3
ObjectDBX Classes
 90
    32768
280
     0
281
     0
  0
CLASS
  1
OBJECT_PTR
  2
CAseDLPNTableRecord
  3
ASE-LPNTableRecord
 90
    32769
280
     0
281
     0
  0
CLASS
  1
LAYOUT
  2
AcDbLayout
  3
ObjectDBX Classes
 90
        0
280
     0
281
     0
  0
CLASS
  1
PLOTSETTINGS
  2
AcDbPlotSettings
  3
ObjectDBX Classes
 90
    32768
280
     0
281
     0
  0
CLASS
  1
ACDBDICTIONARYWDFLT
  2
AcDbDictionaryWithDefault
  3
ObjectDBX Classes
 90
        0
280
     0
281
     0
  0
CLASS
  1
ACDBPLACEHOLDER
  2
AcDbPlaceHolder
  3
ObjectDBX Classes
 90
        0
280
     0
281
     0
  0
CLASS
  1
VBA_PROJECT
  2
AcDbVbaProject
  3
acad
 90
    32768
280
     0
281
     0
  0
CLASS
  1
WIPEOUT
  2
AcDbWipeout
  3
"WipeOut|Product Desc: Object Enabler for WipeOut entity^I^I^I^I^I^I|Company: Autodesk, Inc.^I^I^I^I^I^I|WEB Address: www.autodesk.com"
 90
    32895
280
     0
281
     1
  0
CLASS
  1
WIPEOUTVARIABLES
  2
AcDbWipeoutVariables
  3
"WipeOut|Product Desc:     WipeOut Dbx Application|Company:          Autodesk, Inc.|WEB Address:      www.autodesk.com"
 90
    32768
280
     0
281
     0
  0
CLASS
  1
RTEXT
  2
RText
  3
RText|AutoCAD Express Tool|expresstools@autodesk.com
 90
    32768
280
     0
281
     1
  0
CLASS
  1
ARCALIGNEDTEXT
  2
AcDbArcAlignedText
  3
ATEXT|AutoCAD Express Tool|expresstools@autodesk.com
 90
    32768
280
     0
281
     1
  0
ENDSEC
  0
SECTION
  2
TABLES
  0
TABLE
  2
VPORT
  5
7
330
0
100
AcDbSymbolTable
 70
     2
  0
VPORT
  5
32A
330
7
100
AcDbSymbolTableRecord
100
AcDbViewportTableRecord
  2
*Active
 70
     0
 10
0.0
 20
0.0
 11
1.0
 21
1.0
 12
331.2843478225588
 22
-47.533767278808
 13
0.0
 23
0.0
 14
1.0
 24
1.0
 15
0.0
 25
0.0
 16
0.0
 26
0.0
 36
1.0
 17
0.0
 27
0.0
 37
0.0
 40
2093.401554302653
 41
1.569570871261378
 42
50.0
 43
0.0
 44
0.0
 50
0.0
 51
0.0
 71
     0
 72
  2000
 73
     1
 74
     1
 75
     0
 76
     0
 77
     0
 78
     0
281
     0
 65
     1
110
0.0
120
0.0
130
0.0
111
1.0
121
0.0
131
0.0
112
0.0
122
1.0
132
0.0
 79
     1
146
0.0
  0
ENDTAB
  0
TABLE
  2
LTYPE
  5
4
330
0
100
AcDbSymbolTable
 70
     6
  0
LTYPE
  5
11
330
4
100
AcDbSymbolTableRecord
100
AcDbLinetypeTableRecord
  2
BYBLOCK
 70
     0
  3

 72
    65
 73
     0
 40
0.0
  0
LTYPE
  5
12
330
4
100
AcDbSymbolTableRecord
100
AcDbLinetypeTableRecord
  2
BYLAYER
 70
     0
  3

 72
    65
 73
     0
 40
0.0
  0
LTYPE
  5
13
330
4
100
AcDbSymbolTableRecord
100
AcDbLinetypeTableRecord
  2
CONTINUOUS
 70
     0
  3
Solid line
 72
    65
 73
     0
 40
0.0
  0
LTYPE
  5
1E
330
4
100
AcDbSymbolTableRecord
100
AcDbLinetypeTableRecord
  2
HIDDEN
 70
     0
  3
Hidden __ __ __ __ __ __ __ __ __ __ __ __ __ __
 72
    65
 73
     2
 40
1.905
 49
1.27
 74
     0
 49
-0.635
 74
     0
  0
LTYPE
  5
1F
330
4
100
AcDbSymbolTableRecord
100
AcDbLinetypeTableRecord
  2
PHANTOM
 70
     0
  3
Phantom ______  __  __  ______  __  __  ______
 72
    65
 73
     6
 40
12.7
 49
6.349999999999999
 74
     0
 49
-1.27
 74
     0
 49
1.27
 74
     0
 49
-1.27
 74
     0
 49
1.27
 74
     0
 49
-1.27
 74
     0
  0
LTYPE
  5
20
330
4
100
AcDbSymbolTableRecord
100
AcDbLinetypeTableRecord
  2
CENTER
 70
     0
  3
Center ____ _ ____ _ ____ _ ____ _ ____ _ ____
 72
    65
 73
     4
 40
10.16
 49
6.349999999999999
 74
     0
 49
-1.27
 74
     0
 49
1.27
 74
     0
 49
-1.27
 74
     0
  0
LTYPE
  5
21
330
4
100
AcDbSymbolTableRecord
100
AcDbLinetypeTableRecord
  2
CENTERX2
 70
     0
  3
Center (2x) ________  __  ________  __  _____
 72
    65
 73
     4
 40
20.32
 49
12.7
 74
     0
 49
-2.54
 74
     0
 49
2.54
 74
     0
 49
-2.54
 74
     0
  0
LTYPE
  5
22
330
4
100
AcDbSymbolTableRecord
100
AcDbLinetypeTableRecord
  2
DOT2
 70
     0
  3
Dot (.5x) ........................................
 72
    65
 73
     2
 40
0.635
 49
0.0
 74
     0
 49
-0.635
 74
     0
  0
ENDTAB
  0
TABLE
  2
LAYER
  5
2
330
0
100
AcDbSymbolTable
 70
     2
  0
LAYER
  5
14
330
2
100
AcDbSymbolTableRecord
100
AcDbLayerTableRecord
  2
0
 70
     0
 62
     7
  6
CONTINUOUS
370
    -3
390
30F
  0
LAYER
  5
26
330
2
100
AcDbSymbolTableRecord
100
AcDbLayerTableRecord
  2
DEFPOINTS
 70
     0
 62
     7
  6
CONTINUOUS
290
     0
370
    -3
390
30F
  0
ENDTAB
  0
TABLE
  2
STYLE
  5
3
330
0
100
AcDbSymbolTable
 70
     1
  0
STYLE
  5
17
330
3
100
AcDbSymbolTableRecord
100
AcDbTextStyleTableRecord
  2
STANDARD
 70
     0
 40
0.0
 41
1.0
 50
0.0
 71
     0
 42
0.0
  3
Century Gothic
  4

  0
ENDTAB
  0
TABLE
  2
VIEW
  5
5
330
0
100
AcDbSymbolTable
 70
     0
  0
ENDTAB
  0
TABLE
  2
UCS
  5
6
330
0
100
AcDbSymbolTable
 70
     0
  0
ENDTAB
  0
TABLE
  2
APPID
  5
8
330
0
100
AcDbSymbolTable
 70
     2
  0
APPID
  5
16
330
8
100
AcDbSymbolTableRecord
100
AcDbRegAppTableRecord
  2
ACAD
 70
     0
  0
APPID
  5
31A
330
8
100
AcDbSymbolTableRecord
100
AcDbRegAppTableRecord
  2
DCO15
 70
     0
  0
ENDTAB
  0
TABLE
  2
DIMSTYLE
  5
9
330
0
100
AcDbSymbolTable
 70
     1
100
AcDbDimStyleTable
 71
     0
  0
DIMSTYLE
105
18
330
9
100
AcDbSymbolTableRecord
100
AcDbDimStyleTableRecord
  2
STANDARD
 70
     0
289
     0
340
17
  0
ENDTAB
  0
TABLE
  2
BLOCK_RECORD
  5
1
330
0
100
AcDbSymbolTable
 70
     0
  0
BLOCK_RECORD
  5
A
330
1
100
AcDbSymbolTableRecord
100
AcDbBlockTableRecord
  2
*MODEL_SPACE
340
314
  0
BLOCK_RECORD
  5
B
330
1
100
AcDbSymbolTableRecord
100
AcDbBlockTableRecord
  2
*PAPER_SPACE
340
315
  0
ENDTAB
  0
ENDSEC
  0
SECTION
  2
BLOCKS
  0
BLOCK
  5
D
330
A
100
AcDbEntity
  8
0
100
AcDbBlockBegin
  2
*MODEL_SPACE
 70
     0
 10
0.0
 20
0.0
 30
0.0
  3
*MODEL_SPACE
  1

  0
ENDBLK
  5
E
330
A
100
AcDbEntity
  8
0
100
AcDbBlockEnd
  0
BLOCK
  5
F
330
B
100
AcDbEntity
 67
     1
  8
0
100
AcDbBlockBegin
  2
*PAPER_SPACE
 70
     0
 10
0.0
 20
0.0
 30
0.0
  3
*PAPER_SPACE
  1

  0
ENDBLK
  5
10
330
B
100
AcDbEntity
 67
     1
  8
0
100
AcDbBlockEnd
  0
ENDSEC
  0
SECTION
  2
ENTITIES
  0
LINE
  5
27
330
A
100
AcDbEntity
  8
0
  6
Continuous
 62
     7
100
AcDbLine
 10
-32.00135815435762
 20
963.5023902463043
 30
0.0
 11
-32.00135815435762
 21
956.8174017647011
 31
0.0
  0
LINE
  5
28
330
A
100
AcDbEntity
  8
0
  6
Continuous
 62
     7
100
AcDbLine
 10
149.9986418456423
 20
956.8174017647011
 30
0.0
 11
149.9986418456423
 21
963.5023902463043
 31
0.0
  0
ARC
  5
29
330
A
100
AcDbEntity
  8
0
  6
Continuous
 62
     7
100
AcDbCircle
 10
58.99864184564235
 20
1190.740466040116
 30
0.0
 40
250.9999999999999
100
AcDbArc
 50
248.7431291678446
 51
259.7521966040114
  0
ARC
  5
2A
330
A
100
AcDbEntity
  8
0
  6
Continuous
 62
     7
100
AcDbCircle
 10
58.99864184564235
 20
1190.740466040116
 30
0.0
 40
250.9999999999999
100
AcDbArc
 50
260.2151998237361
 51
279.7848001762655
  0
ARC
  5
2B
330
A
100
AcDbEntity
  8
0
  6
Continuous
 62
     7
100
AcDbCircle
 10
58.99864184564235
 20
1190.740466040116
 30
0.0
 40
250.9999999999999
100
AcDbArc
 50
280.2478033959902
 51
291.256870832157
  0
LINE
  5
2C
330
A
100
AcDbEntity
  8
0
  6
Continuous
 62
     7
100
AcDbLine
 10
-7.001358154357623
 20
990.5023902463042
 30
0.0
 11
-7.001358154357623
 21
963.5023902463043
 31
0.0
  0
LINE
  5
2D
330
A
100
AcDbEntity
  8
0
  6
Continuous
 62
     7
100
AcDbLine
 10
124.9986418456423
 20
963.5023902463043
 30
0.0
 11
124.9986418456423
 21
990.5023902463042
 31
0.0
  0
LINE
  5
2E
330
A
100
AcDbEntity
  8
0
  6
Continuous
 62
     7
100
AcDbLine
 10
122.8883693029842
 20
-510.4976097536956
 30
0.0
 11
122.8883693029842
 21
-500.4976097536957
 31
0.0
  0
LINE
  5
2F
330
A
100
AcDbEntity
  8
0
  6
Continuous
 62
     7
100
AcDbLine
 10
-4.891085611699471
 20
-500.4976097536957
 30
0.0
 11
-4.891085611699471
 21
-510.4976097536956
 31
0.0
  0
LINE
  5
30
330
A
100
AcDbEntity
  8
0
  6
Continuous
 62
     7
100
AcDbLine
 10
101.6458893697915
 20
944.679013299474
 30
0.0
 11
112.558213776735
 21
-500.4976097536957
 31
0.0
  0
LINE
  5
31
330
A
100
AcDbEntity
  8
0
  6
Continuous
 62
     7
100
AcDbLine
 10
114.5582707913887
 20
-500.4976097536957
 30
0.0
 11
103.643301589211
 21
945.0292774689293
 31
0.0
  0
LINE
  5
32
330
A
100
AcDbEntity
  8
0
  6
Continuous
 62
     7
100
AcDbLine
 10
14.35398364259362
 20
945.0294814881354
 30
0.0
 11
3.439012899895566
 21
-500.4976097536957
 31
0.0
  0
LINE
  5
33
330
A
100
AcDbEntity
  8
0
  6
Continuous
 62
     7
100
AcDbLine
 10
5.43906991454926
 20
-500.4976097536957
 30
0.0
 11
16.35138028335676
 21
944.6771541551267
 31
0.0
  0
LINE
  5
34
330
A
100
AcDbEntity
  8
0
  6
Continuous
 62
     7
100
AcDbLine
 10
42.99864184564238
 20
-510.4976097536956
 30
0.0
 11
42.99864184564238
 21
-511.0198486769252
 31
0.0
  0
LINE
  5
35
330
A
100
AcDbEntity
  8
0
  6
Continuous
 62
     7
100
AcDbLine
 10
74.99864184564238
 20
-511.019848676925
 30
0.0
 11
74.99864184564238
 21
-510.4976097536956
 31
0.0
  0
LINE
  5
36
330
A
100
AcDbEntity
  8
0
  6
Continuous
 62
     7
100
AcDbLine
 10
57.99864184564238
 20
939.7424580798936
 30
0.0
 11
57.99864184564238
 21
-500.4976097536957
 31
0.0
  0
LINE
  5
37
330
A
100
AcDbEntity
  8
0
  6
Continuous
 62
     7
100
AcDbLine
 10
59.99864184564238
 20
-500.4976097536957
 30
0.0
 11
59.99864184564238
 21
939.7424580798936
 31
0.0
  0
LWPOLYLINE
  5
38
330
A
100
AcDbEntity
  8
0
  6
Continuous
 62
     7
100
AcDbPolyline
 90
       22
 70
   128
 43
0.0
 10
138.8181243628683
 20
-666.0198486769246
 10
138.5435361188145
 20
-656.2533585073762
 10
138.3067498966941
 20
-647.6101380309374
 10
138.1049122166137
 20
-640.0901872476076
 10
137.9359670784382
 20
-633.6935061573874
 10
137.7984298488924
 20
-628.4200947602764
 10
137.6912286345154
 20
-624.2699530562751
 10
137.6178640415858
 20
-621.4099263445461
 10
137.5698184410052
 20
-619.5283923432586
 10
137.5361656351359
 20
-618.2068133313489
 10
137.4970052176738
 20
-616.6648403535604
 10
137.451937043031
 20
-614.8847892993469
 10
137.4010179976038
 20
-612.8666601687084
 10
137.2582203487374
 20
-607.167654012472
 10
137.0842416286954
 20
-600.1458569112014
 10
136.8743607087778
 20
-591.536794098415
 10
136.6400380197671
 20
-581.7156986290529
 10
136.381628307805
 20
-570.6837076791539
 10
136.0981235452447
 20
-558.4408212487182
 10
135.7878302157325
 20
-544.9870393377453
 10
135.4498215930604
 20
-530.3223619462357
 10
135.1206723997367
 20
-515.9302337989868
  0
LINE
  5
50
330
A
100
AcDbEntity
  8
0
  6
Continuous
 62
     7
100
AcDbLine
 10
104.3651757583752
 20
-511.0198486769255
 30
0.0
 11
104.365105411745
 21
-511.0198486773884
 31
0.0
  0
LWPOLYLINE
  5
51
330
A
100
AcDbEntity
  8
0
  6
Continuous
 62
     7
100
AcDbPolyline
 90
        9
 70
   128
 43
0.0
 10
130.1771736657645
 20
-511.0198486775742
 10
131.1377489023982
 20
-511.1129709332334
 10
132.0631025570337
 20
-511.3891281050824
 10
132.9181108320875
 20
-511.8380191031331
 10
133.6708804512342
 20
-512.4428995226129
 10
134.2933318155116
 20
-513.1812062855674
 10
134.7622464205621
 20
-514.0253992823962
 10
135.060132946701
 20
-514.9439886652166
 10
135.1758797151658
 20
-515.9027094732433
  0
LWPOLYLINE
  5
5C
330
A
100
AcDbEntity
  8
0
  6
Continuous
 62
     7
100
AcDbPolyline
 90
       32
 70
   128
 43
0.0
 10
-37.30113621433523
 20
-515.9723506609877
 10
-37.36446952547162
 20
-523.264652734771
 10
-37.52020918927218
 20
-530.7707303356461
 10
-37.72861543593042
 20
-537.2882517885981
 10
-37.95333249321414
 20
-542.8172170936271
 10
-38.15602854911843
 20
-547.1949901624888
 10
-38.32751079595503
 20
-550.6617098854247
 10
-38.46601518842518
 20
-553.3759375564109
 10
-38.60248577373733
 20
-556.0040443202223
 10
-38.74063481010256
 20
-558.6201636528451
 10
-38.88152298999106
 20
-561.2373532698036
 10
-39.03484774342532
 20
-564.0342645647689
 10
-39.35717655259044
 20
-569.775023113046
 10
-39.69289432723469
 20
-575.5452872953831
 10
-39.99873376708634
 20
-580.6858097535665
 10
-40.14617726150274
 20
-583.2186804205223
 10
-40.32046763042344
 20
-586.1838016927885
 10
-40.52759958374226
 20
-589.606787146429
 10
-40.76895242803693
 20
-593.4876367814437
 10
-41.02235963875469
 20
-597.515954252449
 10
-41.20247596802065
 20
-600.3907740225804
 10
-41.3070190883891
 20
-602.063436500204
 10
-41.38156949944272
 20
-603.254996710713
 10
-41.51152520287873
 20
-605.3270139547164
 10
-41.72952998970187
 20
-608.7892629986068
 10
-42.02330464983478
 20
-613.429899270036
 10
-42.39402194303422
 20
-619.2489227690039
 10
-42.84293142651704
 20
-626.2463334955106
 10
-43.37122539240927
 20
-634.422131449556
 10
-43.9798839947908
 20
-643.77631663114
 10
-44.66950225790276
 20
-654.3088890402631
 10
-45.44010209050321
 20
-666.0198486769249
  0
LWPOLYLINE
  5
7E
330
A
100
AcDbEntity
  8
0
  6
Continuous
 62
     7
100
AcDbPolyline
 90
        9
 70
   128
 43
0.0
 10
-37.30124904008872
 20
-516.0147894215687
 10
-37.20268060206705
 20
-515.0319246644291
 10
-36.91281159634327
 20
-514.087618141681
 10
-36.44295548116357
 20
-513.2187257165112
 10
-35.81145053152737
 20
-512.4591598734498
 10
-35.04294410447832
 20
-511.8385661291993
 10
-34.1674306637315
 20
-511.3811659813148
 10
-33.21908110910801
 20
-511.1048115539369
 10
-32.30124741981569
 20
-511.019848676927
  0
LINE
  5
89
330
A
100
AcDbEntity
  8
0
  6
Continuous
 62
     7
100
AcDbLine
 10
58.99864184564238
 20
963.5023902463043
 30
0.0
 11
149.9986418456423
 21
963.5023902463043
 31
0.0
  0
LINE
  5
8A
330
A
100
AcDbEntity
  8
0
  6
Continuous
 62
     7
100
AcDbLine
 10
-32.00135815435762
 20
963.5023902463043
 30
0.0
 11
58.99864184564238
 21
963.5023902463043
 31
0.0
  0
LINE
  5
8B
330
A
100
AcDbEntity
  8
0
  6
Continuous
 62
     7
100
AcDbLine
 10
58.99864184564238
 20
956.8174017647011
 30
0.0
 11
149.9986418456423
 21
956.8174017647011
 31
0.0
  0
LINE
  5
8C
330
A
100
AcDbEntity
  8
0
  6
Continuous
 62
     7
100
AcDbLine
 10
-32.00135815435762
 20
956.8174017647011
 30
0.0
 11
58.99864184564238
 21
956.8174017647011
 31
0.0
  0
LWPOLYLINE
  5
8D
330
A
100
AcDbEntity
  8
0
  6
Continuous
 62
     7
100
AcDbPolyline
 90
       12
 70
   128
 43
0.0
 10
14.36626406880475
 20
945.0293923526274
 10
14.35945502880499
 20
945.0411381476252
 10
14.44972061588852
 20
945.0582108031788
 10
14.63834492121779
 20
945.0525789940124
 10
14.90323120853321
 20
945.0254729571852
 10
15.21762031036623
 20
944.9797100702163
 10
15.5501925272274
 20
944.9196252505656
 10
15.86491410574595
 20
944.8513247486085
 10
16.12367330648299
 20
944.782618173154
 10
16.29285171563556
 20
944.7220780312649
 10
16.35137933106342
 20
944.67729926782
 10
16.35104625152502
 20
944.6771569230838
  0
LWPOLYLINE
  5
9B
330
A
100
AcDbEntity
  8
0
  6
Continuous
 62
     7
100
AcDbPolyline
 90
       11
 70
   128
 43
0.0
 10
101.6576312387982
 20
944.679098847085
 10
101.6711078782267
 20
944.7044929438472
 10
101.7973293549988
 20
944.7582150031065
 10
102.0199124057992
 20
944.8233688877399
 10
102.3171437515087
 20
944.8929342968952
 10
102.6550315741349
 20
944.9585332179307
 10
102.9913714806826
 20
945.0118407940037
 10
103.2844133808598
 20
945.046424594083
 10
103.5013724800304
 20
945.058891005566
 10
103.6217740128748
 20
945.0487492371633
 10
103.6306047953273
 20
945.0291792665412
  0
LINE
  5
A8
330
A
100
AcDbEntity
  8
0
  6
Continuous
 62
     7
100
AcDbLine
 10
58.99864184564238
 20
990.5023902463042
 30
0.0
 11
124.9986418456423
 21
990.5023902463042
 31
0.0
  0
LINE
  5
A9
330
A
100
AcDbEntity
  8
0
  6
Continuous
 62
     7
100
AcDbLine
 10
-7.001358154357623
 20
990.5023902463042
 30
0.0
 11
58.99864184564238
 21
990.5023902463042
 31
0.0
  0
LINE
  5
AA
330
A
100
AcDbEntity
  8
0
  6
Continuous
 62
     7
100
AcDbLine
 10
115.5410114890547
 20
-510.4976097536956
 30
0.0
 11
122.8883693029842
 21
-510.4976097536956
 31
0.0
  0
LINE
  5
AB
330
A
100
AcDbEntity
  8
0
  6
Continuous
 62
     7
100
AcDbLine
 10
115.5410114890547
 20
-500.4976097536957
 30
0.0
 11
122.8883693029842
 21
-500.4976097536957
 31
0.0
  0
LINE
  5
AC
330
A
100
AcDbEntity
  8
0
  6
Continuous
 62
     7
100
AcDbLine
 10
-4.891085611699471
 20
-510.4976097536956
 30
0.0
 11
2.456272202230019
 21
-510.4976097536956
 31
0.0
  0
LINE
  5
AD
330
A
100
AcDbEntity
  8
0
  6
Continuous
 62
     7
100
AcDbLine
 10
-4.891085611699471
 20
-500.4976097536957
 30
0.0
 11
2.456272202230019
 21
-500.4976097536957
 31
0.0
  0
LINE
  5
AE
330
A
100
AcDbEntity
  8
0
  6
Continuous
 62
     7
100
AcDbLine
 10
34.51255573710109
 20
-500.4976097536957
 30
0.0
 11
34.51255573710109
 21
-510.4976097536956
 31
0.0
  0
LINE
  5
AF
330
A
100
AcDbEntity
  8
0
  6
Continuous
 62
     7
100
AcDbLine
 10
2.456272202230019
 20
-510.4976097536956
 30
0.0
 11
34.51255573710109
 21
-510.4976097536956
 31
0.0
  0
LINE
  5
B0
330
A
100
AcDbEntity
  8
0
  6
Continuous
 62
     7
100
AcDbLine
 10
2.456272202230019
 20
-500.4976097536957
 30
0.0
 11
34.51255573710109
 21
-500.4976097536957
 31
0.0
  0
LINE
  5
B1
330
A
100
AcDbEntity
  8
0
  6
Continuous
 62
     7
100
AcDbLine
 10
83.48472795418368
 20
-500.4976097536957
 30
0.0
 11
83.48472795418368
 21
-510.4976097536956
 31
0.0
  0
LINE
  5
B2
330
A
100
AcDbEntity
  8
0
  6
Continuous
 62
     7
100
AcDbLine
 10
83.48472795418368
 20
-510.4976097536956
 30
0.0
 11
115.5410114890547
 21
-510.4976097536956
 31
0.0
  0
LINE
  5
B3
330
A
100
AcDbEntity
  8
0
  6
Continuous
 62
     7
100
AcDbLine
 10
83.48472795418368
 20
-500.4976097536957
 30
0.0
 11
115.5410114890547
 21
-500.4976097536957
 31
0.0
  0
LINE
  5
B4
330
A
100
AcDbEntity
  8
0
  6
Continuous
 62
     7
100
AcDbLine
 10
34.51255573710109
 20
-510.4976097536956
 30
0.0
 11
83.48472795418368
 21
-510.4976097536956
 31
0.0
  0
LINE
  5
B5
330
A
100
AcDbEntity
  8
0
  6
Continuous
 62
     7
100
AcDbLine
 10
34.51255573710109
 20
-500.4976097536957
 30
0.0
 11
83.48472795418368
 21
-500.4976097536957
 31
0.0
  0
LINE
  5
B6
330
A
100
AcDbEntity
  8
0
  6
Continuous
 62
     7
100
AcDbLine
 10
13.71760759071454
 20
-516.4381734760167
 30
0.0
 11
27.84675332958551
 21
-666.019848676925
 31
0.0
  0
LINE
  5
B7
330
A
100
AcDbEntity
  8
0
  6
Continuous
 62
     7
100
AcDbLine
 10
96.85886821892703
 20
-515.3508033461735
 30
0.0
 11
96.85884634413936
 21
-515.3506607477871
 31
0.0
  0
LINE
  5
B8
330
A
100
AcDbEntity
  8
0
  6
Continuous
 62
     7
100
AcDbLine
 10
96.85886821892703
 20
-515.3508033461737
 30
0.0
 11
119.9717060008517
 21
-666.0198486769244
 31
0.0
  0
LINE
  5
B9
330
A
100
AcDbEntity
  8
0
  6
Continuous
 62
     7
100
AcDbLine
 10
119.9717060008518
 20
-666.0198486769249
 30
0.0
 11
27.84675332958809
 21
-666.019848676925
 31
0.0
  0
LWPOLYLINE
  5
BA
330
A
100
AcDbEntity
  8
0
  6
Continuous
 62
     7
100
AcDbPolyline
 90
        7
 70
   128
 43
0.0
 10
13.96638544013617
 20
-511.019848676925
 10
13.95464644025601
 20
-511.0253776039869
 10
13.89142409754245
 20
-511.2504954366515
 10
13.81681358326052
 20
-512.0162184856789
 10
13.75906616499825
 20
-513.2333199855065
 10
13.72469240417371
 20
-514.7645811718348
 10
13.71753115310286
 20
-516.4373642504478
  0
LWPOLYLINE
  5
C3
330
A
100
AcDbEntity
  8
0
  6
Continuous
 62
     7
100
AcDbPolyline
 90
        5
 70
   128
 43
0.0
 10
98.18630617829061
 20
-511.0198486769252
 10
97.72959749975759
 20
-511.3194460189895
 10
97.30974422584161
 20
-512.2390675908228
 10
97.00874941874932
 20
-513.6366341705629
 10
96.85884634413932
 20
-515.3506607477869
  0
LINE
  5
CA
330
A
100
AcDbEntity
  8
0
  6
Continuous
 62
     7
100
AcDbLine
 10
13.71760759071453
 20
-516.4381734760167
 30
0.0
 11
13.71753115310286
 21
-516.4373642504476
 31
0.0
  0
LINE
  5
CB
330
A
100
AcDbEntity
  8
0
  6
Continuous
 62
     7
100
AcDbLine
 10
13.96638544013617
 20
-511.019848676925
 30
0.0
 11
98.18630617829056
 21
-511.0198486769252
 31
0.0
  0
LINE
  5
CC
330
A
100
AcDbEntity
  8
0
  6
Continuous
 62
     7
100
AcDbLine
 10
135.0359864411363
 20
-515.9319821939436
 30
0.0
 11
135.0825255007834
 21
-515.9162670228141
 31
0.0
  0
LINE
  5
CD
330
A
100
AcDbEntity
  8
0
  6
Continuous
 62
     7
100
AcDbLine
 10
119.9717060008518
 20
-666.0198486769249
 30
0.0
 11
138.75655454242
 21
-666.0198486769249
 31
0.0
  0
LINE
  5
CE
330
A
100
AcDbEntity
  8
0
  6
Continuous
 62
     7
100
AcDbLine
 10
117.1615388063552
 20
-516.415638349257
 30
0.0
 11
117.1614759759141
 21
-516.4163767235887
 31
0.0
  0
LWPOLYLINE
  5
CF
330
A
100
AcDbEntity
  8
0
  6
Continuous
 62
     7
100
AcDbPolyline
 90
        7
 70
   128
 43
0.0
 10
117.1615388063552
 20
-516.415638349257
 10
117.0131656385954
 20
-514.743493072364
 10
116.3255345728639
 20
-513.2152472085502
 10
115.1761707242272
 20
-512.0031986415845
 10
113.6946557403807
 20
-511.243996487682
 10
112.4722711873538
 20
-511.0258450199922
 10
112.230065350995
 20
-511.019848676925
  0
LINE
  5
D8
330
A
100
AcDbEntity
  8
0
  6
Continuous
 62
     7
100
AcDbLine
 10
98.18630617829057
 20
-511.0198486769252
 30
0.0
 11
130.1262009687862
 21
-511.0198486769252
 31
0.0
  0
LINE
  5
D9
330
A
100
AcDbEntity
  8
0
  6
Continuous
 62
     7
100
AcDbLine
 10
-37.16763368880064
 20
-515.9912775606096
 30
0.0
 11
-37.15442166568472
 21
-515.9741982157133
 31
0.0
  0
LINE
  5
DA
330
A
100
AcDbEntity
  8
0
  6
Continuous
 62
     7
100
AcDbLine
 10
27.84675332958809
 20
-666.019848676925
 30
0.0
 11
-45.44036479353777
 21
-666.0198486769249
 31
0.0
  0
LINE
  5
DB
330
A
100
AcDbEntity
  8
0
  6
Continuous
 62
     7
100
AcDbLine
 10
13.96638544013616
 20
-511.019848676925
 30
0.0
 11
-32.23686055231942
 21
-511.0198486769248
 31
0.0
  0
LINE
  5
DC
330
A
100
AcDbEntity
  8
0
  6
PHANTOM
 62
     7
100
AcDbLine
 10
115.5410114890547
 20
-500.4976097536957
 30
0.0
 11
115.5410114890547
 21
-510.4976097536956
 31
0.0
  0
LINE
  5
DD
330
A
100
AcDbEntity
  8
0
  6
PHANTOM
 62
     7
100
AcDbLine
 10
2.456272202230019
 20
-500.4976097536957
 30
0.0
 11
2.456272202230019
 21
-510.4976097536956
 31
0.0
  0
LWPOLYLINE
  5
DE
330
A
100
AcDbEntity
  8
0
  6
PHANTOM
 62
     7
100
AcDbPolyline
 90
       43
 70
   128
 43
0.0
 10
96.85884634413936
 20
-515.3506607477871
 10
96.85881747779269
 20
-515.3506599759491
 10
92.79835540676563
 20
-515.2388372109668
 10
88.66018234254726
 20
-515.1269050735236
 10
85.96049775816004
 20
-515.064293204646
 10
83.32000069203379
 20
-515.0225342852608
 10
80.72690501481414
 20
-515.0055216190915
 10
78.36738385651665
 20
-515.0178524480633
 10
76.28474015769526
 20
-515.06539154068
 10
74.54038940759224
 20
-515.1350507226579
 10
72.45451776533402
 20
-515.2546235497579
 10
70.91187581346175
 20
-515.3779570828427
 10
69.02683639268928
 20
-515.5977657035681
 10
67.29923204789255
 20
-515.7753122494941
 10
65.88672511114133
 20
-515.8350154358278
 10
63.85007698464512
 20
-515.9007217225311
 10
62.13665292178781
 20
-515.9721992034318
 10
60.02219391304369
 20
-516.0550598219677
 10
57.86965471594868
 20
-516.1187020700681
 10
55.55852618459597
 20
-516.1743618899111
 10
51.98453106355369
 20
-516.2550923789953
 10
48.32534559959852
 20
-516.3428825419084
 10
43.50711194276545
 20
-516.4906437209455
 10
40.50773572793828
 20
-516.6102467569968
 10
37.57139680000094
 20
-516.7493956588997
 10
35.93825430257173
 20
-516.8334027082779
 10
34.43305790703665
 20
-516.9020655865513
 10
33.13433466743435
 20
-516.9386279926952
 10
32.03524548373792
 20
-516.9488863778242
 10
30.85263844521082
 20
-516.9425466461324
 10
29.91999509275843
 20
-516.927110949313
 10
28.38659989877283
 20
-516.888652003298
 10
27.20020906909008
 20
-516.8531988807199
 10
26.42870157605211
 20
-516.8216654676247
 10
25.66966569017661
 20
-516.7912725944675
 10
24.66156795435469
 20
-516.7643151934449
 10
23.1428749114774
 20
-516.7430881967539
 10
22.16171468376547
 20
-516.7333842218318
 10
20.8615497099521
 20
-516.7117087102142
 10
18.83705793810405
 20
-516.6446281471251
 10
16.31200057883884
 20
-516.5273490049888
 10
13.71763754429086
 20
-516.4381742895963
 10
13.71760759071454
 20
-516.4381734760167
  0
LWPOLYLINE
  5
10B
330
A
100
AcDbEntity
  8
0
  6
PHANTOM
 62
     7
100
AcDbPolyline
 90
       18
 70
   128
 43
0.0
 10
135.0825255007834
 20
-515.9162670228141
 10
135.1181807242453
 20
-515.9042270730898
 10
134.5412551564089
 20
-515.8719860617651
 10
133.7598631680374
 20
-515.8517571340455
 10
132.4817067320046
 20
-515.83157206852
 10
130.9514679648994
 20
-515.8198696374929
 10
129.6634779352458
 20
-515.8260691987111
 10
128.1645371061638
 20
-515.8500309172311
 10
127.5287213632789
 20
-515.8582956222155
 10
125.504541689939
 20
-515.8714916537892
 10
123.4380235341218
 20
-515.8692055483194
 10
120.8740667031009
 20
-515.8509049066557
 10
118.3534055853634
 20
-515.8190932300292
 10
111.1556147167497
 20
-515.6915879640522
 10
104.0552794883791
 20
-515.5341137003744
 10
96.85889708420537
 20
-515.350804115698
 10
96.85886821892703
 20
-515.3508033461735
 10
96.85886821892703
 20
-515.3508033461735
  0
LWPOLYLINE
  5
11F
330
A
100
AcDbEntity
  8
0
  6
PHANTOM
 62
     7
100
AcDbPolyline
 90
       17
 70
   128
 43
0.0
 10
13.71753115310287
 20
-516.4373642504478
 10
13.71750119805115
 20
-516.4373633906495
 10
10.50087962548624
 20
-516.3660428364003
 10
7.288161856151276
 20
-516.325109255508
 10
2.626606551392018
 20
-516.2885232068739
 10
-2.03526222649647
 20
-516.2521289208004
 10
-5.667566975961407
 20
-516.2153391824187
 10
-9.180592735507808
 20
-516.1794393448396
 10
-12.19778465297687
 20
-516.1518021973982
 10
-14.8914954705681
 20
-516.1149021381647
 10
-22.08858056736534
 20
-515.9766522865224
 10
-28.83881216818085
 20
-516.0722514548863
 10
-32.05992210519573
 20
-516.1982331816219
 10
-34.66028394340637
 20
-516.222129206575
 10
-36.33687786141746
 20
-516.1660876064675
 10
-37.21857701470123
 20
-516.0571326250148
 10
-37.16763368880064
 20
-515.9912775606096
  0
LINE
  5
132
330
A
100
AcDbEntity
  8
0
  6
PHANTOM
 62
     7
100
AcDbLine
 10
117.1615436425344
 20
-516.4156381420322
 30
0.0
 11
117.1615392466064
 21
-516.4156383303929
 31
0.0
  0
LWPOLYLINE
  5
133
330
A
100
AcDbEntity
  8
0
  6
Continuous
 62
     7
100
AcDbPolyline
 90
       12
 70
   128
 43
0.0
 10
30.57377712197391
 20
-1078.650167236498
 10
31.11287108442066
 20
-1079.737069807592
 10
32.12337785980716
 20
-1081.238214968766
 10
33.29761411771145
 20
-1082.517127047287
 10
34.65297302614477
 20
-1083.582973368458
 10
36.15761697771989
 20
-1084.414426487626
 10
37.79213412945588
 20
-1085.018232043378
 10
39.52906569848799
 20
-1085.396744107154
 10
41.38220674683199
 20
-1085.56992480392
 10
43.3992792573852
 20
-1085.562183965092
 10
45.71602370389553
 20
-1085.414495723187
 10
47.46412453866446
 20
-1085.202799969636
  0
LINE
  5
141
330
A
100
AcDbEntity
  8
0
  6
Continuous
 62
     7
100
AcDbLine
 10
-27.74053117573654
 20
-1020.06885367722
 30
0.0
 11
-27.23468655001156
 21
-1020.782963426723
 31
0.0
  0
LWPOLYLINE
  5
142
330
A
100
AcDbEntity
  8
0
  6
Continuous
 62
     7
100
AcDbPolyline
 90
        9
 70
   128
 43
0.0
 10
16.19737165642025
 20
-1018.127595124402
 10
15.82827543996876
 20
-1018.255985936398
 10
15.43852933529338
 20
-1018.227508985326
 10
15.08695102374728
 20
-1018.057643307848
 10
14.83131333536649
 20
-1017.761588725412
 10
14.70283356554944
 20
-1017.392872915429
 10
14.73142255410682
 20
-1017.002764113934
 10
14.90130303268613
 20
-1016.651186892273
 10
15.19737165642026
 20
-1016.395544316833
  0
LINE
  5
14D
330
A
100
AcDbEntity
  8
0
  6
Continuous
 62
     7
100
AcDbLine
 10
15.19737165642027
 20
-1016.395544316833
 30
0.0
 11
16.19737165642025
 21
-1018.127595124402
 31
0.0
  0
LINE
  5
14E
330
A
100
AcDbEntity
  8
0
  6
Continuous
 62
     7
100
AcDbLine
 10
57.99864184564238
 20
-942.2615697206182
 30
0.0
 11
59.99864184564238
 21
-942.2615697206182
 31
0.0
  0
LWPOLYLINE
  5
14F
330
A
100
AcDbEntity
  8
0
  6
Continuous
 62
     7
100
AcDbPolyline
 90
        9
 70
   128
 43
0.0
 10
59.99864184564238
 20
-942.2615697206182
 10
59.92528331793158
 20
-941.8777568439081
 10
59.70574862682893
 20
-941.5544898152479
 10
59.38285177918147
 20
-941.334963718029
 10
58.99864184564238
 20
-941.2616077287621
 10
58.61508500288804
 20
-941.3346932092494
 10
58.29153506445583
 20
-941.5544898152479
 10
58.07200062313977
 20
-941.8773743901867
 10
57.99864184564238
 20
-942.2615697206182
  0
CIRCLE
  5
15A
330
A
100
AcDbEntity
  8
0
  6
Continuous
 62
     7
100
AcDbCircle
 10
58.99864184564238
 20
-992.2615697206182
 30
0.0
 40
65.99999999999977
  0
LWPOLYLINE
  5
15B
330
A
100
AcDbEntity
  8
0
  6
Continuous
 62
     7
100
AcDbPolyline
 90
        9
 70
   128
 43
0.0
 10
102.7999120348641
 20
-1016.395544316834
 10
103.0956498478914
 20
-1016.650995610724
 10
103.2658611371776
 20
-1017.002764113934
 10
103.2945423010236
 20
-1017.392172701892
 10
103.1659703559179
 20
-1017.761588725413
 10
102.910892982604
 20
-1018.057213374939
 10
102.558754355991
 20
-1018.227508985326
 10
102.169339311349
 20
-1018.2561767861
 10
101.7999120348641
 20
-1018.127595124403
  0
LINE
  5
166
330
A
100
AcDbEntity
  8
0
  6
Continuous
 62
     7
100
AcDbLine
 10
101.7999120348641
 20
-1018.127595124403
 30
0.0
 11
102.7999120348641
 21
-1016.395544316834
 31
0.0
  0
CIRCLE
  5
167
330
A
100
AcDbEntity
  8
0
  6
Continuous
 62
     7
100
AcDbCircle
 10
58.99864184564238
 20
-992.2615697206182
 30
0.0
 40
90.99999999999988
  0
LWPOLYLINE
  5
168
330
A
100
AcDbEntity
  8
0
  6
Continuous
 62
     7
100
AcDbPolyline
 90
       12
 70
   128
 43
0.0
 10
-27.71513728133201
 20
-1020.045581177555
 10
-28.8388121681808
 20
-1018.819670066261
 10
-32.0599221051957
 20
-1014.488958553435
 10
-34.66028394340637
 20
-1009.759061812709
 10
-36.33687786141742
 20
-1005.273092896692
 10
-37.21857701470119
 20
-1000.577596616587
 10
-37.08259050876357
 20
-995.3044075942989
 10
-36.0005728061636
 20
-990.1217578915845
 10
-34.23607256304425
 20
-984.8392986154292
 10
-32.22096676935996
 20
-979.6413314050555
 10
-30.24845120182807
 20
-974.9834266397492
 10
-30.13350228133352
 20
-974.787618099274
  0
LWPOLYLINE
  5
176
330
A
100
AcDbEntity
  8
0
  6
Continuous
 62
     7
100
AcDbPolyline
 90
        5
 70
   128
 43
0.0
 10
56.41642826792594
 20
-1083.157638587042
 10
55.55852618459597
 20
-1083.51261904696
 10
51.9845310635537
 20
-1084.489211106614
 10
48.32534559959857
 20
-1085.108441407285
 10
47.47293584850621
 20
-1085.1802982118
  0
LWPOLYLINE
  5
17D
330
A
100
AcDbEntity
  8
0
  6
Continuous
 62
     7
100
AcDbPolyline
 90
       17
 70
   128
 43
0.0
 10
79.64079616642417
 20
-903.8129703809648
 10
83.01480342676665
 20
-901.9813868983595
 10
86.34702888684842
 20
-900.1093016193507
 10
89.73552707900831
 20
-898.5373775501184
 10
93.25852300630428
 20
-897.5394257117725
 10
96.97995590831983
 20
-897.3775016476542
 10
100.7343434989159
 20
-898.1248743759341
 10
104.1712236103366
 20
-899.7025965568504
 10
107.0050153684607
 20
-902.0124856466377
 10
109.3192999196504
 20
-904.8779464864665
 10
111.3186643379884
 20
-908.0966814055898
 10
113.2077660881256
 20
-911.4663777818085
 10
115.1908688584115
 20
-914.784974214629
 10
117.2985913572919
 20
-917.961191460847
 10
119.1160801083968
 20
-921.1879529629499
 10
120.1819372462888
 20
-924.6868331895077
 10
120.1961547714674
 20
-925.132288118935
  0
LWPOLYLINE
  5
190
330
A
100
AcDbEntity
  8
0
  6
Continuous
 62
     7
100
AcDbPolyline
 90
        4
 70
   128
 43
0.0
 10
119.9717060008518
 20
-1066.791139892515
 10
118.4586771022455
 20
-1066.618703555012
 10
113.3632926145604
 20
-1065.5169570252
 10
113.0182394357702
 20
-1065.395893384747
  0
LINE
  5
196
330
A
100
AcDbEntity
  8
0
  6
Continuous
 62
     7
100
AcDbLine
 10
116.5690536625186
 20
-1062.736016743885
 30
0.0
 11
119.9717060008517
 21
-1066.791139892515
 31
0.0
  0
LWPOLYLINE
  5
197
330
A
100
AcDbEntity
  8
0
  6
Continuous
 62
     7
100
AcDbPolyline
 90
       12
 70
   128
 43
0.0
 10
138.7540130372368
 20
-1035.743731004393
 10
138.7565545424199
 20
-1036.086621781449
 10
138.2125595176415
 20
-1044.480654289773
 10
137.6392429296308
 20
-1050.313220434399
 10
136.7602673505544
 20
-1056.230553275559
 10
135.9570909047166
 20
-1059.099244357752
 10
134.7776881378009
 20
-1061.640278149337
 10
133.114173329379
 20
-1063.724004447996
 10
130.4742858928213
 20
-1065.458517839267
 10
127.2517100848866
 20
-1066.484304607271
 10
123.6747490670664
 20
-1066.896725156767
 10
119.9717060008518
 20
-1066.791139892515
  0
LWPOLYLINE
  5
1A5
330
A
100
AcDbEntity
  8
0
  6
Continuous
 62
     7
100
AcDbPolyline
 90
       15
 70
   128
 43
0.0
 10
-37.20190396845494
 20
-999.9310609634518
 10
-37.2115488576103
 20
-999.9219437172348
 10
-40.53996050576541
 20
-997.2348173137836
 10
-42.52546562705317
 20
-995.6323487131042
 10
-44.15966046795169
 20
-993.8008948070205
 10
-45.14278564510241
 20
-991.5708952243818
 10
-45.44036479353776
 20
-989.0352411070233
 10
-44.93309328266787
 20
-985.5590399462267
 10
-43.59783941783859
 20
-982.4401450701856
 10
-41.64474779535162
 20
-979.8493466356294
 10
-37.98421438869715
 20
-976.5355385928335
 10
-34.03115277519885
 20
-973.2911328962231
 10
-30.41459868051891
 20
-969.4676546542575
 10
-28.7492504299475
 20
-967.4266581083458
 10
-28.23455354693127
 20
-966.868931170589
  0
LWPOLYLINE
  5
1B6
330
A
100
AcDbEntity
  8
0
  6
PHANTOM
 62
     7
100
AcDbPolyline
 90
        5
 70
   128
 43
0.0
 10
-31.86102775053138
 20
-994.6125485768051
 10
-32.10857802841753
 20
-995.7810921592946
 10
-32.23686055231942
 20
-1000.152025241081
 10
-31.50551555354231
 20
-1003.995909946072
 10
-30.93254629914432
 20
-1005.517853972528
  0
LINE
  5
1BD
330
A
100
AcDbEntity
  8
0
  6
Continuous
 62
     7
100
AcDbLine
 10
299.3864694690392
 20
963.5023902463043
 30
0.0
 11
299.3864694690392
 21
956.8174017647011
 31
0.0
  0
LINE
  5
1BE
330
A
100
AcDbEntity
  8
0
  6
Continuous
 62
     7
100
AcDbLine
 10
481.3864694690392
 20
956.8174017647011
 30
0.0
 11
481.3864694690392
 21
963.5023902463043
 31
0.0
  0
ARC
  5
1BF
330
A
100
AcDbEntity
  8
0
  6
Continuous
 62
     7
100
AcDbCircle
 10
390.3864694690392
 20
1190.740466040116
 30
0.0
 40
250.9999999999999
100
AcDbArc
 50
258.6461412486722
 51
275.5364405716954
  0
ARC
  5
1C0
330
A
100
AcDbEntity
  8
0
  6
Continuous
 62
     7
100
AcDbCircle
 10
390.3864694690392
 20
1190.740466040116
 30
0.0
 40
250.9999999999999
100
AcDbArc
 50
275.9951057597848
 51
291.256870832157
  0
ARC
  5
1C1
330
A
100
AcDbEntity
  8
0
  6
Continuous
 62
     7
100
AcDbCircle
 10
390.3864694690392
 20
1190.740466040116
 30
0.0
 40
251.0
100
AcDbArc
 50
248.7431291678446
 51
258.1859091911024
  0
LINE
  5
1C2
330
A
100
AcDbEntity
  8
0
  6
Continuous
 62
     7
100
AcDbLine
 10
324.3864694690393
 20
990.5023902463042
 30
0.0
 11
324.3864694690393
 21
963.5023902463043
 31
0.0
  0
LINE
  5
1C3
330
A
100
AcDbEntity
  8
0
  6
Continuous
 62
     7
100
AcDbLine
 10
456.3864694690392
 20
963.5023902463043
 30
0.0
 11
456.3864694690392
 21
990.5023902463042
 31
0.0
  0
LINE
  5
1C4
330
A
100
AcDbEntity
  8
0
  6
Continuous
 62
     7
100
AcDbLine
 10
429.3864694690395
 20
-510.4976097536956
 30
0.0
 11
429.3864694690395
 21
-500.4976097536957
 31
0.0
  0
LINE
  5
1C5
330
A
100
AcDbEntity
  8
0
  6
Continuous
 62
     7
100
AcDbLine
 10
414.5859032181491
 20
944.7531766771682
 30
0.0
 11
420.8864599665063
 21
-500.4976097536957
 31
0.0
  0
LINE
  5
1C6
330
A
100
AcDbEntity
  8
0
  6
Continuous
 62
     7
100
AcDbLine
 10
422.8864789715715
 20
-500.4976097536957
 30
0.0
 11
416.5850410387986
 21
944.9553068254601
 31
0.0
  0
LINE
  5
1C7
330
A
100
AcDbEntity
  8
0
  6
Continuous
 62
     7
100
AcDbLine
 10
374.3864694690393
 20
-510.4976097536956
 30
0.0
 11
374.3864694690393
 21
-511.019848676925
 31
0.0
  0
LINE
  5
1C8
330
A
100
AcDbEntity
  8
0
  6
Continuous
 62
     7
100
AcDbLine
 10
406.3864694690392
 20
-511.0198486769252
 30
0.0
 11
406.3864694690392
 21
-510.4976097536956
 31
0.0
  0
LINE
  5
1C9
330
A
100
AcDbEntity
  8
0
  6
Continuous
 62
     7
100
AcDbLine
 10
317.3864694690392
 20
-500.4976097536957
 30
0.0
 11
317.3864694690392
 21
-510.4976097536956
 31
0.0
  0
LINE
  5
1CA
330
A
100
AcDbEntity
  8
0
  6
Continuous
 62
     7
100
AcDbLine
 10
338.9901971743244
 20
945.0573656983555
 30
0.0
 11
326.3865074771831
 21
-500.4888911045379
 31
0.0
  0
LINE
  5
1CB
330
A
100
AcDbEntity
  8
0
  6
Continuous
 62
     7
100
AcDbLine
 10
328.3865074786277
 20
-500.4976097536957
 30
0.0
 11
340.9867187730471
 21
944.6497010139296
 31
0.0
  0
LWPOLYLINE
  5
1CC
330
A
100
AcDbEntity
  8
0
  6
Continuous
 62
     7
100
AcDbPolyline
 90
       22
 70
   128
 43
0.0
 10
362.2215929076826
 20
-603.6235702246385
 10
362.0701916043882
 20
-603.766603419303
 10
361.9123111451467
 20
-604.4723879347444
 10
361.790542348506
 20
-605.7095818185882
 10
361.7056119417664
 20
-607.4781850708343
 10
361.6513971715312
 20
-609.7781976914829
 10
361.6137479902538
 20
-613.2396732025522
 10
361.5907634321832
 20
-617.4663782041209
 10
361.5710553144674
 20
-621.8808354535958
 10
361.5526498218413
 20
-625.6652090491212
 10
361.5366083971881
 20
-628.8135519174196
 10
361.5254182057373
 20
-630.9513141688142
 10
361.5163505989749
 20
-632.64738841519
 10
361.509494378532
 20
-633.9017746565472
 10
361.5051883719573
 20
-634.6746988061198
 10
361.497720704269
 20
-635.9894586190166
 10
361.4824664059168
 20
-638.5855962762319
 10
361.4604986006977
 20
-642.1453048744214
 10
361.430917756401
 20
-646.6685844135855
 10
361.3926857398484
 20
-652.1554348937241
 10
361.3446995086611
 20
-658.6058563148374
 10
361.2858852001075
 20
-666.0198486769249
  0
LWPOLYLINE
  5
1E4
330
A
100
AcDbEntity
  8
0
  6
Continuous
 62
     7
100
AcDbPolyline
 90
       23
 70
   128
 43
0.0
 10
435.0597631387874
 20
-666.019848676925
 10
434.7915964205794
 20
-650.9253511380347
 10
434.6013940664021
 20
-637.1434885494569
 10
434.4783502792541
 20
-624.6742609111923
 10
434.4121109934023
 20
-613.5176682232406
 10
434.392906956484
 20
-603.6737104856017
 10
434.4091718738201
 20
-595.1423876982762
 10
434.4485894194136
 20
-587.9236998612633
 10
434.51047312709
 20
-580.9229268322164
 10
434.5820494555646
 20
-575.0230258014351
 10
434.6549069240777
 20
-570.2135611700021
 10
434.71284252403
 20
-566.8949109349028
 10
434.7287305816337
 20
-566.0251058852334
 10
434.7447584456374
 20
-565.1419713398442
 10
434.755463325477
 20
-564.2780608021856
 10
434.7492084909521
 20
-563.4428487622415
 10
434.7076040817212
 20
-562.6363352200126
 10
434.6076867985719
 20
-561.8585201754983
 10
434.4259525452305
 20
-561.1094036286991
 10
434.1434158273611
 20
-560.3889855796149
 10
433.5962182981671
 20
-559.4730702883923
 10
432.9486497677321
 20
-558.6081745486626
 10
432.6184848878149
 20
-557.7942983604263
  0
LWPOLYLINE
  5
1FD
330
A
100
AcDbEntity
  8
0
  6
Continuous
 62
     7
100
AcDbPolyline
 90
        9
 70
   128
 43
0.0
 10
478.7119501879176
 20
-511.0200807528227
 10
479.745556247149
 20
-511.1383454978146
 10
480.7323012335042
 20
-511.4680724815287
 10
481.629440259557
 20
-511.9949782335702
 10
482.3981100858637
 20
-512.6962376802195
 10
483.0050126408375
 20
-513.541472905685
 10
483.4238574626572
 20
-514.4940690955404
 10
483.6365005779501
 20
-515.5127606568908
 10
483.6337304820717
 20
-516.5534188059928
  0
LWPOLYLINE
  5
208
330
A
100
AcDbEntity
  8
0
  6
Continuous
 62
     7
100
AcDbPolyline
 90
       26
 70
   128
 43
0.0
 10
473.7800164004893
 20
-666.0198486769253
 10
474.3135184316159
 20
-656.3492754019287
 10
474.7915638255666
 20
-647.7359551857849
 10
475.213555649017
 20
-640.1798880286604
 10
475.5787628745268
 20
-633.6810739305554
 10
475.8863909765977
 20
-628.2395128914697
 10
476.1356090678694
 20
-623.8552049114034
 10
476.3256231289349
 20
-620.5281499903567
 10
476.4559864611121
 20
-618.2540922034065
 10
476.5640847099005
 20
-616.3737395134627
 10
476.6771598001898
 20
-614.4119331098567
 10
476.9867399321284
 20
-609.0694998889498
 10
477.3458332884684
 20
-602.9259472411161
 10
477.781288365283
 20
-595.5488992304703
 10
478.3011846901461
 20
-586.8661692915435
 10
478.7497158144707
 20
-579.531643592623
 10
479.2522967543555
 20
-571.5512264317075
 10
479.7557553784634
 20
-563.8601993099497
 10
480.245176568424
 20
-556.7228290797592
 10
480.7208980622376
 20
-550.1391157411363
 10
481.180903505453
 20
-544.1090592940809
 10
481.5970272215096
 20
-538.9306820173378
 10
482.0082312111415
 20
-534.0556586373379
 10
482.5117555656461
 20
-528.3803895574958
 10
483.1347604889525
 20
-521.7257584319794
 10
483.6496245420765
 20
-516.5171763268318
  0
LWPOLYLINE
  5
224
330
A
100
AcDbEntity
  8
0
  6
Continuous
 62
     7
100
AcDbPolyline
 90
       25
 70
   128
 43
0.0
 10
308.9164594647856
 20
-515.9410033382969
 10
308.7160810425137
 20
-529.8888711919167
 10
308.5138305268913
 20
-543.9427420589133
 10
308.3287272921329
 20
-556.7770684304162
 10
308.1607885979825
 20
-568.3918503064258
 10
308.0100652008992
 20
-578.7870876869414
 10
307.8766362044684
 20
-587.9627805719637
 10
307.7606081089253
 20
-595.9189289614924
 10
307.6621063330741
 20
-602.6555328555271
 10
307.5960149274153
 20
-607.1667439339997
 10
307.5412595289028
 20
-610.8999815331535
 10
307.4906948328648
 20
-614.328493155928
 10
307.4390318617206
 20
-617.8036168581095
 10
307.3864267968468
 20
-621.3253526396978
 10
307.3420539623473
 20
-624.2957389072347
 10
307.2974055177281
 20
-627.29849467436
 10
307.2544566829185
 20
-630.3568076669381
 10
307.245532002491
 20
-632.7023190785778
 10
307.2881112894917
 20
-635.0922105311223
 10
307.3294345145825
 20
-636.3037987727338
 10
307.3799850519602
 20
-637.366359669983
 10
307.435605458489
 20
-638.0157594722795
 10
307.4650298346002
 20
-638.1840573007815
 10
307.4955317373059
 20
-638.2480870808528
 10
307.4988431423823
 20
-638.2438777582685
  0
LWPOLYLINE
  5
23F
330
A
100
AcDbEntity
  8
0
  6
Continuous
 62
     7
100
AcDbPolyline
 90
        7
 70
   128
 43
0.0
 10
304.4348596427492
 20
-515.8173143672329
 10
302.9406678042129
 20
-550.800591400401
 10
302.4769599598976
 20
-560.3215061095962
 10
300.5858608750481
 20
-594.3498543425454
 10
298.7146163290847
 20
-622.7388814981387
 10
297.7315821405678
 20
-636.3811373147092
 10
295.45218338596
 20
-666.0198486769249
  0
LWPOLYLINE
  5
248
330
A
100
AcDbEntity
  8
0
  6
Continuous
 62
     7
100
AcDbPolyline
 90
        9
 70
   128
 43
0.0
 10
304.443978884227
 20
-515.787400248409
 10
304.5797242387108
 20
-514.8399780182346
 10
304.893437647481
 20
-513.9357885970419
 10
305.3736240269224
 20
-513.1079632846412
 10
306.0026883924789
 20
-512.3868352479243
 10
306.7575805739023
 20
-511.7988280532659
 10
307.6106398193629
 20
-511.3654874544644
 10
308.5306083404432
 20
-511.1026919134465
 10
309.4390473939165
 20
-511.0198492439099
  0
LWPOLYLINE
  5
253
330
A
100
AcDbEntity
  8
0
  6
Continuous
 62
     7
100
AcDbPolyline
 90
        9
 70
   128
 43
0.0
 10
308.9197955233023
 20
-515.9703419841831
 10
309.024100988938
 20
-515.0024773778739
 10
309.3138865621463
 20
-514.0731773104203
 10
309.7781676132172
 20
-513.2176678871713
 10
310.3993450761551
 20
-512.4683781007915
 10
311.1538725599543
 20
-511.8537105758758
 10
312.01314889954
 20
-511.3969649373204
 10
312.9446023132861
 20
-511.1154546133116
 10
313.9129250709666
 20
-511.0198505514558
  0
LINE
  5
25E
330
A
100
AcDbEntity
  8
0
  6
Continuous
 62
     7
100
AcDbLine
 10
299.3864694690392
 20
956.8174017647011
 30
0.0
 11
481.3864694690392
 21
956.8174017647011
 31
0.0
  0
LINE
  5
25F
330
A
100
AcDbEntity
  8
0
  6
Continuous
 62
     7
100
AcDbLine
 10
299.3864694690392
 20
963.5023902463043
 30
0.0
 11
481.3864694690392
 21
963.5023902463043
 31
0.0
  0
LWPOLYLINE
  5
260
330
A
100
AcDbEntity
  8
0
  6
Continuous
 62
     7
100
AcDbPolyline
 90
        9
 70
   128
 43
0.0
 10
414.7882184665014
 20
944.8796685697509
 10
415.036129563519
 20
944.9461954131963
 10
415.3492875588803
 20
945.0023818330718
 10
415.6883127518836
 20
945.0411381476252
 10
416.0111271049478
 20
945.0582108031788
 10
416.2829212645611
 20
945.0525789940124
 10
416.4774053472294
 20
945.0254729571852
 10
416.5756462111773
 20
944.9797100702163
 10
416.5715536408432
 20
944.9552511818554
  0
LWPOLYLINE
  5
26B
330
A
100
AcDbEntity
  8
0
  6
Continuous
 62
     7
100
AcDbPolyline
 90
        4
 70
   128
 43
0.0
 10
414.5970750158539
 20
944.7532315476609
 10
414.5902236837782
 20
944.7689699586465
 10
414.6772936774554
 20
944.8354526469156
 10
414.7882184665014
 20
944.8796685697509
  0
LWPOLYLINE
  5
271
330
A
100
AcDbEntity
  8
0
  6
Continuous
 62
     7
100
AcDbPolyline
 90
        4
 70
   128
 43
0.0
 10
339.2423286894273
 20
945.0072051014146
 10
339.066403226696
 20
945.0432866205865
 10
338.9919029715122
 20
945.0585677510868
 10
338.9981756936076
 20
945.0572811016007
  0
LWPOLYLINE
  5
277
330
A
100
AcDbEntity
  8
0
  6
Continuous
 62
     7
100
AcDbPolyline
 90
        9
 70
   128
 43
0.0
 10
340.9728991681793
 20
944.6525314024361
 10
340.9721802863148
 20
944.652678637159
 10
340.8638709229172
 20
944.6748624858566
 10
340.6606747713817
 20
944.7164859273065
 10
340.3818544894025
 20
944.773610999632
 10
340.0550253993677
 20
944.8405876672595
 10
339.7165070406785
 20
944.9099774365024
 10
339.4079037396729
 20
944.9732508409482
 10
339.2423286894273
 20
945.0072051014146
  0
LINE
  5
282
330
A
100
AcDbEntity
  8
0
  6
Continuous
 62
     7
100
AcDbLine
 10
324.3864694690393
 20
990.5023902463042
 30
0.0
 11
456.3864694690392
 21
990.5023902463042
 31
0.0
  0
LINE
  5
283
330
A
100
AcDbEntity
  8
0
  6
Continuous
 62
     7
100
AcDbLine
 10
420.1462289882573
 20
-500.4976097536957
 30
0.0
 11
429.3864694690395
 21
-500.4976097536957
 31
0.0
  0
LINE
  5
284
330
A
100
AcDbEntity
  8
0
  6
Continuous
 62
     7
100
AcDbLine
 10
420.1462289882573
 20
-510.4976097536956
 30
0.0
 11
429.3864694690395
 21
-510.4976097536956
 31
0.0
  0
LINE
  5
285
330
A
100
AcDbEntity
  8
0
  6
Continuous
 62
     7
100
AcDbLine
 10
400.9069872458949
 20
-500.4976097536957
 30
0.0
 11
400.9069872458949
 21
-510.4976097536956
 31
0.0
  0
LINE
  5
286
330
A
100
AcDbEntity
  8
0
  6
Continuous
 62
     7
100
AcDbLine
 10
400.9069872458949
 20
-500.4976097536957
 30
0.0
 11
420.1462289882573
 21
-500.4976097536957
 31
0.0
  0
LINE
  5
287
330
A
100
AcDbEntity
  8
0
  6
Continuous
 62
     7
100
AcDbLine
 10
400.9069872458949
 20
-510.4976097536956
 30
0.0
 11
420.1462289882573
 21
-510.4976097536956
 31
0.0
  0
LINE
  5
288
330
A
100
AcDbEntity
  8
0
  6
Continuous
 62
     7
100
AcDbLine
 10
358.4958420273948
 20
-500.4976097536957
 30
0.0
 11
358.4958420273948
 21
-510.4976097536956
 31
0.0
  0
LINE
  5
289
330
A
100
AcDbEntity
  8
0
  6
Continuous
 62
     7
100
AcDbLine
 10
358.4958420273948
 20
-500.4976097536957
 30
0.0
 11
400.9069872458949
 21
-500.4976097536957
 31
0.0
  0
LINE
  5
28A
330
A
100
AcDbEntity
  8
0
  6
Continuous
 62
     7
100
AcDbLine
 10
358.4958420273948
 20
-510.4976097536956
 30
0.0
 11
400.9069872458949
 21
-510.4976097536956
 31
0.0
  0
LINE
  5
28B
330
A
100
AcDbEntity
  8
0
  6
Continuous
 62
     7
100
AcDbLine
 10
322.2119719855268
 20
-500.4976097536957
 30
0.0
 11
358.4958420273948
 21
-500.4976097536957
 31
0.0
  0
LINE
  5
28C
330
A
100
AcDbEntity
  8
0
  6
Continuous
 62
     7
100
AcDbLine
 10
322.2119719855268
 20
-510.4976097536956
 30
0.0
 11
358.4958420273948
 21
-510.4976097536956
 31
0.0
  0
LINE
  5
28D
330
A
100
AcDbEntity
  8
0
  6
Continuous
 62
     7
100
AcDbLine
 10
317.3864694690392
 20
-500.4976097536957
 30
0.0
 11
322.2119719855268
 21
-500.4976097536957
 31
0.0
  0
LINE
  5
28E
330
A
100
AcDbEntity
  8
0
  6
Continuous
 62
     7
100
AcDbLine
 10
317.3864694690392
 20
-510.4976097536956
 30
0.0
 11
322.2119719855268
 21
-510.4976097536956
 31
0.0
  0
LINE
  5
28F
330
A
100
AcDbEntity
  8
0
  6
Continuous
 62
     7
100
AcDbLine
 10
327.3864694690392
 20
-500.4976097536957
 30
0.0
 11
326.3865074771831
 21
-500.4888911045379
 31
0.0
  0
LINE
  5
290
330
A
100
AcDbEntity
  8
0
  6
Continuous
 62
     7
100
AcDbLine
 10
346.5183315659055
 20
-516.1373796300304
 30
0.0
 11
349.283719853451
 21
-666.0198486769244
 31
0.0
  0
LINE
  5
291
330
A
100
AcDbEntity
  8
0
  6
Continuous
 62
     7
100
AcDbLine
 10
346.5183310798553
 20
-516.1373532863828
 30
0.0
 11
346.5183315659055
 21
-516.1373796300304
 31
0.0
  0
LWPOLYLINE
  5
292
330
A
100
AcDbEntity
  8
0
  6
Continuous
 62
     7
100
AcDbPolyline
 90
       36
 70
   128
 43
0.0
 10
435.8964126493632
 20
-516.4373642504482
 10
435.8964112509276
 20
-516.43736339065
 10
435.9388313005728
 20
-516.3660428364005
 10
436.1978262675687
 20
-516.325109255508
 10
436.4966437336549
 20
-516.2885232068739
 10
436.388880184034
 20
-516.2521289208004
 10
435.8543830703106
 20
-516.2153391824187
 10
434.8104863408852
 20
-516.1794393448396
 10
433.286917421613
 20
-516.151802197398
 10
431.2434544299783
 20
-516.1149021381643
 10
424.3089632171725
 20
-515.9766522865221
 10
416.9445698146873
 20
-516.0722514548863
 10
412.6138583018613
 20
-516.1982331816219
 10
407.8839615611362
 20
-516.222129206575
 10
403.3979926451188
 20
-516.1660876064675
 10
398.7024963650134
 20
-516.0571326250148
 10
393.4293073427255
 20
-515.8813411950593
 10
388.2466576400113
 20
-515.7348108047594
 10
382.9641983638559
 20
-515.6951839682868
 10
377.7662311534822
 20
-515.7506544898675
 10
373.1083263881757
 20
-515.8515418182765
 10
368.7672801988626
 20
-515.9223187809288
 10
366.1062048467796
 20
-515.9235318937125
 10
363.9367735087087
 20
-515.9261107744947
 10
362.0903305274378
 20
-515.9845332889087
 10
360.8317503879062
 20
-516.0781366293625
 10
360.0520429900186
 20
-516.1568825404296
 10
359.4783181554195
 20
-516.2211272104078
 10
358.8268484453447
 20
-516.3091493241267
 10
358.0077767816699
 20
-516.3915218716154
 10
356.6949624321103
 20
-516.4287661156719
 10
354.6917614673089
 20
-516.3837780255824
 10
351.9605521695833
 20
-516.2896653216734
 10
349.3795998483877
 20
-516.2120098413415
 10
346.5183549084646
 20
-516.1373538558358
 10
346.5183310798553
 20
-516.1373532863828
  0
LINE
  5
2B8
330
A
100
AcDbEntity
  8
0
  6
Continuous
 62
     7
100
AcDbLine
 10
435.8963485105915
 20
-516.4381734760172
 30
0.0
 11
435.8964126493632
 21
-516.437364250448
 31
0.0
  0
LINE
  5
2B9
330
A
100
AcDbEntity
  8
0
  6
Continuous
 62
     7
100
AcDbLine
 10
435.8963485105915
 20
-516.4381734760172
 30
0.0
 11
432.618484887815
 21
-557.7942983604263
 31
0.0
  0
LINE
  5
2BA
330
A
100
AcDbEntity
  8
0
  6
Continuous
 62
     7
100
AcDbLine
 10
361.3172868134701
 20
-666.0198486769249
 30
0.0
 11
434.9740758723567
 21
-666.019848676925
 31
0.0
  0
LINE
  5
2BB
330
A
100
AcDbEntity
  8
0
  6
Continuous
 62
     7
100
AcDbLine
 10
361.2858852001075
 20
-666.0198486769244
 30
0.0
 11
349.283719853451
 21
-666.0198486769246
 31
0.0
  0
LWPOLYLINE
  5
2BC
330
A
100
AcDbEntity
  8
0
  6
Continuous
 62
     7
100
AcDbPolyline
 90
        7
 70
   128
 43
0.0
 10
346.5183311346188
 20
-516.1373532876917
 10
346.6660309759023
 20
-514.4761587087778
 10
347.1397829234425
 20
-512.9890034644906
 10
347.8861750504176
 20
-511.8435529209685
 10
348.8210573828755
 20
-511.1689479116718
 10
349.3542271871826
 20
-511.0310944938476
 10
349.5580408078578
 20
-511.0198486769244
  0
LINE
  5
2C5
330
A
100
AcDbEntity
  8
0
  6
Continuous
 62
     7
100
AcDbLine
 10
349.5580408078549
 20
-511.0198486769244
 30
0.0
 11
431.5038776056481
 21
-511.0198486769255
 31
0.0
  0
LWPOLYLINE
  5
2C6
330
A
100
AcDbEntity
  8
0
  6
Continuous
 62
     7
100
AcDbPolyline
 90
        7
 70
   128
 43
0.0
 10
430.9200914232402
 20
-511.019848676925
 10
431.1548699203588
 20
-511.0253776039869
 10
432.4193086561352
 20
-511.2504954366519
 10
433.9115092970906
 20
-512.0162184856793
 10
435.0664501487553
 20
-513.233319985507
 10
435.7539208725017
 20
-514.7645811718352
 10
435.8964126493632
 20
-516.4373642504482
  0
LWPOLYLINE
  5
2CF
330
A
100
AcDbEntity
  8
0
  6
Continuous
 62
     7
100
AcDbPolyline
 90
        5
 70
   128
 43
0.0
 10
432.5973148192102
 20
-511.0198486769252
 10
434.2397617904496
 20
-511.3194460189895
 10
435.7496684772394
 20
-512.2390675908228
 10
436.8321287239495
 20
-513.6366341705629
 10
437.3712061094358
 20
-515.3506607477869
  0
LINE
  5
2D6
330
A
100
AcDbEntity
  8
0
  6
Continuous
 62
     7
100
AcDbLine
 10
483.6188669505714
 20
-516.5139336371673
 30
0.0
 11
483.5909750585376
 21
-516.5454007918312
 31
0.0
  0
LINE
  5
2D7
330
A
100
AcDbEntity
  8
0
  6
Continuous
 62
     7
100
AcDbLine
 10
430.9200914232402
 20
-511.019848676925
 30
0.0
 11
478.6365240308539
 21
-511.0198486769252
 31
0.0
  0
LINE
  5
2D8
330
A
100
AcDbEntity
  8
0
  6
Continuous
 62
     7
100
AcDbLine
 10
435.0597631387874
 20
-666.0198486769249
 30
0.0
 11
473.7640897956644
 21
-666.0198486769253
 31
0.0
  0
LINE
  5
2D9
330
A
100
AcDbEntity
  8
0
  6
Continuous
 62
     7
100
AcDbLine
 10
349.283719853451
 20
-666.0198486769246
 30
0.0
 11
295.5565450456012
 21
-666.0198486769249
 31
0.0
  0
LINE
  5
2DA
330
A
100
AcDbEntity
  8
0
  6
Continuous
 62
     7
100
AcDbLine
 10
309.4903418702779
 20
-511.0198486769248
 30
0.0
 11
313.5940141330659
 21
-511.0198486769248
 31
0.0
  0
LINE
  5
2DB
330
A
100
AcDbEntity
  8
0
  6
Continuous
 62
     7
100
AcDbLine
 10
313.9440241330659
 20
-511.0198486769248
 30
0.0
 11
349.5580408078549
 21
-511.0198486769244
 31
0.0
  0
LINE
  5
2DC
330
A
100
AcDbEntity
  8
0
  6
PHANTOM
 62
     7
100
AcDbLine
 10
420.1462289882573
 20
-500.4976097536957
 30
0.0
 11
420.1462289882573
 21
-510.4976097536956
 31
0.0
  0
LINE
  5
2DD
330
A
100
AcDbEntity
  8
0
  6
PHANTOM
 62
     7
100
AcDbLine
 10
322.2119719855268
 20
-500.4976097536957
 30
0.0
 11
322.2119719855268
 21
-510.4976097536956
 31
0.0
  0
LWPOLYLINE
  5
2DE
330
A
100
AcDbEntity
  8
0
  6
PHANTOM
 62
     7
100
AcDbPolyline
 90
       22
 70
   128
 43
0.0
 10
483.5909750585376
 20
-516.5454007918312
 10
483.5334968188133
 20
-516.6102467569968
 10
482.9693989787116
 20
-516.7493956588997
 10
482.3458714607345
 20
-516.8334027082779
 10
481.4614796058272
 20
-516.9020655865513
 10
480.3226912974982
 20
-516.9386279926952
 10
478.9854496344754
 20
-516.9488863778242
 10
477.0145740264426
 20
-516.9425466461324
 10
474.9094490918919
 20
-516.927110949313
 10
469.7822785797931
 20
-516.8886520032985
 10
463.7032869227907
 20
-516.8531988807203
 10
458.5386316668933
 20
-516.8216654676252
 10
453.3605624882199
 20
-516.7912725944678
 10
448.2504418862189
 20
-516.7643151934453
 10
443.2896323603391
 20
-516.7430881967543
 10
441.1043078555005
 20
-516.7333842218322
 10
439.1020314977627
 20
-516.7117087102147
 10
437.2552288157868
 20
-516.6446281471255
 10
436.2362365646212
 20
-516.5273490049893
 10
435.8963499670778
 20
-516.4381742895967
 10
435.8963485105915
 20
-516.4381734760172
 10
435.8963485105915
 20
-516.4381734760172
  0
LWPOLYLINE
  5
2F6
330
A
100
AcDbEntity
  8
0
  6
PHANTOM
 62
     7
100
AcDbPolyline
 90
       13
 70
   128
 43
0.0
 10
346.5183315659055
 20
-516.1373796300304
 10
346.5183077556404
 20
-516.1373790889651
 10
341.0716686766281
 20
-516.0501955728715
 10
335.1473913787066
 20
-516.0449524270389
 10
329.0079433229115
 20
-516.1570474705327
 10
325.2335761111322
 20
-516.2563282901362
 10
321.4430864007375
 20
-516.3213437016545
 10
317.7851452061883
 20
-516.3333365289803
 10
314.4084235419451
 20
-516.2735495960066
 10
311.6869370471825
 20
-516.1603351841379
 10
309.7031462346383
 20
-516.0535999169933
 10
308.9827332721806
 20
-515.9827705157172
 10
309.0448959116931
 20
-515.9433013603338
  0
LWPOLYLINE
  5
305
330
A
100
AcDbEntity
  8
0
  6
PHANTOM
 62
     7
100
AcDbPolyline
 90
        6
 70
   128
 43
0.0
 10
308.9396848775838
 20
-515.9593600882341
 10
308.8291635843684
 20
-515.9621393098292
 10
306.6826794880674
 20
-515.9876967149092
 10
305.4757792040655
 20
-515.971745051472
 10
304.6543351155513
 20
-515.9094202073839
 10
304.5732816085914
 20
-515.8228156182702
  0
ENDSEC
  0
SECTION
  2
OBJECTS
  0
DICTIONARY
  5
19
330
0
100
AcDbDictionary
281
     1
  3
ACAD_COLOR
350
311
  3
ACAD_GROUP
350
1A
  3
ACAD_LAYOUT
350
312
  3
ACAD_MATERIAL
350
310
  3
ACAD_MLINESTYLE
350
1B
  3
ACAD_PLOTSETTINGS
350
313
  3
ACAD_PLOTSTYLENAME
350
30E
  3
ACDBHEADERROUNDTRIPXREC
350
32B
  3
AcDbVariableDictionary
350
324
  3
ASE_INDEX_DICTIONARY
350
319
  0
DICTIONARY
  5
311
102
{ACAD_REACTORS
330
19
102
}
330
19
100
AcDbDictionary
281
     1
  0
DICTIONARY
  5
1A
102
{ACAD_REACTORS
330
19
102
}
330
19
100
AcDbDictionary
281
     1
  0
DICTIONARY
  5
312
102
{ACAD_REACTORS
330
19
102
}
330
19
100
AcDbDictionary
281
     1
  3
Layout1
350
315
  3
Model
350
314
  0
DICTIONARY
  5
310
102
{ACAD_REACTORS
330
19
102
}
330
19
100
AcDbDictionary
281
     1
  0
DICTIONARY
  5
1B
102
{ACAD_REACTORS
330
19
102
}
330
19
100
AcDbDictionary
281
     1
  3
STANDARD
350
1C
  0
DICTIONARY
  5
313
102
{ACAD_REACTORS
330
19
102
}
330
19
100
AcDbDictionary
281
     1
  0
ACDBDICTIONARYWDFLT
  5
30E
102
{ACAD_REACTORS
330
19
102
}
330
19
100
AcDbDictionary
281
     1
  3
Normal
350
30F
100
AcDbDictionaryWithDefault
340
30F
  0
DICTIONARY
  5
32B
102
{ACAD_REACTORS
330
19
102
}
330
19
100
AcDbDictionary
281
     1
  3
COLORDICT
350
32D
  3
MATERIALDICT
350
32C
  0
DICTIONARY
  5
324
102
{ACAD_REACTORS
330
19
102
}
330
19
100
AcDbDictionary
281
     1
  3
DIMASSOC
350
325
  3
PROJECTNAME
350
326
  0
DICTIONARY
  5
319
102
{ACAD_REACTORS
330
19
102
}
330
19
100
AcDbDictionary
281
     1
  3
ASEBlockHierarchyIndexRecord
350
31B
1001
DCO15
1040
1521898575.031
  0
LAYOUT
  5
315
102
{ACAD_XDICTIONARY
360
330
102
}
102
{ACAD_REACTORS
330
312
102
}
330
312
100
AcDbPlotSettings
  1

  2
ProgeSOFT PDF Wizard
  4

  6

 40
0.0
 41
0.0
 42
0.0
 43
0.0
 44
0.0
 45
0.0
 46
0.0
 47
0.0
 48
0.0
 49
0.0
140
0.0
141
0.0
142
1.0
143
1.0
 70
   688
 72
     0
 73
     0
 74
     5
  7

 75
    16
147
1.0
148
0.0
149
0.0
100
AcDbLayout
  1
Layout1
 70
     1
 71
     1
 10
0.0
 20
0.0
 11
12.0
 21
9.0
 12
0.0
 22
0.0
 32
0.0
 14
1.000000000000000E+20
 24
1.000000000000000E+20
 34
1.000000000000000E+20
 15
-1.000000000000000E+20
 25
-1.000000000000000E+20
 35
-1.000000000000000E+20
146
0.0
 13
0.0
 23
0.0
 33
0.0
 16
1.0
 26
0.0
 36
0.0
 17
0.0
 27
1.0
 37
0.0
 76
     0
330
B
  0
LAYOUT
  5
314
102
{ACAD_XDICTIONARY
360
32E
102
}
102
{ACAD_REACTORS
330
312
102
}
330
312
100
AcDbPlotSettings
  1

  2
ProgeSOFT PDF Wizard
  4

  6

 40
0.0
 41
0.0
 42
0.0
 43
0.0
 44
0.0
 45
0.0
 46
0.0
 47
0.0
 48
0.0
 49
0.0
140
0.0
141
0.0
142
1.0
143
1.0
 70
  1712
 72
     0
 73
     0
 74
     0
  7

 75
     0
147
1.0
148
0.0
149
0.0
100
AcDbLayout
  1
Model
 70
     1
 71
     0
 10
0.0
 20
0.0
 11
12.0
 21
9.0
 12
0.0
 22
0.0
 32
0.0
 14
0.0
 24
0.0
 34
0.0
 15
0.0
 25
0.0
 35
0.0
146
0.0
 13
0.0
 23
0.0
 33
0.0
 16
1.0
 26
0.0
 36
0.0
 17
0.0
 27
1.0
 37
0.0
 76
     0
330
A
  0
MLINESTYLE
  5
1C
102
{ACAD_REACTORS
330
1B
102
}
330
1B
100
AcDbMlineStyle
  2
STANDARD
 70
     0
  3

 62
     0
 51
90.0
 52
90.0
 71
     2
 49
0.5
 62
   256
  6
BYLAYER
 49
-0.5
 62
   256
  6
BYLAYER
  0
ACDBPLACEHOLDER
  5
30F
102
{ACAD_REACTORS
330
30E
102
}
330
30E
  0
XRECORD
  5
32D
102
{ACAD_REACTORS
330
32B
102
}
330
32B
100
AcDbXrecord
280
     1
340
311
  0
XRECORD
  5
32C
102
{ACAD_REACTORS
330
32B
102
}
330
32B
100
AcDbXrecord
280
     1
340
310
  0
DICTIONARYVAR
  5
325
102
{ACAD_REACTORS
330
324
102
}
330
324
100
DictionaryVariables
280
     0
  1
1
  0
DICTIONARYVAR
  5
326
102
{ACAD_REACTORS
330
324
102
}
330
324
100
DictionaryVariables
280
     0
  1

  0
XRECORD
  5
31B
102
{ACAD_REACTORS
330
319
102
}
330
319
100
AcDbXrecord
280
     1
  0
DICTIONARY
  5
330
330
315
100
AcDbDictionary
280
     1
281
     1
  3
ACAD_XREC_ROUNDTRIP
360
331
  0
DICTIONARY
  5
32E
330
314
100
AcDbDictionary
280
     1
281
     1
  3
ACAD_XREC_ROUNDTRIP
360
32F
  0
XRECORD
  5
331
102
{ACAD_REACTORS
330
330
102
}
330
330
100
AcDbXrecord
280
     1
102
SHADEPLOT
 70
     0
102
SHADEPLOTRESLEVEL
 70
     2
102
SHADEPLOTCUSTOMDPI
 70
   300
  0
XRECORD
  5
32F
102
{ACAD_REACTORS
330
32E
102
}
330
32E
100
AcDbXrecord
280
     1
102
SHADEPLOT
 70
     0
102
SHADEPLOTRESLEVEL
 70
     2
102
SHADEPLOTCUSTOMDPI
 70
   300
  0
ENDSEC
  0
EOF
