  0
SECTION
  2
HEADER
  9
$ACADVER
  1
AC1015
  9
$ACADMAINTVER
 70
    20
  9
$DWGCODEPAGE
  3
ANSI_1252
  9
$INSBASE
 10
0.0
 20
0.0
 30
0.0
  9
$EXTMIN
 10
-470.6227600192496
 20
-1554.457377297271
 30
0.0
  9
$EXTMAX
 10
1311.193673692993
 20
1093.208286337834
 30
0.0
  9
$LIMMIN
 10
0.0
 20
0.0
  9
$LIMMAX
 10
0.0
 20
0.0
  9
$ORTHOMODE
 70
     0
  9
$REGENMODE
 70
     1
  9
$FILLMODE
 70
     1
  9
$QTEXTMODE
 70
     0
  9
$MIRRTEXT
 70
     1
  9
$LTSCALE
 40
1.0
  9
$ATTMODE
 70
     1
  9
$TEXTSIZE
 40
0.0
  9
$TRACEWID
 40
0.05
  9
$TEXTSTYLE
  7
STANDARD
  9
$CLAYER
  8
0
  9
$CELTYPE
  6
CONTINUOUS
  9
$CECOLOR
 62
   256
  9
$CELTSCALE
 40
1.0
  9
$DISPSILH
 70
     0
  9
$DIMSCALE
 40
1.0
  9
$DIMASZ
 40
6.0
  9
$DIMEXO
 40
1.0
  9
$DIMDLI
 40
0.38
  9
$DIMRND
 40
0.0
  9
$DIMDLE
 40
1.0
  9
$DIMEXE
 40
0.18
  9
$DIMTP
 40
0.0
  9
$DIMTM
 40
0.0
  9
$DIMTXT
 40
3.5
  9
$DIMCEN
 40
0.09
  9
$DIMTSZ
 40
0.0
  9
$DIMTOL
 70
     0
  9
$DIMLIM
 70
     0
  9
$DIMTIH
 70
     1
  9
$DIMTOH
 70
     1
  9
$DIMSE1
 70
     0
  9
$DIMSE2
 70
     0
  9
$DIMTAD
 70
     1
  9
$DIMZIN
 70
     0
  9
$DIMBLK
  1

  9
$DIMASO
 70
     1
  9
$DIMSHO
 70
     1
  9
$DIMPOST
  1

  9
$DIMAPOST
  1

  9
$DIMALT
 70
     0
  9
$DIMALTD
 70
     2
  9
$DIMALTF
 40
0.0394
  9
$DIMLFAC
 40
1.0
  9
$DIMTOFL
 70
     0
  9
$DIMTVP
 40
0.0
  9
$DIMTIX
 70
     0
  9
$DIMSOXD
 70
     0
  9
$DIMSAH
 70
     0
  9
$DIMBLK1
  1

  9
$DIMBLK2
  1

  9
$DIMSTYLE
  2
STANDARD
  9
$DIMCLRD
 70
     0
  9
$DIMCLRE
 70
     0
  9
$DIMCLRT
 70
     0
  9
$DIMTFAC
 40
1.0
  9
$DIMGAP
 40
1.0
  9
$DIMJUST
 70
     0
  9
$DIMSD1
 70
     0
  9
$DIMSD2
 70
     0
  9
$DIMTOLJ
 70
     1
  9
$DIMTZIN
 70
     0
  9
$DIMALTZ
 70
     0
  9
$DIMALTTZ
 70
     0
  9
$DIMUPT
 70
     0
  9
$DIMDEC
 70
     4
  9
$DIMTDEC
 70
     4
  9
$DIMALTU
 70
     2
  9
$DIMALTTD
 70
     2
  9
$DIMTXSTY
  7
STANDARD
  9
$DIMAUNIT
 70
     0
  9
$DIMADEC
 70
     0
  9
$DIMALTRND
 40
0.0
  9
$DIMAZIN
 70
     0
  9
$DIMDSEP
 70
    46
  9
$DIMATFIT
 70
     3
  9
$DIMFRAC
 70
     0
  9
$DIMLDRBLK
  1

  9
$DIMLUNIT
 70
     2
  9
$DIMLWD
 70
    -2
  9
$DIMLWE
 70
    -2
  9
$DIMTMOVE
 70
     0
  9
$LUNITS
 70
     2
  9
$LUPREC
 70
     2
  9
$SKETCHINC
 40
0.1
  9
$FILLETRAD
 40
0.0
  9
$AUNITS
 70
     0
  9
$AUPREC
 70
     2
  9
$MENU
  1
acad
  9
$ELEVATION
 40
0.0
  9
$PELEVATION
 40
0.0
  9
$THICKNESS
 40
0.0
  9
$LIMCHECK
 70
     0
  9
$CHAMFERA
 40
0.0
  9
$CHAMFERB
 40
0.0
  9
$CHAMFERC
 40
0.0
  9
$CHAMFERD
 40
0.0
  9
$SKPOLY
 70
     0
  9
$TDCREATE
 40
2444972.041666667
  9
$TDUCREATE
 40
2444972.000000000
  9
$TDUPDATE
 40
2453768.769577176
  9
$TDUUPDATE
 40
2453768.727910509
  9
$TDINDWG
 40
0.0120898495
  9
$TDUSRTIMER
 40
0.0120898495
  9
$USRTIMER
 70
     1
  9
$ANGBASE
 50
0.0
  9
$ANGDIR
 70
     0
  9
$PDMODE
 70
     0
  9
$PDSIZE
 40
-1.0
  9
$PLINEWID
 40
0.0
  9
$SPLFRAME
 70
     0
  9
$SPLINETYPE
 70
     6
  9
$SPLINESEGS
 70
     8
  9
$HANDSEED
  5
D7D
  9
$SURFTAB1
 70
     6
  9
$SURFTAB2
 70
     6
  9
$SURFTYPE
 70
     6
  9
$SURFU
 70
     6
  9
$SURFV
 70
     6
  9
$UCSBASE
  2

  9
$UCSNAME
  2

  9
$UCSORG
 10
0.0
 20
0.0
 30
0.0
  9
$UCSXDIR
 10
1.0
 20
0.0
 30
0.0
  9
$UCSYDIR
 10
0.0
 20
1.0
 30
0.0
  9
$UCSORTHOREF
  2

  9
$UCSORTHOVIEW
 70
     1
  9
$UCSORGTOP
 10
0.0
 20
0.0
 30
0.0
  9
$UCSORGBOTTOM
 10
0.0
 20
0.0
 30
0.0
  9
$UCSORGLEFT
 10
0.0
 20
0.0
 30
0.0
  9
$UCSORGRIGHT
 10
0.0
 20
0.0
 30
0.0
  9
$UCSORGFRONT
 10
0.0
 20
0.0
 30
0.0
  9
$UCSORGBACK
 10
0.0
 20
0.0
 30
0.0
  9
$PUCSBASE
  2

  9
$PUCSNAME
  2

  9
$PUCSORG
 10
0.0
 20
0.0
 30
0.0
  9
$PUCSXDIR
 10
1.0
 20
0.0
 30
0.0
  9
$PUCSYDIR
 10
0.0
 20
1.0
 30
0.0
  9
$PUCSORTHOREF
  2

  9
$PUCSORTHOVIEW
 70
     0
  9
$PUCSORGTOP
 10
0.0
 20
0.0
 30
0.0
  9
$PUCSORGBOTTOM
 10
0.0
 20
0.0
 30
0.0
  9
$PUCSORGLEFT
 10
0.0
 20
0.0
 30
0.0
  9
$PUCSORGRIGHT
 10
0.0
 20
0.0
 30
0.0
  9
$PUCSORGFRONT
 10
0.0
 20
0.0
 30
0.0
  9
$PUCSORGBACK
 10
0.0
 20
0.0
 30
0.0
  9
$USERI1
 70
     0
  9
$USERI2
 70
     0
  9
$USERI3
 70
     0
  9
$USERI4
 70
     0
  9
$USERI5
 70
     0
  9
$USERR1
 40
0.0
  9
$USERR2
 40
0.0
  9
$USERR3
 40
0.0
  9
$USERR4
 40
0.0
  9
$USERR5
 40
0.0
  9
$WORLDVIEW
 70
     1
  9
$SHADEDGE
 70
     3
  9
$SHADEDIF
 70
    70
  9
$TILEMODE
 70
     1
  9
$MAXACTVP
 70
    16
  9
$PINSBASE
 10
0.0
 20
0.0
 30
0.0
  9
$PLIMCHECK
 70
     0
  9
$PEXTMIN
 10
1.000000000000000E+20
 20
1.000000000000000E+20
 30
1.000000000000000E+20
  9
$PEXTMAX
 10
-1.000000000000000E+20
 20
-1.000000000000000E+20
 30
-1.000000000000000E+20
  9
$PLIMMIN
 10
0.0
 20
0.0
  9
$PLIMMAX
 10
12.0
 20
9.0
  9
$UNITMODE
 70
     0
  9
$VISRETAIN
 70
     0
  9
$PLINEGEN
 70
     1
  9
$PSLTSCALE
 70
     1
  9
$TREEDEPTH
 70
  3020
  9
$CMLSTYLE
  2
STANDARD
  9
$CMLJUST
 70
     0
  9
$CMLSCALE
 40
1.0
  9
$PROXYGRAPHICS
 70
     0
  9
$MEASUREMENT
 70
     0
  9
$CELWEIGHT
370
    -1
  9
$ENDCAPS
280
     0
  9
$JOINSTYLE
280
     0
  9
$LWDISPLAY
290
     0
  9
$INSUNITS
 70
     0
  9
$HYPERLINKBASE
  1

  9
$STYLESHEET
  1

  9
$XEDIT
290
     1
  9
$CEPSNTYPE
380
     0
  9
$PSTYLEMODE
290
     1
  9
$FINGERPRINTGUID
  2
{EBC00ECB-9671-49D3-B4A6-DAF4A5C8E93D}
  9
$VERSIONGUID
  2
{A4447B80-C5E5-4FB3-A130-62F9039E4147}
  9
$EXTNAMES
290
     1
  9
$PSVPSCALE
 40
0.0
  9
$OLESTARTUP
290
     0
  0
ENDSEC
  0
SECTION
  2
CLASSES
  0
CLASS
  1
IMAGE
  2
AcDbRasterImage
  3
ISM
 90
    32895
280
     0
281
     1
  0
CLASS
  1
DICTIONARYVAR
  2
AcDbDictionaryVar
  3
ObjectDBX Classes
 90
        0
280
     0
281
     0
  0
CLASS
  1
RASTERVARIABLES
  2
AcDbRasterVariables
  3
ISM
 90
    32768
280
     0
281
     0
  0
CLASS
  1
IMAGEDEF
  2
AcDbRasterImageDef
  3
ISM
 90
    32768
280
     0
281
     0
  0
CLASS
  1
IMAGEDEF_REACTOR
  2
AcDbRasterImageDefReactor
  3
ISM
 90
    32769
280
     0
281
     0
  0
CLASS
  1
IDBUFFER
  2
AcDbIdBuffer
  3
ObjectDBX Classes
 90
    32768
280
     0
281
     0
  0
CLASS
  1
SPATIAL_FILTER
  2
AcDbSpatialFilter
  3
ObjectDBX Classes
 90
    32768
280
     0
281
     0
  0
CLASS
  1
SORTENTSTABLE
  2
AcDbSortentsTable
  3
ObjectDBX Classes
 90
    32768
280
     0
281
     0
  0
CLASS
  1
LAYER_INDEX
  2
AcDbLayerIndex
  3
ObjectDBX Classes
 90
    32768
280
     0
281
     0
  0
CLASS
  1
SPATIAL_INDEX
  2
AcDbSpatialIndex
  3
ObjectDBX Classes
 90
    32768
280
     0
281
     0
  0
CLASS
  1
OBJECT_PTR
  2
CAseDLPNTableRecord
  3
ASE-LPNTableRecord
 90
    32769
280
     0
281
     0
  0
CLASS
  1
LAYOUT
  2
AcDbLayout
  3
ObjectDBX Classes
 90
        0
280
     0
281
     0
  0
CLASS
  1
PLOTSETTINGS
  2
AcDbPlotSettings
  3
ObjectDBX Classes
 90
    32768
280
     0
281
     0
  0
CLASS
  1
ACDBDICTIONARYWDFLT
  2
AcDbDictionaryWithDefault
  3
ObjectDBX Classes
 90
        0
280
     0
281
     0
  0
CLASS
  1
ACDBPLACEHOLDER
  2
AcDbPlaceHolder
  3
ObjectDBX Classes
 90
        0
280
     0
281
     0
  0
CLASS
  1
VBA_PROJECT
  2
AcDbVbaProject
  3
acad
 90
    32768
280
     0
281
     0
  0
CLASS
  1
WIPEOUT
  2
AcDbWipeout
  3
"WipeOut|Product Desc: Object Enabler for WipeOut entity^I^I^I^I^I^I|Company: Autodesk, Inc.^I^I^I^I^I^I|WEB Address: www.autodesk.com"
 90
    32895
280
     0
281
     1
  0
CLASS
  1
WIPEOUTVARIABLES
  2
AcDbWipeoutVariables
  3
"WipeOut|Product Desc:     WipeOut Dbx Application|Company:          Autodesk, Inc.|WEB Address:      www.autodesk.com"
 90
    32768
280
     0
281
     0
  0
CLASS
  1
RTEXT
  2
RText
  3
RText|AutoCAD Express Tool|expresstools@autodesk.com
 90
    32768
280
     0
281
     1
  0
CLASS
  1
ARCALIGNEDTEXT
  2
AcDbArcAlignedText
  3
ATEXT|AutoCAD Express Tool|expresstools@autodesk.com
 90
    32768
280
     0
281
     1
  0
ENDSEC
  0
SECTION
  2
TABLES
  0
TABLE
  2
VPORT
  5
7
330
0
100
AcDbSymbolTable
 70
     2
  0
VPORT
  5
D75
330
7
100
AcDbSymbolTableRecord
100
AcDbViewportTableRecord
  2
*Active
 70
     0
 10
0.0
 20
0.0
 11
1.0
 21
1.0
 12
563.3509874615943
 22
-230.6245454797186
 13
0.0
 23
0.0
 14
1.0
 24
1.0
 15
0.0
 25
0.0
 16
0.0
 26
0.0
 36
1.0
 17
0.0
 27
0.0
 37
0.0
 40
2670.702552229538
 41
1.569570871261378
 42
50.0
 43
0.0
 44
0.0
 50
0.0
 51
0.0
 71
     0
 72
  2000
 73
     1
 74
     1
 75
     0
 76
     0
 77
     0
 78
     0
281
     0
 65
     1
110
0.0
120
0.0
130
0.0
111
1.0
121
0.0
131
0.0
112
0.0
122
1.0
132
0.0
 79
     1
146
0.0
  0
ENDTAB
  0
TABLE
  2
LTYPE
  5
4
330
0
100
AcDbSymbolTable
 70
     6
  0
LTYPE
  5
11
330
4
100
AcDbSymbolTableRecord
100
AcDbLinetypeTableRecord
  2
BYBLOCK
 70
     0
  3

 72
    65
 73
     0
 40
0.0
  0
LTYPE
  5
12
330
4
100
AcDbSymbolTableRecord
100
AcDbLinetypeTableRecord
  2
BYLAYER
 70
     0
  3

 72
    65
 73
     0
 40
0.0
  0
LTYPE
  5
13
330
4
100
AcDbSymbolTableRecord
100
AcDbLinetypeTableRecord
  2
CONTINUOUS
 70
     0
  3
Solid line
 72
    65
 73
     0
 40
0.0
  0
LTYPE
  5
1E
330
4
100
AcDbSymbolTableRecord
100
AcDbLinetypeTableRecord
  2
HIDDEN
 70
     0
  3
Hidden __ __ __ __ __ __ __ __ __ __ __ __ __ __
 72
    65
 73
     2
 40
1.905
 49
1.27
 74
     0
 49
-0.635
 74
     0
  0
LTYPE
  5
1F
330
4
100
AcDbSymbolTableRecord
100
AcDbLinetypeTableRecord
  2
PHANTOM
 70
     0
  3
Phantom ______  __  __  ______  __  __  ______
 72
    65
 73
     6
 40
12.7
 49
6.349999999999999
 74
     0
 49
-1.27
 74
     0
 49
1.27
 74
     0
 49
-1.27
 74
     0
 49
1.27
 74
     0
 49
-1.27
 74
     0
  0
LTYPE
  5
20
330
4
100
AcDbSymbolTableRecord
100
AcDbLinetypeTableRecord
  2
CENTER
 70
     0
  3
Center ____ _ ____ _ ____ _ ____ _ ____ _ ____
 72
    65
 73
     4
 40
10.16
 49
6.349999999999999
 74
     0
 49
-1.27
 74
     0
 49
1.27
 74
     0
 49
-1.27
 74
     0
  0
LTYPE
  5
21
330
4
100
AcDbSymbolTableRecord
100
AcDbLinetypeTableRecord
  2
CENTERX2
 70
     0
  3
Center (2x) ________  __  ________  __  _____
 72
    65
 73
     4
 40
20.32
 49
12.7
 74
     0
 49
-2.54
 74
     0
 49
2.54
 74
     0
 49
-2.54
 74
     0
  0
LTYPE
  5
22
330
4
100
AcDbSymbolTableRecord
100
AcDbLinetypeTableRecord
  2
DOT2
 70
     0
  3
Dot (.5x) ........................................
 72
    65
 73
     2
 40
0.635
 49
0.0
 74
     0
 49
-0.635
 74
     0
  0
ENDTAB
  0
TABLE
  2
LAYER
  5
2
330
0
100
AcDbSymbolTable
 70
     2
  0
LAYER
  5
14
330
2
100
AcDbSymbolTableRecord
100
AcDbLayerTableRecord
  2
0
 70
     0
 62
     7
  6
CONTINUOUS
370
    -3
390
D5A
  0
LAYER
  5
26
330
2
100
AcDbSymbolTableRecord
100
AcDbLayerTableRecord
  2
DEFPOINTS
 70
     0
 62
     7
  6
CONTINUOUS
290
     0
370
    -3
390
D5A
  0
ENDTAB
  0
TABLE
  2
STYLE
  5
3
330
0
100
AcDbSymbolTable
 70
     1
  0
STYLE
  5
17
330
3
100
AcDbSymbolTableRecord
100
AcDbTextStyleTableRecord
  2
STANDARD
 70
     0
 40
0.0
 41
1.0
 50
0.0
 71
     0
 42
0.0
  3
Century Gothic
  4

  0
ENDTAB
  0
TABLE
  2
VIEW
  5
5
330
0
100
AcDbSymbolTable
 70
     0
  0
ENDTAB
  0
TABLE
  2
UCS
  5
6
330
0
100
AcDbSymbolTable
 70
     0
  0
ENDTAB
  0
TABLE
  2
APPID
  5
8
330
0
100
AcDbSymbolTable
 70
     2
  0
APPID
  5
16
330
8
100
AcDbSymbolTableRecord
100
AcDbRegAppTableRecord
  2
ACAD
 70
     0
  0
APPID
  5
D65
330
8
100
AcDbSymbolTableRecord
100
AcDbRegAppTableRecord
  2
DCO15
 70
     0
  0
ENDTAB
  0
TABLE
  2
DIMSTYLE
  5
9
330
0
100
AcDbSymbolTable
 70
     1
100
AcDbDimStyleTable
 71
     0
  0
DIMSTYLE
105
18
330
9
100
AcDbSymbolTableRecord
100
AcDbDimStyleTableRecord
  2
STANDARD
 70
     0
289
     0
340
17
  0
ENDTAB
  0
TABLE
  2
BLOCK_RECORD
  5
1
330
0
100
AcDbSymbolTable
 70
     0
  0
BLOCK_RECORD
  5
A
330
1
100
AcDbSymbolTableRecord
100
AcDbBlockTableRecord
  2
*MODEL_SPACE
340
D5F
  0
BLOCK_RECORD
  5
B
330
1
100
AcDbSymbolTableRecord
100
AcDbBlockTableRecord
  2
*PAPER_SPACE
340
D60
  0
ENDTAB
  0
ENDSEC
  0
SECTION
  2
BLOCKS
  0
BLOCK
  5
D
330
A
100
AcDbEntity
  8
0
100
AcDbBlockBegin
  2
*MODEL_SPACE
 70
     0
 10
0.0
 20
0.0
 30
0.0
  3
*MODEL_SPACE
  1

  0
ENDBLK
  5
E
330
A
100
AcDbEntity
  8
0
100
AcDbBlockEnd
  0
BLOCK
  5
F
330
B
100
AcDbEntity
 67
     1
  8
0
100
AcDbBlockBegin
  2
*PAPER_SPACE
 70
     0
 10
0.0
 20
0.0
 30
0.0
  3
*PAPER_SPACE
  1

  0
ENDBLK
  5
10
330
B
100
AcDbEntity
 67
     1
  8
0
100
AcDbBlockEnd
  0
ENDSEC
  0
SECTION
  2
ENTITIES
  0
ARC
  5
27
330
A
100
AcDbEntity
  8
0
  6
Continuous
 62
     7
100
AcDbCircle
 10
46.74025218539568
 20
1293.446362131646
 30
0.0
 40
251.0000000000002
100
AcDbArc
 50
248.7431291678446
 51
256.6048565809532
  0
ARC
  5
28
330
A
100
AcDbEntity
  8
0
  6
Continuous
 62
     7
100
AcDbCircle
 10
46.74025218539568
 20
1293.446362131646
 30
0.0
 40
251.0000000000002
100
AcDbArc
 50
257.0623679054748
 51
269.7717293582164
  0
ARC
  5
29
330
A
100
AcDbEntity
  8
0
  6
Continuous
 62
     7
100
AcDbCircle
 10
46.74025218539568
 20
1293.446362131646
 30
0.0
 40
251.0000000000003
100
AcDbArc
 50
270.2282706417853
 51
282.9376320945268
  0
ARC
  5
2A
330
A
100
AcDbEntity
  8
0
  6
Continuous
 62
     7
100
AcDbCircle
 10
46.74025218539568
 20
1293.446362131646
 30
0.0
 40
251.0000000000002
100
AcDbArc
 50
283.3951434190485
 51
291.256870832157
  0
LINE
  5
2B
330
A
100
AcDbEntity
  8
0
  6
Continuous
 62
     7
100
AcDbLine
 10
-44.25974781460428
 20
1066.208286337834
 30
0.0
 11
-44.25974781460428
 21
1059.523297856231
 31
0.0
  0
LINE
  5
2C
330
A
100
AcDbEntity
  8
0
  6
Continuous
 62
     7
100
AcDbLine
 10
137.7402521853957
 20
1059.523297856231
 30
0.0
 11
137.7402521853957
 21
1066.208286337834
 31
0.0
  0
LINE
  5
2D
330
A
100
AcDbEntity
  8
0
  6
Continuous
 62
     7
100
AcDbLine
 10
-19.25974781460429
 20
1093.208286337834
 30
0.0
 11
-19.25974781460429
 21
1066.208286337834
 31
0.0
  0
LINE
  5
2E
330
A
100
AcDbEntity
  8
0
  6
Continuous
 62
     7
100
AcDbLine
 10
112.7402521853957
 20
1066.208286337834
 30
0.0
 11
112.7402521853957
 21
1093.208286337834
 31
0.0
  0
LWPOLYLINE
  5
2F
330
A
100
AcDbEntity
  8
0
  6
Continuous
 62
     7
100
AcDbPolyline
 90
        8
 70
   128
 43
0.0
 10
-122.0973577115009
 20
-767.7917136621653
 10
-119.8118747150211
 20
-661.7710989184655
 10
-119.5310503325858
 20
-648.978583910643
 10
-119.3699757267836
 20
-641.6711243741677
 10
-119.2293342567911
 20
-635.3097305758528
 10
-118.8310709330601
 20
-617.3751543559295
 10
-118.0584183292846
 20
-583.0091618478412
 10
-115.2731103095859
 20
-468.0548792594286
  0
LWPOLYLINE
  5
39
330
A
100
AcDbEntity
  8
0
  6
Continuous
 62
     7
100
AcDbPolyline
 90
        9
 70
   128
 43
0.0
 10
-125.2758589439518
 20
-457.7917136662008
 10
-123.2954481935983
 20
-457.9897223767268
 10
-121.3910452537718
 20
-458.5770417245698
 10
-119.6409263064175
 20
-459.5303452481746
 10
-118.11460178498
 20
-460.8117700690037
 10
-116.8726935570318
 20
-462.3704211351198
 10
-115.9645271723325
 20
-464.1443926478571
 10
-115.4261727729349
 20
-466.0632268083591
 10
-115.2790124755836
 20
-468.0507122285901
  0
LWPOLYLINE
  5
44
330
A
100
AcDbEntity
  8
0
  6
Continuous
 62
     7
100
AcDbPolyline
 90
       59
 70
   128
 43
0.0
 10
-438.9185312775709
 20
-467.4092642363976
 10
-439.152007049724
 20
-473.5189137169926
 10
-439.4442193230594
 20
-481.0391784619782
 10
-439.6874674067209
 20
-487.206388691652
 10
-439.8365707966704
 20
-490.943854338234
 10
-439.9562740987582
 20
-493.9202268199531
 10
-440.0459462008574
 20
-496.1355061368091
 10
-440.1050869408188
 20
-497.5896922888023
 10
-440.1572392342784
 20
-498.8674942011781
 10
-440.2281380371481
 20
-500.5979307349721
 10
-440.3253683095916
 20
-502.9585607311284
 10
-440.4494366628529
 20
-505.9493841896465
 10
-440.6010435959023
 20
-509.5704011105268
 10
-440.7811286261694
 20
-513.8216114937693
 10
-441.028973460811
 20
-519.5799825677259
 10
-441.2821450092098
 20
-525.348488096519
 10
-441.5298212767314
 20
-530.8775824200693
 10
-441.7717803359651
 20
-536.1672655383762
 10
-442.106979492976
 20
-543.3086505554334
 10
-442.4290307009427
 20
-549.961441276076
 10
-442.7368465415625
 20
-556.1256171538999
 10
-443.0135252426472
 20
-561.50153559665
 10
-443.2408094440643
 20
-565.7993361888143
 10
-443.3708267193024
 20
-568.2092134435894
 10
-443.5090071384734
 20
-570.7319632303373
 10
-443.6912391144578
 20
-573.9998533255645
 10
-443.9203712917068
 20
-578.0128837292714
 10
-444.2004318484166
 20
-582.7691651397818
 10
-444.5096280873213
 20
-587.8274774086117
 10
-444.8295946973328
 20
-592.849603075904
 10
-445.1955293543674
 20
-598.3321457851507
 10
-445.5778263509337
 20
-603.7709027065376
 10
-445.9783140269085
 20
-609.1658738400645
 10
-446.3898129463086
 20
-614.4056104979652
 10
-446.7677704516626
 20
-618.9658371230508
 10
-447.1466676065729
 20
-623.3105260777512
 10
-447.4592213203747
 20
-626.7329758223545
 10
-447.8131734745422
 20
-630.442611242887
 10
-448.2560734096296
 20
-634.8538579499723
 10
-448.7774901672923
 20
-639.7463680743975
 10
-449.3704516073243
 20
-644.958891285672
 10
-450.0439380112117
 20
-650.4914275837958
 10
-450.8066183555117
 20
-656.3439769687686
 10
-451.8707350784294
 20
-663.9317544197666
 10
-452.9875343860537
 20
-671.353013097921
 10
-454.1384144474055
 20
-678.5951733044342
 10
-455.3067066605931
 20
-685.6582350393055
 10
-456.4268612244135
 20
-692.2295390604242
 10
-457.2352485891583
 20
-696.8750194799948
 10
-457.9195902346111
 20
-700.7543877042799
 10
-458.6037281489576
 20
-704.5893051534457
 10
-459.4222433958904
 20
-709.1269094527399
 10
-460.3786223730558
 20
-714.3672565657916
 10
-461.5222043798206
 20
-720.557290622334
 10
-462.8432580198587
 20
-727.6182907478088
 10
-464.4076199543916
 20
-735.8722331145293
 10
-466.2217388455367
 20
-745.3191177224955
 10
-468.2914850486747
 20
-755.9589445717076
 10
-470.6227600192496
 20
-767.7917136621654
  0
LWPOLYLINE
  5
81
330
A
100
AcDbEntity
  8
0
  6
Continuous
 62
     7
100
AcDbPolyline
 90
        9
 70
   128
 43
0.0
 10
-438.7368118153149
 20
-467.3901751276418
 10
-438.4788286908585
 20
-465.4845938539922
 10
-437.8659854266842
 20
-463.6643698837383
 10
-436.9209555953776
 20
-461.9968466678479
 10
-435.678702789962
 20
-460.5437181350679
 10
-434.1851870638471
 20
-459.3587461804715
 10
-432.4956645309585
 20
-458.4857716181698
 10
-430.6726430363255
 20
-457.9570921876679
 10
-428.7836081234493
 20
-457.7922672112886
  0
LWPOLYLINE
  5
8C
330
A
100
AcDbEntity
  8
0
  6
Continuous
 62
     7
100
AcDbPolyline
 90
       38
 70
   128
 43
0.0
 10
198.7171570593884
 20
-767.7917136621637
 10
198.5110551612033
 20
-752.3253975057277
 10
198.3246365250086
 20
-737.9085978019202
 10
198.157178369835
 20
-724.5413145507407
 10
198.0079212036677
 20
-712.223547752189
 10
197.8760457759168
 20
-700.9552974062655
 10
197.762588535141
 20
-690.9098375549271
 10
197.6641529154925
 20
-681.8767460930022
 10
197.5798112261169
 20
-673.8560230204903
 10
197.5086239045842
 20
-666.8476683373921
 10
197.4485859252159
 20
-660.7398560884152
 10
197.3999487021276
 20
-655.6416910408326
 10
197.3543292782235
 20
-650.696617217717
 10
197.3088744829149
 20
-645.5760402077782
 10
197.2638013308915
 20
-640.2799600110154
 10
197.2192996305255
 20
-634.8083766274291
 10
197.1757339297101
 20
-629.1882312938312
 10
197.1576537583441
 20
-626.7727174079269
 10
197.1437492698881
 20
-624.879316079264
 10
197.1338273261892
 20
-623.5080273078424
 10
197.1277461735571
 20
-622.6588510936619
 10
197.1227988021417
 20
-621.962673071007
 10
197.1136091814513
 20
-620.657877890399
 10
197.0997435704896
 20
-618.6624449466218
 10
197.0772602342785
 20
-615.3562835667054
 10
197.048926463982
 20
-611.0556038078255
 10
197.0154682380425
 20
-605.7604056699821
 10
196.9778001618446
 20
-599.4706891531749
 10
196.9370406170468
 20
-592.186454257404
 10
196.8893840150562
 20
-582.8474189546349
 10
196.8417880770876
 20
-572.2608597972938
 10
196.7969354554452
 20
-560.4267767853805
 10
196.7579973537519
 20
-547.3451699188951
 10
196.7286998963094
 20
-533.0160391978377
 10
196.7135239973306
 20
-517.7284788703704
 10
196.7166569315954
 20
-501.2375513043569
 10
196.7431312373867
 20
-483.5432564997974
 10
196.7878403312222
 20
-467.7622540702343
  0
LWPOLYLINE
  5
B4
330
A
100
AcDbEntity
  8
0
  6
Continuous
 62
     7
100
AcDbPolyline
 90
        9
 70
   128
 43
0.0
 10
187.0617609222964
 20
-457.7917159438548
 10
189.0154975919588
 20
-457.9857731587336
 10
190.8936622506039
 20
-458.5578246036059
 10
192.6238563961504
 20
-459.4858191406599
 10
194.1393854159239
 20
-460.7339849252309
 10
195.3818294954596
 20
-462.2542083200327
 10
196.3032955547425
 20
-463.9878885543032
 10
196.8682634054313
 20
-465.8681966354563
 10
197.0549549643716
 20
-467.8226514378891
  0
LWPOLYLINE
  5
BF
330
A
100
AcDbEntity
  8
0
  6
Continuous
 62
     7
100
AcDbPolyline
 90
       43
 70
   128
 43
0.0
 10
492.3569696329041
 20
-767.7917136621639
 10
491.8502259930593
 20
-751.4313407307411
 10
491.4002789881662
 20
-736.0984396318368
 10
491.0109848563316
 20
-721.7930103654522
 10
490.6801595034358
 20
-708.515052931586
 10
490.4038445160941
 20
-696.264567330239
 10
490.1770260521039
 20
-685.041553561411
 10
490.0034793064167
 20
-675.400935188423
 10
489.8640938973648
 20
-666.6737183057316
 10
489.7540552133924
 20
-658.8599029133367
 10
489.6687670162111
 20
-651.9594890112383
 10
489.6039753059244
 20
-645.9724765994364
 10
489.5628728488822
 20
-641.6815367925454
 10
489.5314440161049
 20
-638.0305897918732
 10
489.5079944587808
 20
-635.0210082582608
 10
489.4911057313017
 20
-632.6527921917082
 10
489.4796592798195
 20
-630.9259415922152
 10
489.4713160388873
 20
-629.59155482951
 10
489.4564103597843
 20
-627.0095164044398
 10
489.4371407855589
 20
-623.1459744089369
 10
489.4171041774711
 20
-618.0009288430015
 10
489.4010549657749
 20
-611.5743797066337
 10
489.3962530618724
 20
-600.8679379734271
 10
489.4179184984109
 20
-590.310377501692
 10
489.463789168695
 20
-579.9807638319125
 10
489.5314940646591
 20
-569.8790969640886
 10
489.5989408340591
 20
-562.1019846560478
 10
489.6782722168687
 20
-554.4655946083978
 10
489.7666102054596
 20
-547.1482637146943
 10
489.8540330230006
 20
-540.7382137540628
 10
489.9288077750887
 20
-535.7384030674466
 10
489.9963229784728
 20
-531.5266947231278
 10
490.0547159951123
 20
-528.0780134608374
 10
490.1140792510118
 20
-524.7306719732505
 10
490.1807128390643
 20
-521.1398904746886
 10
490.241591650272
 20
-517.9958356635657
 10
490.3275043579758
 20
-513.7555166486767
 10
490.4419515707826
 20
-508.4189334300219
 10
490.5894698366734
 20
-501.9860860076015
 10
490.7757008377953
 20
-494.4569743814151
 10
491.0074527459594
 20
-485.8315985514631
 10
491.2927413350026
 20
-476.109958517745
 10
491.5496357904877
 20
-468.1254167319086
  0
LWPOLYLINE
  5
EC
330
A
100
AcDbEntity
  8
0
  6
Continuous
 62
     7
100
AcDbPolyline
 90
        9
 70
   128
 43
0.0
 10
481.5514683274884
 20
-457.7917136823441
 10
483.5344763746124
 20
-457.9901770738692
 10
485.4486701383459
 20
-458.5821281529505
 10
487.2064316719546
 20
-459.5438088342651
 10
488.7371935788937
 20
-460.836611319946
 10
489.9795016286336
 20
-462.4086345392757
 10
490.8834819087574
 20
-464.196767777987
 10
491.4128430716183
 20
-466.129224331844
 10
491.546333293018
 20
-468.1284234680029
  0
LINE
  5
F7
330
A
100
AcDbEntity
  8
0
  6
Continuous
 62
     7
100
AcDbLine
 10
188.3131838050021
 20
-457.8711800288495
 30
0.0
 11
189.570386270502
 21
-457.7917137089122
 31
0.0
  0
LWPOLYLINE
  5
F8
330
A
100
AcDbEntity
  8
0
  6
Continuous
 62
     7
100
AcDbPolyline
 90
        9
 70
   128
 43
0.0
 10
217.6877811974732
 20
-467.4006994228048
 10
217.9433924526643
 20
-465.5122523438375
 10
218.5525950695644
 20
-463.7065855304059
 10
219.4932654201099
 20
-462.0492730622644
 10
220.7312423887891
 20
-460.6005014251788
 10
222.2215679579467
 20
-459.412883795716
 10
223.9101198902986
 20
-458.529549356166
 10
225.7355772166287
 20
-457.9825770274896
 10
227.6316471505742
 20
-457.7918305003946
  0
LWPOLYLINE
  5
103
330
A
100
AcDbEntity
  8
0
  6
Continuous
 62
     7
100
AcDbPolyline
 90
       10
 70
   128
 43
0.0
 10
540.243090996952
 20
-457.7917306315202
 10
542.1460189885185
 20
-457.9780364155361
 10
543.9787025235862
 20
-458.5231297194501
 10
545.6741387892666
 20
-459.4070819609664
 10
547.1703427255643
 20
-460.5975758929954
 10
548.4126131958846
 20
-462.0510871204923
 10
549.3555328576873
 20
-463.7144753500326
 10
549.9646286181226
 20
-465.5269271961235
 10
550.2176319684783
 20
-467.4221795153528
 10
550.1052931196775
 20
-469.3309419833999
  0
LWPOLYLINE
  5
10F
330
A
100
AcDbEntity
  8
0
  6
Continuous
 62
     7
100
AcDbPolyline
 90
       50
 70
   128
 43
0.0
 10
516.2999550536495
 20
-767.7917136621641
 10
517.4785975092308
 20
-753.2654384153509
 10
518.5673561811214
 20
-740.0508220988122
 10
519.5637922023831
 20
-728.1478647128802
 10
520.4645852122942
 20
-717.5565662575555
 10
521.2658970604372
 20
-708.2769267328382
 10
521.9636857716506
 20
-700.3089461387275
 10
522.5539734825846
 20
-693.6526244752241
 10
522.9793775790913
 20
-688.9043132361725
 10
523.3174583687424
 20
-685.1602408658666
 10
523.5663942304616
 20
-682.4204073643068
 10
523.7247850283885
 20
-680.684812731493
 10
523.8885202966326
 20
-678.897235181535
 10
524.1297766852079
 20
-676.2760792689728
 10
524.4446492563847
 20
-672.8783634766211
 10
525.0478970437125
 20
-666.4440321602065
 10
525.7161439106303
 20
-659.4347085162732
 10
526.4533260568018
 20
-651.8503925448209
 10
527.2733437902786
 20
-643.600236048367
 10
528.2328731933293
 20
-634.1987729654579
 10
529.3522872074833
 20
-623.5742771480397
 10
530.6481744986248
 20
-611.726748596113
 10
531.2087947839183
 20
-606.7461705872597
 10
531.6184861913164
 20
-603.1596743663791
 10
531.8857237564465
 20
-600.8438456396098
 10
532.2229174554673
 20
-597.9477123239072
 10
532.70031671619
 20
-593.8951851605984
 10
533.1773384741423
 20
-589.899810991234
 10
533.7394659133135
 20
-585.2578612193755
 10
534.3062217140616
 20
-580.6470886458079
 10
534.8553556449498
 20
-576.2430599278165
 10
535.3857489615562
 20
-572.0457750654008
 10
536.4966974861052
 20
-563.4226232252522
 10
537.4981184902461
 20
-555.8295647343937
 10
538.3805680988936
 20
-549.2665995928258
 10
539.1410199341801
 20
-543.6977361004893
 10
539.954495306732
 20
-537.819142039845
 10
540.5913575647556
 20
-533.2689661488392
 10
540.7919424832612
 20
-531.844848193428
 10
540.9641217212215
 20
-530.6257539606272
 10
541.1763545640667
 20
-529.1271953284997
 10
541.5163809841216
 20
-526.7355784740734
 10
542.060509097805
 20
-522.9312730219596
 10
542.7757949864431
 20
-517.9710537117285
 10
543.6665605536964
 20
-511.8549205433809
 10
544.7378524281109
 20
-504.5828735169164
 10
545.9952661678707
 20
-496.1549126323352
 10
547.4447144278468
 20
-486.5710378896371
 10
549.092126855781
 20
-475.8312492888223
 10
550.1062732692274
 20
-469.3134914392969
  0
LINE
  5
143
330
A
100
AcDbEntity
  8
0
  6
Continuous
 62
     7
100
AcDbLine
 10
413.539610087628
 20
-457.7917136622377
 30
0.0
 11
413.5243219103239
 21
-457.7917252903009
 31
0.0
  0
LINE
  5
144
330
A
100
AcDbEntity
  8
0
  6
Continuous
 62
     7
100
AcDbLine
 10
102.9367161845332
 20
1048.818159681492
 30
0.0
 11
349.1371612930847
 21
-432.7917136621657
 31
0.0
  0
LINE
  5
145
330
A
100
AcDbEntity
  8
0
  6
Continuous
 62
     7
100
AcDbLine
 10
351.1645860317953
 20
-432.7917136621657
 30
0.0
 11
104.8882793675562
 21
1049.274687003627
 31
0.0
  0
LINE
  5
146
330
A
100
AcDbEntity
  8
0
  6
Continuous
 62
     7
100
AcDbLine
 10
-11.40777499676477
 20
1049.274687003627
 30
0.0
 11
-257.6840816610038
 21
-432.7917136621657
 31
0.0
  0
LINE
  5
147
330
A
100
AcDbEntity
  8
0
  6
Continuous
 62
     7
100
AcDbLine
 10
-255.6566569222933
 20
-432.7917136621657
 30
0.0
 11
-9.456211813741788
 21
1048.818159681492
 31
0.0
  0
LINE
  5
148
330
A
100
AcDbEntity
  8
0
  6
Continuous
 62
     7
100
AcDbLine
 10
-294.7597478146042
 20
-432.7917136621657
 30
0.0
 11
-294.7597478146042
 21
-452.7917136621657
 31
0.0
  0
LINE
  5
149
330
A
100
AcDbEntity
  8
0
  6
Continuous
 62
     7
100
AcDbLine
 10
388.2402521853957
 20
-452.7917136621657
 30
0.0
 11
388.2402521853957
 21
-432.7917136621657
 31
0.0
  0
LINE
  5
14A
330
A
100
AcDbEntity
  8
0
  6
Continuous
 62
     7
100
AcDbLine
 10
-278.7597478146043
 20
-452.7917136621657
 30
0.0
 11
-278.7597478146043
 21
-457.7917136621665
 31
0.0
  0
LINE
  5
14B
330
A
100
AcDbEntity
  8
0
  6
Continuous
 62
     7
100
AcDbLine
 10
-235.7597478146044
 20
-457.7917136621659
 30
0.0
 11
-235.7597478146044
 21
-452.7917136621657
 31
0.0
  0
LINE
  5
14C
330
A
100
AcDbEntity
  8
0
  6
Continuous
 62
     7
100
AcDbLine
 10
330.312582655732
 20
-452.7917136621657
 30
0.0
 11
330.312582655732
 21
-457.7917136621676
 31
0.0
  0
LINE
  5
14D
330
A
100
AcDbEntity
  8
0
  6
Continuous
 62
     7
100
AcDbLine
 10
373.3125826557321
 20
-457.7917136621669
 30
0.0
 11
373.3125826557321
 21
-452.7917136621657
 31
0.0
  0
LINE
  5
14E
330
A
100
AcDbEntity
  8
0
  6
Continuous
 62
     7
100
AcDbLine
 10
25.24025218539571
 20
-452.7917136621657
 30
0.0
 11
25.24025218539571
 21
-457.7917136621656
 31
0.0
  0
LINE
  5
14F
330
A
100
AcDbEntity
  8
0
  6
Continuous
 62
     7
100
AcDbLine
 10
68.24025218539571
 20
-457.7917136621634
 30
0.0
 11
68.24025218539571
 21
-452.7917136621657
 31
0.0
  0
LINE
  5
150
330
A
100
AcDbEntity
  8
0
  6
Continuous
 62
     7
100
AcDbLine
 10
45.74025218539571
 20
1042.448354171423
 30
0.0
 11
45.74025218539571
 21
-407.7917136621658
 31
0.0
  0
LINE
  5
151
330
A
100
AcDbEntity
  8
0
  6
Continuous
 62
     7
100
AcDbLine
 10
47.74025218539571
 20
-407.7917136621658
 30
0.0
 11
47.74025218539571
 21
1042.448354171423
 31
0.0
  0
LINE
  5
152
330
A
100
AcDbEntity
  8
0
  6
Continuous
 62
     7
100
AcDbLine
 10
46.74025218539571
 20
1059.523297856231
 30
0.0
 11
137.7402521853957
 21
1059.523297856231
 31
0.0
  0
LINE
  5
153
330
A
100
AcDbEntity
  8
0
  6
Continuous
 62
     7
100
AcDbLine
 10
-44.25974781460428
 20
1059.523297856231
 30
0.0
 11
46.74025218539571
 21
1059.523297856231
 31
0.0
  0
LINE
  5
154
330
A
100
AcDbEntity
  8
0
  6
Continuous
 62
     7
100
AcDbLine
 10
46.74025218539571
 20
1066.208286337834
 30
0.0
 11
137.7402521853957
 21
1066.208286337834
 31
0.0
  0
LINE
  5
155
330
A
100
AcDbEntity
  8
0
  6
Continuous
 62
     7
100
AcDbLine
 10
-44.25974781460428
 20
1066.208286337834
 30
0.0
 11
46.74025218539571
 21
1066.208286337834
 31
0.0
  0
LINE
  5
156
330
A
100
AcDbEntity
  8
0
  6
Continuous
 62
     7
100
AcDbLine
 10
46.74025218539571
 20
1093.208286337834
 30
0.0
 11
112.7402521853957
 21
1093.208286337834
 31
0.0
  0
LINE
  5
157
330
A
100
AcDbEntity
  8
0
  6
Continuous
 62
     7
100
AcDbLine
 10
-19.25974781460429
 20
1093.208286337834
 30
0.0
 11
46.74025218539571
 21
1093.208286337834
 31
0.0
  0
LINE
  5
158
330
A
100
AcDbEntity
  8
0
  6
Continuous
 62
     7
100
AcDbLine
 10
-274.4625208804683
 20
-767.7917136621661
 30
0.0
 11
-273.2136633682876
 21
-468.5847697554956
 31
0.0
  0
LINE
  5
159
330
A
100
AcDbEntity
  8
0
  6
Continuous
 62
     7
100
AcDbLine
 10
-273.2137026984714
 20
-468.5832930068323
 30
0.0
 11
-273.2136633682876
 21
-468.5847697554956
 31
0.0
  0
LINE
  5
15A
330
A
100
AcDbEntity
  8
0
  6
Continuous
 62
     7
100
AcDbLine
 10
-122.1697449951281
 20
-767.791713662165
 30
0.0
 11
-274.462520880467
 21
-767.791713662165
 31
0.0
  0
LWPOLYLINE
  5
15B
330
A
100
AcDbEntity
  8
0
  6
Continuous
 62
     7
100
AcDbPolyline
 90
        7
 70
   128
 43
0.0
 10
-273.2137026984714
 20
-468.5832930068323
 10
-272.996684786832
 20
-465.2390024530459
 10
-271.9909216815022
 20
-462.1825107254176
 10
-270.3098054365156
 20
-459.7584135914845
 10
-268.1428685570236
 20
-458.2400092836785
 10
-266.354948621542
 20
-457.8037063482989
 10
-266.0006864192325
 20
-457.7917136621647
  0
LINE
  5
164
330
A
100
AcDbEntity
  8
0
  6
Continuous
 62
     7
100
AcDbLine
 10
-266.0006864192318
 20
-457.7917136621647
 30
0.0
 11
-125.3023020435211
 21
-457.7917136621663
 31
0.0
  0
LWPOLYLINE
  5
165
330
A
100
AcDbEntity
  8
0
  6
Continuous
 62
     7
100
AcDbPolyline
 90
        3
 70
   128
 43
0.0
 10
-438.6134642287193
 20
-467.3999807573858
 10
-438.8952776353086
 20
-467.4041547057406
 10
-438.836636402283
 20
-467.412334298227
  0
LINE
  5
16A
330
A
100
AcDbEntity
  8
0
  6
Continuous
 62
     7
100
AcDbLine
 10
-274.462520880467
 20
-767.791713662165
 30
0.0
 11
-470.5565842994315
 21
-767.7917136621665
 31
0.0
  0
LINE
  5
16B
330
A
100
AcDbEntity
  8
0
  6
Continuous
 62
     7
100
AcDbLine
 10
-428.8546186015535
 20
-457.7917136621674
 30
0.0
 11
-266.0006864192316
 21
-457.7917136621647
 31
0.0
  0
LINE
  5
16C
330
A
100
AcDbEntity
  8
0
  6
Continuous
 62
     7
100
AcDbLine
 10
-51.931843591626
 20
-468.6283632603503
 30
0.0
 11
-19.98539647867574
 21
-767.7917136621646
 31
0.0
  0
LINE
  5
16D
330
A
100
AcDbEntity
  8
0
  6
Continuous
 62
     7
100
AcDbLine
 10
111.3122508096109
 20
-466.4536230006617
 30
0.0
 11
111.3122167784825
 21
-466.4533378038888
 31
0.0
  0
LINE
  5
16E
330
A
100
AcDbEntity
  8
0
  6
Continuous
 62
     7
100
AcDbLine
 10
111.3122508096105
 20
-466.4536230006599
 30
0.0
 11
147.2694432531397
 21
-767.7917136621641
 31
0.0
  0
LINE
  5
16F
330
A
100
AcDbEntity
  8
0
  6
Continuous
 62
     7
100
AcDbLine
 10
147.2694432531399
 20
-767.7917136621632
 30
0.0
 11
-19.98539647867054
 21
-767.7917136621644
 31
0.0
  0
LWPOLYLINE
  5
170
330
A
100
AcDbEntity
  8
0
  6
Continuous
 62
     7
100
AcDbPolyline
 90
        7
 70
   128
 43
0.0
 10
-49.71361093220821
 20
-457.7917136621647
 10
-49.81826996475759
 20
-457.8027715162888
 10
-50.38192863577151
 20
-458.2530071816191
 10
-51.04711850564429
 20
-459.7844532796744
 10
-51.56196546449592
 20
-462.2186562793297
 10
-51.86842463357158
 20
-465.2811786519863
 10
-51.93201641949313
 20
-468.626744809212
  0
LWPOLYLINE
  5
179
330
A
100
AcDbEntity
  8
0
  6
Continuous
 62
     7
100
AcDbPolyline
 90
       11
 70
   128
 43
0.0
 10
115.5847572973046
 20
-457.7917136621649
 10
115.1320389526664
 20
-457.8469983178492
 10
114.5483967905279
 20
-458.084928305386
 10
114.11480095539
 20
-458.3909083462938
 10
113.5756526173551
 20
-458.9439028155742
 10
113.1045677248937
 20
-459.6121044625864
 10
112.763466347614
 20
-460.23015148996
 10
112.3967976587813
 20
-461.0594782254833
 10
112.0701029612575
 20
-462.0001309954974
 10
111.7946878098564
 20
-463.0252846494403
 10
111.3122167784825
 20
-466.4533378038881
  0
LINE
  5
186
330
A
100
AcDbEntity
  8
0
  6
Continuous
 62
     7
100
AcDbLine
 10
-51.9318435916257
 20
-468.6283632603503
 30
0.0
 11
-51.93201641949259
 21
-468.626744809212
 31
0.0
  0
LINE
  5
187
330
A
100
AcDbEntity
  8
0
  6
Continuous
 62
     7
100
AcDbLine
 10
-49.71361093220821
 20
-457.7917136621647
 30
0.0
 11
115.5847572973068
 21
-457.7917136621652
 31
0.0
  0
LINE
  5
188
330
A
100
AcDbEntity
  8
0
  6
Continuous
 62
     7
100
AcDbLine
 10
197.045798676639
 20
-467.8258087042816
 30
0.0
 11
196.7401153609415
 21
-467.7623341677337
 31
0.0
  0
LINE
  5
189
330
A
100
AcDbEntity
  8
0
  6
Continuous
 62
     7
100
AcDbLine
 10
198.6881204828894
 20
-767.7917136621634
 30
0.0
 11
147.2694432531398
 21
-767.7917136621634
 31
0.0
  0
LWPOLYLINE
  5
18A
330
A
100
AcDbEntity
  8
0
  6
Continuous
 62
     7
100
AcDbPolyline
 90
        6
 70
   128
 43
0.0
 10
180.8344795256172
 20
-463.2952593038293
 10
180.354168271644
 20
-462.1825107254169
 10
178.148953042532
 20
-459.7584135914837
 10
175.3064594254742
 20
-458.2400092836778
 10
172.9611437680208
 20
-457.8037063482982
 10
172.4964380100656
 20
-457.7917136621641
  0
LINE
  5
192
330
A
100
AcDbEntity
  8
0
  6
Continuous
 62
     7
100
AcDbLine
 10
115.5847572973068
 20
-457.7917136621652
 30
0.0
 11
187.0548767375364
 21
-457.7917136621652
 31
0.0
  0
LINE
  5
193
330
A
100
AcDbEntity
  8
0
  6
Continuous
 62
     7
100
AcDbLine
 10
-19.98539647867054
 20
-767.7917136621644
 30
0.0
 11
-121.0965133858631
 21
-767.7917136621656
 31
0.0
  0
LINE
  5
194
330
A
100
AcDbEntity
  8
0
  6
Continuous
 62
     7
100
AcDbLine
 10
-124.9522920435211
 20
-457.7917136621663
 30
0.0
 11
-49.71361093220821
 21
-457.7917136621647
 31
0.0
  0
LINE
  5
195
330
A
100
AcDbEntity
  8
0
  6
Continuous
 62
     7
100
AcDbLine
 10
305.2122120918187
 20
-468.0267755683766
 30
0.0
 11
308.822170122173
 21
-767.791713662167
 31
0.0
  0
LINE
  5
196
330
A
100
AcDbEntity
  8
0
  6
Continuous
 62
     7
100
AcDbLine
 10
305.2122114573255
 20
-468.0267228810818
 30
0.0
 11
305.2122120918187
 21
-468.0267755683766
 31
0.0
  0
LINE
  5
197
330
A
100
AcDbEntity
  8
0
  6
Continuous
 62
     7
100
AcDbLine
 10
492.3249721508832
 20
-767.791713662165
 30
0.0
 11
308.822170122173
 21
-767.7917136621648
 31
0.0
  0
LWPOLYLINE
  5
198
330
A
100
AcDbEntity
  8
0
  6
Continuous
 62
     7
100
AcDbPolyline
 90
        7
 70
   128
 43
0.0
 10
305.2122115888859
 20
-468.0267228836994
 10
305.3579041126113
 20
-464.7043337258718
 10
305.8252175158587
 20
-461.7300232372982
 10
306.5614657455033
 20
-459.4391221502549
 10
307.4836424496588
 20
-458.0899121316617
 10
308.0095661284061
 20
-457.8142052960137
 10
308.2106097857156
 20
-457.7917136621676
  0
LINE
  5
1A1
330
A
100
AcDbEntity
  8
0
  6
Continuous
 62
     7
100
AcDbLine
 10
308.2106097857395
 20
-457.7917136621676
 30
0.0
 11
481.5430397378517
 21
-457.7917136621669
 31
0.0
  0
LINE
  5
1A2
330
A
100
AcDbEntity
  8
0
  6
Continuous
 62
     7
100
AcDbLine
 10
308.822170122173
 20
-767.7917136621648
 30
0.0
 11
199.0381304828894
 21
-767.7917136621661
 31
0.0
  0
LINE
  5
1A3
330
A
100
AcDbEntity
  8
0
  6
Continuous
 62
     7
100
AcDbLine
 10
227.3046073005728
 20
-457.7917136621674
 30
0.0
 11
189.5735904635894
 21
-457.7917136621652
 31
0.0
  0
LINE
  5
1A4
330
A
100
AcDbEntity
  8
0
  6
Continuous
 62
     7
100
AcDbLine
 10
227.7249753710442
 20
-457.7917136621674
 30
0.0
 11
308.2106097857395
 21
-457.7917136621676
 31
0.0
  0
LINE
  5
1A5
330
A
100
AcDbEntity
  8
0
  6
Continuous
 62
     7
100
AcDbLine
 10
550.0464300639704
 20
-469.304121361205
 30
0.0
 11
550.0408539917323
 21
-469.3212444605285
 31
0.0
  0
LINE
  5
1A6
330
A
100
AcDbEntity
  8
0
  6
Continuous
 62
     7
100
AcDbLine
 10
482.3132211529508
 20
-457.7917136621665
 30
0.0
 11
540.194986094005
 21
-457.7917136621652
 31
0.0
  0
LINE
  5
1A7
330
A
100
AcDbEntity
  8
0
  6
Continuous
 62
     7
100
AcDbLine
 10
492.3569696329041
 20
-767.7917136621641
 30
0.0
 11
516.2920199643151
 21
-767.7917136621641
 31
0.0
  0
LINE
  5
1A8
330
A
100
AcDbEntity
  8
0
  6
Continuous
 62
     7
100
AcDbLine
 10
-19.54511573241856
 20
-432.7917136621657
 30
0.0
 11
-19.54511573241856
 21
-452.7917136621657
 31
0.0
  0
LINE
  5
1A9
330
A
100
AcDbEntity
  8
0
  6
Continuous
 62
     7
100
AcDbLine
 10
-19.54511573241856
 20
-432.7917136621657
 30
0.0
 11
113.02562010321
 21
-432.7917136621657
 31
0.0
  0
LINE
  5
1AA
330
A
100
AcDbEntity
  8
0
  6
Continuous
 62
     7
100
AcDbLine
 10
113.02562010321
 20
-432.7917136621657
 30
0.0
 11
113.02562010321
 21
-452.7917136621657
 31
0.0
  0
LINE
  5
1AB
330
A
100
AcDbEntity
  8
0
  6
Continuous
 62
     7
100
AcDbLine
 10
-19.54511573241856
 20
-452.7917136621657
 30
0.0
 11
113.02562010321
 21
-452.7917136621657
 31
0.0
  0
LINE
  5
1AC
330
A
100
AcDbEntity
  8
0
  6
Continuous
 62
     7
100
AcDbLine
 10
-221.9044087552769
 20
-432.7917136621657
 30
0.0
 11
-221.9044087552769
 21
-452.7917136621657
 31
0.0
  0
LINE
  5
1AD
330
A
100
AcDbEntity
  8
0
  6
Continuous
 62
     7
100
AcDbLine
 10
-294.7597478146042
 20
-432.7917136621657
 30
0.0
 11
-221.9044087552769
 21
-432.7917136621657
 31
0.0
  0
LINE
  5
1AE
330
A
100
AcDbEntity
  8
0
  6
Continuous
 62
     7
100
AcDbLine
 10
-294.7597478146042
 20
-452.7917136621657
 30
0.0
 11
-221.9044087552769
 21
-452.7917136621657
 31
0.0
  0
LINE
  5
1AF
330
A
100
AcDbEntity
  8
0
  6
Continuous
 62
     7
100
AcDbLine
 10
315.3849131260683
 20
-432.7917136621657
 30
0.0
 11
315.3849131260683
 21
-452.7917136621657
 31
0.0
  0
LINE
  5
1B0
330
A
100
AcDbEntity
  8
0
  6
Continuous
 62
     7
100
AcDbLine
 10
315.3849131260683
 20
-432.7917136621657
 30
0.0
 11
388.2402521853957
 21
-432.7917136621657
 31
0.0
  0
LINE
  5
1B1
330
A
100
AcDbEntity
  8
0
  6
Continuous
 62
     7
100
AcDbLine
 10
315.3849131260683
 20
-452.7917136621657
 30
0.0
 11
388.2402521853957
 21
-452.7917136621657
 31
0.0
  0
LINE
  5
1B2
330
A
100
AcDbEntity
  8
0
  6
Continuous
 62
     7
100
AcDbLine
 10
113.02562010321
 20
-432.7917136621657
 30
0.0
 11
315.3849131260683
 21
-432.7917136621657
 31
0.0
  0
LINE
  5
1B3
330
A
100
AcDbEntity
  8
0
  6
Continuous
 62
     7
100
AcDbLine
 10
113.02562010321
 20
-452.7917136621657
 30
0.0
 11
315.3849131260683
 21
-452.7917136621657
 31
0.0
  0
LINE
  5
1B4
330
A
100
AcDbEntity
  8
0
  6
Continuous
 62
     7
100
AcDbLine
 10
-221.9044087552769
 20
-432.7917136621657
 30
0.0
 11
-19.54511573241856
 21
-432.7917136621657
 31
0.0
  0
LINE
  5
1B5
330
A
100
AcDbEntity
  8
0
  6
Continuous
 62
     7
100
AcDbLine
 10
-221.9044087552769
 20
-452.7917136621657
 30
0.0
 11
-19.54511573241856
 21
-452.7917136621657
 31
0.0
  0
LINE
  5
1B6
330
A
100
AcDbEntity
  8
0
  6
Continuous
 62
     7
100
AcDbLine
 10
46.74025218539571
 20
-407.7917136621658
 30
0.0
 11
45.74025218539571
 21
-407.7917136621658
 31
0.0
  0
LINE
  5
1B7
330
A
100
AcDbEntity
  8
0
  6
Continuous
 62
     7
100
AcDbLine
 10
47.74025218539571
 20
-407.7917136621658
 30
0.0
 11
46.74025218539571
 21
-407.7917136621658
 31
0.0
  0
LINE
  5
1B8
330
A
100
AcDbEntity
  8
0
  6
PHANTOM
 62
     7
100
AcDbLine
 10
-273.213657202768
 20
-468.5832925923825
 30
0.0
 11
-273.2137026984714
 21
-468.5832930068323
 31
0.0
  0
LWPOLYLINE
  5
1B9
330
A
100
AcDbEntity
  8
0
  6
PHANTOM
 62
     7
100
AcDbPolyline
 90
       48
 70
   128
 43
0.0
 10
-115.3167175728079
 20
-468.0539759148745
 10
-115.4639119525397
 20
-467.9593328425277
 10
-116.2056563197003
 20
-467.8592161423043
 10
-117.1137192488917
 20
-467.7922258955005
 10
-118.3596090142506
 20
-467.717557339751
 10
-120.1370764083869
 20
-467.6126507137077
 10
-122.3191933970306
 20
-467.4959625973944
 10
-125.4851774121276
 20
-467.3642492342938
 10
-128.9070178878596
 20
-467.2560842572432
 10
-132.4215886250471
 20
-467.1719432941765
 10
-138.7409809426184
 20
-467.0692579427305
 10
-144.7264647259153
 20
-467.0186942164291
 10
-150.0724853452613
 20
-467.013374830332
 10
-153.3886658706212
 20
-467.0463367527557
 10
-156.0705117183232
 20
-467.1367186865971
 10
-157.9652394590819
 20
-467.2722939526021
 10
-159.1417377372365
 20
-467.4089503152996
 10
-159.8026875046176
 20
-467.5236891576057
 10
-160.4536706668273
 20
-467.6762949279757
 10
-161.0947246801942
 20
-467.7274097381358
 10
-162.0274147504365
 20
-467.6955064112608
 10
-163.7535526659073
 20
-467.5708567230842
 10
-165.3462776352409
 20
-467.4365775593325
 10
-167.3855888518979
 20
-467.2948328061024
 10
-170.0677660386316
 20
-467.1828459982818
 10
-173.0529818468374
 20
-467.1113967833322
 10
-177.6610790695646
 20
-467.0444960153292
 10
-182.4996837301315
 20
-466.9984930284569
 10
-189.1842153003215
 20
-466.9379388513728
 10
-195.9116327299202
 20
-466.8890737151969
 10
-202.6530448970394
 20
-466.8877041363088
 10
-209.379560679791
 20
-466.969636631088
 10
-216.6506822152344
 20
-467.1900561421287
 10
-223.9131711738306
 20
-467.5068984408219
 10
-231.0837849493607
 20
-467.8427116324017
 10
-236.8108434041431
 20
-468.0805714448803
 10
-242.5655865834514
 20
-468.2709143650383
 10
-247.0522708079624
 20
-468.3796882274111
 10
-249.6991845778262
 20
-468.4141316549252
 10
-252.2613397628819
 20
-468.4104545220879
 10
-254.5532137316761
 20
-468.3851326669121
 10
-256.6594589024014
 20
-468.3663685625663
 10
-260.6602197852796
 20
-468.3718071696763
 10
-264.4007092280083
 20
-468.4454535100406
 10
-268.8128357838574
 20
-468.5523173130008
 10
-273.2136158111664
 20
-468.5832928216607
 10
-273.213657202768
 20
-468.5832925923825
 10
-273.213657202768
 20
-468.5832925923825
  0
LWPOLYLINE
  5
1EB
330
A
100
AcDbEntity
  8
0
  6
PHANTOM
 62
     7
100
AcDbPolyline
 90
       37
 70
   128
 43
0.0
 10
-273.2136633682876
 20
-468.5847697554956
 10
-273.2137048389649
 20
-468.5847694032088
 10
-277.3138493805499
 20
-468.4954157643237
 10
-280.8013923618775
 20
-468.338199510004
 10
-283.8819678712562
 20
-468.1653430251162
 10
-286.7612099969949
 20
-468.0290686945272
 10
-289.6710537136863
 20
-467.9522762189138
 10
-293.0245782337773
 20
-467.901881544305
 10
-296.9525647433225
 20
-467.8583741376563
 10
-301.9002328234727
 20
-467.8044112923463
 10
-307.5087594930545
 20
-467.7522453800881
 10
-311.8820694451049
 20
-467.7256346310894
 10
-316.5082083313191
 20
-467.7204527842337
 10
-321.2668441706022
 20
-467.7362440502876
 10
-326.004274022031
 20
-467.7616191965427
 10
-331.707349959391
 20
-467.8027620199525
 10
-337.2395380842625
 20
-467.8522190192039
 10
-342.6444553101559
 20
-467.9072222073146
 10
-347.9657185505818
 20
-467.9650035973015
 10
-354.5055706277576
 20
-468.0269885210804
 10
-358.7361746086458
 20
-468.0487650037606
 10
-363.1299255855125
 20
-468.037696214641
 10
-366.4889713271808
 20
-467.9930285552313
 10
-369.7892651317433
 20
-467.9303537516459
 10
-372.7139581651418
 20
-467.8754020124644
 10
-375.5205152645809
 20
-467.8276725103154
 10
-382.0579380521963
 20
-467.7446324958811
 10
-392.2436103991645
 20
-467.6612585596601
 10
-402.1796547517507
 20
-467.5965773572976
 10
-411.7066698351657
 20
-467.5437627082179
 10
-420.6652543746205
 20
-467.4959884318459
 10
-425.6258298888314
 20
-467.4688601978201
 10
-430.3382421306795
 20
-467.4422107021503
 10
-434.6004406131642
 20
-467.4151604453585
 10
-436.5425852020913
 20
-467.4007663862949
 10
-438.0581233067046
 20
-467.391755583304
 10
-438.6134642287193
 20
-467.3999807573858
  0
LWPOLYLINE
  5
212
330
A
100
AcDbEntity
  8
0
  6
PHANTOM
 62
     7
100
AcDbPolyline
 90
       52
 70
   128
 43
0.0
 10
111.3122167784821
 20
-466.453337803887
 10
111.3121627472822
 20
-466.453336260211
 10
106.2371342545364
 20
-466.3057428963228
 10
100.9941485005695
 20
-466.1536142591811
 10
95.60711554619485
 20
-466.0058264553621
 10
90.22083324346782
 20
-465.8806027176067
 10
84.81508188564006
 20
-465.7970848788353
 10
79.34428532429066
 20
-465.7630595464965
 10
74.17800423382896
 20
-465.7877212044391
 10
69.39366445107207
 20
-465.882799389673
 10
65.16729828958775
 20
-466.0221177536294
 10
61.42210376567632
 20
-466.1797414872646
 10
58.14197723348947
 20
-466.3436210408364
 10
55.26782497402373
 20
-466.5079304740003
 10
50.9039612073693
 20
-466.8035498387117
 10
46.99432136423763
 20
-467.0821540200118
 10
42.89150402056003
 20
-467.3026408073018
 10
40.11321978557329
 20
-467.3875273290302
 10
36.90928909212264
 20
-467.457901053214
 10
33.12269520147909
 20
-467.5534597533775
 10
28.96824878219982
 20
-467.6964147151787
 10
24.15619769111125
 20
-467.8621359522508
 10
19.47708827728935
 20
-467.9894204484504
 10
14.59293672857216
 20
-468.1007400881354
 10
7.214373656745584
 20
-468.2622010663036
 10
-0.2078711990149973
 20
-468.4377813921298
 10
-5.037204555510099
 20
-468.572720430725
 10
-9.839000121031505
 20
-468.7333037502039
 10
-15.70979979011466
 20
-468.9725098223076
 10
-21.29734934960421
 20
-469.2508076261141
 10
-24.29746330164444
 20
-469.4188217248707
 10
-26.95497539400605
 20
-469.5561474814174
 10
-29.11746379578135
 20
-469.6292722937053
 10
-30.81782773872509
 20
-469.649789063963
 10
-32.46263098385535
 20
-469.6371096005791
 10
-33.56847757514413
 20
-469.6062382069398
 10
-34.37285544841319
 20
-469.5670647035144
 10
-34.8080288940545
 20
-469.5293203149127
 10
-35.0335510218202
 20
-469.4584140697561
 10
-34.83400266356926
 20
-469.4079249980743
 10
-34.54619937556462
 20
-469.3583083148706
 10
-34.44835031082275
 20
-469.3119140307147
 10
-34.81866462236007
 20
-469.2710921561757
 10
-35.93535146319292
 20
-469.2381927018239
 10
-37.10890462583631
 20
-469.2187847519808
 10
-38.97434643723511
 20
-469.1754337287465
 10
-40.46901706350324
 20
-469.1255236365686
 10
-42.32042898241515
 20
-469.0412726025672
 10
-44.50912055882305
 20
-468.9255536910923
 10
-46.93992881588179
 20
-468.8067143182939
 10
-51.93178510043009
 20
-468.6283648875089
 10
-51.931843591626
 20
-468.6283632603503
  0
LWPOLYLINE
  5
248
330
A
100
AcDbEntity
  8
0
  6
PHANTOM
 62
     7
100
AcDbPolyline
 90
       24
 70
   128
 43
0.0
 10
196.7401153609415
 20
-467.7623341677337
 10
196.6548669126643
 20
-467.7446324958793
 10
195.4641306802969
 20
-467.6612585596582
 10
193.8124212636927
 20
-467.5965773572953
 10
191.5213347857721
 20
-467.5437627082155
 10
188.4124673694553
 20
-467.4959884318434
 10
186.2356772896005
 20
-467.4688601978176
 10
183.7387484818856
 20
-467.4422107021478
 10
180.7263205555209
 20
-467.4151604453558
 10
178.8252721208696
 20
-467.4007663862922
 10
176.5351828643187
 20
-467.3917555833013
 10
173.4643799531516
 20
-467.4041547057379
 10
170.1810345069965
 20
-467.4520781427782
 10
168.8470745843721
 20
-467.4686075527468
 10
164.737479125026
 20
-467.4949996158941
 10
160.6829863004949
 20
-467.4904274049545
 10
155.7703639625794
 20
-467.4538261216268
 10
151.0241024521412
 20
-467.3902027683736
 10
140.9696283759128
 20
-467.2048869999692
 10
131.1664764493512
 20
-466.984693512578
 10
121.3641881204779
 20
-466.7331100959186
 10
111.3123048373144
 20
-466.4536245397088
 10
111.3122508096106
 20
-466.4536230006599
 10
111.3122508096106
 20
-466.4536230006599
  0
LWPOLYLINE
  5
262
330
A
100
AcDbEntity
  8
0
  6
PHANTOM
 62
     7
100
AcDbPolyline
 90
       12
 70
   128
 43
0.0
 10
-51.93201641949313
 20
-468.626744809212
 10
-51.93207493375604
 20
-468.6267430896158
 10
-58.28231498872713
 20
-468.4841019811161
 10
-64.70008173177669
 20
-468.4022348193302
 10
-73.98533155910289
 20
-468.3290627220624
 10
-83.12999470306213
 20
-468.2562741499165
 10
-90.09860956068175
 20
-468.1826946731526
 10
-96.6553780402731
 20
-468.1108949979941
 10
-102.0689560928084
 20
-468.0556207031112
 10
-106.6648434386274
 20
-467.9818205846431
 10
-114.6114850844861
 20
-467.7775921417175
 10
-115.2661966088369
 20
-467.7695393602099
  0
LWPOLYLINE
  5
270
330
A
100
AcDbEntity
  8
0
  6
PHANTOM
 62
     7
100
AcDbPolyline
 90
       40
 70
   128
 43
0.0
 10
491.4637682376995
 20
-468.1224693947245
 10
491.534886140958
 20
-468.1108949979941
 10
490.7353940236681
 20
-468.0556207031112
 10
488.7375465553125
 20
-467.9818205846431
 10
483.4482753566724
 20
-467.7775921417175
 10
477.6841138814091
 20
-467.6850160698926
 10
471.4049603502483
 20
-467.8965192180893
 10
467.5858403340998
 20
-468.0859764055433
 10
463.2221299643433
 20
-468.1883032260687
 10
458.3587081407179
 20
-468.1962747214654
 10
453.6138032201725
 20
-468.1338922886855
 10
448.4314318934864
 20
-468.0227322246282
 10
442.853173480946
 20
-467.8662815583458
 10
436.2692113031357
 20
-467.638127973678
 10
429.3773917805217
 20
-467.3977718764483
 10
422.3694605449716
 20
-467.2216379178348
 10
411.2346952900614
 20
-467.1423842448903
 10
400.0872988839665
 20
-467.2533252880524
 10
393.3495545301664
 20
-467.3859315326536
 10
386.6408848273994
 20
-467.5175771646959
 10
380.082314579508
 20
-467.5966538701736
 10
375.5977550267664
 20
-467.6034213578354
 10
371.3426784741378
 20
-467.5950423376482
 10
367.4022959677998
 20
-467.6042378573068
 10
363.306103277223
 20
-467.6695955252658
 10
359.6342672347608
 20
-467.7803882083462
 10
356.368257776018
 20
-467.9082895670423
 10
352.3480107427051
 20
-468.065781389177
 10
348.6873976407468
 20
-468.1942707291337
 10
345.2343311657229
 20
-468.3242789170363
 10
341.6905660748606
 20
-468.4590347377679
 10
337.8281509239341
 20
-468.5652280068139
 10
333.4191342687173
 20
-468.6095485396609
 10
329.1035387243663
 20
-468.5669586922201
 10
324.2389822824888
 20
-468.4612694458965
 10
318.9617156891662
 20
-468.331346951665
 10
312.2498267331586
 20
-468.1760359909996
 10
305.2122687018871
 20
-468.0267240199875
 10
305.2122114573255
 20
-468.0267228810818
 10
305.2122114573255
 20
-468.0267228810818
  0
LWPOLYLINE
  5
29A
330
A
100
AcDbEntity
  8
0
  6
PHANTOM
 62
     7
100
AcDbPolyline
 90
       21
 70
   128
 43
0.0
 10
305.2122120918187
 20
-468.0267755683766
 10
305.2121548647457
 20
-468.0267744862464
 10
297.7141470995907
 20
-467.9064531338073
 10
290.0368912686587
 20
-467.8349342760657
 10
282.2538033950267
 20
-467.8275097708572
 10
274.4382995017716
 20
-467.8994714760182
 10
266.6637956119704
 20
-468.0661112493849
 10
260.4071958548054
 20
-468.2292425667728
 10
254.110896312498
 20
-468.353315998895
 10
247.8287471773913
 20
-468.4191241974178
 10
241.6145986418285
 20
-468.4074598140075
 10
235.5223008981535
 20
-468.2991155003306
 10
232.0119203834579
 20
-468.1904535721604
 10
228.6949625500511
 20
-468.0726866765934
 10
225.52795000454
 20
-467.9593328425282
 10
222.7197830807832
 20
-467.8592161423047
 10
220.977993164208
 20
-467.7922258955011
 10
219.5385138763262
 20
-467.7175573397516
 10
218.4211944047642
 20
-467.6126507137083
 10
217.8195741148592
 20
-467.4959625973951
 10
217.744218109196
 20
-467.4036444110205
  0
LWPOLYLINE
  5
2B1
330
A
100
AcDbEntity
  8
0
  6
PHANTOM
 62
     7
100
AcDbPolyline
 90
        7
 70
   128
 43
0.0
 10
217.8756116308467
 20
-467.0307810437299
 10
217.189190760752
 20
-467.0463367527561
 10
215.0055984241328
 20
-467.1367186865976
 10
212.0109122029727
 20
-467.2722939526024
 10
208.40570711938
 20
-467.4089503153
 10
204.4517975806521
 20
-467.5236891576061
 10
196.9625551176963
 20
-467.6547410175831
  0
LWPOLYLINE
  5
2BA
330
A
100
AcDbEntity
  8
0
  6
PHANTOM
 62
     7
100
AcDbPolyline
 90
       15
 70
   128
 43
0.0
 10
550.0408539917323
 20
-469.3212444605285
 10
550.0090783263293
 20
-469.4188217248707
 10
549.3765803003189
 20
-469.5561474814174
 10
548.1247373774689
 20
-469.6292722937053
 10
546.36336641184
 20
-469.649789063963
 10
543.4682827387594
 20
-469.6371096005791
 10
540.1499076312546
 20
-469.6062382069398
 10
535.9687822465589
 20
-469.5670647035144
 10
531.5628831278381
 20
-469.5293203149127
 10
520.9496550472457
 20
-469.4584140697561
 10
513.6200645496788
 20
-469.4079249980743
 10
506.2264080101497
 20
-469.3583083148706
 10
498.9385726103039
 20
-469.3119140307147
 10
491.9264455317867
 20
-469.2710921561757
 10
491.5128415287185
 20
-469.2690199288724
  0
LWPOLYLINE
  5
2CB
330
A
100
AcDbEntity
  8
0
  6
Continuous
 62
     7
100
AcDbPolyline
 90
       11
 70
   128
 43
0.0
 10
-115.4676183992989
 20
-1425.596701878621
 10
-115.5727272303019
 20
-1424.497084365584
 10
-116.1403785017727
 20
-1421.665060525616
 10
-116.9780719369393
 20
-1418.932588905638
 10
-117.9989066555052
 20
-1416.372162809833
 10
-119.4242703116792
 20
-1413.458294095832
 10
-121.1236769696962
 20
-1410.529925956424
 10
-123.1519206213236
 20
-1407.44674124507
 10
-125.6629623582297
 20
-1403.882524356213
 10
-130.0839861393339
 20
-1397.711782308965
 10
-131.1413222790733
 20
-1396.204459939232
  0
LWPOLYLINE
  5
2D8
330
A
100
AcDbEntity
  8
0
  6
Continuous
 62
     7
100
AcDbPolyline
 90
       15
 70
   128
 43
0.0
 10
-273.2235686165167
 20
-1508.356032226108
 10
-265.8584780138914
 20
-1515.767115059775
 10
-261.686453754293
 20
-1520.047846881535
 10
-259.4805384901369
 20
-1522.29181542779
 10
-257.5959988380546
 20
-1523.989066003152
 10
-256.1714021193402
 20
-1525.105835635843
 10
-254.5026363341393
 20
-1526.18529245088
 10
-252.636664377945
 20
-1527.057841870647
 10
-250.7259675797155
 20
-1527.654143701961
 10
-248.7721482580455
 20
-1528.002517380615
 10
-246.7795764680668
 20
-1528.122932065339
 10
-244.7422684713577
 20
-1528.034932219027
 10
-242.6522958533327
 20
-1527.763609054922
 10
-240.4638682655254
 20
-1527.352599330781
 10
-238.5626181905609
 20
-1526.930885320393
  0
LWPOLYLINE
  5
2E9
330
A
100
AcDbEntity
  8
0
  6
Continuous
 62
     7
100
AcDbPolyline
 90
       12
 70
   128
 43
0.0
 10
-254.4660262665129
 20
-1204.814055641884
 10
-255.8530559596957
 20
-1205.719797187675
 10
-258.6505331695737
 20
-1207.880189339346
 10
-261.3644613618227
 20
-1210.300899702602
 10
-264.1648062843286
 20
-1213.155038844917
 10
-266.9304067023572
 20
-1216.348414046624
 10
-269.7282785140368
 20
-1219.957702318909
 10
-272.663948992104
 20
-1224.110916651334
 10
-275.9746863413286
 20
-1229.096519769121
 10
-278.973189740878
 20
-1233.475288585454
 10
-282.2567294045634
 20
-1237.758757812688
 10
-282.7460586991003
 20
-1238.348824080822
  0
LWPOLYLINE
  5
2F7
330
A
100
AcDbEntity
  8
0
  6
Continuous
 62
     7
100
AcDbPolyline
 90
       14
 70
   128
 43
0.0
 10
-152.2028855228678
 20
-1348.458630810271
 10
-152.3724008650611
 20
-1346.941555859509
 10
-152.5375000644191
 20
-1342.70277429431
 10
-152.3902500424012
 20
-1338.490959864884
 10
-151.9284834699866
 20
-1334.343036801153
 10
-151.1586431415157
 20
-1330.307066868908
 10
-150.0872924889964
 20
-1326.395901627525
 10
-148.7033237987544
 20
-1322.558030597127
 10
-147.0198842721123
 20
-1318.682684282654
 10
-144.8263940704215
 20
-1314.280647754821
 10
-142.0671596754263
 20
-1309.272977828882
 10
-138.4346961009052
 20
-1303.042346723545
 10
-134.5608723999863
 20
-1296.424108059255
 10
-134.5267263203456
 20
-1296.361841074382
  0
LWPOLYLINE
  5
307
330
A
100
AcDbEntity
  8
0
  6
Continuous
 62
     7
100
AcDbPolyline
 90
        8
 70
   128
 43
0.0
 10
-285.329825577531
 20
-1489.542678749567
 10
-284.9132205540914
 20
-1490.4313096418
 10
-282.5442866479344
 20
-1495.23644597474
 10
-280.5376221478013
 20
-1498.833273886623
 10
-278.4770453352391
 20
-1502.033011433836
 10
-276.2357405760295
 20
-1505.003379687248
 10
-273.9515294204523
 20
-1507.651820961538
 10
-273.2605726444804
 20
-1508.387478386361
  0
LWPOLYLINE
  5
311
330
A
100
AcDbEntity
  8
0
  6
Continuous
 62
     7
100
AcDbPolyline
 90
       41
 70
   128
 43
0.0
 10
-282.6527234967956
 20
-1238.422046131399
 10
-283.546438362064
 20
-1239.423976157321
 10
-285.5638785140375
 20
-1241.364860576711
 10
-287.3474159393359
 20
-1242.763648834464
 10
-289.3091981137792
 20
-1243.92967349462
 10
-291.4009247113532
 20
-1244.815382900033
 10
-293.5263445107685
 20
-1245.379120381835
 10
-295.7445807243828
 20
-1245.630258659979
 10
-298.1626021950234
 20
-1245.60593260352
 10
-300.8972097811899
 20
-1245.284759695768
 10
-303.9064034553858
 20
-1244.640673206667
 10
-307.2602396257501
 20
-1243.639484517847
 10
-310.9850956432636
 20
-1242.269823157447
 10
-315.2562038795346
 20
-1240.417131738804
 10
-319.9502556854988
 20
-1238.101575043099
 10
-325.4074349895162
 20
-1235.160696253292
 10
-332.4616249451149
 20
-1231.200322491024
 10
-340.6922736723489
 20
-1226.536301816957
 10
-347.9929142870409
 20
-1222.600525377029
 10
-353.3540646937621
 20
-1219.977682219688
 10
-358.2744080222568
 20
-1217.839372058875
 10
-362.0850026448402
 20
-1216.401717030201
 10
-365.5719761906531
 20
-1215.328464139593
 10
-368.9118944080696
 20
-1214.565877544104
 10
-371.5814205791819
 20
-1214.167652205397
 10
-374.0860575524296
 20
-1214.022903585144
 10
-376.4820426127016
 20
-1214.135503567191
 10
-378.7713163421501
 20
-1214.507606097372
 10
-381.0003302477207
 20
-1215.154787902813
 10
-383.0669409069979
 20
-1216.030793196662
 10
-385.1069895297909
 20
-1217.174470273171
 10
-387.0518168105273
 20
-1218.546061921536
 10
-388.929289933156
 20
-1220.147152744242
 10
-390.7759815339522
 20
-1221.982154772713
 10
-392.9166219951603
 20
-1224.411184579311
 10
-395.1178920481909
 20
-1227.275624806271
 10
-397.3134583130451
 20
-1230.487905260117
 10
-399.8503187845766
 20
-1234.570002217242
 10
-402.2802854914781
 20
-1238.963421891531
 10
-404.3570983183126
 20
-1243.275565838469
 10
-405.7552294255971
 20
-1246.673551363423
  0
LWPOLYLINE
  5
33C
330
A
100
AcDbEntity
  8
0
  6
Continuous
 62
     7
100
AcDbPolyline
 90
        3
 70
   128
 43
0.0
 10
-123.2392210581586
 20
-1452.556769832087
 10
-120.5325624716244
 20
-1446.113898015908
 10
-117.1117590207506
 20
-1437.970818919945
  0
LWPOLYLINE
  5
341
330
A
100
AcDbEntity
  8
0
  6
Continuous
 62
     7
100
AcDbPolyline
 90
        3
 70
   128
 43
0.0
 10
-408.2582224705642
 20
-1260.235609310615
 10
-407.8459613575091
 20
-1270.837749090103
 10
-407.3388901330392
 20
-1283.996942169628
  0
LWPOLYLINE
  5
346
330
A
100
AcDbEntity
  8
0
  6
Continuous
 62
     7
100
AcDbPolyline
 90
        3
 70
   128
 43
0.0
 10
-392.1478623765959
 20
-1462.89211435761
 10
-385.8279914791442
 20
-1465.496161118648
 10
-377.9726448430708
 20
-1469.675176905173
  0
LWPOLYLINE
  5
34B
330
A
100
AcDbEntity
  8
0
  6
Continuous
 62
     7
100
AcDbPolyline
 90
       40
 70
   128
 43
0.0
 10
-332.0035804993265
 20
-1461.433077071428
 10
-332.0049175462988
 20
-1461.433649340393
 10
-331.9524450541151
 20
-1461.424884470462
 10
-331.804375040662
 20
-1461.389425589145
 10
-331.5608663822448
 20
-1461.32802158813
 10
-331.25671719516
 20
-1461.250469279537
 10
-330.8736843515358
 20
-1461.153159178121
 10
-330.4116390909979
 20
-1461.037288053278
 10
-329.8703710150094
 20
-1460.904432613587
 10
-329.2497398519122
 20
-1460.756695079376
 10
-328.8291495360263
 20
-1460.659668954856
 10
-328.6115992125281
 20
-1460.610538220491
 10
-328.3891624582179
 20
-1460.561095368905
 10
-328.2761001457199
 20
-1460.536282196862
 10
-328.1618024395914
 20
-1460.511422034331
 10
-328.0462647898328
 20
-1460.486525934105
 10
-327.9294826690988
 20
-1460.461605284619
 10
-327.6921670216041
 20
-1460.411737557903
 10
-327.449819750321
 20
-1460.361916598757
 10
-326.7786937541889
 20
-1460.230088934153
 10
-326.0708816245352
 20
-1460.101475961995
 10
-325.3412878068262
 20
-1459.980949219552
 10
-322.8525021322947
 20
-1459.672328335403
 10
-320.3057104111777
 20
-1459.544266318616
 10
-319.4915559247788
 20
-1459.548297492555
 10
-318.5459758533551
 20
-1459.581845280077
 10
-317.3931190869748
 20
-1459.665826864723
 10
-316.0335251844265
 20
-1459.827478663152
 10
-314.4687314671678
 20
-1460.100176587215
 10
-313.657065231896
 20
-1460.27922556533
 10
-312.8628180405299
 20
-1460.479880360308
 10
-312.1604796064078
 20
-1460.67854595856
 10
-311.6940629204822
 20
-1460.821547423555
 10
-311.2792599069273
 20
-1460.956117889053
 10
-310.9159478490651
 20
-1461.079608383804
 10
-310.6039863866328
 20
-1461.189671793324
 10
-310.2234565275058
 20
-1461.328549625149
 10
-309.8495028779558
 20
-1461.470868994302
 10
-309.4573817852983
 20
-1461.627012880321
 10
-309.0170150531074
 20
-1461.811613084925
  0
LWPOLYLINE
  5
375
330
A
100
AcDbEntity
  8
0
  6
Continuous
 62
     7
100
AcDbPolyline
 90
       26
 70
   128
 43
0.0
 10
-203.641489008519
 20
-1194.90892733532
 10
-204.827825189099
 20
-1194.989911018674
 10
-206.1164534095977
 20
-1195.026415835725
 10
-207.3201713790929
 20
-1195.017202107182
 10
-208.4383238058821
 20
-1194.972798788945
 10
-209.4702034434741
 20
-1194.902670676392
 10
-210.4150587625684
 20
-1194.815182567056
 10
-211.2721079546973
 20
-1194.717609950695
 10
-211.883387953178
 20
-1194.637965418963
 10
-212.4395891272906
 20
-1194.558559169276
 10
-212.9403399760824
 20
-1194.481642864345
 10
-213.3852861977369
 20
-1194.409149827862
 10
-213.7740973457897
 20
-1194.3427231226
 10
-214.1144638643932
 20
-1194.282298728901
 10
-214.4673883478465
 20
-1194.217466726476
 10
-215.0383437493719
 20
-1194.108044687968
 10
-215.6657323539185
 20
-1193.981618955685
 10
-216.3500069442931
 20
-1193.836733625758
 10
-217.0916743075781
 20
-1193.671934514002
 10
-217.8913003745957
 20
-1193.485796373699
 10
-218.7495159459341
 20
-1193.276953479878
 10
-219.6129836016248
 20
-1193.058104366098
 10
-220.5298115647406
 20
-1192.816979746189
 10
-221.5007194532998
 20
-1192.552755848457
 10
-222.5265008559293
 20
-1192.264779602681
 10
-223.6080302646142
 20
-1191.952606991604
  0
LWPOLYLINE
  5
391
330
A
100
AcDbEntity
  8
0
  6
Continuous
 62
     7
100
AcDbPolyline
 90
        3
 70
   128
 43
0.0
 10
-127.3151199930287
 20
-1281.223434885022
 10
-126.8323014405982
 20
-1280.327507508964
 10
-126.0239592071367
 20
-1279.449084458852
  0
LWPOLYLINE
  5
396
330
A
100
AcDbEntity
  8
0
  6
Continuous
 62
     7
100
AcDbPolyline
 90
       11
 70
   128
 43
0.0
 10
34.83915379494476
 20
-1211.674605023876
 10
33.91759476589705
 20
-1212.28364976551
 10
31.68356226301239
 20
-1214.114410747235
 10
29.66420626974128
 20
-1216.136867871068
 10
27.88273708242845
 20
-1218.240258669128
 10
25.97911141869659
 20
-1220.866758577211
 10
24.19133891854878
 20
-1223.742031162015
 10
22.42125111615967
 20
-1226.980331556748
 10
20.45309708216198
 20
-1230.870748286837
 10
17.08020018902002
 20
-1237.671268504805
 10
16.24570278091492
 20
-1239.312485892772
  0
LWPOLYLINE
  5
3A3
330
A
100
AcDbEntity
  8
0
  6
Continuous
 62
     7
100
AcDbPolyline
 90
       15
 70
   128
 43
0.0
 10
181.9732377991249
 20
-1312.111689373993
 10
185.0591349523154
 20
-1302.12940771536
 10
186.8801500608782
 20
-1296.43604707977
 10
187.8258422008085
 20
-1293.43486008698
 10
188.4396877352081
 20
-1290.974099457472
 10
188.7569291462961
 20
-1289.191963629157
 10
188.9265948616264
 20
-1287.211756618153
 10
188.8209895010709
 20
-1285.154564031383
 10
188.4504749557723
 20
-1283.187572140064
 10
187.8408080464098
 20
-1281.298900537763
 10
187.011672110227
 20
-1279.483032801983
 10
185.9775146886628
 20
-1277.72551003575
 10
184.7567678428658
 20
-1276.007552253396
 10
183.3664632766018
 20
-1274.268242760108
 10
182.1015290623146
 20
-1272.7875213185
  0
LWPOLYLINE
  5
3B4
330
A
100
AcDbEntity
  8
0
  6
Continuous
 62
     7
100
AcDbPolyline
 90
       12
 70
   128
 43
0.0
 10
-94.84455247863607
 20
-1438.05408862622
 10
-93.39365916333887
 20
-1438.853543256057
 10
-90.17281011581053
 20
-1440.309326344921
 10
-86.76133761786124
 20
-1441.56912803217
 10
-82.92660002536136
 20
-1442.70174867712
 10
-78.80864632762565
 20
-1443.644430062521
 10
-74.308312683773
 20
-1444.420346038037
 10
-69.26302827916884
 20
-1445.062573196845
 10
-63.30670497005449
 20
-1445.645181882793
 10
-58.03276950698241
 20
-1446.236995802323
 10
-52.7091621663316
 20
-1447.125222252176
 10
-51.95843838663225
 20
-1447.280255041855
  0
LWPOLYLINE
  5
3C2
330
A
100
AcDbEntity
  8
0
  6
Continuous
 62
     7
100
AcDbPolyline
 90
       16
 70
   128
 43
0.0
 10
-7.327236433928602
 20
-1273.466993736286
 10
-10.44743727756358
 20
-1276.171665650807
 10
-13.98923743074248
 20
-1278.932391423352
 10
-17.28347215012291
 20
-1281.185948189747
 10
-20.94858475063312
 20
-1283.321709536125
 10
-24.73652586062059
 20
-1285.169022585983
 10
-28.61571081949904
 20
-1286.708638825452
 10
-32.54067889812886
 20
-1287.923683271991
 10
-36.49700149841184
 20
-1288.813917650427
 10
-40.53537443025969
 20
-1289.393717137198
 10
-44.7474291155463
 20
-1289.726693150017
 10
-49.66397794441633
 20
-1289.856587224637
 10
-55.38087013486806
 20
-1289.771286483489
 10
-62.58752922241009
 20
-1289.489115636383
 10
-70.24973718683783
 20
-1289.17580717311
 10
-70.32074628461891
 20
-1289.174890552985
  0
LWPOLYLINE
  5
3D4
330
A
100
AcDbEntity
  8
0
  6
Continuous
 62
     7
100
AcDbPolyline
 90
        8
 70
   128
 43
0.0
 10
171.0455760083834
 20
-1331.633214274128
 10
171.634606304202
 20
-1330.848186937792
 10
174.765142759671
 20
-1326.500667584084
 10
176.9988813875316
 20
-1323.040279573153
 10
178.8566997361892
 20
-1319.718712449805
 10
180.427150387458
 20
-1316.345254381819
 10
181.6932130544792
 20
-1313.085047776433
 10
182.0183754494621
 20
-1312.129598913412
  0
LWPOLYLINE
  5
3DE
330
A
100
AcDbEntity
  8
0
  6
Continuous
 62
     7
100
AcDbPolyline
 90
       41
 70
   128
 43
0.0
 10
-51.93760537662011
 20
-1447.163469279136
 10
-50.63337995753638
 20
-1447.482195013055
 10
-47.97254995044441
 20
-1448.352298897419
 10
-45.9001731229998
 20
-1449.270377664486
 10
-43.94963351281941
 20
-1450.455113093674
 10
-42.18559237065429
 20
-1451.886182679188
 10
-40.69001756328542
 20
-1453.498158258314
 10
-39.42687680328936
 20
-1455.338842303601
 10
-38.31316311761225
 20
-1457.485248932327
 10
-37.3129214663193
 20
-1460.050545664873
 10
-36.46888522451362
 20
-1463.009886266558
 10
-35.77835165907688
 20
-1466.441177458409
 10
-35.23897688457902
 20
-1470.373047172173
 10
-34.86964245447069
 20
-1475.013997843898
 10
-34.71043382792828
 20
-1480.245687607382
 10
-34.74508518001798
 20
-1486.444749899078
 10
-34.93014607759052
 20
-1494.532512799332
 10
-35.18417638408627
 20
-1503.98936935543
 10
-35.23181755903421
 20
-1512.28318752853
 10
-35.03074295148105
 20
-1518.248152651118
 10
-34.60879748888514
 20
-1523.59643376197
 10
-34.08920572320641
 20
-1527.635927264399
 10
-33.39979685955201
 20
-1531.218603874856
 10
-32.50512423327787
 20
-1534.525589346013
 10
-31.6034697140551
 20
-1537.069596524975
 10
-30.55541932583535
 20
-1539.34901507245
 10
-29.33115259207325
 20
-1541.411681824402
 10
-27.92785664334428
 20
-1543.258298996853
 10
-26.30997038436826
 20
-1544.922568005619
 10
-24.56628868295217
 20
-1546.336017338292
 10
-22.59873694613875
 20
-1547.600349494671
 10
-20.47465229899277
 20
-1548.673606786062
 10
-18.17955277016748
 20
-1549.579650549646
 10
-15.69237295442824
 20
-1550.348701183301
 10
-12.54269711102446
 20
-1551.098414106344
 10
-8.980112815831219
 20
-1551.697246971042
 10
-5.11308159595944
 20
-1552.127742594784
 10
-0.317820063709437
 20
-1552.451229003636
 10
4.702139529530025
 20
-1552.53417665776
 10
9.484541210967922
 20
-1552.343464586305
 10
13.14116714671243
 20
-1551.982683507259
  0
LWPOLYLINE
  5
409
330
A
100
AcDbEntity
  8
0
  6
Continuous
 62
     7
100
AcDbPolyline
 90
        3
 70
   128
 43
0.0
 10
62.29202734337716
 20
-1205.879537649247
 10
55.33260994563523
 20
-1206.514445065945
 10
46.54224994673183
 20
-1207.316495121397
  0
LINE
  5
40E
330
A
100
AcDbEntity
  8
0
  6
Continuous
 62
     7
100
AcDbLine
 10
46.54139409734375
 20
-1207.31657321081
 30
0.0
 11
46.53672791732927
 21
-1207.316998962422
 31
0.0
  0
LWPOLYLINE
  5
40F
330
A
100
AcDbEntity
  8
0
  6
Continuous
 62
     7
100
AcDbPolyline
 90
        3
 70
   128
 43
0.0
 10
26.29083762186147
 20
-1547.825694652195
 10
35.45842655029292
 20
-1542.484286563643
 10
46.83924888363067
 20
-1535.858702306545
  0
LWPOLYLINE
  5
414
330
A
100
AcDbEntity
  8
0
  6
Continuous
 62
     7
100
AcDbPolyline
 90
        3
 70
   128
 43
0.0
 10
197.6625549999515
 20
-1438.459624853998
 10
196.9947921524696
 20
-1431.656984155441
 10
196.9967822202389
 20
-1422.75919567984
  0
LWPOLYLINE
  5
419
330
A
100
AcDbEntity
  8
0
  6
Continuous
 62
     7
100
AcDbPolyline
 90
       10
 70
   128
 43
0.0
 10
168.1382715346681
 20
-1386.04035246114
 10
168.1394045237052
 20
-1386.04126433954
 10
168.1070312599894
 20
-1385.999048736059
 10
168.0062082654678
 20
-1385.884957610532
 10
167.8376713601606
 20
-1385.698779659061
 10
167.6264073417864
 20
-1385.466640469968
 10
167.3606645942861
 20
-1385.17412686809
 10
167.0414393529819
 20
-1384.820563315568
 10
166.6700249927881
 20
-1384.405023821679
 10
166.5408999822515
 20
-1384.258507263266
  0
LWPOLYLINE
  5
425
330
A
100
AcDbEntity
  8
0
  6
Continuous
 62
     7
100
AcDbPolyline
 90
       15
 70
   128
 43
0.0
 10
-127.4509366082552
 20
-1397.828861861782
 10
-126.8224811592909
 20
-1398.838315000363
 10
-126.1852750144208
 20
-1399.958968212232
 10
-125.628298897566
 20
-1401.026113679417
 10
-125.1425639332805
 20
-1402.034229768306
 10
-124.720045235384
 20
-1402.978248565033
 10
-124.3537099476645
 20
-1403.853579474043
 10
-124.0375012307953
 20
-1404.656116563883
 10
-123.8208446021863
 20
-1405.233235609884
 10
-123.6298355247713
 20
-1405.761611073847
 10
-123.462660307513
 20
-1406.23985784829
 10
-123.3177782615393
 20
-1406.66675546278
 10
-123.1938937837472
 20
-1407.041240779161
 10
-123.0874529553043
 20
-1407.370134111991
 10
-122.9805962631114
 20
-1407.707175755243
  0
LWPOLYLINE
  5
436
330
A
100
AcDbEntity
  8
0
  6
Continuous
 62
     7
100
AcDbPolyline
 90
        3
 70
   128
 43
0.0
 10
-87.07280968191623
 20
-1289.91447131744
 10
-88.0905361823344
 20
-1289.908780264165
 10
-89.24563139155097
 20
-1289.607451077049
  0
LWPOLYLINE
  5
43B
330
A
100
AcDbEntity
  8
0
  6
Continuous
 62
     7
100
AcDbPolyline
 90
       11
 70
   128
 43
0.0
 10
230.6035586759793
 20
-1451.073963091525
 10
231.5917864087999
 20
-1451.567534250951
 10
234.2942881786738
 20
-1452.586882660466
 10
237.0554654226134
 20
-1453.324467688007
 10
239.7677898814761
 20
-1453.815569861249
 10
242.9942183567789
 20
-1454.150908091296
 10
246.378163708099
 20
-1454.261528200208
 10
250.0676580162171
 20
-1454.17531900664
 10
254.4209347527812
 20
-1453.934582033598
 10
261.996806467062
 20
-1453.455336318421
 10
263.8353911222263
 20
-1453.357423579248
  0
LWPOLYLINE
  5
448
330
A
100
AcDbEntity
  8
0
  6
Continuous
 62
     7
100
AcDbPolyline
 90
       15
 70
   128
 43
0.0
 10
244.0175832031289
 20
-1273.433566406293
 10
233.8297251224257
 20
-1275.752241907481
 10
227.9886226248169
 20
-1277.021876880585
 10
224.9166723775882
 20
-1277.703476959641
 10
222.478668392602
 20
-1278.402251447606
 10
220.7766727867429
 20
-1279.018580240628
 10
218.9769303527963
 20
-1279.861748926503
 10
217.2481519924545
 20
-1280.981802144905
 10
215.7299443181833
 20
-1282.286173099265
 10
214.3991401858657
 20
-1283.75849593177
 10
213.2411205648591
 20
-1285.384482583585
 10
212.2361399123535
 20
-1287.158850565289
 10
211.3587182531043
 20
-1289.075027236516
 10
210.5475843300058
 20
-1291.148721056541
 10
209.8977090527892
 20
-1292.984546941034
  0
LWPOLYLINE
  5
459
330
A
100
AcDbEntity
  8
0
  6
Continuous
 62
     7
100
AcDbPolyline
 90
       12
 70
   128
 43
0.0
 10
491.4957955080026
 20
-1450.19360538019
 10
491.4626968689661
 20
-1448.537367596043
 10
491.113017482558
 20
-1445.020138954696
 10
490.498301498471
 20
-1441.435816263536
 10
489.5618109535987
 20
-1437.548525769109
 10
488.3192201321628
 20
-1433.510932562561
 10
486.7410162562349
 20
-1429.225571313721
 10
484.7745590884611
 20
-1424.535113270612
 10
482.3009513564005
 20
-1419.085481628792
 10
480.1765095134903
 20
-1414.222212580087
 10
478.283932513051
 20
-1409.167720158383
 10
478.0428329574826
 20
-1408.440057899099
  0
LWPOLYLINE
  5
467
330
A
100
AcDbEntity
  8
0
  6
Continuous
 62
     7
100
AcDbPolyline
 90
       16
 70
   128
 43
0.0
 10
305.2005321758863
 20
-1456.694933859411
 10
309.1029471845818
 20
-1458.044771097648
 10
313.2647059130774
 20
-1459.731697119156
 10
316.8634606813359
 20
-1461.457809688971
 10
320.5456405639753
 20
-1463.564009635554
 10
324.0394311488885
 20
-1465.920806339914
 10
327.3123704037867
 20
-1468.510470940547
 10
330.3271138005316
 20
-1471.302070782414
 10
333.0762406877213
 20
-1474.283229470607
 10
335.5975482382897
 20
-1477.490663276157
 10
337.9919412668859
 20
-1480.971921629335
 10
340.5627072497426
 20
-1485.164830776773
 10
343.3472807361729
 20
-1490.158455014975
 10
346.7062431581423
 20
-1496.540690284753
 10
350.266014051942
 20
-1503.333011262663
 10
350.3007247845181
 20
-1503.394965255304
  0
LWPOLYLINE
  5
479
330
A
100
AcDbEntity
  8
0
  6
Continuous
 62
     7
100
AcDbPolyline
 90
        8
 70
   128
 43
0.0
 10
266.3875505826264
 20
-1273.136436670972
 10
265.4131818187853
 20
-1273.018835139362
 10
260.0828513872951
 20
-1272.481470718307
 10
255.969198148947
 20
-1272.277190326631
 10
252.1637274654243
 20
-1272.32905600275
 10
248.4570017543124
 20
-1272.655734877355
 10
245.0005486789515
 20
-1273.189395747625
 10
244.0105244940673
 20
-1273.385521284724
  0
LWPOLYLINE
  5
483
330
A
100
AcDbEntity
  8
0
  6
Continuous
 62
     7
100
AcDbPolyline
 90
       41
 70
   128
 43
0.0
 10
477.9312770151618
 20
-1408.480408864551
 10
477.5551888880337
 20
-1407.191553652404
 10
476.9783059522786
 20
-1404.452155328928
 10
476.7371970735113
 20
-1402.198384966613
 10
476.7879382468612
 20
-1399.916800398515
 10
477.145260291417
 20
-1397.673561163322
 10
477.7934846895357
 20
-1395.572367597318
 10
478.7559934530973
 20
-1393.558113587962
 10
480.0579792775865
 20
-1391.52040592926
 10
481.7794705905702
 20
-1389.371522883044
 10
483.920316609177
 20
-1387.160895755083
 10
486.5466351663831
 20
-1384.847230549324
 10
489.6820468356244
 20
-1382.414183435566
 10
493.5165607999953
 20
-1379.773855100737
 10
497.9677327266195
 20
-1377.020131503908
 10
503.3536038269152
 20
-1373.950609309245
 10
510.4503424071063
 20
-1370.066995297663
 10
518.767235577881
 20
-1365.55856371837
 10
525.9737133976281
 20
-1361.452913099591
 10
531.0389874227011
 20
-1358.2962948201
 10
535.4597619999808
 20
-1355.256738775055
 10
538.6982701086679
 20
-1352.787012355165
 10
541.4562546350403
 20
-1350.398628460418
 10
543.8728517498715
 20
-1347.970326502415
 10
545.6251993346508
 20
-1345.91746719385
 10
547.0752085085123
 20
-1343.870119659468
 10
548.2493969483629
 20
-1341.778540191046
 10
549.1469663564056
 20
-1339.639941664193
 10
549.7793224672396
 20
-1337.406676559103
 10
550.1315646455894
 20
-1335.189879243226
 10
550.2427325434283
 20
-1332.853763377696
 10
550.1101582989961
 20
-1330.477623467784
 10
549.7472654507882
 20
-1328.036987089815
 10
549.1696929284597
 20
-1325.498500868778
 10
548.2441254436588
 20
-1322.395945113182
 10
546.9814377695114
 20
-1319.011240178073
 10
545.420742305954
 20
-1315.447045092565
 10
543.3032589876744
 20
-1311.13248358342
 10
540.8651139667096
 20
-1306.743597222642
 10
538.3087516273026
 20
-1302.697271911142
 10
536.1679930797714
 20
-1299.710931498174
  0
LWPOLYLINE
  5
4AE
330
A
100
AcDbEntity
  8
0
  6
Continuous
 62
     7
100
AcDbPolyline
 90
        3
 70
   128
 43
0.0
 10
211.8584463386924
 20
-1430.196610879015
 10
215.8880009894751
 20
-1435.90618943265
 10
220.9777767120552
 20
-1443.117839472385
  0
LINE
  5
4B3
330
A
100
AcDbEntity
  8
0
  6
Continuous
 62
     7
100
AcDbLine
 10
220.978272264164
 20
-1443.118541614991
 30
0.0
 11
220.9809740658831
 21
-1443.122369769616
 31
0.0
  0
LWPOLYLINE
  5
4B4
330
A
100
AcDbEntity
  8
0
  6
Continuous
 62
     7
100
AcDbPolyline
 90
        3
 70
   128
 43
0.0
 10
525.9930998904622
 20
-1290.401477242833
 10
516.7835103295817
 20
-1285.132816383634
 10
505.3551748813514
 20
-1278.589527255555
  0
LWPOLYLINE
  5
4B9
330
A
100
AcDbEntity
  8
0
  6
Continuous
 62
     7
100
AcDbPolyline
 90
        3
 70
   128
 43
0.0
 10
345.5934464441167
 20
-1196.672251402339
 10
340.0360682100891
 20
-1200.651871341241
 10
332.3293623188328
 20
-1205.0990421298
  0
LWPOLYLINE
  5
4BE
330
A
100
AcDbEntity
  8
0
  6
Continuous
 62
     7
100
AcDbPolyline
 90
       40
 70
   128
 43
0.0
 10
314.9591666366469
 20
-1248.450667108238
 10
314.959389851988
 20
-1248.44922997175
 10
314.9390166987955
 20
-1248.498373842272
 10
314.8906223830039
 20
-1248.642734679576
 10
314.8136560000584
 20
-1248.881780896783
 10
314.7182495742768
 20
-1249.180810498147
 10
314.5977967378485
 20
-1249.557207269293
 10
314.4512143401642
 20
-1250.010446214053
 10
314.2770537622776
 20
-1250.539870232256
 10
314.0734578875874
 20
-1251.144484273964
 10
313.9328617970267
 20
-1251.55258110313
 10
313.8592429154057
 20
-1251.763109563397
 10
313.7832993103793
 20
-1251.977947348939
 10
313.7444281762386
 20
-1252.086978605673
 10
313.7049422334075
 20
-1252.197082436787
 10
313.6648296974552
 20
-1252.308256843813
 10
313.6240785113113
 20
-1252.420499631206
 10
313.5406106087013
 20
-1252.648180583303
 10
313.4544366905667
 20
-1252.880103811337
 10
313.2105902964763
 20
-1253.519108953671
 10
312.9445769996944
 20
-1254.187522174236
 10
312.6601636550898
 20
-1254.870122264988
 10
311.6030335348442
 20
-1257.144276369871
 10
310.3620422893608
 20
-1259.371940769983
 10
309.9271875135719
 20
-1260.060246735424
 10
309.3976562805116
 20
-1260.844366495878
 10
308.7155148481341
 20
-1261.777541022203
 10
307.8579513477412
 20
-1262.844879640719
 10
306.797476057087
 20
-1264.027392090241
 10
306.21551633788
 20
-1264.620842593033
 10
305.6244645337459
 20
-1265.188071570229
 10
305.0838038851241
 20
-1265.67841161449
 10
304.7153685779555
 20
-1265.99817616589
 10
304.3814342431462
 20
-1266.278637589751
 10
304.0841823057901
 20
-1266.521303696614
 10
303.8255288522494
 20
-1266.727537299912
 10
303.5061036684038
 20
-1266.976650884016
 10
303.1872447555214
 20
-1267.21836378918
 10
302.8470347093444
 20
-1267.468157682077
 10
302.4571260425499
 20
-1267.743786646332
  0
LWPOLYLINE
  5
4E8
330
A
100
AcDbEntity
  8
0
  6
Continuous
 62
     7
100
AcDbPolyline
 90
        7
 70
   128
 43
0.0
 10
300.7628025837553
 20
-1268.828586061784
 10
300.1048140286084
 20
-1269.204568429373
 10
299.3862598203894
 20
-1269.589720256323
 10
298.6123151270593
 20
-1269.977603884256
 10
297.7803797515478
 20
-1270.366178346175
 10
296.8878814365838
 20
-1270.753346650712
 10
296.2511660702281
 20
-1271.008946802782
  0
LWPOLYLINE
  5
4F1
330
A
100
AcDbEntity
  8
0
  6
Continuous
 62
     7
100
AcDbPolyline
 90
       26
 70
   128
 43
0.0
 10
472.9629193218204
 20
-1498.544175744213
 10
473.5229036592789
 20
-1497.495190790973
 10
474.1748147371556
 20
-1496.383027476132
 10
474.8205017628436
 20
-1495.367099276043
 10
475.4506884236421
 20
-1494.442382413021
 10
476.0569733343101
 20
-1493.604461088705
 10
476.6318644943704
 20
-1492.849539968732
 10
477.1687776432163
 20
-1492.174426642105
 10
477.5602490837567
 20
-1491.698236974831
 10
477.9223311195779
 20
-1491.268630529454
 10
478.2529173668939
 20
-1490.884729157204
 10
478.5501805228709
 20
-1490.545808817593
 10
478.8125520813045
 20
-1490.251279054501
 10
479.0441616484494
 20
-1489.994651926654
 10
479.2861637872777
 20
-1489.729710717398
 10
479.6815192049983
 20
-1489.303497922281
 10
480.1211996142762
 20
-1488.838437641677
 10
480.6066796299462
 20
-1488.334917405494
 10
481.1394610263774
 20
-1487.793278034127
 10
481.7210523789791
 20
-1487.21379485671
 10
482.3529461615967
 20
-1486.596656647979
 10
482.9961088806768
 20
-1485.98036690783
 10
483.6864389551696
 20
-1485.330629280378
 10
484.425016322544
 20
-1484.64727002742
 10
485.2128153556582
 20
-1483.929962222126
 10
486.0506760126514
 20
-1483.178199546529
  0
LWPOLYLINE
  5
50D
330
A
100
AcDbEntity
  8
0
  6
Continuous
 62
     7
100
AcDbPolyline
 90
        3
 70
   128
 43
0.0
 10
359.3172522133357
 20
-1517.532887340944
 10
359.8211868668351
 20
-1518.417109871047
 10
360.1377757404989
 20
-1519.568116259576
  0
LINE
  5
512
330
A
100
AcDbEntity
  8
0
  6
Continuous
 62
     7
100
AcDbLine
 10
137.7347575140143
 20
-1365.4030747096
 30
0.0
 11
350.15087366244
 21
-1365.403074709595
 31
0.0
  0
LINE
  5
513
330
A
100
AcDbEntity
  8
0
  6
Continuous
 62
     7
100
AcDbLine
 10
350.15087366244
 20
-1363.403074709595
 30
0.0
 11
137.7347575140143
 21
-1363.4030747096
 31
0.0
  0
LINE
  5
514
330
A
100
AcDbEntity
  8
0
  6
Continuous
 62
     7
100
AcDbLine
 10
-44.25425314322287
 20
-1363.4030747096
 30
0.0
 11
-256.6703692916486
 21
-1363.403074709595
 31
0.0
  0
LINE
  5
515
330
A
100
AcDbEntity
  8
0
  6
Continuous
 62
     7
100
AcDbLine
 10
-256.6703692916486
 20
-1365.403074709595
 30
0.0
 11
-44.25425314322287
 21
-1365.4030747096
 31
0.0
  0
CIRCLE
  5
516
330
A
100
AcDbEntity
  8
0
  6
Continuous
 62
     7
100
AcDbCircle
 10
46.74025218539571
 20
-1364.403074709601
 30
0.0
 40
66.0
  0
CIRCLE
  5
517
330
A
100
AcDbEntity
  8
0
  6
Continuous
 62
     7
100
AcDbCircle
 10
46.74025218539571
 20
-1364.403074709601
 30
0.0
 40
91.0
  0
LWPOLYLINE
  5
518
330
A
100
AcDbEntity
  8
0
  6
Continuous
 62
     7
100
AcDbPolyline
 90
        4
 70
   128
 43
0.0
 10
-141.1563903635169
 20
-1380.893403850676
 10
-137.1647022952851
 20
-1387.465564932279
 10
-132.836715510552
 20
-1393.928665718739
 10
-131.1762604259438
 20
-1396.218613312194
  0
LWPOLYLINE
  5
51E
330
A
100
AcDbEntity
  8
0
  6
Continuous
 62
     7
100
AcDbPolyline
 90
        9
 70
   128
 43
0.0
 10
-115.4932019729065
 20
-1425.61031508537
 10
-115.2876175140595
 20
-1427.734800174553
 10
-115.4639119525399
 20
-1431.579433962915
 10
-116.2056563197005
 20
-1435.354257074435
 10
-117.1137192488918
 20
-1437.975558821311
 10
-118.3596090142506
 20
-1440.451480039898
 10
-120.137076408387
 20
-1442.879683929034
 10
-122.3191933970307
 20
-1444.952639610398
 10
-123.2547223300782
 20
-1445.574684753494
  0
LWPOLYLINE
  5
529
330
A
100
AcDbEntity
  8
0
  6
Continuous
 62
     7
100
AcDbPolyline
 90
        7
 70
   128
 43
0.0
 10
-159.3309335218559
 20
-1480.515364571612
 10
-159.8026875046178
 20
-1484.137919670811
 10
-160.4536706668273
 20
-1494.828299059036
 10
-161.0947246801942
 20
-1502.621746986308
 10
-162.0274147504365
 20
-1507.73619786448
 10
-163.7535526659073
 20
-1512.614046385113
 10
-165.1537264353823
 20
-1514.984107786266
  0
LWPOLYLINE
  5
532
330
A
100
AcDbEntity
  8
0
  6
Continuous
 62
     7
100
AcDbPolyline
 90
        5
 70
   128
 43
0.0
 10
-222.5403700378536
 20
-1523.777098865705
 10
-223.9131711738306
 20
-1523.897104181352
 10
-231.0837849493605
 20
-1525.14724469588
 10
-236.810843404143
 20
-1526.510269433281
 10
-238.561292802751
 20
-1526.883283132191
  0
LINE
  5
539
330
A
100
AcDbEntity
  8
0
  6
Continuous
 62
     7
100
AcDbLine
 10
-273.1628336968376
 20
-1508.295674219563
 30
0.0
 11
-266.0006864192325
 21
-1501.463367196719
 31
0.0
  0
LWPOLYLINE
  5
53A
330
A
100
AcDbEntity
  8
0
  6
Continuous
 62
     7
100
AcDbPolyline
 90
        5
 70
   128
 43
0.0
 10
-254.4137423845155
 20
-1204.881756482993
 10
-252.7326450248236
 20
-1203.684823998623
 10
-246.6163299858294
 20
-1200.8056700225
 10
-240.0789604097004
 20
-1199.076486720169
 10
-230.4408781236463
 20
-1197.616815986746
  0
LWPOLYLINE
  5
541
330
A
100
AcDbEntity
  8
0
  6
Continuous
 62
     7
100
AcDbPolyline
 90
       10
 70
   128
 43
0.0
 10
-211.2513966504819
 20
-1195.437722121408
 10
-200.3699595770653
 20
-1194.701760432337
 10
-193.1760629191503
 20
-1194.709938732894
 10
-185.9958381767885
 20
-1195.368829378115
 10
-178.9221342976287
 20
-1196.683530600405
 10
-172.7870600011986
 20
-1198.445000109193
 10
-166.8604458618299
 20
-1200.85258091954
 10
-161.3018627076299
 20
-1203.956954514881
 10
-155.7245929996428
 20
-1208.235555615655
 10
-151.6632212041996
 20
-1212.316554428418
  0
LWPOLYLINE
  5
54D
330
A
100
AcDbEntity
  8
0
  6
Continuous
 62
     7
100
AcDbPolyline
 90
       11
 70
   128
 43
0.0
 10
-129.7128608535588
 20
-1246.286297603578
 10
-128.1219008647945
 20
-1249.508130045591
 10
-125.8436980544321
 20
-1255.818275325209
 10
-124.8693515846708
 20
-1260.497531851298
 10
-124.5006403798561
 20
-1265.284629895216
 10
-124.7139253027057
 20
-1270.064319059188
 10
-125.6324030770053
 20
-1275.468389627496
 10
-127.1626176724297
 20
-1280.754323591979
 10
-129.1780317873987
 20
-1285.864901922754
 10
-132.5481621540482
 20
-1292.711381578675
 10
-134.5807841864017
 20
-1296.324795348029
  0
LWPOLYLINE
  5
55A
330
A
100
AcDbEntity
  8
0
  6
Continuous
 62
     7
100
AcDbPolyline
 90
        7
 70
   128
 43
0.0
 10
-275.1027044289571
 20
-1244.955291979632
 10
-275.4582658898771
 20
-1244.647702911526
 10
-277.3732014104372
 20
-1242.991130704619
 10
-279.6330720750654
 20
-1241.036162033261
 10
-281.3821779754013
 20
-1239.523045682794
 10
-282.423321421002
 20
-1238.622373416401
 10
-282.5863642111386
 20
-1238.481255292968
  0
LWPOLYLINE
  5
563
330
A
100
AcDbEntity
  8
0
  6
Continuous
 62
     7
100
AcDbPolyline
 90
       39
 70
   128
 43
0.0
 10
-285.1900532310644
 20
-1489.466503156214
 10
-286.761209996995
 20
-1486.279334599863
 10
-289.6710537136863
 20
-1480.760427766827
 10
-293.0245782337773
 20
-1475.49343028516
 10
-296.9525647433223
 20
-1470.678743025488
 10
-301.9002328234726
 20
-1466.141696987021
 10
-307.5087594930544
 20
-1462.471022864185
 10
-311.8820694451049
 20
-1460.559010452962
 10
-316.5082083313191
 20
-1459.420873639976
 10
-321.2668441706022
 20
-1459.207108539565
 10
-326.004274022031
 20
-1459.796315458051
 10
-331.707349959391
 20
-1461.327795759199
 10
-337.2395380842625
 20
-1463.46167378285
 10
-342.6444553101559
 20
-1465.967566211639
 10
-347.9657185505818
 20
-1468.615089728202
 10
-354.5055706277573
 20
-1471.689469328618
 10
-358.7361746086456
 20
-1473.216477975873
 10
-363.1299255855124
 20
-1474.094870452349
 10
-366.4889713271809
 20
-1474.084645937931
 10
-369.7892651317434
 20
-1473.44704104606
 10
-372.713958165142
 20
-1472.392121442912
 10
-375.520515264581
 20
-1471.04467761646
 10
-382.0579380521963
 20
-1467.115744937547
 10
-392.2436103991647
 20
-1460.351334687801
 10
-402.1796547517507
 20
-1453.197569574437
 10
-411.7066698351657
 20
-1445.537149870573
 10
-420.6652543746206
 20
-1437.252775849325
 10
-425.6258298888314
 20
-1432.14982381087
 10
-430.3382421306795
 20
-1426.816242989681
 10
-434.6004406131642
 20
-1421.138206207671
 10
-436.5425852020913
 20
-1417.952479090093
 10
-438.0581233067046
 20
-1414.552966680453
 10
-438.8952776353086
 20
-1410.629944419422
 10
-438.5517043529565
 20
-1407.094006855734
 10
-438.139323431843
 20
-1405.802470623744
 10
-436.2038943950623
 20
-1402.177151759208
 10
-433.5878547538301
 20
-1398.976127566254
 10
-429.8073382956544
 20
-1395.422374893348
 10
-429.0826459018356
 20
-1394.856441492522
  0
LINE
  5
58C
330
A
100
AcDbEntity
  8
0
  6
Continuous
 62
     7
100
AcDbLine
 10
-387.3372574877647
 20
-1367.652189955132
 30
0.0
 11
-387.3371894669696
 21
-1367.652187579793
 31
0.0
  0
LWPOLYLINE
  5
58D
330
A
100
AcDbEntity
  8
0
  6
Continuous
 62
     7
100
AcDbPolyline
 90
       11
 70
   128
 43
0.0
 10
-381.4479658803314
 20
-1375.622494737945
 10
-382.0719861250543
 20
-1374.777962049744
 10
-382.8764792038763
 20
-1373.68918985887
 10
-383.4741417538231
 20
-1372.880329387132
 10
-384.2173032715888
 20
-1371.874560138351
 10
-384.8666428113723
 20
-1370.995763540163
 10
-385.3368121940107
 20
-1370.35944884078
 10
-385.8422257008994
 20
-1369.675437736781
 10
-386.2925403776848
 20
-1369.065996545784
 10
-386.6721710095298
 20
-1368.552216406301
 10
-387.3371894669695
 20
-1367.652187579793
  0
LWPOLYLINE
  5
59A
330
A
100
AcDbEntity
  8
0
  6
Continuous
 62
     7
100
AcDbPolyline
 90
        8
 70
   128
 43
0.0
 10
-403.4992899002026
 20
-1275.332413197132
 10
-403.9714333180749
 20
-1274.541075654451
 10
-406.480246240168
 20
-1268.918533326834
 10
-407.9085431178808
 20
-1263.453892814074
 10
-408.2427534938461
 20
-1257.826205056862
 10
-407.5864260197762
 20
-1252.875761379091
 10
-406.2478182233692
 20
-1248.055868002633
 10
-405.6848122147144
 20
-1246.71108234385
  0
LWPOLYLINE
  5
5A4
330
A
100
AcDbEntity
  8
0
  6
Continuous
 62
     7
100
AcDbPolyline
 90
       32
 70
   128
 43
0.0
 10
-123.3271366520159
 20
-1452.516449190579
 10
-123.9820129566823
 20
-1454.110329922759
 10
-126.1353209169898
 20
-1457.614764737237
 10
-128.7052171390856
 20
-1461.073313235722
 10
-134.3602374437173
 20
-1468.164790465118
 10
-139.4778028361426
 20
-1474.989402489942
 10
-143.9459190416573
 20
-1482.001752235204
 10
-147.6775698262572
 20
-1489.566143753965
 10
-150.5958376154438
 20
-1497.655737127343
 10
-152.6279546592623
 20
-1506.145157364445
 10
-153.9582364339499
 20
-1514.851123848895
 10
-154.8538188913935
 20
-1520.912193269976
 10
-156.0289405288622
 20
-1526.820856131681
 10
-157.7538617238346
 20
-1532.467613294316
 10
-160.2988428537892
 20
-1537.742965618189
 10
-163.8980270219774
 20
-1542.529374082697
 10
-168.4469860006105
 20
-1546.633932042229
 10
-173.6561363753983
 20
-1549.822516406114
 10
-179.2364805631976
 20
-1551.865647922428
 10
-185.0033504895726
 20
-1552.747676889455
 10
-190.9126068787468
 20
-1552.740975759335
 10
-199.3596068719761
 20
-1551.795806044438
 10
-207.9246805215328
 20
-1550.485530873251
 10
-216.5104490798239
 20
-1549.577109335223
 10
-221.5070977813141
 20
-1549.19325206967
 10
-226.3808349069253
 20
-1548.57382005758
 10
-231.0676421151303
 20
-1547.414724864833
 10
-235.5072530015863
 20
-1545.46958898687
 10
-240.8369576461433
 20
-1541.856002131032
 10
-245.6022683205029
 20
-1537.287173551496
 10
-249.7255222465687
 20
-1532.059364232772
 10
-252.8257738331963
 20
-1526.969412167883
  0
LWPOLYLINE
  5
5C6
330
A
100
AcDbEntity
  8
0
  6
Continuous
 62
     7
100
AcDbPolyline
 90
       23
 70
   128
 43
0.0
 10
-459.2078340757303
 20
-1370.161965792764
 10
-457.0730434913476
 20
-1367.989724527419
 10
-451.1109314759358
 20
-1362.840023482701
 10
-444.8933632573112
 20
-1358.497713109661
 10
-438.5042555765699
 20
-1354.698082395799
 10
-432.0267909974738
 20
-1351.175545681555
 10
-426.8371010502295
 20
-1348.378550426658
 10
-421.6866890014916
 20
-1345.452940651701
 10
-416.6199498670779
 20
-1342.262927600996
 10
-411.7584941189087
 20
-1338.680895144606
 10
-407.3285023953449
 20
-1334.590295051155
 10
-404.1349751265941
 20
-1330.70945639006
 10
-401.5381126427249
 20
-1326.330120566176
 10
-399.6522693086943
 20
-1321.495182736736
 10
-398.5616896809407
 20
-1316.406305579868
 10
-398.3482052543778
 20
-1311.277875726951
 10
-399.0936475239191
 20
-1306.324279809364
 10
-400.6286057534582
 20
-1302.175608347383
 10
-402.7022739178607
 20
-1298.233021581095
 10
-404.8060029322146
 20
-1294.238286466218
 10
-406.4305486842989
 20
-1289.934314847172
 10
-407.2595224256278
 20
-1285.273927317223
 10
-407.2738620168347
 20
-1283.98928906678
  0
LINE
  5
5DF
330
A
100
AcDbEntity
  8
0
  6
Continuous
 62
     7
100
AcDbLine
 10
-387.3372574877639
 20
-1367.652189955132
 30
0.0
 11
-459.2078340757299
 21
-1370.161965792764
 31
0.0
  0
LWPOLYLINE
  5
5E0
330
A
100
AcDbEntity
  8
0
  6
Continuous
 62
     7
100
AcDbPolyline
 90
       20
 70
   128
 43
0.0
 10
-392.0979981383694
 20
-1462.783068881039
 10
-397.9352082337513
 20
-1460.597766059904
 10
-406.8816044794233
 20
-1456.257885008244
 10
-417.6063224103601
 20
-1449.837511001331
 10
-427.5755597673748
 20
-1442.705799633259
 10
-437.0900513543875
 20
-1434.893580340329
 10
-446.5064105041244
 20
-1426.381356207987
 10
-452.1281095186723
 20
-1421.053896181641
 10
-457.8559294696189
 20
-1415.473612979775
 10
-463.2362633369238
 20
-1409.624592228866
 10
-465.9640467144068
 20
-1406.043369598215
 10
-468.1881914289196
 20
-1402.357020445257
 10
-469.7664523380615
 20
-1398.561161933378
 10
-470.5565842994315
 20
-1394.651411225966
 10
-470.4370998591094
 20
-1390.470943931096
 10
-469.4383942530738
 20
-1386.23427435731
 10
-467.6882911765214
 20
-1382.013222130596
 10
-465.3146143246488
 20
-1377.879606876941
 10
-462.4451873926531
 20
-1373.905248222335
 10
-459.2078340757303
 20
-1370.161965792764
  0
LWPOLYLINE
  5
5F6
330
A
100
AcDbEntity
  8
0
  6
Continuous
 62
     7
100
AcDbPolyline
 90
        9
 70
   128
 43
0.0
 10
-251.6462388793811
 20
-1203.173416304057
 10
-247.7743142744047
 20
-1199.891275771236
 10
-244.0923134994255
 20
-1197.326194728462
 10
-240.1930542968996
 20
-1195.014038159605
 10
-236.1633182239567
 20
-1193.126623812085
 10
-232.0928533422469
 20
-1191.842664310936
 10
-228.07140771342
 20
-1191.340872281193
 10
-224.1869833491089
 20
-1191.794691451524
 10
-223.6252340338855
 20
-1192.016049631435
  0
LWPOLYLINE
  5
601
330
A
100
AcDbEntity
  8
0
  6
Continuous
 62
     7
100
AcDbPolyline
 90
       23
 70
   128
 43
0.0
 10
-160.2741351698172
 20
-1204.745375445697
 10
-159.283389816598
 20
-1204.582464577683
 10
-151.9438749120835
 20
-1202.838423573764
 10
-147.9647964789095
 20
-1201.87147502624
 10
-144.0199391726933
 20
-1201.340385737077
 10
-140.1560666360736
 20
-1201.639901365419
 10
-136.4409460543965
 20
-1202.98577311214
 10
-132.9871861931895
 20
-1205.211607391192
 10
-129.2178616533147
 20
-1208.902996081686
 10
-126.2730750241118
 20
-1213.211592068771
 10
-124.3125690854735
 20
-1217.777088062198
 10
-123.1836492650284
 20
-1222.504384098367
 10
-122.5287308078103
 20
-1229.849186070399
 10
-122.4057717930552
 20
-1237.430712742516
 10
-122.0113038743771
 20
-1245.172571213316
 10
-120.6498197654513
 20
-1252.986556235814
 10
-119.4837468347017
 20
-1258.124306784895
 10
-118.6713292154143
 20
-1263.08668923464
 10
-118.7015132444801
 20
-1267.77152417899
 10
-119.5643709196517
 20
-1271.042863457522
 10
-121.2009312311886
 20
-1274.092412766621
 10
-123.4692917250739
 20
-1276.944015626205
 10
-126.0329571268031
 20
-1279.441292923496
  0
LINE
  5
61A
330
A
100
AcDbEntity
  8
0
  6
Continuous
 62
     7
100
AcDbLine
 10
-7.287788542932549
 20
-1273.503255059337
 30
0.0
 11
-7.287787908438953
 21
-1273.503256158312
 31
0.0
  0
LWPOLYLINE
  5
61B
330
A
100
AcDbEntity
  8
0
  6
Continuous
 62
     7
100
AcDbPolyline
 90
        8
 70
   128
 43
0.0
 10
-7.287787908438953
 20
-1273.503256158312
 10
-7.287743709065097
 20
-1273.503215596701
 10
-1.88304437648655
 20
-1267.965666608058
 10
2.975592853703023
 20
-1261.90587067955
 10
7.363878254710582
 20
-1255.452312679167
 10
11.35752209974298
 20
-1248.733477474897
 10
15.03223466200722
 20
-1241.877849934729
 10
16.27460193391491
 20
-1239.336689839326
  0
LWPOLYLINE
  5
625
330
A
100
AcDbEntity
  8
0
  6
Continuous
 62
     7
100
AcDbPolyline
 90
        9
 70
   128
 43
0.0
 10
34.86318430335833
 20
-1211.690802965162
 10
36.64247724173767
 20
-1210.51189732716
 10
40.11985261613978
 20
-1208.862609844289
 10
43.801051483163
 20
-1207.745359142385
 10
46.54183327319942
 20
-1207.316504492239
 10
49.31285176846156
 20
-1207.254185257705
 10
52.29129894267088
 20
-1207.683623140148
 10
55.14605204447494
 20
-1208.637124339291
 10
56.13448953644983
 20
-1209.171114853323
  0
LWPOLYLINE
  5
630
330
A
100
AcDbEntity
  8
0
  6
Continuous
 62
     7
100
AcDbPolyline
 90
        7
 70
   128
 43
0.0
 10
103.9220339223091
 20
-1224.620863125561
 10
107.3420353066833
 20
-1223.336710565363
 10
117.0866981367752
 20
-1218.892665463264
 10
124.2688608537168
 20
-1215.799880383352
 10
129.2225244102665
 20
-1214.222307589188
 10
134.3397816846495
 20
-1213.456385738581
 10
137.0897634614519
 20
-1213.579989368026
  0
LWPOLYLINE
  5
639
330
A
100
AcDbEntity
  8
0
  6
Continuous
 62
     7
100
AcDbPolyline
 90
        5
 70
   128
 43
0.0
 10
171.794911024162
 20
-1260.121328935454
 10
172.5453605234443
 20
-1261.27710131086
 10
177.015568336814
 20
-1267.021472062228
 10
180.9077388306425
 20
-1271.438263185457
 10
182.0588765929398
 20
-1272.808698944212
  0
LINE
  5
640
330
A
100
AcDbEntity
  8
0
  6
Continuous
 62
     7
100
AcDbLine
 10
181.8914315248787
 20
-1312.086399990519
 30
0.0
 11
172.4964380100655
 21
-1308.970173147504
 31
0.0
  0
LWPOLYLINE
  5
641
330
A
100
AcDbEntity
  8
0
  6
Continuous
 62
     7
100
AcDbPolyline
 90
        7
 70
   128
 43
0.0
 10
-7.287788644414872
 20
-1273.503255152659
 10
-6.959315293811219
 20
-1273.861130565635
 10
-5.905726527909049
 20
-1275.009027361566
 10
-4.245806395503065
 20
-1276.817528923995
 10
-2.166698059656635
 20
-1279.08274061814
 10
-0.9809682665075508
 20
-1280.374606388397
 10
-0.5277019987246224
 20
-1280.868445009449
  0
LWPOLYLINE
  5
64A
330
A
100
AcDbEntity
  8
0
  6
Continuous
 62
     7
100
AcDbPolyline
 90
        5
 70
   128
 43
0.0
 10
-94.809321979734
 20
-1437.976141078787
 10
-96.6553780402731
 20
-1437.053745975673
 10
-102.0689560928085
 20
-1433.005041251498
 10
-106.6648434386275
 20
-1428.044688907913
 10
-112.4784617521632
 20
-1420.220041254039
  0
LWPOLYLINE
  5
651
330
A
100
AcDbEntity
  8
0
  6
Continuous
 62
     7
100
AcDbPolyline
 90
        5
 70
   128
 43
0.0
 10
-123.4114032914347
 20
-1404.299757381515
 10
-129.1697441614485
 20
-1395.037531795014
 10
-132.5398530571703
 20
-1388.681858578089
 10
-135.3289984789656
 20
-1382.032766004718
 10
-135.6012053820828
 20
-1381.167924723844
  0
LINE
  5
658
330
A
100
AcDbEntity
  8
0
  6
Continuous
 62
     7
100
AcDbLine
 10
-137.7105616955069
 20
-1347.742462869038
 30
0.0
 11
-136.4832327860156
 21
-1343.762389527191
 31
0.0
  0
LWPOLYLINE
  5
659
330
A
100
AcDbEntity
  8
0
  6
Continuous
 62
     7
100
AcDbPolyline
 90
       11
 70
   128
 43
0.0
 10
-116.7947997970011
 20
-1308.43354327733
 10
-114.6970010699853
 20
-1305.516250273329
 10
-110.1950249184809
 20
-1300.542282820047
 10
-106.5209145922548
 20
-1297.485208075981
 10
-102.4672573231389
 20
-1294.912249005343
 10
-98.14691107514651
 20
-1292.856640273125
 10
-92.94420077913505
 20
-1291.130550557929
 10
-87.55860587167196
 20
-1290.000054172428
 10
-82.1000534221816
 20
-1289.380288018165
 10
-74.47279032040512
 20
-1289.141709009371
 10
-70.32807708866886
 20
-1289.240012730739
  0
LWPOLYLINE
  5
666
330
A
100
AcDbEntity
  8
0
  6
Continuous
 62
     7
100
AcDbPolyline
 90
        7
 70
   128
 43
0.0
 10
-49.71361093220819
 20
-1437.430024978714
 10
-49.8182699647576
 20
-1437.888371435247
 10
-50.38192863577164
 20
-1440.35687268645
 10
-51.04711850564445
 20
-1443.270022247295
 10
-51.56196546449608
 20
-1445.524756189383
 10
-51.86842463357185
 20
-1446.866871304958
 10
-51.91648058747976
 20
-1447.077080489988
  0
LWPOLYLINE
  5
66F
330
A
100
AcDbEntity
  8
0
  6
Continuous
 62
     7
100
AcDbPolyline
 90
        4
 70
   128
 43
0.0
 10
170.9126978096684
 20
-1331.545564892124
 10
168.8362084270858
 20
-1334.429098979619
 10
165.3293918007813
 20
-1339.589308300642
 10
162.631762266794
 20
-1344.354464088485
  0
LWPOLYLINE
  5
675
330
A
100
AcDbEntity
  8
0
  6
Continuous
 62
     7
100
AcDbPolyline
 90
       29
 70
   128
 43
0.0
 10
166.4452633070213
 20
-1384.263233345958
 10
167.9062418389344
 20
-1385.828223001156
 10
172.3875493079803
 20
-1389.711060138696
 10
177.1375759327115
 20
-1393.306873558184
 10
181.973382218176
 20
-1396.762333124453
 10
187.7581728609575
 20
-1401.093345978045
 10
191.0925897327626
 20
-1404.111860443295
 10
193.9309053930537
 20
-1407.57893200327
 10
195.4988541364705
 20
-1410.549593473942
 10
196.4852765220786
 20
-1413.762917309435
 10
196.9268980068777
 20
-1416.840522737828
 10
197.0547744713215
 20
-1419.951152131969
 10
196.6548669126642
 20
-1427.567876010646
 10
195.4641306802968
 20
-1439.736989142324
 10
193.8124212636927
 20
-1451.868484873554
 10
191.5213347857721
 20
-1463.876689118555
 10
188.4124673694553
 20
-1475.675927791548
 10
186.2356772896005
 20
-1482.45154686933
 10
183.7387484818855
 20
-1489.116324438197
 10
180.7263205555207
 20
-1495.5452991302
 10
178.8252721208696
 20
-1498.755719308476
 10
176.5351828643187
 20
-1501.689834433494
 10
173.4643799531516
 20
-1504.270745224516
 10
170.1810345069965
 20
-1505.62741015583
 10
168.8470745843722
 20
-1505.86963894742
 10
164.737479125026
 20
-1505.862740651175
 10
160.6829863004949
 20
-1505.055704577508
 10
155.7703639625793
 20
-1503.386092492101
 10
154.9304519579359
 20
-1503.011916725535
  0
LINE
  5
694
330
A
100
AcDbEntity
  8
0
  6
Continuous
 62
     7
100
AcDbLine
 10
111.3122508096108
 20
-1478.924548996048
 30
0.0
 11
111.3122167784824
 21
-1478.924490052405
 31
0.0
  0
LWPOLYLINE
  5
695
330
A
100
AcDbEntity
  8
0
  6
Continuous
 62
     7
100
AcDbPolyline
 90
       11
 70
   128
 43
0.0
 10
115.5847572973045
 20
-1469.982781705354
 10
115.1320389526662
 20
-1470.930242959281
 10
114.5483967905275
 20
-1472.151715768665
 10
114.1148009553895
 20
-1473.059157468226
 10
113.5756526173546
 20
-1474.187510202469
 10
113.1045677248932
 20
-1475.173412998391
 10
112.7634663476134
 20
-1475.887279579371
 10
112.3967976587805
 20
-1476.654656980634
 10
112.0701029612568
 20
-1477.338376548894
 10
111.7946878098556
 20
-1477.914775666469
 10
111.3122167784823
 20
-1478.924490052405
  0
LWPOLYLINE
  5
6A2
330
A
100
AcDbEntity
  8
0
  6
Continuous
 62
     7
100
AcDbPolyline
 90
        8
 70
   128
 43
0.0
 10
37.38634076232454
 20
-1536.53628648094
 10
36.90928909212259
 20
-1537.324674848089
 10
33.12269520147905
 20
-1542.17944891196
 10
28.96824878219976
 20
-1546.006053523613
 10
24.15619769111114
 20
-1548.94318313683
 10
19.47708827728926
 20
-1550.687772903359
 10
14.59293672857209
 20
-1551.768655247646
 10
13.14124615749749
 20
-1551.90288907238
  0
LWPOLYLINE
  5
6AC
330
A
100
AcDbEntity
  8
0
  6
Continuous
 62
     7
100
AcDbPolyline
 90
       32
 70
   128
 43
0.0
 10
62.29770020125688
 20
-1205.976091905799
 10
64.01245915922327
 20
-1205.806031684393
 10
68.11760829628207
 20
-1206.062057275596
 10
72.37781856339068
 20
-1206.707450790238
 10
81.29409253290047
 20
-1208.371290458437
 10
89.7224187148558
 20
-1209.685871230275
 10
98.01160954043218
 20
-1210.338884884839
 10
106.4424747489817
 20
-1210.082470254654
 10
114.9552054848303
 20
-1208.861313731133
 10
123.4049398122726
 20
-1206.670025197521
 10
131.7163814269367
 20
-1203.757390597289
 10
137.4884385783306
 20
-1201.702643239027
 10
143.2571644206939
 20
-1199.966264872487
 10
149.052756513988
 20
-1198.838287979645
 10
154.9054124181743
 20
-1198.608745042475
 10
160.8212748665448
 20
-1199.539553378069
 10
166.5809913174113
 20
-1201.62907251846
 10
171.8418921733695
 20
-1204.731529618331
 10
176.2656831343224
 20
-1208.699488940332
 10
179.751849924309
 20
-1213.377245342583
 10
182.5201610095285
 20
-1218.59795503702
 10
185.6512519725901
 20
-1226.499943651072
 10
188.5154061758419
 20
-1234.677591744904
 10
191.7440917483173
 20
-1242.684853505418
 10
193.7509503742773
 20
-1247.276842519106
 10
195.492105355231
 20
-1251.870902697147
 10
196.669007749412
 20
-1256.553270071382
 10
197.0358257692072
 20
-1261.386399797266
 10
196.3473627219259
 20
-1267.7887259523
 10
194.5505043748908
 20
-1274.141180634787
 10
191.8703731854309
 20
-1280.236105574361
 10
188.8316922193729
 20
-1285.363053000441
  0
LWPOLYLINE
  5
6CE
330
A
100
AcDbEntity
  8
0
  6
Continuous
 62
     7
100
AcDbPolyline
 90
       23
 70
   128
 43
0.0
 10
147.2694432531398
 20
-1541.204233207042
 10
144.3492445849237
 20
-1540.339130500893
 10
137.0032863981673
 20
-1537.492536245873
 10
130.2502824385191
 20
-1534.041340590736
 10
123.8959032782773
 20
-1530.183911912754
 10
117.7447025468396
 20
-1526.118380971019
 10
112.8386904693838
 20
-1522.849266457837
 10
107.8375583674289
 20
-1519.675213130323
 10
102.642254083458
 20
-1516.69916842017
 10
97.19719192103863
 20
-1514.088420144785
 10
91.50565127758797
 20
-1512.097390034684
 10
86.57980388584055
 20
-1511.099616211155
 10
81.49392677317846
 20
-1510.86269636524
 10
76.33958023785584
 20
-1511.467461351709
 10
71.33437227966021
 20
-1512.893619806223
 10
66.70601261851198
 20
-1515.112776223363
 10
62.68221097433162
 20
-1518.096535097709
 10
59.73977073224541
 20
-1521.399506046361
 10
57.23220147115528
 20
-1525.081378731097
 10
54.69270066541208
 20
-1528.814275737645
 10
51.65519731769046
 20
-1532.269256781117
 10
47.92949896418273
 20
-1535.189116567439
 10
46.80196274355332
 20
-1535.804878802028
  0
LINE
  5
6E7
330
A
100
AcDbEntity
  8
0
  6
Continuous
 62
     7
100
AcDbLine
 10
111.3122508096103
 20
-1478.924548996048
 30
0.0
 11
147.2694432531396
 21
-1541.204233207042
 31
0.0
  0
LWPOLYLINE
  5
6E8
330
A
100
AcDbEntity
  8
0
  6
Continuous
 62
     7
100
AcDbPolyline
 90
       20
 70
   128
 43
0.0
 10
197.5428637170534
 20
-1438.466791095187
 10
198.353759997253
 20
-1444.646679228515
 10
198.7219510961535
 20
-1454.58332899802
 10
198.0880474089704
 20
-1467.066875897927
 10
196.4713934653478
 20
-1479.217325706249
 10
194.0403964802369
 20
-1491.285737950557
 10
190.9452615184902
 20
-1503.596136761506
 10
188.880621334047
 20
-1511.060893358427
 10
186.6425722972153
 20
-1518.738042472012
 10
184.0041072536124
 20
-1526.234544221623
 10
182.1226920775553
 20
-1530.324316173708
 10
179.9120116614976
 20
-1534.018755493371
 10
177.3014161411
 20
-1537.194324791687
 10
174.2202556520229
 20
-1539.727486679732
 10
170.4730275700658
 20
-1541.584598694863
 10
166.2634064865242
 20
-1542.691789869852
 10
161.7148149572294
 20
-1543.128204556631
 10
156.950675538013
 20
-1542.972987107134
 10
152.0944107847062
 20
-1542.305281873294
 10
147.2694432531398
 20
-1541.204233207042
  0
LWPOLYLINE
  5
6FE
330
A
100
AcDbEntity
  8
0
  6
Continuous
 62
     7
100
AcDbPolyline
 90
        6
 70
   128
 43
0.0
 10
-97.61696102407766
 20
-1436.334597654278
 10
-102.3326776022461
 20
-1434.456762789809
 10
-106.3261043924594
 20
-1432.409981674459
 10
-110.1982087807617
 20
-1430.052631905443
 10
-113.7565432274115
 20
-1427.380673503336
 10
-115.4863403742222
 20
-1425.681222021499
  0
LWPOLYLINE
  5
706
330
A
100
AcDbEntity
  8
0
  6
Continuous
 62
     7
100
AcDbPolyline
 90
        6
 70
   128
 43
0.0
 10
-145.0363755748124
 20
-1348.104483005098
 10
-147.4419957370156
 20
-1345.400542068991
 10
-149.7629180709924
 20
-1342.166771124858
 10
-151.3124397460969
 20
-1338.61456009942
 10
-151.8682489924498
 20
-1334.702454812404
 10
-151.7669426226258
 20
-1333.496141700098
  0
LWPOLYLINE
  5
70E
330
A
100
AcDbEntity
  8
0
  6
Continuous
 62
     7
100
AcDbPolyline
 90
       15
 70
   128
 43
0.0
 10
-149.2210786708191
 20
-1323.993811939837
 10
-147.6129130624743
 20
-1320.924026355379
 10
-144.5022211517349
 20
-1317.049631817146
 10
-140.8582622482322
 20
-1313.833523721302
 10
-134.6806526186088
 20
-1309.80708938582
 10
-128.0442876540826
 20
-1306.139211844659
 10
-121.3938238232861
 20
-1302.156334950249
 10
-115.1336626293617
 20
-1297.28577207346
 10
-111.1447362304615
 20
-1293.844163006675
 10
-107.1446195609755
 20
-1290.797143381506
 10
-102.9939852806233
 20
-1288.624397514595
 10
-99.70047699799431
 20
-1287.850454858372
 10
-96.23956624917033
 20
-1287.863775166077
 10
-92.65681962248477
 20
-1288.527872152955
 10
-89.24828664153015
 20
-1289.619053672839
  0
LINE
  5
71F
330
A
100
AcDbEntity
  8
0
  6
Continuous
 62
     7
100
AcDbLine
 10
305.2122114573255
 20
-1456.642640322158
 30
0.0
 11
305.2122120918188
 21
-1456.642639223183
 31
0.0
  0
LWPOLYLINE
  5
720
330
A
100
AcDbEntity
  8
0
  6
Continuous
 62
     7
100
AcDbPolyline
 90
        8
 70
   128
 43
0.0
 10
305.2122120918188
 20
-1456.642639223183
 10
305.2121548647459
 20
-1456.642621226208
 10
297.7141470995909
 20
-1454.730788798699
 10
290.0368912686588
 20
-1453.552983493836
 10
282.2538033950268
 20
-1452.979395857699
 10
274.4382995017716
 20
-1452.880216436369
 10
266.6637956119704
 20
-1453.125635775926
 10
263.8419027783148
 20
-1453.320294205325
  0
LWPOLYLINE
  5
72A
330
A
100
AcDbEntity
  8
0
  6
Continuous
 62
     7
100
AcDbPolyline
 90
        9
 70
   128
 43
0.0
 10
230.6055712504156
 20
-1451.04505309013
 10
228.6949625500514
 20
-1450.093593023721
 10
225.5279500045402
 20
-1447.90674135243
 10
222.7197830807834
 20
-1445.277354968157
 10
220.9779931642082
 20
-1443.118195636829
 10
219.5385138763264
 20
-1440.749582842842
 10
218.4211944047644
 20
-1437.955452984925
 10
217.8195741148595
 20
-1435.006413677659
 10
217.7878047194036
 20
-1433.88340644254
  0
LWPOLYLINE
  5
735
330
A
100
AcDbEntity
  8
0
  6
Continuous
 62
     7
100
AcDbPolyline
 90
        3
 70
   128
 43
0.0
 10
207.2739070123055
 20
-1384.773304883791
 10
204.4517975806524
 20
-1382.453573084044
 10
204.3619247521258
 20
-1382.38950366057
  0
LWPOLYLINE
  5
73A
330
A
100
AcDbEntity
  8
0
  6
Continuous
 62
     7
100
AcDbPolyline
 90
        5
 70
   128
 43
0.0
 10
204.0817736989269
 20
-1308.2434361807
 10
204.707477187379
 20
-1307.015641662362
 10
207.4471442801352
 20
-1300.272142760104
 10
209.3261123491466
 20
-1294.693028674974
 10
209.9373756493344
 20
-1293.010896250191
  0
LINE
  5
741
330
A
100
AcDbEntity
  8
0
  6
Continuous
 62
     7
100
AcDbLine
 10
244.0365850917175
 20
-1273.517057409716
 30
0.0
 11
246.0353502391182
 21
-1283.211473883442
 31
0.0
  0
LWPOLYLINE
  5
742
330
A
100
AcDbEntity
  8
0
  6
Continuous
 62
     7
100
AcDbPolyline
 90
        7
 70
   128
 43
0.0
 10
305.2122115888861
 20
-1456.642640363383
 10
305.3579041126115
 20
-1456.179236390806
 10
305.8252175158587
 20
-1454.692853356428
 10
306.5614657455034
 20
-1452.351069572296
 10
307.483642449659
 20
-1449.417903089161
 10
308.0095661284061
 20
-1447.745098081141
 10
308.2106097857157
 20
-1447.105638668037
  0
LWPOLYLINE
  5
74B
330
A
100
AcDbEntity
  8
0
  6
Continuous
 62
     7
100
AcDbPolyline
 90
        5
 70
   128
 43
0.0
 10
491.4106757023124
 20
-1450.202068646869
 10
491.534886140958
 20
-1452.261997643663
 10
490.7353940236681
 20
-1458.974646124616
 10
488.7375465553125
 20
-1465.434977490819
 10
484.8680120681628
 20
-1474.382042465185
  0
LWPOLYLINE
  5
752
330
A
100
AcDbEntity
  8
0
  6
Continuous
 62
     7
100
AcDbPolyline
 90
       10
 70
   128
 43
0.0
 10
476.5471125687334
 20
-1491.810389512546
 10
471.4049603502483
 20
-1501.428371782879
 10
467.5858403341
 20
-1507.524808308557
 10
463.2221299643436
 20
-1513.264825385366
 10
458.358708140718
 20
-1518.566980988459
 10
453.6138032201726
 20
-1522.836382439259
 10
448.4314318934865
 20
-1526.586612825203
 10
442.8531734809463
 20
-1529.655491314901
 10
436.2692113031358
 20
-1532.117971125241
 10
430.6561288759365
 20
-1533.399609855955
  0
LWPOLYLINE
  5
75E
330
A
100
AcDbEntity
  8
0
  6
Continuous
 62
     7
100
AcDbPolyline
 90
       11
 70
   128
 43
0.0
 10
390.2162340426546
 20
-1534.013349851692
 10
386.6408848273994
 20
-1533.65524936407
 10
380.082314579508
 20
-1532.243407376277
 10
375.5977550267664
 20
-1530.590071869491
 10
371.3426784741378
 20
-1528.36598123152
 10
367.4022959677998
 20
-1525.652255993723
 10
363.306103277223
 20
-1522.009621566444
 10
359.6342672347609
 20
-1517.91080775484
 10
356.3682577760181
 20
-1513.493445742823
 10
352.3480107427052
 20
-1507.007331639734
 10
350.3607876468282
 20
-1503.368752828964
  0
LWPOLYLINE
  5
76B
330
A
100
AcDbEntity
  8
0
  6
Continuous
 62
     7
100
AcDbPolyline
 90
        7
 70
   128
 43
0.0
 10
468.3898697624698
 20
-1411.421095328026
 10
468.8391389538361
 20
-1411.282559480683
 10
471.2587530821585
 20
-1410.536451583243
 10
474.1142095418108
 20
-1409.65594812847
 10
476.3242898938595
 20
-1408.974451702853
 10
477.6398252632887
 20
-1408.568795570707
 10
477.8458997345872
 20
-1408.50530865508
  0
LWPOLYLINE
  5
774
330
A
100
AcDbEntity
  8
0
  6
Continuous
 62
     7
100
AcDbPolyline
 90
       39
 70
   128
 43
0.0
 10
266.3780830905428
 20
-1273.29533725767
 10
269.9135415542827
 20
-1273.651862769928
 10
276.1358222282866
 20
-1274.10875039421
 10
282.3795866613492
 20
-1274.055883739735
 10
288.5441887465589
 20
-1273.276157788746
 10
295.0136866303582
 20
-1271.484565391457
 10
301.0986611580173
 20
-1268.673425957489
 10
305.0376408352365
 20
-1265.97786098891
 10
308.4543157074778
 20
-1262.657793336435
 10
311.1572915966129
 20
-1258.735519517358
 10
313.168071132374
 20
-1254.405719054454
 10
314.8914719832764
 20
-1248.757675449169
 10
316.0134538486209
 20
-1242.935330770036
 10
316.7525063048003
 20
-1237.023780334622
 10
317.3271189282073
 20
-1231.108119460495
 10
318.1854907621437
 20
-1223.932837381475
 10
319.1323925348384
 20
-1219.53589043106
 10
320.7158067523703
 20
-1215.344301185301
 10
322.5045006803073
 20
-1212.501087006334
 10
324.7941095596256
 20
-1210.04015824379
 10
327.2385833010401
 20
-1208.118900104899
 10
329.8685291459029
 20
-1206.452841141075
 10
336.6647592977765
 20
-1202.990809306699
 10
347.7988885275205
 20
-1197.937460567296
 10
359.1309267249697
 20
-1193.302135016131
 10
370.6758798939329
 20
-1189.282171985776
 10
382.4487540382191
 20
-1186.074910808808
 10
389.4050073258726
 20
-1184.572256777776
 10
396.4253384149415
 20
-1183.402271772265
 10
403.4992077816855
 20
-1182.796623537565
 10
407.2300374302201
 20
-1182.83776968666
 10
410.9161002943893
 20
-1183.353987597258
 10
414.6866360598997
 20
-1184.722925532832
 10
417.5032150779189
 20
-1186.888053632945
 10
418.3799713262754
 20
-1187.922182417774
 10
420.4287949561581
 20
-1191.484645632967
 10
421.757127626857
 20
-1195.399457455306
 10
422.7675123153875
 20
-1200.488719241843
 10
422.8634225983817
 20
-1201.403192258091
  0
LINE
  5
79D
330
A
100
AcDbEntity
  8
0
  6
Continuous
 62
     7
100
AcDbLine
 10
423.8122508085127
 20
-1251.221346384664
 30
0.0
 11
423.8122167773843
 21
-1251.221405328307
 31
0.0
  0
LWPOLYLINE
  5
79E
330
A
100
AcDbEntity
  8
0
  6
Continuous
 62
     7
100
AcDbPolyline
 90
       11
 70
   128
 43
0.0
 10
413.9321999361952
 20
-1251.992130873835
 10
414.9790846235168
 20
-1251.910465834087
 10
416.3287321875454
 20
-1251.805178368526
 10
417.3313976693867
 20
-1251.726962526951
 10
418.5781539706891
 20
-1251.629702316975
 10
419.6675132838503
 20
-1251.544722403225
 10
420.4562905665313
 20
-1251.483191570725
 10
421.3041932347318
 20
-1251.417047269395
 10
422.0596590986714
 20
-1251.358113392603
 10
422.6965429529101
 20
-1251.308430351516
 10
423.8122167773842
 20
-1251.221405328307
  0
LWPOLYLINE
  5
7AB
330
A
100
AcDbEntity
  8
0
  6
Continuous
 62
     7
100
AcDbPolyline
 90
        8
 70
   128
 43
0.0
 10
510.6684340502332
 20
-1286.437193741049
 10
511.5897242393327
 20
-1286.456138422788
 10
517.687378853601
 20
-1287.308037893964
 10
523.0785388671708
 20
-1288.992591725895
 10
528.0281932719683
 20
-1291.691385408478
 10
531.8786070358759
 20
-1294.87131814467
 10
535.2567543788896
 20
-1298.560676289648
 10
536.0988495666936
 20
-1299.750760290266
  0
LWPOLYLINE
  5
7B5
330
A
100
AcDbEntity
  8
0
  6
Continuous
 62
     7
100
AcDbPolyline
 90
        9
 70
   128
 43
0.0
 10
211.9392283487703
 20
-1430.143420911703
 10
210.9345723978766
 20
-1428.743426203439
 10
209.1037224953482
 20
-1425.060249968821
 10
207.5325445409115
 20
-1421.048102894721
 10
204.5153349766405
 20
-1412.494463295924
 10
201.4396322294014
 20
-1404.538028325051
 10
197.8605632304834
 20
-1397.032871666003
 10
193.4230690425669
 20
-1389.859735534608
 10
188.1807131811959
 20
-1383.189131457703
  0
LWPOLYLINE
  5
7C0
330
A
100
AcDbEntity
  8
0
  6
Continuous
 62
     7
100
AcDbPolyline
 90
        6
 70
   128
 43
0.0
 10
188.8337635857351
 20
-1288.295211475268
 10
192.5568998303216
 20
-1285.751627365826
 10
198.4457084475346
 20
-1283.146690776822
 10
204.8455247524752
 20
-1281.526588411113
 10
211.4639501790354
 20
-1280.800187636873
 10
217.4233573769185
 20
-1280.868288834436
  0
LWPOLYLINE
  5
7C8
330
A
100
AcDbEntity
  8
0
  6
Continuous
 62
     7
100
AcDbPolyline
 90
       23
 70
   128
 43
0.0
 10
459.7694432531413
 20
-1188.941662174302
 10
460.4803416668418
 20
-1191.90317975815
 10
461.6880978211062
 20
-1199.688263290529
 10
462.0757766901505
 20
-1207.26213409901
 10
461.9123350418532
 20
-1214.693902216049
 10
461.4670823321581
 20
-1222.053763784118
 10
461.0889521545895
 20
-1227.93705213106
 10
460.8407073909734
 20
-1233.855186242792
 10
460.8610292111684
 20
-1239.842474088177
 10
461.3225859630084
 20
-1245.86341038371
 10
462.4440736296863
 20
-1251.78794422266
 10
464.0428998471532
 20
-1256.552740110843
 10
466.3806597982616
 20
-1261.075698813892
 10
469.4815749075234
 20
-1265.237111360155
 10
473.2192683380528
 20
-1268.85866937592
 10
477.4552940008417
 20
-1271.757368211755
 10
482.0512058068826
 20
-1273.750203218232
 10
486.3828826774206
 20
-1274.64694574267
 10
490.8252625864466
 20
-1274.977628082155
 10
495.3277966267
 20
-1275.310451789585
 10
499.8386496538009
 20
-1276.213516331057
 10
504.2301715809986
 20
-1277.980135858871
 10
505.3272054291581
 20
-1278.648729752329
  0
LINE
  5
7E1
330
A
100
AcDbEntity
  8
0
  6
Continuous
 62
     7
100
AcDbLine
 10
423.8122508085123
 20
-1251.221346384664
 30
0.0
 11
459.7694432531413
 21
-1188.941662174303
 31
0.0
  0
LWPOLYLINE
  5
7E2
330
A
100
AcDbEntity
  8
0
  6
Continuous
 62
     7
100
AcDbPolyline
 90
       20
 70
   128
 43
0.0
 10
345.6594982324848
 20
-1196.772323973346
 10
350.6059902083929
 20
-1192.980123128195
 10
359.0272857878432
 20
-1187.692935398347
 10
370.1553063760887
 20
-1182.000138645046
 10
381.4862315493146
 20
-1177.324977125191
 10
393.1532816287835
 20
-1173.396076148666
 10
405.3619672106568
 20
-1169.921342248205
 10
412.8589561488791
 20
-1167.976994799147
 10
420.626586828301
 20
-1166.076627563166
 10
428.4379803047794
 20
-1164.613354443118
 10
432.9205342989989
 20
-1164.197821804606
 10
437.2253528105958
 20
-1164.265107544729
 10
441.280774254614
 20
-1164.938164935241
 10
445.0151370460979
 20
-1166.339947247897
 10
448.4970572698535
 20
-1168.65658595308
 10
451.5607234960107
 20
-1171.748629164239
 10
454.2129654659938
 20
-1175.469617636657
 10
456.4606129212271
 20
-1179.673092125618
 10
458.3104956031347
 20
-1184.212593386405
 10
459.7694432531413
 20
-1188.941662174302
  0
LWPOLYLINE
  5
7F8
330
A
100
AcDbEntity
  8
0
  6
Continuous
 62
     7
100
AcDbPolyline
 90
        9
 70
   128
 43
0.0
 10
491.3928769174447
 20
-1453.454327096177
 10
492.1244825097863
 20
-1458.477174882157
 10
492.3486314630143
 20
-1462.95897448831
 10
492.243158871592
 20
-1467.490990139193
 10
491.7083422408373
 20
-1471.908577366206
 10
490.6401838961261
 20
-1476.040922233766
 10
488.9346861628346
 20
-1479.717210806289
 10
486.4913943783307
 20
-1482.770901972269
 10
486.0059902114817
 20
-1483.129990445732
  0
LWPOLYLINE
  5
803
330
A
100
AcDbEntity
  8
0
  6
Continuous
 62
     7
100
AcDbPolyline
 90
       23
 70
   128
 43
0.0
 10
441.6399419909288
 20
-1530.109254257147
 10
441.2530831937719
 20
-1531.03578357503
 10
438.8427635087356
 20
-1538.184246142106
 10
437.5541920679103
 20
-1542.071100694671
 10
435.9141254472596
 20
-1545.697963868172
 10
433.6125812971791
 20
-1548.815994515246
 10
430.5025033595208
 20
-1551.253392085754
 10
426.7846749523222
 20
-1553.002834097172
 10
421.6567621143487
 20
-1554.243264618143
 10
416.442366326523
 20
-1554.457377297271
 10
411.5316962767598
 20
-1553.700636348341
 10
406.9244855126903
 20
-1552.152929415483
 10
400.3486862766811
 20
-1548.816179709307
 10
393.8540286658029
 20
-1544.902857831823
 10
387.0795241796992
 20
-1541.134825654609
 10
379.7314124007081
 20
-1538.148648467279
 10
374.7564283195273
 20
-1536.414941405397
 10
370.1175735835584
 20
-1534.474248564106
 10
366.1606033266691
 20
-1531.966066768958
 10
363.8435951839933
 20
-1529.500776256738
 10
362.1246755344399
 20
-1526.496879474174
 10
360.9084270823107
 20
-1523.062081386702
 10
360.1491515081925
 20
-1519.564614475616
  0
LINE
  5
81C
330
A
100
AcDbEntity
  8
0
  6
Continuous
 62
     7
100
AcDbLine
 10
-41.70652539017358
 20
-1342.998226275244
 30
0.0
 11
-221.9044087552769
 21
-1351.903074709595
 31
0.0
  0
LINE
  5
81D
330
A
100
AcDbEntity
  8
0
  6
Continuous
 62
     7
100
AcDbLine
 10
315.3849131260683
 20
-1351.903074709595
 30
0.0
 11
135.187029760965
 21
-1342.998226275244
 31
0.0
  0
LINE
  5
81E
330
A
100
AcDbEntity
  8
0
  6
Continuous
 62
     7
100
AcDbLine
 10
135.1870297609675
 20
-1385.807923143947
 30
0.0
 11
315.3849131260683
 21
-1376.903074709595
 31
0.0
  0
LINE
  5
81F
330
A
100
AcDbEntity
  8
0
  6
Continuous
 62
     7
100
AcDbLine
 10
-221.9044087552769
 20
-1376.903074709595
 30
0.0
 11
-41.70652539017611
 21
-1385.807923143947
 31
0.0
  0
ARC
  5
820
330
A
100
AcDbEntity
  8
0
  6
Continuous
 62
     7
100
AcDbCircle
 10
-257.2597478146043
 20
-1364.403074709595
 30
0.0
 40
37.49999999999998
100
AcDbArc
 50
19.47122063449073
 51
340.5287793655101
  0
ARC
  5
821
330
A
100
AcDbEntity
  8
0
  6
Continuous
 62
     7
100
AcDbCircle
 10
350.7402521853957
 20
-1364.403074709595
 30
0.0
 40
37.50000000000006
100
AcDbArc
 50
199.4712206344914
 51
160.5287793655093
  0
LWPOLYLINE
  5
822
330
A
100
AcDbEntity
  8
0
  6
PHANTOM
 62
     7
100
AcDbPolyline
 90
       12
 70
   128
 43
0.0
 10
-123.2547223300782
 20
-1445.574684753494
 10
-125.4851774121277
 20
-1447.057742841459
 10
-128.9070178878597
 20
-1448.77235448445
 10
-132.4215886250472
 20
-1450.293359781234
 10
-138.7409809426185
 20
-1453.272407368558
 10
-144.7264647259155
 20
-1456.894110857005
 10
-150.0724853452614
 20
-1461.32304268283
 10
-153.3886658706213
 20
-1465.110335176138
 10
-156.0705117183233
 20
-1469.360983378
 10
-157.965239459082
 20
-1474.076209990251
 10
-159.1417377372366
 20
-1479.062547681107
 10
-159.3309335218559
 20
-1480.515364571612
  0
LWPOLYLINE
  5
830
330
A
100
AcDbEntity
  8
0
  6
PHANTOM
 62
     7
100
AcDbPolyline
 90
       13
 70
   128
 43
0.0
 10
-165.1537264353823
 20
-1514.984107786266
 10
-165.3462776352409
 20
-1515.310037450483
 10
-167.3855888518979
 20
-1517.682440864788
 10
-170.0677660386317
 20
-1519.846692914397
 10
-173.0529818468375
 20
-1521.582341959494
 10
-177.6610790695647
 20
-1523.392557098667
 10
-182.4996837301316
 20
-1524.467084614809
 10
-189.1842153003216
 20
-1524.929051033647
 10
-195.9116327299204
 20
-1524.623754370661
 10
-202.6530448970395
 20
-1523.960801070542
 10
-209.3795606797911
 20
-1523.34979757798
 10
-216.6506822152345
 20
-1523.262243634533
 10
-222.5403700378536
 20
-1523.777098865705
  0
LWPOLYLINE
  5
83F
330
A
100
AcDbEntity
  8
0
  6
PHANTOM
 62
     7
100
AcDbPolyline
 90
       52
 70
   128
 43
0.0
 10
-266.0006864192319
 20
-1501.463367196686
 10
-261.6191821485968
 20
-1505.857702024864
 10
-257.2222629214028
 20
-1510.237254850338
 10
-253.9896282760389
 20
-1513.65876785965
 10
-250.5338597967743
 20
-1516.831820938157
 10
-248.7334929504052
 20
-1517.944029384051
 10
-247.0638788808957
 20
-1518.165477851203
 10
-244.2081821298224
 20
-1517.884057086035
 10
-238.6833169276086
 20
-1516.691395772251
 10
-233.1829538254855
 20
-1515.370185361062
 10
-225.0924162766128
 20
-1513.97293213198
 10
-216.8977188052109
 20
-1513.285249969208
 10
-208.6983257160687
 20
-1513.406955515512
 10
-202.5070457560128
 20
-1514.00269018802
 10
-196.3037948422893
 20
-1514.672321439383
 10
-190.1136623341478
 20
-1515.00912960177
 10
-183.9617375908378
 20
-1514.60639500735
 10
-180.6481133465931
 20
-1513.879168288418
 10
-177.4927491480872
 20
-1512.647822652047
 10
-175.8257035419033
 20
-1511.69427183085
 10
-174.3274623795144
 20
-1510.501667832485
 10
-172.7646417501329
 20
-1508.283746657773
 10
-171.6155393772382
 20
-1504.90038827469
 10
-171.0139765610909
 20
-1501.355134524392
 10
-170.4380424688679
 20
-1494.281491748907
 10
-169.7556311336642
 20
-1483.20675052292
 10
-168.8905918699851
 20
-1476.876258835413
 10
-167.3492802033061
 20
-1470.665008368683
 10
-164.9388884776833
 20
-1464.786830425155
 10
-161.4296342158165
 20
-1459.213329480082
 10
-157.0942484100806
 20
-1454.245682149101
 10
-152.4576464830885
 20
-1450.212040155498
 10
-147.3596459809223
 20
-1446.720161161614
 10
-141.9391927932747
 20
-1443.707596168859
 10
-136.3352328098381
 20
-1441.111896178638
 10
-133.6283302126238
 20
-1439.973817436186
 10
-130.9787334419233
 20
-1438.713278428071
 10
-128.5385128113174
 20
-1437.127513583888
 10
-126.9419497984018
 20
-1435.319430984741
 10
-125.8360034567754
 20
-1432.661329776009
 10
-125.3851376886071
 20
-1430.342975832022
 10
-125.2806258538497
 20
-1427.981454763093
 10
-125.5089685115563
 20
-1425.635538257399
 10
-126.0500719682955
 20
-1423.340017067451
 10
-128.1401332604826
 20
-1418.176485450528
 10
-130.9639430230883
 20
-1413.342227520366
 10
-134.2420473480088
 20
-1408.719356623421
 10
-137.6949923271405
 20
-1404.189986106146
 10
-141.0433240523799
 20
-1399.636229314997
 10
-145.7576587807717
 20
-1392.580983258435
 10
-150.1567418212412
 20
-1385.280106940497
 10
-152.7409501411005
 20
-1380.320929040919
  0
LWPOLYLINE
  5
875
330
A
100
AcDbEntity
  8
0
  6
PHANTOM
 62
     7
100
AcDbPolyline
 90
        4
 70
   128
 43
0.0
 10
-230.4408781236463
 20
-1197.616815986746
 10
-226.9046545041601
 20
-1197.081261094081
 10
-213.6574335997185
 20
-1195.600453478045
 10
-211.2513966504819
 20
-1195.437722121408
  0
LWPOLYLINE
  5
87B
330
A
100
AcDbEntity
  8
0
  6
PHANTOM
 62
     7
100
AcDbPolyline
 90
        7
 70
   128
 43
0.0
 10
-151.6632212041996
 20
-1212.316554428418
 10
-150.7379850544615
 20
-1213.246261881659
 10
-146.3229925370336
 20
-1218.751069533817
 10
-140.1703927526165
 20
-1228.036373209067
 10
-134.4595306470314
 20
-1237.61259960209
 10
-131.1071267636795
 20
-1243.462787789538
 10
-129.7128608535588
 20
-1246.286297603578
  0
LWPOLYLINE
  5
884
330
A
100
AcDbEntity
  8
0
  6
PHANTOM
 62
     7
100
AcDbPolyline
 90
       41
 70
   128
 43
0.0
 10
-162.1177882276447
 20
-1348.948596087214
 10
-162.4986290103117
 20
-1344.922972584587
 10
-162.3469690010168
 20
-1337.440722284404
 10
-161.3323535710038
 20
-1330.00220212189
 10
-159.4294593902419
 20
-1322.77127697149
 10
-156.4977814159384
 20
-1315.366383570286
 10
-152.9240401126697
 20
-1308.224324790206
 10
-148.9786617676331
 20
-1301.249970418612
 10
-144.9320726680254
 20
-1294.348190242868
 10
-141.4541022676893
 20
-1288.171587939366
 10
-138.3220983154692
 20
-1281.818612587002
 10
-136.6768916535529
 20
-1277.67803072666
 10
-135.4143879363298
 20
-1273.398728980968
 10
-134.6576122781466
 20
-1269.02127440193
 10
-134.5718527479864
 20
-1263.726244491135
 10
-135.4713998529619
 20
-1258.514441076074
 10
-137.4768602633685
 20
-1253.029039968421
 10
-140.116219023209
 20
-1247.782261158628
 10
-143.0547033614919
 20
-1242.695231200702
 10
-148.5041929122805
 20
-1233.525830370382
 10
-154.3847139684387
 20
-1224.640353124217
 10
-158.0370284671191
 20
-1220.067481744397
 10
-162.1521281660941
 20
-1215.892086830352
 10
-166.7652548807471
 20
-1212.332262604234
 10
-171.322492138577
 20
-1209.797963546884
 10
-176.1840597577716
 20
-1207.843211910569
 10
-181.212564524003
 20
-1206.409282999443
 10
-190.5095519455085
 20
-1204.90778855495
 10
-199.9270333804179
 20
-1204.691396670949
 10
-212.8058026221509
 20
-1205.565905363909
 10
-225.641200362607
 20
-1207.002132525371
 10
-238.4073171786298
 20
-1208.933944215185
 10
-243.1810166429108
 20
-1210.191932248919
 10
-247.6474464523708
 20
-1212.289408750578
 10
-252.4429053463115
 20
-1215.723282638089
 10
-256.7109519387092
 20
-1219.813147956825
 10
-262.0584252697875
 20
-1226.362924137816
 10
-266.8252593723252
 20
-1233.366119267303
 10
-270.7697611947233
 20
-1239.30652634993
 10
-275.1027044289571
 20
-1244.955291979632
 10
-275.1027044289571
 20
-1244.955291979632
  0
LWPOLYLINE
  5
8AF
330
A
100
AcDbEntity
  8
0
  6
PHANTOM
 62
     7
100
AcDbPolyline
 90
        8
 70
   128
 43
0.0
 10
-429.0826459018356
 20
-1394.856441492522
 10
-425.7121716631099
 20
-1392.224339976637
 10
-416.271494366719
 20
-1385.856640922235
 10
-406.5245199147699
 20
-1379.936442894122
 10
-396.777654884621
 20
-1374.017164770282
 10
-387.3373058536311
 20
-1367.652225428703
 10
-387.3372574877641
 20
-1367.652189955132
 10
-387.3372574877641
 20
-1367.652189955132
  0
LWPOLYLINE
  5
8B9
330
A
100
AcDbEntity
  8
0
  6
PHANTOM
 62
     7
100
AcDbPolyline
 90
       45
 70
   128
 43
0.0
 10
-381.4479658803332
 20
-1375.622494737947
 10
-390.8741430835171
 20
-1382.018906130762
 10
-400.6131031855563
 20
-1387.961651502402
 10
-410.3565242951278
 20
-1393.898341864739
 10
-419.7960845209082
 20
-1400.276588229644
 10
-423.1790857111615
 20
-1402.902366053565
 10
-426.3031865802193
 20
-1405.820310219544
 10
-427.7245320307881
 20
-1407.465988637234
 10
-428.7892817174273
 20
-1409.334088154104
 10
-428.882103995681
 20
-1409.620561158447
 10
-428.9225655176646
 20
-1410.001604484446
 10
-428.6245297227386
 20
-1411.259435804977
 10
-427.6098317979247
 20
-1413.475228152551
 10
-426.3155188979996
 20
-1415.550874120843
 10
-422.4254796179867
 20
-1420.711805632286
 10
-418.1179445640776
 20
-1425.552434856838
 10
-413.5922730633656
 20
-1430.189810327762
 10
-405.0200486297029
 20
-1438.105664723365
 10
-395.8992666102998
 20
-1445.418257362549
 10
-386.3874542969404
 20
-1452.246519908699
 10
-376.6421389814087
 20
-1458.709384025201
 10
-370.850064810684
 20
-1462.202415489667
 10
-366.9996166803637
 20
-1463.845028733877
 10
-364.091021755371
 20
-1464.144202799564
 10
-361.174631971795
 20
-1463.522446864226
 10
-358.3670553254059
 20
-1462.468103829377
 10
-352.4313492288008
 20
-1459.669246378124
 10
-346.5050065729203
 20
-1456.743862066439
 10
-340.4757931929419
 20
-1454.000585353636
 10
-334.3049371257586
 20
-1451.67137966383
 10
-327.9536664082635
 20
-1449.988208421133
 10
-321.5301615087645
 20
-1449.211774587941
 10
-315.0779777111428
 20
-1449.523936625911
 10
-308.7776392536841
 20
-1451.054470858949
 10
-302.8211860633401
 20
-1453.637841240571
 10
-298.0805081463101
 20
-1456.536579697796
 10
-293.6827038937536
 20
-1459.96616798379
 10
-289.672845918007
 20
-1463.822997245096
 10
-285.0972930704382
 20
-1469.399386560875
 10
-281.1739222942165
 20
-1475.49121612912
 10
-277.7811646491313
 20
-1481.8858794517
 10
-275.2683358939474
 20
-1487.056688929203
 10
-272.6088941634543
 20
-1492.175183968938
 10
-269.5904681183248
 20
-1497.0433986863
 10
-266.0006864192317
 20
-1501.463367196686
  0
LWPOLYLINE
  5
8E8
330
A
100
AcDbEntity
  8
0
  6
PHANTOM
 62
     7
100
AcDbPolyline
 90
       51
 70
   128
 43
0.0
 10
-275.1027044289571
 20
-1244.955291979632
 10
-277.5242390025135
 20
-1247.538565516364
 10
-280.1707172538181
 20
-1249.887379153516
 10
-283.7930003594693
 20
-1252.348628064958
 10
-287.7646598406975
 20
-1254.180736259992
 10
-292.0115712558783
 20
-1255.270109066046
 10
-296.3843627938789
 20
-1255.650871728323
 10
-302.6619008802297
 20
-1255.126193271302
 10
-308.8010920880587
 20
-1253.645677879235
 10
-316.9613508307643
 20
-1250.641701237353
 10
-324.8399999096548
 20
-1246.923191588134
 10
-332.535223580216
 20
-1242.75324967352
 10
-340.1452060979342
 20
-1238.394976235455
 10
-347.7681317182955
 20
-1234.111472015883
 10
-358.2517451371095
 20
-1228.762812797571
 10
-362.5372327779089
 20
-1226.90060518986
 10
-366.9384484486203
 20
-1225.341272814362
 10
-370.2122868909339
 20
-1224.496002835289
 10
-373.5573543923634
 20
-1224.063592410711
 10
-375.3806061151227
 20
-1224.091150888585
 10
-377.1676194916925
 20
-1224.417715132006
 10
-378.8590783053439
 20
-1225.118427651182
 10
-380.4156224228226
 20
-1226.094275406052
 10
-383.7343522824436
 20
-1229.073316701318
 10
-386.5747719304236
 20
-1232.537898713611
 10
-391.2287689679851
 20
-1239.705733397548
 10
-394.2966965700233
 20
-1245.362840221535
 10
-396.7878318097802
 20
-1251.282810785323
 10
-397.7671701853353
 20
-1254.755587123264
 10
-398.2553206309138
 20
-1258.322416210987
 10
-398.0206786385328
 20
-1261.977329647189
 10
-397.0762356143191
 20
-1265.526215649514
 10
-394.9493399018002
 20
-1270.241800846542
 10
-392.248822601884
 20
-1274.688645452971
 10
-389.2264791355934
 20
-1278.921838153752
 10
-382.650855967832
 20
-1287.151621657408
 10
-375.9174170675197
 20
-1295.259865618457
 10
-369.5989695747372
 20
-1303.673083606986
 10
-366.0102842059042
 20
-1309.384018778116
 10
-362.9044638792043
 20
-1315.380762916231
 10
-360.4306443284967
 20
-1321.641260019301
 10
-358.6442302928271
 20
-1328.730004289164
 10
-358.0073237000456
 20
-1336.002312112672
 10
-358.3348404635557
 20
-1340.888928796365
 10
-359.2620188665595
 20
-1345.71849393371
 10
-360.7379097937843
 20
-1350.393115245475
 10
-363.6491861747713
 20
-1356.586215944856
 10
-367.4279188429222
 20
-1362.295311081249
 10
-371.6560000994432
 20
-1367.171637025727
 10
-376.3812621524948
 20
-1371.600473906349
 10
-381.4479658803332
 20
-1375.622494737947
  0
LWPOLYLINE
  5
91D
330
A
100
AcDbEntity
  8
0
  6
PHANTOM
 62
     7
100
AcDbPolyline
 90
       19
 70
   128
 43
0.0
 10
-387.337189466969
 20
-1367.652187579793
 10
-387.3371411061078
 20
-1367.6521520996
 10
-382.9696093944587
 20
-1364.226584626487
 10
-378.8852733557445
 20
-1360.460215979214
 10
-375.2311445867454
 20
-1356.301958523997
 10
-372.2198165034827
 20
-1351.80276804707
 10
-369.898739132574
 20
-1346.914514687451
 10
-368.3548781202008
 20
-1341.539339810107
 10
-367.8044433279558
 20
-1335.98083594416
 10
-368.3364426708077
 20
-1330.279366925658
 10
-369.7766040101241
 20
-1324.726963820686
 10
-371.9482899359519
 20
-1319.330562779531
 10
-374.6709762704411
 20
-1314.167911703202
 10
-377.8003953291025
 20
-1309.248791303899
 10
-384.0609186192962
 20
-1300.977630615967
 10
-390.7264122352212
 20
-1293.005583798388
 10
-397.2254409207433
 20
-1284.903260902761
 10
-400.8004669789541
 20
-1279.855784312327
 10
-403.4992899002026
 20
-1275.332413197132
  0
LWPOLYLINE
  5
932
330
A
100
AcDbEntity
  8
0
  6
PHANTOM
 62
     7
100
AcDbPolyline
 90
       12
 70
   128
 43
0.0
 10
56.13448953644983
 20
-1209.171114853323
 10
58.49108733838184
 20
-1210.444236200739
 10
61.6114563569949
 20
-1212.660580604328
 10
64.60441533902517
 20
-1215.049693642973
 10
70.20153322245251
 20
-1219.23080775167
 10
76.20932202539923
 20
-1222.81538945356
 10
82.62964137479787
 20
-1225.456387945043
 10
87.53047461893713
 20
-1226.606375431835
 10
92.54262457813329
 20
-1226.978746313301
 10
97.59544335871202
 20
-1226.438026804584
 10
102.5504507052956
 20
-1225.135869378979
 10
103.9220339223091
 20
-1224.620863125561
  0
LWPOLYLINE
  5
940
330
A
100
AcDbEntity
  8
0
  6
PHANTOM
 62
     7
100
AcDbPolyline
 90
       13
 70
   128
 43
0.0
 10
137.0897634614519
 20
-1213.579989368026
 10
137.4679395866276
 20
-1213.596987277625
 10
140.52004609447
 20
-1214.28381626899
 10
143.6901731475369
 20
-1215.635983367645
 10
146.6241342246842
 20
-1217.456934610015
 10
150.385829928997
 20
-1220.675798430116
 10
153.6061687045348
 20
-1224.4435726557
 10
157.1522583247776
 20
-1230.128783618383
 10
160.0410285452734
 20
-1236.212068745489
 10
162.6205768302369
 20
-1242.475620112778
 10
165.2390006438831
 20
-1248.701629796007
 10
168.5752798907216
 20
-1255.162753139769
 10
171.794911024162
 20
-1260.121328935454
  0
LWPOLYLINE
  5
94F
330
A
100
AcDbEntity
  8
0
  6
PHANTOM
 62
     7
100
AcDbPolyline
 90
       54
 70
   128
 43
0.0
 10
172.4964380100359
 20
-1308.970173147519
 10
174.3194137115045
 20
-1303.038519259472
 10
176.1221007955209
 20
-1297.100194502547
 10
177.6254874321531
 20
-1292.639644464257
 10
178.8047419812484
 20
-1288.098723816443
 10
178.9415427143554
 20
-1285.986944005941
 10
178.3532337789071
 20
-1284.408798524314
 10
176.7640855751526
 20
-1282.019486998442
 10
173.1172610383863
 20
-1277.701241138134
 10
169.3684374247238
 20
-1273.464979493774
 10
164.3364587426438
 20
-1266.977429497127
 10
159.8820940039157
 20
-1260.064788310202
 10
156.1401717356073
 20
-1252.768016626216
 10
153.7595443521883
 20
-1247.021760401061
 10
151.4385437528637
 20
-1241.230242108822
 10
148.8298365266496
 20
-1235.606557656926
 10
145.5860892625622
 20
-1230.363802952801
 10
143.388333829188
 20
-1227.779458666943
 10
140.8197664021462
 20
-1225.571519203515
 10
139.195200493931
 20
-1224.547270292572
 10
137.4388120444031
 20
-1223.784295527616
 10
134.746804038811
 20
-1223.445657734861
 10
131.2200050118843
 20
-1224.019451108336
 10
127.807315111575
 20
-1225.15269848649
 10
121.2912745718787
 20
-1227.965052994513
 10
111.1924857488574
 20
-1232.561795619568
 10
105.196882016769
 20
-1234.769997109711
 10
98.98907137162938
 20
-1236.325105147242
 10
92.66733793564045
 20
-1236.956492960738
 10
86.09873360986034
 20
-1236.474605556364
 10
79.67722100729918
 20
-1234.97885625092
 10
73.93897376591191
 20
-1232.778659950893
 10
68.4624613508728
 20
-1229.916730567429
 10
63.25777571317517
 20
-1226.545068068335
 10
58.3350088038123
 20
-1222.815672421414
 10
56.05933112505685
 20
-1220.959914894892
 10
53.70243090544398
 20
-1219.212247022248
 10
51.15666946043956
 20
-1217.802131590019
 10
48.81068634907247
 20
-1217.241293484385
 10
45.94451192788677
 20
-1217.512703752722
 10
43.68585823685975
 20
-1218.203014157189
 10
41.55169355917002
 20
-1219.219402671047
 10
39.58757261178397
 20
-1220.522358359109
 10
37.81478038822677
 20
-1222.077806274177
 10
34.23687691757504
 20
-1226.347352118733
 10
31.29417889714017
 20
-1231.1101747767
 10
28.75140292698013
 20
-1236.174875524076
 10
26.37326560715278
 20
-1241.350055636856
 10
23.9244835377161
 20
-1246.444316391037
 10
19.90831710748156
 20
-1253.919064283415
 10
15.52727032663114
 20
-1261.230777879473
 10
10.70908820724547
 20
-1268.247530391181
 10
5.381515761405275
 20
-1274.837395030509
 10
-0.527701998808805
 20
-1280.868445009428
  0
LWPOLYLINE
  5
987
330
A
100
AcDbEntity
  8
0
  6
PHANTOM
 62
     7
100
AcDbPolyline
 90
        4
 70
   128
 43
0.0
 10
-112.4784617521632
 20
-1420.220041254039
 10
-114.6114850844862
 20
-1417.34916891382
 10
-122.1381541051301
 20
-1406.347764169858
 10
-123.4114032914347
 20
-1404.299757381515
  0
LWPOLYLINE
  5
98D
330
A
100
AcDbEntity
  8
0
  6
PHANTOM
 62
     7
100
AcDbPolyline
 90
        7
 70
   128
 43
0.0
 10
-136.4832327860156
 20
-1343.762389527191
 10
-136.0967218892769
 20
-1342.508983284947
 10
-133.3089786604976
 20
-1336.0264256179
 10
-127.9990127674575
 20
-1326.234816421063
 10
-122.2247940826294
 20
-1316.696658501463
 10
-118.6332427949575
 20
-1310.990164571414
 10
-116.7947997970011
 20
-1308.43354327733
  0
LWPOLYLINE
  5
996
330
A
100
AcDbEntity
  8
0
  6
PHANTOM
 62
     7
100
AcDbPolyline
 90
       24
 70
   128
 43
0.0
 10
-0.527701998808805
 20
-1280.868445009428
 10
-7.143508014094579
 20
-1286.347148961946
 10
-14.31179924122344
 20
-1291.074544400028
 10
-20.98943419451483
 20
-1294.45334030147
 10
-28.03359075799371
 20
-1297.049661735372
 10
-35.31147341854053
 20
-1298.764219629749
 10
-43.22594566269152
 20
-1299.652088496626
 10
-51.20977918525877
 20
-1299.849655712398
 10
-59.22001152682893
 20
-1299.640354445985
 10
-67.21368022798855
 20
-1299.307617866308
 10
-74.30010456308103
 20
-1299.136491409429
 10
-81.37983564804383
 20
-1299.353637326006
 10
-85.80813017734355
 20
-1299.844891500929
 10
-90.17923894596721
 20
-1300.739177361014
 10
-94.39958658030354
 20
-1302.126074557532
 10
-99.11508215480386
 20
-1304.536219354031
 10
-103.2945196494135
 20
-1307.777265799234
 10
-107.1963347203028
 20
-1312.123222071694
 10
-110.5898615589376
 20
-1316.916850982811
 10
-113.7019075805739
 20
-1321.899594560238
 10
-119.2396275958698
 20
-1331.015981179037
 10
-124.3243009315446
 20
-1340.379651979184
 10
-126.647248913329
 20
-1345.75128734726
 10
-127.107512317886
 20
-1347.218491411181
  0
LWPOLYLINE
  5
9B0
330
A
100
AcDbEntity
  8
0
  6
PHANTOM
 62
     7
100
AcDbPolyline
 90
       13
 70
   128
 43
0.0
 10
-124.7038191256317
 20
-1381.706441442976
 10
-120.5573601447691
 20
-1389.956601039267
 10
-113.7389988767109
 20
-1400.917322377487
 10
-106.445031325509
 20
-1411.576038105802
 10
-98.74601403180539
 20
-1421.94091956564
 10
-95.39416037780858
 20
-1425.565256408496
 10
-91.44533676686936
 20
-1428.524174286292
 10
-86.1620745024973
 20
-1431.146207032972
 10
-80.5472112604257
 20
-1432.994593035168
 10
-72.25361548595796
 20
-1434.641198081133
 10
-63.83226814839618
 20
-1435.562261815592
 10
-56.73536857921593
 20
-1436.256198008041
 10
-49.71361093220819
 20
-1437.430024978714
  0
LWPOLYLINE
  5
9BF
330
A
100
AcDbEntity
  8
0
  6
PHANTOM
 62
     7
100
AcDbPolyline
 90
        8
 70
   128
 43
0.0
 10
154.9304519579359
 20
-1503.011916725535
 10
151.0241024521412
 20
-1501.271661421732
 10
140.9696283759128
 20
-1495.925491754346
 10
131.1664764493511
 20
-1490.098788744601
 10
121.3641881204777
 20
-1484.271750479673
 10
111.3123048373141
 20
-1478.924575046741
 10
111.3122508096104
 20
-1478.924548996048
 10
111.3122508096104
 20
-1478.924548996048
  0
LWPOLYLINE
  5
9C9
330
A
100
AcDbEntity
  8
0
  6
PHANTOM
 62
     7
100
AcDbPolyline
 90
       32
 70
   128
 43
0.0
 10
115.5847572973067
 20
-1469.982781705355
 10
125.657775482204
 20
-1475.302668923961
 10
135.4770730220806
 20
-1481.111710346143
 10
145.2931186222459
 20
-1486.927533258868
 10
155.356380988009
 20
-1492.267764949102
 10
159.2630280527167
 20
-1494.022049688151
 10
163.3060963474623
 20
-1495.41057522261
 10
165.4264254149187
 20
-1495.892949548215
 10
167.5757290859225
 20
-1495.956048121405
 10
167.872247155559
 20
-1495.903514399508
 10
168.2276839769838
 20
-1495.760350797201
 10
169.1983637832587
 20
-1494.906684773715
 10
170.6784204823064
 20
-1492.970508187297
 10
171.9034639937753
 20
-1490.853240971377
 10
174.634033228628
 20
-1484.995629570855
 10
176.8857899368551
 20
-1478.919764096933
 10
178.8556753739952
 20
-1472.74671742975
 10
181.8205443565922
 20
-1461.461623966711
 10
183.9952326364388
 20
-1449.975397143354
 10
185.5587052232916
 20
-1438.371290268895
 10
186.6899271269075
 20
-1426.732556652547
 10
187.0548767375362
 20
-1419.978579765363
 10
186.6975422463431
 20
-1415.807675650456
 10
185.5961946625396
 20
-1413.099085046669
 10
183.6780546866982
 20
-1410.815962438057
 10
181.4290476462093
 20
-1408.832003468644
 10
176.17115797946
 20
-1404.905070040382
 10
170.8059475950088
 20
-1401.045804802472
 10
165.5532337970259
 20
-1397.0102157673
 10
160.599625798351
 20
-1392.655169092145
 10
156.131732811824
 20
-1387.837530934282
 10
154.0656461036904
 20
-1384.874997551022
  0
LWPOLYLINE
  5
9EB
330
A
100
AcDbEntity
  8
0
  6
PHANTOM
 62
     7
100
AcDbPolyline
 90
        8
 70
   128
 43
0.0
 10
151.9249873178904
 20
-1343.825366818527
 10
153.1509372586204
 20
-1340.884603120206
 10
156.6877925023082
 20
-1334.560531589819
 10
160.7411418563316
 20
-1328.562791810396
 10
164.1269939949157
 20
-1323.916547703468
 10
167.3978246039571
 20
-1319.165412163765
 10
170.2791378776118
 20
-1314.214811781658
 10
172.4964380100358
 20
-1308.970173147519
  0
LWPOLYLINE
  5
9F5
330
A
100
AcDbEntity
  8
0
  6
PHANTOM
 62
     7
100
AcDbPolyline
 90
       51
 70
   128
 43
0.0
 10
-49.71361093220819
 20
-1437.430024978714
 10
-46.29587416066659
 20
-1438.355339637068
 10
-42.97954853315072
 20
-1439.589340029684
 10
-39.10583582090352
 20
-1441.632139805613
 10
-35.62359911673522
 20
-1444.278784286703
 10
-32.66793588080552
 20
-1447.517154944107
 10
-30.27884112761555
 20
-1451.199343464549
 10
-27.79497909242069
 20
-1456.988402222151
 10
-26.22002090345563
 20
-1463.104046196046
 10
-25.04136542373414
 20
-1471.719408618661
 10
-24.62581287182686
 20
-1480.421577394101
 10
-24.69496436509143
 20
-1489.173725757914
 10
-24.97042102088547
 20
-1497.939026945648
 10
-25.1737839565666
 20
-1506.680654192852
 10
-24.97461136302359
 20
-1518.448178827487
 10
-24.60692850763015
 20
-1523.106293339981
 10
-23.91749167595671
 20
-1527.724398329317
 10
-23.1268467194735
 20
-1531.011856319418
 10
-21.93822839546125
 20
-1534.168380015547
 10
-21.05793086812326
 20
-1535.765277813657
 10
-19.93063979286431
 20
-1537.189804347198
 10
-18.51785554813867
 20
-1538.354309233691
 10
-16.92547992260102
 20
-1539.270523344877
 10
-12.73709328825872
 20
-1540.802212713286
 10
-8.344552689137001
 20
-1541.683631672468
 10
0.1691889534811836
 20
-1542.427772603097
 10
6.604422572109136
 20
-1542.480741112878
 10
13.00096348532063
 20
-1541.90102514408
 10
16.52701451111138
 20
-1541.135359870791
 10
19.90551042081632
 20
-1539.891846305664
 10
23.02244969856012
 20
-1537.968791800567
 10
25.71254090910351
 20
-1535.468797048085
 10
28.87763845370196
 20
-1531.377026446556
 10
31.5361531176439
 20
-1526.904944110275
 10
33.85493611251197
 20
-1522.249009629111
 10
38.03433556195455
 20
-1512.579429658738
 10
42.03233196622304
 20
-1502.827566026201
 10
46.49443111857467
 20
-1493.298941424711
 10
49.85210185244508
 20
-1487.449198657012
 10
53.68881833167648
 20
-1481.891621233552
 10
58.05512124841098
 20
-1476.768242857293
 10
63.47544034877098
 20
-1471.862969034086
 10
69.59749750260508
 20
-1467.886472172152
 10
74.06588374749929
 20
-1465.881524738885
 10
78.76542055391339
 20
-1464.432831185362
 10
83.58575500876897
 20
-1463.541363754212
 10
90.42069983590392
 20
-1463.204383563122
 10
97.23553917505121
 20
-1463.860548660748
 10
103.5260433448081
 20
-1465.304426466798
 10
109.6548503683378
 20
-1467.397372250498
 10
115.5847572973067
 20
-1469.982781705355
  0
LWPOLYLINE
  5
A2A
330
A
100
AcDbEntity
  8
0
  6
PHANTOM
 62
     7
100
AcDbPolyline
 90
       19
 70
   128
 43
0.0
 10
111.3122167784819
 20
-1478.924490052404
 10
111.3121627472819
 20
-1478.92446400924
 10
106.2371342545362
 20
-1476.676368912736
 10
100.9941485005693
 20
-1474.838317213789
 10
95.60711554619469
 20
-1473.564096639171
 10
90.22083324346775
 20
-1473.01749374122
 10
84.81508188564006
 20
-1473.263000007771
 10
79.34428532429051
 20
-1474.423343393101
 10
74.17800423382868
 20
-1476.54689781496
 10
69.39366445107196
 20
-1479.693302924425
 10
65.16729828958775
 20
-1483.571585275212
 10
61.42210376567629
 20
-1488.022526966077
 10
58.14197723348936
 20
-1492.850234180147
 10
55.26782497402358
 20
-1497.922734346432
 10
50.90396120736918
 20
-1507.333523049762
 10
46.99432136423751
 20
-1516.96145387121
 10
42.8915040205599
 20
-1526.503565797019
 10
40.11321978557321
 20
-1532.02977317256
 10
37.38634076232454
 20
-1536.53628648094
  0
LWPOLYLINE
  5
A3F
330
A
100
AcDbEntity
  8
0
  6
PHANTOM
 62
     7
100
AcDbPolyline
 90
       12
 70
   128
 43
0.0
 10
217.7878047194036
 20
-1433.88340644254
 10
217.7120612474004
 20
-1431.205972205856
 10
218.0712872951371
 20
-1427.395481164761
 10
218.6438403881014
 20
-1423.608946134515
 10
219.4662324806401
 20
-1416.671142805143
 10
219.5666768949443
 20
-1409.675954230274
 10
218.6436890052259
 20
-1402.795295327544
 10
217.1891907607522
 20
-1397.976055495012
 10
215.005598424133
 20
-1393.449220862039
 10
212.0109122029729
 20
-1389.343711191697
 10
208.4057071193803
 20
-1385.70362766642
 10
207.2739070123055
 20
-1384.773304883791
  0
LWPOLYLINE
  5
A4D
330
A
100
AcDbEntity
  8
0
  6
PHANTOM
 62
     7
100
AcDbPolyline
 90
        8
 70
   128
 43
0.0
 10
181.0646676060449
 20
-1345.265363956927
 10
182.2783015704437
 20
-1341.834227232264
 10
185.4287938798792
 20
-1335.920618055696
 10
189.2526882281696
 20
-1330.377227095497
 10
193.3873086876683
 20
-1325.011497066786
 10
197.4699793307292
 20
-1319.63087068468
 10
201.3973366599931
 20
-1313.511006430917
 10
204.0817736989269
 20
-1308.2434361807
  0
LWPOLYLINE
  5
A57
330
A
100
AcDbEntity
  8
0
  6
PHANTOM
 62
     7
100
AcDbPolyline
 90
       17
 70
   128
 43
0.0
 10
246.0353502391461
 20
-1283.21147388346
 10
239.9868994349055
 20
-1284.598557559531
 10
233.9428157974787
 20
-1286.006547128161
 10
229.3281728311516
 20
-1286.934851128272
 10
224.805992919028
 20
-1288.184047055134
 10
222.9087375893804
 20
-1289.121464050259
 10
221.836177979148
 20
-1290.420027274444
 10
220.5615476020656
 20
-1292.990925752209
 10
218.645249255635
 20
-1298.308291374347
 10
216.8509508613728
 20
-1303.672998680266
 10
213.7485570969951
 20
-1311.274595048573
 10
209.9892165912356
 20
-1318.588508663495
 10
205.5409880814436
 20
-1325.47749424883
 10
201.7548979055143
 20
-1330.412306152393
 10
197.8997962376147
 20
-1335.318110779727
 10
194.3338962525122
 20
-1340.389159734613
 10
191.4378372370159
 20
-1345.777975435056
  0
LWPOLYLINE
  5
A6A
330
A
100
AcDbEntity
  8
0
  6
PHANTOM
 62
     7
100
AcDbPolyline
 90
       28
 70
   128
 43
0.0
 10
218.4260057375005
 20
-1381.69449821875
 10
219.8765592104628
 20
-1383.193254757756
 10
223.5842238145848
 20
-1388.352342602528
 10
226.4511992435237
 20
-1394.281864518248
 10
228.3665986485969
 20
-1400.59093221551
 10
229.3302963801544
 20
-1406.660498249761
 10
229.5900490377575
 20
-1412.834261817058
 10
229.2724464794029
 20
-1419.027483047563
 10
228.5040785630879
 20
-1425.155422071441
 10
228.0347842412338
 20
-1428.05409551533
 10
227.6997095759522
 20
-1430.969064916022
 10
227.7513945118759
 20
-1433.878816715485
 10
228.4386860206702
 20
-1436.190916739595
 10
230.1068214184902
 20
-1438.537391465851
 10
231.8339746107695
 20
-1440.148287738398
 10
233.7812752227299
 20
-1441.488334308208
 10
235.8917284222902
 20
-1442.537835100718
 10
238.1251819427817
 20
-1443.295394244416
 10
243.6116688421149
 20
-1444.259176620011
 10
249.2077432678521
 20
-1444.42621653239
 10
254.8652907627253
 20
-1444.095974744993
 10
260.5361968694664
 20
-1443.567912021262
 10
266.1723471308075
 20
-1443.141489124635
 10
274.6537519076081
 20
-1442.882217332855
 10
283.1764050174157
 20
-1443.020458342211
 10
291.6621820043163
 20
-1443.684750201804
 10
300.0329584123957
 20
-1445.003630960739
 10
308.2106097857398
 20
-1447.105638668119
  0
LWPOLYLINE
  5
A88
330
A
100
AcDbEntity
  8
0
  6
PHANTOM
 62
     7
100
AcDbPolyline
 90
        4
 70
   128
 43
0.0
 10
484.8680120681628
 20
-1474.382042465185
 10
483.4482753566724
 20
-1477.664731027951
 10
477.6841138814091
 20
-1489.683719977687
 10
476.5471125687334
 20
-1491.810389512546
  0
LWPOLYLINE
  5
A8E
330
A
100
AcDbEntity
  8
0
  6
PHANTOM
 62
     7
100
AcDbPolyline
 90
        7
 70
   128
 43
0.0
 10
430.6561288759365
 20
-1533.399609855955
 10
429.3773917805218
 20
-1533.691584721661
 10
422.3694605449716
 20
-1534.518607099834
 10
411.2346952900614
 20
-1534.815846341651
 10
400.0872988839665
 20
-1534.584305233383
 10
393.3495545301664
 20
-1534.327177544289
 10
390.2162340426546
 20
-1534.013349851692
  0
LWPOLYLINE
  5
A97
330
A
100
AcDbEntity
  8
0
  6
PHANTOM
 62
     7
100
AcDbPolyline
 90
       41
 70
   128
 43
0.0
 10
308.2106097857398
 20
-1447.105638668119
 10
316.2632095960773
 20
-1450.095742767608
 10
323.9413997527553
 20
-1453.939967352986
 10
330.2063403142531
 20
-1458.033570909014
 10
335.9768989141418
 20
-1462.83582872427
 10
341.100690937205
 20
-1468.281381046877
 10
345.8268440532253
 20
-1474.69158063442
 10
349.9898590423223
 20
-1481.506999676663
 10
353.8137149993496
 20
-1488.548715007885
 10
357.522391019161
 20
-1495.637803462364
 10
360.9174033277901
 20
-1501.860390186991
 10
364.6453227503557
 20
-1507.883044200242
 10
367.284908610204
 20
-1511.472432670594
 10
370.2449372675947
 20
-1514.810780976884
 10
373.556199289385
 20
-1517.772260642762
 10
378.0011936972023
 20
-1520.650927203463
 10
382.8977410008981
 20
-1522.649903024722
 10
388.6123570720292
 20
-1523.855995860751
 10
394.46052490469
 20
-1524.398061855875
 10
400.3317304341031
 20
-1524.601800979645
 10
410.995612844352
 20
-1524.839413882537
 10
421.647126297791
 20
-1524.561034761103
 10
427.4605729773045
 20
-1523.88694904096
 10
433.182179289588
 20
-1522.609768776483
 10
438.6456661616428
 20
-1520.584034883498
 10
443.2098414669251
 20
-1518.062252395079
 10
447.4438032063439
 20
-1514.975269780161
 10
451.3245454353623
 20
-1511.470722440191
 10
457.5245376743938
 20
-1504.382100788669
 10
462.6985532325615
 20
-1496.510293815161
 10
468.7816357212331
 20
-1485.125059075733
 10
474.36537053807
 20
-1473.478940017855
 10
479.4921125426521
 20
-1461.628954727413
 10
480.9549534934387
 20
-1456.913995891856
 10
481.5430397378517
 20
-1452.014755390821
 10
481.1721555738451
 20
-1446.128299681679
 10
479.9654731867106
 20
-1440.341492474171
 10
477.2446770992822
 20
-1432.33572532178
 10
473.8316680230468
 20
-1424.58209272613
 10
470.884184609723
 20
-1418.089029314889
 10
468.3898697624698
 20
-1411.421095328026
  0
LWPOLYLINE
  5
AC2
330
A
100
AcDbEntity
  8
0
  6
PHANTOM
 62
     7
100
AcDbPolyline
 90
        8
 70
   128
 43
0.0
 10
422.8634225983817
 20
-1201.403192258091
 10
423.3094920491157
 20
-1205.656317818072
 10
423.7068103423322
 20
-1217.036832623471
 10
423.5623134788662
 20
-1228.439962733904
 10
423.4170944770516
 20
-1239.842512574392
 10
423.8122463552223
 20
-1251.221286569954
 10
423.8122508085124
 20
-1251.221346384664
 10
423.8122508085124
 20
-1251.221346384664
  0
LWPOLYLINE
  5
ACC
330
A
100
AcDbEntity
  8
0
  6
PHANTOM
 62
     7
100
AcDbPolyline
 90
       45
 70
   128
 43
0.0
 10
413.9321999361951
 20
-1251.992130873832
 10
413.5028483203274
 20
-1240.608697623625
 10
413.623976993635
 20
-1229.200415795683
 10
413.7526045798836
 20
-1217.791559484871
 10
413.3457497028395
 20
-1206.406402786055
 10
412.9116813199728
 20
-1202.146004814874
 10
412.0926455592447
 20
-1197.950342195159
 10
411.4502294456236
 20
-1195.872896195557
 10
410.4302225774475
 20
-1193.979995329425
 10
410.236468004911
 20
-1193.749470009388
 10
409.9347662777032
 20
-1193.513234493747
 10
408.710129911879
 20
-1193.099434134316
 10
406.2933234523047
 20
-1192.785755727108
 10
403.847194500984
 20
-1192.783470533394
 10
397.4090696052081
 20
-1193.347533909481
 10
391.0213374007012
 20
-1194.435388133975
 10
384.6903794496037
 20
-1195.815940636459
 10
373.4347673352321
 20
-1198.890835510156
 10
362.4000589726515
 20
-1202.750613626176
 10
351.5688713377132
 20
-1207.198660085071
 10
340.923821406269
 20
-1212.038359987396
 10
334.8922310400797
 20
-1215.099292797082
 10
331.4587893654178
 20
-1217.494205601558
 10
329.6637548859882
 20
-1219.802295889422
 10
328.6455826948964
 20
-1222.60501514082
 10
328.0519273475631
 20
-1225.544691855881
 10
327.2800480730933
 20
-1232.061624591712
 10
326.6204315293464
 20
-1238.63766570025
 10
325.7518658046457
 20
-1245.204443805698
 10
324.4570887486316
 20
-1251.671917510518
 10
322.5188382109449
 20
-1257.950045417172
 10
319.7733524548341
 20
-1263.808933763455
 10
316.0894875421087
 20
-1269.115275271597
 10
311.4528501798817
 20
-1273.64720573093
 10
306.1055885540136
 20
-1277.329586786975
 10
301.1351423703495
 20
-1279.813812318546
 10
295.8962053600559
 20
-1281.725956941059
 10
290.5005276596172
 20
-1283.082701238824
 10
283.3468077185002
 20
-1284.007953996773
 10
276.101573495991
 20
-1284.106983271424
 10
268.8807038047104
 20
-1283.595549650139
 10
263.1640123066351
 20
-1282.986437738131
 10
257.4139929279082
 20
-1282.529383109077
 10
251.6859905961912
 20
-1282.509392808885
 10
246.035350239146
 20
-1283.21147388346
  0
LWPOLYLINE
  5
AFB
330
A
100
AcDbEntity
  8
0
  6
PHANTOM
 62
     7
100
AcDbPolyline
 90
       51
 70
   128
 43
0.0
 10
468.3898697624698
 20
-1411.421095328026
 10
467.4823473773271
 20
-1407.998591131246
 10
466.8928602518549
 20
-1404.509568694288
 10
466.7251203965308
 20
-1400.133435190554
 10
467.2760633998564
 20
-1395.794407502209
 10
468.6027430380738
 20
-1391.61554272616
 10
470.5970644617048
 20
-1387.705431717629
 10
474.3686053921911
 20
-1382.659814716853
 10
478.8774293396032
 20
-1378.238038928363
 10
485.7492243205363
 20
-1372.909612129307
 10
493.0777472721331
 20
-1368.198648675028
 10
500.6919058395181
 20
-1363.882461442998
 10
508.420607667815
 20
-1359.73836331069
 10
516.0927604021477
 20
-1355.543667155576
 10
526.1841493786294
 20
-1349.487416312513
 10
530.0343534524898
 20
-1346.839936362959
 10
533.6890312747612
 20
-1343.933814057757
 10
536.1407309298213
 20
-1341.605366445018
 10
538.2800514763106
 20
-1338.997730932955
 10
539.2228567730528
 20
-1337.436922012336
 10
539.8928874018345
 20
-1335.748396036932
 10
540.194986094005
 20
-1333.942636547687
 10
540.1922629768292
 20
-1332.105491748011
 10
539.4245515634072
 20
-1327.712397837595
 10
537.991612473875
 20
-1323.46763661201
 10
534.379186602486
 20
-1315.722449602931
 10
531.2074418682432
 20
-1310.122889555021
 10
527.5071226556784
 20
-1304.873180612233
 10
525.0810115653197
 20
-1302.202363485502
 10
522.3148492731167
 20
-1299.898256983679
 10
519.0909655799686
 20
-1298.160435639648
 10
515.5808610097194
 20
-1297.080745689062
 10
510.4547349500373
 20
-1296.385576110749
 10
505.2525407070314
 20
-1296.319276043582
 10
500.0609916705535
 20
-1296.639118304744
 10
489.5971900475641
 20
-1297.854442194151
 10
479.1528302054116
 20
-1299.268007560084
 10
468.6697496612195
 20
-1300.168028640688
 10
461.9248884518529
 20
-1300.185071871462
 10
455.1935269800221
 20
-1299.64116664506
 10
448.5733996946146
 20
-1298.421526586679
 10
441.6151484010192
 20
-1296.180029460753
 10
435.1103725235973
 20
-1292.86642087308
 10
431.1398439906889
 20
-1289.999158587713
 10
427.5354701678324
 20
-1286.6535871041
 10
424.3532694983813
 20
-1282.924788727034
 10
420.6439636787584
 20
-1277.174042968814
 10
417.8047996528053
 20
-1270.94413642959
 10
415.9099824279262
 20
-1264.774461112944
 10
414.6581231335891
 20
-1258.420285643825
 10
413.9321999361951
 20
-1251.992130873832
  0
LWPOLYLINE
  5
B30
330
A
100
AcDbEntity
  8
0
  6
PHANTOM
 62
     7
100
AcDbPolyline
 90
       19
 70
   128
 43
0.0
 10
423.812216777384
 20
-1251.221405328308
 10
423.8122212389422
 20
-1251.221465142281
 10
424.4028280216187
 20
-1256.740616290182
 10
425.4325214338453
 20
-1262.20020099427
 10
427.0225305233892
 20
-1267.502618671091
 10
429.2422996793451
 20
-1272.440577426183
 10
432.15779002188
 20
-1276.999342295328
 10
435.898075151364
 20
-1281.157019403728
 10
440.3202677722437
 20
-1284.56937286023
 10
445.4373044190163
 20
-1287.139530097701
 10
450.9091785385879
 20
-1288.860529383848
 10
456.6364043755969
 20
-1289.878492138237
 10
462.4573847311081
 20
-1290.305311435703
 10
468.287374865544
 20
-1290.258150223603
 10
478.619288835603
 20
-1289.331972752514
 10
488.9121414344222
 20
-1287.90385476559
 10
499.2272614397659
 20
-1286.685942849397
 10
505.402239531059
 20
-1286.328903888059
 10
510.6684340502332
 20
-1286.437193741049
  0
LINE
  5
B45
330
A
100
AcDbEntity
  8
0
  6
Continuous
 62
     7
100
AcDbLine
 10
1030.097422826701
 20
1066.208286337834
 30
0.0
 11
1030.097422826701
 21
1059.523297856231
 31
0.0
  0
LINE
  5
B46
330
A
100
AcDbEntity
  8
0
  6
Continuous
 62
     7
100
AcDbLine
 10
1212.097422826701
 20
1059.523297856231
 30
0.0
 11
1212.097422826701
 21
1066.208286337834
 31
0.0
  0
ARC
  5
B47
330
A
100
AcDbEntity
  8
0
  6
Continuous
 62
     7
100
AcDbCircle
 10
1121.097422826701
 20
1293.446362131646
 30
0.0
 40
251.0000000000002
100
AcDbArc
 50
248.7431291678446
 51
269.7717293582164
  0
ARC
  5
B48
330
A
100
AcDbEntity
  8
0
  6
Continuous
 62
     7
100
AcDbCircle
 10
1121.097422826701
 20
1293.446362131646
 30
0.0
 40
251.0000000000002
100
AcDbArc
 50
270.2282706417853
 51
291.256870832157
  0
LINE
  5
B49
330
A
100
AcDbEntity
  8
0
  6
Continuous
 62
     7
100
AcDbLine
 10
1055.097422826701
 20
1093.208286337834
 30
0.0
 11
1055.097422826701
 21
1066.208286337834
 31
0.0
  0
LINE
  5
B4A
330
A
100
AcDbEntity
  8
0
  6
Continuous
 62
     7
100
AcDbLine
 10
1187.097422826701
 20
1066.208286337834
 30
0.0
 11
1187.097422826701
 21
1093.208286337834
 31
0.0
  0
LWPOLYLINE
  5
B4B
330
A
100
AcDbEntity
  8
0
  6
Continuous
 62
     7
100
AcDbPolyline
 90
       30
 70
   128
 43
0.0
 10
1224.581755032538
 20
-767.7917136621654
 10
1224.870454375123
 20
-747.8969017508405
 10
1225.168763694348
 20
-729.2237894888316
 10
1225.471895289328
 20
-711.772376876139
 10
1225.775118399803
 20
-695.5426639127627
 10
1226.073799306977
 20
-680.5346505987026
 10
1226.363439148173
 20
-666.7483369339586
 10
1226.639709496281
 20
-654.1837229185309
 10
1226.898485754581
 20
-642.8408085524197
 10
1227.135878417013
 20
-632.7195938356244
 10
1227.348262243633
 20
-623.8200787681456
 10
1227.532303400449
 20
-616.1422633499829
 10
1227.684804955349
 20
-609.6917344561936
 10
1227.76524536954
 20
-606.1663742436823
 10
1227.82782076755
 20
-603.3598905662285
 10
1227.874390917954
 20
-601.2552205245271
 10
1227.928729343473
 20
-598.8003870518954
 10
1228.004692445739
 20
-595.3727635496745
 10
1228.100427996253
 20
-591.0594593557456
 10
1228.217195642684
 20
-585.8077974323818
 10
1228.355099421935
 20
-579.6177777795834
 10
1228.514250330015
 20
-572.4894003973502
 10
1228.721037863852
 20
-563.2499526157982
 10
1228.955568662059
 20
-552.798782559666
 10
1229.217985544219
 20
-541.135890228954
 10
1229.508400167873
 20
-528.2612756236619
 10
1229.826877499511
 20
-514.17493874379
 10
1230.173418317169
 20
-498.8768795893379
 10
1230.547939612647
 20
-482.3670981603059
 10
1230.87379099138
 20
-468.0136608011906
  0
LWPOLYLINE
  5
B6B
330
A
100
AcDbEntity
  8
0
  6
Continuous
 62
     7
100
AcDbPolyline
 90
       44
 70
   128
 43
0.0
 10
970.9135386754272
 20
-469.653808233414
 10
972.7150530081052
 20
-479.2029450493469
 10
975.3888967703058
 20
-493.4770942121844
 10
977.8585032524176
 20
-506.7579943184066
 10
980.1263675110915
 20
-519.0456453680136
 10
982.1952022425804
 20
-530.3400473610054
 10
984.0361488492364
 20
-540.4659610705389
 10
985.6907261174017
 20
-549.6337821792236
 10
987.1618378566395
 20
-557.8435106870601
 10
988.452411350606
 20
-565.0951465940477
 10
989.8765412707204
 20
-573.155019459195
 10
991.0906258845979
 20
-580.0765054971291
 10
992.1091817428846
 20
-585.9226361741362
 10
992.938330141726
 20
-590.710490233492
 10
993.7356202881534
 20
-595.3404323160079
 10
994.6106429000241
 20
-600.4532221245084
 10
995.6347743316573
 20
-606.4825811684784
 10
996.7843402126204
 20
-613.3140327445034
 10
998.0728041115566
 20
-621.0588440363622
 10
999.4766020973633
 20
-629.6135720188556
 10
1000.955400628568
 20
-638.7714845186585
 10
1001.641723710189
 20
-643.0775350165869
 10
1002.341020629843
 20
-647.5040182749998
 10
1003.052624872612
 20
-652.0509342938967
 10
1003.77584829348
 20
-656.718283073278
 10
1004.509986176921
 20
-661.5060646131436
 10
1005.251466758132
 20
-666.3953334439132
 10
1005.883337900445
 20
-670.6062190448805
 10
1006.266370778891
 20
-673.1793761214264
 10
1006.545504435979
 20
-675.0645740706395
 10
1006.722118350308
 20
-676.2618128925201
 10
1006.827070450849
 20
-676.9749092871186
 10
1007.001605645978
 20
-678.1634838801432
 10
1007.3418879649
 20
-680.4906038115055
 10
1007.815666997848
 20
-683.7526145096255
 10
1008.419736889244
 20
-687.9495159745032
 10
1009.149997169791
 20
-693.0813082061387
 10
1010.132703651186
 20
-700.0909778179151
 10
1011.265089927045
 20
-708.3217292474977
 10
1012.537434259818
 20
-717.773562494886
 10
1013.939342924446
 20
-728.4464775600805
 10
1015.460375217928
 20
-740.3404744430807
 10
1017.090946659682
 20
-753.4555531438873
 10
1018.823493493609
 20
-767.7917136621665
  0
LWPOLYLINE
  5
B99
330
A
100
AcDbEntity
  8
0
  6
Continuous
 62
     7
100
AcDbPolyline
 90
        9
 70
   128
 43
0.0
 10
1220.862245180152
 20
-457.7917191232798
 10
1222.768327491244
 20
-457.9732766387691
 10
1224.68448332841
 20
-458.5477634044874
 10
1226.447914170141
 20
-459.4926222755047
 10
1227.987965634359
 20
-460.7699961280252
 10
1229.242933353649
 20
-462.3287051493254
 10
1230.162535249103
 20
-464.1062974302458
 10
1230.709926153821
 20
-466.0315511903682
 10
1230.86317406729
 20
-468.0273283806453
  0
LINE
  5
BA4
330
A
100
AcDbEntity
  8
0
  6
Continuous
 62
     7
100
AcDbLine
 10
1220.776228176272
 20
-461.7924901509744
 30
0.0
 11
1220.862245200404
 21
-461.7917227639911
 31
0.0
  0
LWPOLYLINE
  5
BA5
330
A
100
AcDbEntity
  8
0
  6
Continuous
 62
     7
100
AcDbPolyline
 90
       10
 70
   128
 43
0.0
 10
970.9159160637392
 20
-469.6538143437432
 10
970.7413178575464
 20
-467.7140043809806
 10
970.946042260701
 20
-465.7771422011633
 10
971.5223233655164
 20
-463.916699714133
 10
972.4483008280724
 20
-462.2032499653527
 10
973.6888491069892
 20
-460.7017900551697
 10
975.1969098972146
 20
-459.4692755730427
 10
976.9152772149828
 20
-458.5524600742076
 10
978.7787674194744
 20
-457.9861215549381
 10
980.7166918547171
 20
-457.7917432023504
  0
LINE
  5
BB1
330
A
100
AcDbEntity
  8
0
  6
Continuous
 62
     7
100
AcDbLine
 10
1012.347631355676
 20
-457.7917136887061
 30
0.0
 11
1012.346899487326
 21
-457.7917136621681
 31
0.0
  0
LWPOLYLINE
  5
BB2
330
A
100
AcDbEntity
  8
0
  6
Continuous
 62
     7
100
AcDbPolyline
 90
       41
 70
   128
 43
0.0
 10
951.3258552606529
 20
-468.0052836804773
 10
951.4034638386744
 20
-471.8962643536701
 10
951.5020444349335
 20
-477.5913172259649
 10
951.5723150998903
 20
-482.3772128971477
 10
951.6200473863936
 20
-486.2539513672188
 10
951.6506164286234
 20
-489.2215326361781
 10
951.6690657477262
 20
-491.3188620728428
 10
951.6799119290787
 20
-492.7116088918235
 10
951.6899750702267
 20
-494.1979542920018
 10
951.6992755925633
 20
-495.8377426465723
 10
951.707440567587
 20
-497.6309739555346
 10
951.714172544246
 20
-499.5776482188891
 10
951.7232155147599
 20
-504.7733549576687
 10
951.7217543356412
 20
-510.8216095399836
 10
951.7031020260716
 20
-518.9389618178321
 10
951.651125749368
 20
-527.6049040743709
 10
951.5580854197761
 20
-536.7992897157989
 10
951.5066251247493
 20
-540.9015090881117
 10
951.450389574227
 20
-545.1007894903021
 10
951.3961432796749
 20
-549.1244314330661
 10
951.3569048092014
 20
-552.1554325325555
 10
951.3319968003079
 20
-554.1388972886225
 10
951.3163482077743
 20
-555.391284021357
 10
951.2996702708331
 20
-556.7152159425903
 10
951.2456451826345
 20
-560.9281794815181
 10
951.179046020295
 20
-565.9842163902921
 10
951.1164465343375
 20
-570.6223671870618
 10
951.0378162247809
 20
-576.3238270215277
 10
950.942528981532
 20
-583.0885958936898
 10
950.8300323441199
 20
-590.9166738035483
 10
950.6998495037892
 20
-599.8080607511034
 10
950.5515812960178
 20
-609.7627567363546
 10
950.3849080217595
 20
-620.7807617593021
 10
950.1995746224814
 20
-632.8620758199461
 10
949.9646498488386
 20
-647.9713029558205
 10
949.7048732888114
 20
-664.469341896033
 10
949.4201520592508
 20
-682.3561926405834
 10
949.1105060137678
 20
-701.6318551894722
 10
948.776065626343
 20
-722.2963295426989
 10
948.4170698843911
 20
-744.3496157002636
 10
948.0338641912675
 20
-767.7917136621665
  0
LWPOLYLINE
  5
BDD
330
A
100
AcDbEntity
  8
0
  6
Continuous
 62
     7
100
AcDbPolyline
 90
        9
 70
   128
 43
0.0
 10
951.3258469858605
 20
-467.9931416914981
 10
951.4828097028905
 20
-466.0155878793865
 10
952.02704244069
 20
-464.1079309661479
 10
952.9371276954959
 20
-462.3452440708382
 10
954.1772503591452
 20
-460.7968952240669
 10
955.6986071716146
 20
-459.5238174880138
 10
957.4413273037647
 20
-458.5761110226109
 10
959.3368284884938
 20
-457.9910714651458
 10
961.3105159781177
 20
-457.7917222136136
  0
LWPOLYLINE
  5
BE8
330
A
100
AcDbEntity
  8
0
  6
Continuous
 62
     7
100
AcDbPolyline
 90
        9
 70
   128
 43
0.0
 10
1274.833673626441
 20
-457.7917296008409
 10
1276.842119588549
 20
-457.9921350386981
 10
1278.784061464271
 20
-458.5986385846423
 10
1280.563020567576
 20
-459.5861453406788
 10
1282.105268671155
 20
-460.9137284960434
 10
1283.346887937584
 20
-462.5263669136741
 10
1284.236419967773
 20
-464.3572254585757
 10
1284.736998473116
 20
-466.3304249524585
 10
1284.827877183638
 20
-468.3641869550312
  0
LWPOLYLINE
  5
BF3
330
A
100
AcDbEntity
  8
0
  6
Continuous
 62
     7
100
AcDbPolyline
 90
       27
 70
   128
 43
0.0
 10
1309.528944344953
 20
-767.7917136621648
 10
1306.740610041618
 20
-741.5311617832618
 10
1304.129255311226
 20
-716.2999417282223
 10
1301.698658975023
 20
-692.0980534981091
 10
1299.44015019672
 20
-668.9254970929223
 10
1297.341684546299
 20
-646.7822725126617
 10
1295.390326332905
 20
-625.6683797573272
 10
1293.57351091804
 20
-605.5838188269189
 10
1291.879872968329
 20
-586.5285897214371
 10
1290.816224081353
 20
-574.4203786672568
 10
1289.838551045336
 20
-563.2205056587149
 10
1288.958513033473
 20
-553.0884784635026
 10
1288.174600431023
 20
-544.0242970816193
 10
1287.485556846812
 20
-536.0279615130656
 10
1286.890349473733
 20
-529.0994717578412
 10
1286.663772332254
 20
-526.457010581111
 10
1286.454218787474
 20
-524.0106843496863
 10
1286.261638452181
 20
-521.7604930635671
 10
1286.085986079199
 20
-519.7064367227531
 10
1285.927221272915
 20
-517.8485153272445
 10
1285.780969941943
 20
-516.1359115903588
 10
1285.568742686534
 20
-513.6488214785044
 10
1285.305168927833
 20
-510.556906808512
 10
1284.96915003083
 20
-506.6103287045414
 10
1284.56095950149
 20
-501.8090871665921
 10
1284.0809009086
 20
-496.1531821946643
 10
1283.61774791656
 20
-490.6866650254109
  0
LWPOLYLINE
  5
C10
330
A
100
AcDbEntity
  8
0
  6
Continuous
 62
     7
100
AcDbPolyline
 90
       14
 70
   128
 43
0.0
 10
1283.153397235198
 20
-494.9699770190219
 10
1283.203444157432
 20
-494.9740105724544
 10
1283.292776925996
 20
-494.7335925362524
 10
1283.371136450299
 20
-494.2443673589878
 10
1283.49496637565
 20
-492.8602348511641
 10
1283.584544655185
 20
-491.3382124840377
 10
1283.668906186856
 20
-489.6827865020852
 10
1283.728192773402
 20
-488.5180919922498
 10
1283.816540179087
 20
-486.804029537549
 10
1283.935149821891
 20
-484.5405991379829
 10
1284.085531626303
 20
-481.7278007935512
 10
1284.338550864794
 20
-477.1228306422958
 10
1284.655919465371
 20
-471.5412063668355
 10
1284.842616851234
 20
-468.3747787753416
  0
ARC
  5
C20
330
A
100
AcDbEntity
  8
0
  6
Continuous
 62
     7
100
AcDbCircle
 10
1056.551327162202
 20
-467.7917136621665
 30
0.0
 40
10.00000000000003
100
AcDbArc
 50
89.99660183816258
 51
90.00000456624947
  0
LWPOLYLINE
  5
C21
330
A
100
AcDbEntity
  8
0
  6
Continuous
 62
     7
100
AcDbPolyline
 90
        9
 70
   128
 43
0.0
 10
1299.234202314329
 20
-457.7917689232773
 10
1301.248861847448
 20
-458.0036613232805
 10
1303.179478096018
 20
-458.6172425289709
 10
1304.946821106186
 20
-459.607331973963
 10
1306.478361443248
 20
-460.9332976884929
 10
1307.711246704339
 20
-462.5407237820636
 10
1308.594880898458
 20
-464.3636436000835
 10
1309.093000839443
 20
-466.3272469086874
 10
1309.185164339488
 20
-468.350950008425
  0
LWPOLYLINE
  5
C2C
330
A
100
AcDbEntity
  8
0
  6
Continuous
 62
     7
100
AcDbPolyline
 90
       34
 70
   128
 43
0.0
 10
1299.851304900295
 20
-673.1439910174807
 10
1299.914791943946
 20
-671.6469113393633
 10
1300.209362984732
 20
-664.7169626325073
 10
1300.45639326354
 20
-658.9177142775484
 10
1300.643837594274
 20
-654.5252254637423
 10
1300.794544502049
 20
-650.9989485829755
 10
1300.952643880596
 20
-647.304874459617
 10
1301.12845665588
 20
-643.2030167177154
 10
1301.322066206501
 20
-638.6933753572705
 10
1301.53357099865
 20
-633.7759503782824
 10
1301.902380752232
 20
-625.2246789166937
 10
1302.316251359611
 20
-615.6664315807431
 10
1302.775942498943
 20
-605.1012083704307
 10
1303.204634053109
 20
-595.301929803786
 10
1303.641786383846
 20
-585.3674200997478
 10
1304.052514079227
 20
-576.0914442749593
 10
1304.43635019333
 20
-567.4779326657102
 10
1304.792969501182
 20
-559.5268852720007
 10
1305.122028514386
 20
-552.2383020938311
 10
1305.423154027053
 20
-545.6121831312006
 10
1305.695945258532
 20
-539.6485283841096
 10
1305.895246665434
 20
-535.3166021141571
 10
1306.079946074925
 20
-531.3222099861937
 10
1306.249881294675
 20
-527.6651769127147
 10
1306.415832946632
 20
-524.1114358903704
 10
1306.59082683312
 20
-520.3838056141016
 10
1306.741267033047
 20
-517.1960225171521
 10
1306.945075006577
 20
-512.9030253484663
 10
1307.203512365344
 20
-507.5048141080443
 10
1307.518515803624
 20
-501.001388795886
 10
1307.892984937762
 20
-493.3927494119914
 10
1308.331119822246
 20
-484.6788959563605
 10
1308.838797248429
 20
-474.8598284289935
 10
1309.188976630565
 20
-468.3225462411173
  0
LWPOLYLINE
  5
C50
330
A
100
AcDbEntity
  8
0
  6
Continuous
 62
     7
100
AcDbPolyline
 90
        9
 70
   128
 43
0.0
 10
939.4650479776954
 20
-467.4074409648743
 10
939.7203277288591
 20
-465.5147938002066
 10
940.3307524347468
 20
-463.7051923272241
 10
941.2740581840239
 20
-462.044637817429
 10
942.5158399544814
 20
-460.5936953790405
 10
944.010806461269
 20
-459.4052849766148
 10
945.7044320578424
 20
-458.5227512906231
 10
947.5349454401374
 20
-457.9782828146581
 10
949.4355826203165
 20
-457.791737850254
  0
LWPOLYLINE
  5
C5B
330
A
100
AcDbEntity
  8
0
  6
Continuous
 62
     7
100
AcDbPolyline
 90
       38
 70
   128
 43
0.0
 10
939.6165618658569
 20
-467.42128767743
 10
938.9144249463519
 20
-484.5082072672172
 10
938.1502195951251
 20
-503.1447047023516
 10
937.4357333529895
 20
-520.5550867620947
 10
936.7688712221182
 20
-536.7393534464467
 10
936.1479662855398
 20
-551.6975047554073
 10
935.5719361928683
 20
-565.4295406889769
 10
935.0403592159564
 20
-577.9354612471554
 10
934.5627784192615
 20
-589.0016862569658
 10
934.1289444027527
 20
-598.8903500602504
 10
933.7405551444062
 20
-607.5932638733243
 10
933.4003957904743
 20
-615.0867596686524
 10
933.1682884731293
 20
-620.1250152113608
 10
932.9682420772313
 20
-624.4157185388834
 10
932.801275136296
 20
-627.9588696512197
 10
932.6507173151199
 20
-631.1232054408135
 10
932.4546722901452
 20
-635.1990481445981
 10
932.2057608108339
 20
-640.3002390780648
 10
931.8960205980159
 20
-646.5308300907075
 10
931.5208194242725
 20
-653.8920395567956
 10
931.0731255005025
 20
-662.3784658698257
 10
930.6153198208594
 20
-670.6903198678952
 10
930.1849862878453
 20
-678.1265651343537
 10
929.7838300902794
 20
-684.6872016692011
 10
929.4151656711035
 20
-690.3722294724375
 10
929.1600804137221
 20
-694.1017102369935
 10
928.9052887641368
 20
-697.6576547757336
 10
928.6364475496739
 20
-701.2283044078799
 10
928.3518759971475
 20
-704.8136591334331
 10
928.0500848624066
 20
-708.4137189523925
 10
927.6972399807888
 20
-712.3904299614694
 10
927.2678637397609
 20
-716.9497181600923
 10
926.6968391596334
 20
-722.6273999925407
 10
925.9624998681283
 20
-729.4234754588146
 10
925.0411265924743
 20
-737.3379445589139
 10
923.9083437230092
 20
-746.3708072928385
 10
922.5412268989206
 20
-756.5220636605887
 10
920.9212849701456
 20
-767.7917136621637
  0
LINE
  5
C83
330
A
100
AcDbEntity
  8
0
  6
Continuous
 62
     7
100
AcDbLine
 10
1311.193673692993
 20
-767.7917136621665
 30
0.0
 11
1301.882929800766
 21
-625.6756712360534
 31
0.0
  0
LINE
  5
C84
330
A
100
AcDbEntity
  8
0
  6
Continuous
 62
     7
100
AcDbLine
 10
1120.097422826701
 20
1049.04641496523
 30
0.0
 11
1120.097422826702
 21
-432.7917136621657
 31
0.0
  0
LINE
  5
C85
330
A
100
AcDbEntity
  8
0
  6
Continuous
 62
     7
100
AcDbLine
 10
1122.097422826702
 20
-432.7917136621657
 30
0.0
 11
1122.097422826702
 21
1049.04641496523
 31
0.0
  0
LINE
  5
C86
330
A
100
AcDbEntity
  8
0
  6
Continuous
 62
     7
100
AcDbLine
 10
1158.597422826702
 20
-452.7917136621657
 30
0.0
 11
1158.597422826702
 21
-432.7917136621657
 31
0.0
  0
LINE
  5
C87
330
A
100
AcDbEntity
  8
0
  6
Continuous
 62
     7
100
AcDbLine
 10
1083.597422826703
 20
-432.7917136621657
 30
0.0
 11
1083.597422826703
 21
-452.7917136621657
 31
0.0
  0
LINE
  5
C88
330
A
100
AcDbEntity
  8
0
  6
Continuous
 62
     7
100
AcDbLine
 10
1099.597422826702
 20
-452.7917136621657
 30
0.0
 11
1099.597422826702
 21
-457.7917136621665
 31
0.0
  0
LINE
  5
C89
330
A
100
AcDbEntity
  8
0
  6
Continuous
 62
     7
100
AcDbLine
 10
1142.597422826702
 20
-457.7917136621669
 30
0.0
 11
1142.597422826702
 21
-452.7917136621657
 31
0.0
  0
LINE
  5
C8A
330
A
100
AcDbEntity
  8
0
  6
Continuous
 62
     7
100
AcDbLine
 10
1051.097422826701
 20
-432.7917136621657
 30
0.0
 11
1051.097422826701
 21
-452.7917136621657
 31
0.0
  0
LINE
  5
C8B
330
A
100
AcDbEntity
  8
0
  6
Continuous
 62
     7
100
AcDbLine
 10
1191.097422826701
 20
-452.7917136621657
 30
0.0
 11
1191.097422826701
 21
-432.7917136621657
 31
0.0
  0
LINE
  5
C8C
330
A
100
AcDbEntity
  8
0
  6
Continuous
 62
     7
100
AcDbLine
 10
1030.097422826701
 20
1066.208286337834
 30
0.0
 11
1212.097422826701
 21
1066.208286337834
 31
0.0
  0
LINE
  5
C8D
330
A
100
AcDbEntity
  8
0
  6
Continuous
 62
     7
100
AcDbLine
 10
1030.097422826701
 20
1059.523297856231
 30
0.0
 11
1212.097422826701
 21
1059.523297856231
 31
0.0
  0
LINE
  5
C8E
330
A
100
AcDbEntity
  8
0
  6
Continuous
 62
     7
100
AcDbLine
 10
1055.097422826701
 20
1093.208286337834
 30
0.0
 11
1187.097422826701
 21
1093.208286337834
 31
0.0
  0
LINE
  5
C8F
330
A
100
AcDbEntity
  8
0
  6
Continuous
 62
     7
100
AcDbLine
 10
1124.346538072239
 20
-466.4536230006633
 30
0.0
 11
1126.856313909873
 21
-767.7917136621672
 31
0.0
  0
LINE
  5
C90
330
A
100
AcDbEntity
  8
0
  6
Continuous
 62
     7
100
AcDbLine
 10
1229.275819758038
 20
-767.7917136621661
 30
0.0
 11
1265.038419917256
 21
-468.5847697554956
 31
0.0
  0
LINE
  5
C91
330
A
100
AcDbEntity
  8
0
  6
Continuous
 62
     7
100
AcDbLine
 10
1229.27581975804
 20
-767.7917136621653
 30
0.0
 11
1224.581755032537
 21
-767.7917136621654
 31
0.0
  0
LINE
  5
C92
330
A
100
AcDbEntity
  8
0
  6
Continuous
 62
     7
100
AcDbLine
 10
1224.468456926651
 20
-767.7917136621656
 30
0.0
 11
1126.856313909873
 21
-767.7917136621665
 31
0.0
  0
LINE
  5
C93
330
A
100
AcDbEntity
  8
0
  6
Continuous
 62
     7
100
AcDbLine
 10
1124.346538072239
 20
-466.4536230006641
 30
0.0
 11
1124.346535696901
 21
-466.453337803891
 31
0.0
  0
LINE
  5
C94
330
A
100
AcDbEntity
  8
0
  6
Continuous
 62
     7
100
AcDbLine
 10
1126.856313909873
 20
-767.7917136621665
 30
0.0
 11
1018.887058510213
 21
-767.7917136621672
 31
0.0
  0
LINE
  5
C95
330
A
100
AcDbEntity
  8
0
  6
Continuous
 62
     7
100
AcDbLine
 10
1265.038548655096
 20
-468.5832930068323
 30
0.0
 11
1265.038419917255
 21
-468.5847697554956
 31
0.0
  0
LWPOLYLINE
  5
C96
330
A
100
AcDbEntity
  8
0
  6
Continuous
 62
     7
100
AcDbPolyline
 90
       11
 70
   128
 43
0.0
 10
1132.316842855053
 20
-457.7917136621671
 10
1131.472310166851
 20
-457.8469983178514
 10
1130.383537975978
 20
-458.0849283053882
 10
1129.574677504239
 20
-458.390908346296
 10
1128.568908255458
 20
-458.9439028155764
 10
1127.690111657271
 20
-459.6121044625889
 10
1127.053796957887
 20
-460.2301514899624
 10
1126.369785853888
 20
-461.0594782254857
 10
1125.760344662892
 20
-462.0001309954997
 10
1125.246564523409
 20
-463.0252846494427
 10
1124.346535696901
 20
-466.4533378038906
  0
LINE
  5
CA3
330
A
100
AcDbEntity
  8
0
  6
Continuous
 62
     7
100
AcDbLine
 10
1132.316842855054
 20
-457.7917136621674
 30
0.0
 11
1220.786086504741
 21
-457.7917136621665
 31
0.0
  0
LINE
  5
CA4
330
A
100
AcDbEntity
  8
0
  6
Continuous
 62
     7
100
AcDbLine
 10
1220.511988858346
 20
-457.7917136621671
 30
0.0
 11
1258.157715313793
 21
-457.7917136621656
 31
0.0
  0
LWPOLYLINE
  5
CA5
330
A
100
AcDbEntity
  8
0
  6
Continuous
 62
     7
100
AcDbPolyline
 90
        7
 70
   128
 43
0.0
 10
1265.038548655096
 20
-468.5832930068323
 10
1264.831525125124
 20
-465.2390024530459
 10
1263.872080687663
 20
-462.182510725418
 10
1262.268385327026
 20
-459.7584135914849
 10
1260.201242963712
 20
-458.2400092836793
 10
1258.49566258342
 20
-457.8037063482997
 10
1258.157715313826
 20
-457.7917136621656
  0
LWPOLYLINE
  5
CAE
330
A
100
AcDbEntity
  8
0
  6
Continuous
 62
     7
100
AcDbPolyline
 90
        5
 70
   128
 43
0.0
 10
1001.649640096739
 20
-457.7917136621671
 10
1001.342051028633
 20
-457.8027715162913
 10
999.6854788217261
 20
-458.2530071816215
 10
997.7305101503688
 20
-459.7844532796768
 10
996.4827840959589
 20
-461.7917136621681
  0
LINE
  5
CB5
330
A
100
AcDbEntity
  8
0
  6
Continuous
 62
     7
100
AcDbLine
 10
980.7683541063861
 20
-457.7917136621681
 30
0.0
 11
1132.316842855054
 21
-457.7917136621674
 31
0.0
  0
LINE
  5
CB6
330
A
100
AcDbEntity
  8
0
  6
Continuous
 62
     7
100
AcDbLine
 10
1012.317555002307
 20
-461.7917136621681
 30
0.0
 11
980.757940527819
 21
-461.7917136621681
 31
0.0
  0
LINE
  5
CB7
330
A
100
AcDbEntity
  8
0
  6
Continuous
 62
     7
100
AcDbLine
 10
951.4004954379798
 20
-467.9981451681067
 30
0.0
 11
951.4007385514982
 21
-468.0037770965412
 31
0.0
  0
LINE
  5
CB8
330
A
100
AcDbEntity
  8
0
  6
Continuous
 62
     7
100
AcDbLine
 10
1018.823493493609
 20
-767.7917136621665
 30
0.0
 11
948.0352203983006
 21
-767.7917136621672
 31
0.0
  0
LINE
  5
CB9
330
A
100
AcDbEntity
  8
0
  6
Continuous
 62
     7
100
AcDbLine
 10
961.4809952565137
 20
-457.7917136621681
 30
0.0
 11
980.4079305278188
 21
-457.7917136621678
 31
0.0
  0
LINE
  5
CBA
330
A
100
AcDbEntity
  8
0
  6
Continuous
 62
     7
100
AcDbLine
 10
1284.7707581958
 20
-468.3607235296916
 30
0.0
 11
1284.818990935371
 21
-468.3734703917625
 31
0.0
  0
LINE
  5
CBB
330
A
100
AcDbEntity
  8
0
  6
Continuous
 62
     7
100
AcDbLine
 10
1258.157715313793
 20
-457.7917136621656
 30
0.0
 11
1274.85982596831
 21
-457.7917136621663
 31
0.0
  0
LINE
  5
CBC
330
A
100
AcDbEntity
  8
0
  6
Continuous
 62
     7
100
AcDbLine
 10
1309.438281986849
 20
-767.7917136621653
 30
0.0
 11
1229.27581975804
 21
-767.7917136621653
 31
0.0
  0
LINE
  5
CBD
330
A
100
AcDbEntity
  8
0
  6
Continuous
 62
     7
100
AcDbLine
 10
1309.128647394034
 20
-468.3192615798967
 30
0.0
 11
1309.120697640503
 21
-468.3465363882682
 31
0.0
  0
LINE
  5
CBE
330
A
100
AcDbEntity
  8
0
  6
Continuous
 62
     7
100
AcDbLine
 10
1275.20983596831
 20
-457.7917136621654
 30
0.0
 11
1299.151207418123
 21
-457.7917136621649
 31
0.0
  0
LWPOLYLINE
  5
CBF
330
A
100
AcDbEntity
  8
0
  6
Continuous
 62
     7
100
AcDbPolyline
 90
        3
 70
   128
 43
0.0
 10
1037.732106225514
 20
-458.1091465676927
 10
1039.426305845886
 20
-457.8037063482991
 10
1039.905822000547
 20
-457.7917136621649
  0
LWPOLYLINE
  5
CC4
330
A
100
AcDbEntity
  8
0
  6
Continuous
 62
     7
100
AcDbPolyline
 90
        3
 70
   128
 43
0.0
 10
1205.88956049171
 20
-458.0532088985025
 10
1204.439446198246
 20
-457.8142052960132
 10
1203.799986785142
 20
-457.7917136621671
  0
LWPOLYLINE
  5
CC9
330
A
100
AcDbEntity
  8
0
  6
Continuous
 62
     7
100
AcDbPolyline
 90
        3
 70
   128
 43
0.0
 10
939.6797715310803
 20
-467.4235928733669
 10
939.4909716546701
 20
-467.4151604453558
 10
939.5090920402523
 20
-467.4088214341465
  0
LINE
  5
CCE
330
A
100
AcDbEntity
  8
0
  6
Continuous
 62
     7
100
AcDbLine
 10
960.9605059669346
 20
-457.7917136621649
 30
0.0
 11
949.4778186504992
 21
-457.7917136621647
 31
0.0
  0
LINE
  5
CCF
330
A
100
AcDbEntity
  8
0
  6
Continuous
 62
     7
100
AcDbLine
 10
947.6852103983006
 20
-767.7917136621639
 30
0.0
 11
920.9449010491473
 21
-767.7917136621634
 31
0.0
  0
LINE
  5
CD0
330
A
100
AcDbEntity
  8
0
  6
Continuous
 62
     7
100
AcDbLine
 10
1309.788291986849
 20
-767.7917136621665
 30
0.0
 11
1311.151725414377
 21
-767.7917136621665
 31
0.0
  0
LINE
  5
CD1
330
A
100
AcDbEntity
  8
0
  6
Continuous
 62
     7
100
AcDbLine
 10
1083.597422826703
 20
-452.7917136621657
 30
0.0
 11
1158.597422826702
 21
-452.7917136621657
 31
0.0
  0
LINE
  5
CD2
330
A
100
AcDbEntity
  8
0
  6
Continuous
 62
     7
100
AcDbLine
 10
1083.597422826703
 20
-432.7917136621657
 30
0.0
 11
1158.597422826702
 21
-432.7917136621657
 31
0.0
  0
LINE
  5
CD3
330
A
100
AcDbEntity
  8
0
  6
Continuous
 62
     7
100
AcDbLine
 10
1051.097422826701
 20
-452.7917136621657
 30
0.0
 11
1083.597422826703
 21
-452.7917136621657
 31
0.0
  0
LINE
  5
CD4
330
A
100
AcDbEntity
  8
0
  6
Continuous
 62
     7
100
AcDbLine
 10
1051.097422826701
 20
-432.7917136621657
 30
0.0
 11
1083.5974228267
 21
-432.7917136621657
 31
0.0
  0
LINE
  5
CD5
330
A
100
AcDbEntity
  8
0
  6
Continuous
 62
     7
100
AcDbLine
 10
1158.597422826702
 20
-452.7917136621657
 30
0.0
 11
1191.097422826701
 21
-452.7917136621657
 31
0.0
  0
LINE
  5
CD6
330
A
100
AcDbEntity
  8
0
  6
Continuous
 62
     7
100
AcDbLine
 10
1158.5974228267
 20
-432.7917136621657
 30
0.0
 11
1191.097422826701
 21
-432.7917136621657
 31
0.0
  0
LWPOLYLINE
  5
CD7
330
A
100
AcDbEntity
  8
0
  6
PHANTOM
 62
     7
100
AcDbPolyline
 90
       10
 70
   128
 43
0.0
 10
1265.038419917256
 20
-468.5847697554956
 10
1265.03837655761
 20
-468.5847694032088
 10
1260.049046570757
 20
-468.4954157643237
 10
1254.573598888166
 20
-468.3381995100037
 10
1248.814366580137
 20
-468.1653430251158
 10
1242.973682716971
 20
-468.0290686945268
 10
1237.454775883934
 20
-467.9522762189134
 10
1232.187778402268
 20
-467.9018815443048
 10
1227.373091142595
 20
-467.8583741376563
 10
1226.804818805148
 20
-467.8516152042049
  0
LWPOLYLINE
  5
CE3
330
A
100
AcDbEntity
  8
0
  6
PHANTOM
 62
     7
100
AcDbPolyline
 90
       28
 70
   128
 43
0.0
 10
1230.783247532412
 20
-468.0116106483132
 10
1230.778994055038
 20
-467.9930285552322
 10
1230.141389163167
 20
-467.9303537516467
 10
1229.086469560019
 20
-467.8754020124649
 10
1227.739025733568
 20
-467.8276725103154
 10
1223.810093054655
 20
-467.7446324958811
 10
1217.045682804909
 20
-467.6612585596604
 10
1209.891917691545
 20
-467.5965773572978
 10
1202.231497987681
 20
-467.5437627082182
 10
1193.947123966433
 20
-467.4959884318463
 10
1188.844171927977
 20
-467.4688601978204
 10
1183.510591106789
 20
-467.4422107021505
 10
1177.832554324779
 20
-467.4151604453585
 10
1174.646827207201
 20
-467.4007663862949
 10
1171.247314797561
 20
-467.391755583304
 10
1167.32429253653
 20
-467.4041547057406
 10
1163.788354972842
 20
-467.4520781427808
 10
1162.496818740851
 20
-467.4686075527494
 10
1158.871499876316
 20
-467.4949996158968
 10
1155.670475683362
 20
-467.4904274049572
 10
1152.116723010456
 20
-467.4538261216296
 10
1148.918688093745
 20
-467.3902027683767
 10
1142.550989039343
 20
-467.2048869999723
 10
1136.630791011229
 20
-466.9846935125812
 10
1130.71151288739
 20
-466.7331100959217
 10
1124.346573545811
 20
-466.4536245397122
 10
1124.346538072239
 20
-466.4536230006633
 10
1124.346538072239
 20
-466.4536230006633
  0
LWPOLYLINE
  5
D01
330
A
100
AcDbEntity
  8
0
  6
PHANTOM
 62
     7
100
AcDbPolyline
 90
       34
 70
   128
 43
0.0
 10
1124.346535696901
 20
-466.4533378038903
 10
1124.346500216708
 20
-466.4533362602143
 10
1120.920932743595
 20
-466.3057428963257
 10
1117.154564096322
 20
-466.1536142591837
 10
1112.996306641105
 20
-466.0058264553643
 10
1108.497116164177
 20
-465.8806027176092
 10
1103.608862804558
 20
-465.7970848788379
 10
1098.233687927215
 20
-465.7630595464994
 10
1092.675184061268
 20
-465.7877212044425
 10
1086.973715042765
 20
-465.8827993896761
 10
1081.421311937794
 20
-466.0221177536323
 10
1076.024910896638
 20
-466.1797414872673
 10
1070.862259820309
 20
-466.3436210408391
 10
1065.943139421007
 20
-466.5079304740027
 10
1057.671978733075
 20
-466.8035498387146
 10
1049.699931915496
 20
-467.0821540200149
 10
1041.597609019869
 20
-467.3026408073051
 10
1036.550132429435
 20
-467.3875273290335
 10
1031.235423771558
 20
-467.4579010532167
 10
1025.612881443942
 20
-467.5534597533801
 10
1020.148240931182
 20
-467.6964147151814
 10
1014.520553173969
 20
-467.8621359522534
 10
1009.570109496199
 20
-467.9894204484535
 10
1004.750216119741
 20
-468.1007400881389
 10
997.915022725826
 20
-468.2622010663073
 10
991.3855952547955
 20
-468.4377813921338
 10
987.2618514834
 20
-468.5727204307291
 10
983.2918295120064
 20
-468.7333037502079
 10
978.6952854053097
 20
-468.9725098223112
 10
974.7621387193424
 20
-469.2508076261169
 10
972.9560347622975
 20
-469.4188217248737
 10
971.6727848586703
 20
-469.5561474814202
 10
971.0281852811183
 20
-469.6292722937085
 10
970.9708988261764
 20
-469.6430009206471
  0
LWPOLYLINE
  5
D25
330
A
100
AcDbEntity
  8
0
  6
PHANTOM
 62
     7
100
AcDbPolyline
 90
       10
 70
   128
 43
0.0
 10
970.791088186611
 20
-468.2673140812386
 10
969.6968541098447
 20
-468.2562741499183
 10
964.630402267119
 20
-468.1826946731548
 10
960.3791721157303
 20
-468.1108949979964
 10
957.5000181396074
 20
-468.0556207031134
 10
955.7708348372766
 20
-467.9818205846453
 10
953.775609211188
 20
-467.7775921417192
 10
952.2948015951522
 20
-467.6850160698942
 10
951.3961085494445
 20
-467.8965192180905
 10
951.4004954379798
 20
-467.9981451681067
  0
LWPOLYLINE
  5
D31
330
A
100
AcDbEntity
  8
0
  6
PHANTOM
 62
     7
100
AcDbPolyline
 90
       12
 70
   128
 43
0.0
 10
1284.818990935371
 20
-468.3734703917625
 10
1284.842518549135
 20
-468.3796882274107
 10
1284.641695307678
 20
-468.4141316549251
 10
1283.974943069716
 20
-468.4104545220879
 10
1282.858009147937
 20
-468.3851326669121
 10
1281.409493692915
 20
-468.3663685625663
 10
1277.780532509343
 20
-468.371807169677
 10
1273.86287506097
 20
-468.4454535100419
 10
1269.456630832284
 20
-468.5523173130015
 10
1265.038639910596
 20
-468.5832928216607
 10
1265.038596474634
 20
-468.5832925923825
 10
1265.038596474634
 20
-468.5832925923825
  0
LINE
  5
D3F
330
A
100
AcDbEntity
  8
0
  6
PHANTOM
 62
     7
100
AcDbLine
 10
1265.038596474634
 20
-468.5832925923825
 30
0.0
 11
1265.038548655096
 21
-468.5832930068323
 31
0.0
  0
LWPOLYLINE
  5
D40
330
A
100
AcDbEntity
  8
0
  6
PHANTOM
 62
     7
100
AcDbPolyline
 90
       13
 70
   128
 43
0.0
 10
1309.120697640503
 20
-468.3465363882682
 10
1309.094102575867
 20
-468.4377813921307
 10
1308.795246368257
 20
-468.5727204307259
 10
1308.220745405975
 20
-468.7333037502048
 10
1306.970266408284
 20
-468.9725098223081
 10
1304.839430747807
 20
-469.2508076261141
 10
1303.044136842868
 20
-469.4188217248707
 10
1300.779475709811
 20
-469.5561474814174
 10
1298.085458751945
 20
-469.6292722937053
 10
1295.069897169469
 20
-469.649789063963
 10
1290.777314897169
 20
-469.6371096005793
 10
1286.307124546826
 20
-469.6062382069404
 10
1284.770678677697
 20
-469.5948655832847
  0
LWPOLYLINE
  5
D4F
330
A
100
AcDbEntity
  8
0
  6
PHANTOM
 62
     7
100
AcDbPolyline
 90
        7
 70
   128
 43
0.0
 10
951.452003981846
 20
-467.6168876542776
 10
949.9964831332357
 20
-467.5965773572956
 10
945.9765201028814
 20
-467.543762708216
 10
942.7692589259125
 20
-467.4959884318439
 10
941.2666048948814
 20
-467.468860197818
 10
940.0966198893701
 20
-467.4422107021481
 10
939.6797715310803
 20
-467.4235928733669
  0
ENDSEC
  0
SECTION
  2
OBJECTS
  0
DICTIONARY
  5
19
330
0
100
AcDbDictionary
281
     1
  3
ACAD_COLOR
350
D5C
  3
ACAD_GROUP
350
1A
  3
ACAD_LAYOUT
350
D5D
  3
ACAD_MATERIAL
350
D5B
  3
ACAD_MLINESTYLE
350
1B
  3
ACAD_PLOTSETTINGS
350
D5E
  3
ACAD_PLOTSTYLENAME
350
D59
  3
ACDBHEADERROUNDTRIPXREC
350
D76
  3
AcDbVariableDictionary
350
D6F
  3
ASE_INDEX_DICTIONARY
350
D64
  0
DICTIONARY
  5
D5C
102
{ACAD_REACTORS
330
19
102
}
330
19
100
AcDbDictionary
281
     1
  0
DICTIONARY
  5
1A
102
{ACAD_REACTORS
330
19
102
}
330
19
100
AcDbDictionary
281
     1
  0
DICTIONARY
  5
D5D
102
{ACAD_REACTORS
330
19
102
}
330
19
100
AcDbDictionary
281
     1
  3
Layout1
350
D60
  3
Model
350
D5F
  0
DICTIONARY
  5
D5B
102
{ACAD_REACTORS
330
19
102
}
330
19
100
AcDbDictionary
281
     1
  0
DICTIONARY
  5
1B
102
{ACAD_REACTORS
330
19
102
}
330
19
100
AcDbDictionary
281
     1
  3
STANDARD
350
1C
  0
DICTIONARY
  5
D5E
102
{ACAD_REACTORS
330
19
102
}
330
19
100
AcDbDictionary
281
     1
  0
ACDBDICTIONARYWDFLT
  5
D59
102
{ACAD_REACTORS
330
19
102
}
330
19
100
AcDbDictionary
281
     1
  3
Normal
350
D5A
100
AcDbDictionaryWithDefault
340
D5A
  0
DICTIONARY
  5
D76
102
{ACAD_REACTORS
330
19
102
}
330
19
100
AcDbDictionary
281
     1
  3
COLORDICT
350
D78
  3
MATERIALDICT
350
D77
  0
DICTIONARY
  5
D6F
102
{ACAD_REACTORS
330
19
102
}
330
19
100
AcDbDictionary
281
     1
  3
DIMASSOC
350
D70
  3
PROJECTNAME
350
D71
  0
DICTIONARY
  5
D64
102
{ACAD_REACTORS
330
19
102
}
330
19
100
AcDbDictionary
281
     1
  3
ASEBlockHierarchyIndexRecord
350
D66
1001
DCO15
1040
1521898560.656
  0
LAYOUT
  5
D60
102
{ACAD_XDICTIONARY
360
D7B
102
}
102
{ACAD_REACTORS
330
D5D
102
}
330
D5D
100
AcDbPlotSettings
  1

  2
ProgeSOFT PDF Wizard
  4

  6

 40
0.0
 41
0.0
 42
0.0
 43
0.0
 44
0.0
 45
0.0
 46
0.0
 47
0.0
 48
0.0
 49
0.0
140
0.0
141
0.0
142
1.0
143
1.0
 70
   688
 72
     0
 73
     0
 74
     5
  7

 75
    16
147
1.0
148
0.0
149
0.0
100
AcDbLayout
  1
Layout1
 70
     1
 71
     1
 10
0.0
 20
0.0
 11
12.0
 21
9.0
 12
0.0
 22
0.0
 32
0.0
 14
1.000000000000000E+20
 24
1.000000000000000E+20
 34
1.000000000000000E+20
 15
-1.000000000000000E+20
 25
-1.000000000000000E+20
 35
-1.000000000000000E+20
146
0.0
 13
0.0
 23
0.0
 33
0.0
 16
1.0
 26
0.0
 36
0.0
 17
0.0
 27
1.0
 37
0.0
 76
     0
330
B
  0
LAYOUT
  5
D5F
102
{ACAD_XDICTIONARY
360
D79
102
}
102
{ACAD_REACTORS
330
D5D
102
}
330
D5D
100
AcDbPlotSettings
  1

  2
ProgeSOFT PDF Wizard
  4

  6

 40
0.0
 41
0.0
 42
0.0
 43
0.0
 44
0.0
 45
0.0
 46
0.0
 47
0.0
 48
0.0
 49
0.0
140
0.0
141
0.0
142
1.0
143
1.0
 70
  1712
 72
     0
 73
     0
 74
     0
  7

 75
     0
147
1.0
148
0.0
149
0.0
100
AcDbLayout
  1
Model
 70
     1
 71
     0
 10
0.0
 20
0.0
 11
12.0
 21
9.0
 12
0.0
 22
0.0
 32
0.0
 14
0.0
 24
0.0
 34
0.0
 15
0.0
 25
0.0
 35
0.0
146
0.0
 13
0.0
 23
0.0
 33
0.0
 16
1.0
 26
0.0
 36
0.0
 17
0.0
 27
1.0
 37
0.0
 76
     0
330
A
  0
MLINESTYLE
  5
1C
102
{ACAD_REACTORS
330
1B
102
}
330
1B
100
AcDbMlineStyle
  2
STANDARD
 70
     0
  3

 62
     0
 51
90.0
 52
90.0
 71
     2
 49
0.5
 62
   256
  6
BYLAYER
 49
-0.5
 62
   256
  6
BYLAYER
  0
ACDBPLACEHOLDER
  5
D5A
102
{ACAD_REACTORS
330
D59
102
}
330
D59
  0
XRECORD
  5
D78
102
{ACAD_REACTORS
330
D76
102
}
330
D76
100
AcDbXrecord
280
     1
340
D5C
  0
XRECORD
  5
D77
102
{ACAD_REACTORS
330
D76
102
}
330
D76
100
AcDbXrecord
280
     1
340
D5B
  0
DICTIONARYVAR
  5
D70
102
{ACAD_REACTORS
330
D6F
102
}
330
D6F
100
DictionaryVariables
280
     0
  1
1
  0
DICTIONARYVAR
  5
D71
102
{ACAD_REACTORS
330
D6F
102
}
330
D6F
100
DictionaryVariables
280
     0
  1

  0
XRECORD
  5
D66
102
{ACAD_REACTORS
330
D64
102
}
330
D64
100
AcDbXrecord
280
     1
  0
DICTIONARY
  5
D7B
330
D60
100
AcDbDictionary
280
     1
281
     1
  3
ACAD_XREC_ROUNDTRIP
360
D7C
  0
DICTIONARY
  5
D79
330
D5F
100
AcDbDictionary
280
     1
281
     1
  3
ACAD_XREC_ROUNDTRIP
360
D7A
  0
XRECORD
  5
D7C
102
{ACAD_REACTORS
330
D7B
102
}
330
D7B
100
AcDbXrecord
280
     1
102
SHADEPLOT
 70
     0
102
SHADEPLOTRESLEVEL
 70
     2
102
SHADEPLOTCUSTOMDPI
 70
   300
  0
XRECORD
  5
D7A
102
{ACAD_REACTORS
330
D79
102
}
330
D79
100
AcDbXrecord
280
     1
102
SHADEPLOT
 70
     0
102
SHADEPLOTRESLEVEL
 70
     2
102
SHADEPLOTCUSTOMDPI
 70
   300
  0
ENDSEC
  0
EOF
