  0
SECTION
  2
HEADER
  9
$ACADVER
  1
AC1015
  9
$ACADMAINTVER
 70
    20
  9
$DWGCODEPAGE
  3
ANSI_1252
  9
$INSBASE
 10
0.0
 20
0.0
 30
0.0
  9
$EXTMIN
 10
-318.8640568877373
 20
-1791.732485866393
 30
0.0
  9
$EXTMAX
 10
1389.889881881942
 20
1091.249245219792
 30
0.0
  9
$LIMMIN
 10
0.0
 20
0.0
  9
$LIMMAX
 10
0.0
 20
0.0
  9
$ORTHOMODE
 70
     0
  9
$REGENMODE
 70
     1
  9
$FILLMODE
 70
     1
  9
$QTEXTMODE
 70
     0
  9
$MIRRTEXT
 70
     1
  9
$LTSCALE
 40
1.0
  9
$ATTMODE
 70
     1
  9
$TEXTSIZE
 40
0.0
  9
$TRACEWID
 40
0.05
  9
$TEXTSTYLE
  7
STANDARD
  9
$CLAYER
  8
0
  9
$CELTYPE
  6
CONTINUOUS
  9
$CECOLOR
 62
   256
  9
$CELTSCALE
 40
1.0
  9
$DISPSILH
 70
     0
  9
$DIMSCALE
 40
1.0
  9
$DIMASZ
 40
6.0
  9
$DIMEXO
 40
1.0
  9
$DIMDLI
 40
0.38
  9
$DIMRND
 40
0.0
  9
$DIMDLE
 40
1.0
  9
$DIMEXE
 40
0.18
  9
$DIMTP
 40
0.0
  9
$DIMTM
 40
0.0
  9
$DIMTXT
 40
3.5
  9
$DIMCEN
 40
0.09
  9
$DIMTSZ
 40
0.0
  9
$DIMTOL
 70
     0
  9
$DIMLIM
 70
     0
  9
$DIMTIH
 70
     1
  9
$DIMTOH
 70
     1
  9
$DIMSE1
 70
     0
  9
$DIMSE2
 70
     0
  9
$DIMTAD
 70
     1
  9
$DIMZIN
 70
     0
  9
$DIMBLK
  1

  9
$DIMASO
 70
     1
  9
$DIMSHO
 70
     1
  9
$DIMPOST
  1

  9
$DIMAPOST
  1

  9
$DIMALT
 70
     0
  9
$DIMALTD
 70
     2
  9
$DIMALTF
 40
0.0394
  9
$DIMLFAC
 40
1.0
  9
$DIMTOFL
 70
     0
  9
$DIMTVP
 40
0.0
  9
$DIMTIX
 70
     0
  9
$DIMSOXD
 70
     0
  9
$DIMSAH
 70
     0
  9
$DIMBLK1
  1

  9
$DIMBLK2
  1

  9
$DIMSTYLE
  2
STANDARD
  9
$DIMCLRD
 70
     0
  9
$DIMCLRE
 70
     0
  9
$DIMCLRT
 70
     0
  9
$DIMTFAC
 40
1.0
  9
$DIMGAP
 40
1.0
  9
$DIMJUST
 70
     0
  9
$DIMSD1
 70
     0
  9
$DIMSD2
 70
     0
  9
$DIMTOLJ
 70
     1
  9
$DIMTZIN
 70
     0
  9
$DIMALTZ
 70
     0
  9
$DIMALTTZ
 70
     0
  9
$DIMUPT
 70
     0
  9
$DIMDEC
 70
     4
  9
$DIMTDEC
 70
     4
  9
$DIMALTU
 70
     2
  9
$DIMALTTD
 70
     2
  9
$DIMTXSTY
  7
STANDARD
  9
$DIMAUNIT
 70
     0
  9
$DIMADEC
 70
     0
  9
$DIMALTRND
 40
0.0
  9
$DIMAZIN
 70
     0
  9
$DIMDSEP
 70
    46
  9
$DIMATFIT
 70
     3
  9
$DIMFRAC
 70
     0
  9
$DIMLDRBLK
  1

  9
$DIMLUNIT
 70
     2
  9
$DIMLWD
 70
    -2
  9
$DIMLWE
 70
    -2
  9
$DIMTMOVE
 70
     0
  9
$LUNITS
 70
     2
  9
$LUPREC
 70
     2
  9
$SKETCHINC
 40
0.1
  9
$FILLETRAD
 40
0.0
  9
$AUNITS
 70
     0
  9
$AUPREC
 70
     2
  9
$MENU
  1
acad
  9
$ELEVATION
 40
0.0
  9
$PELEVATION
 40
0.0
  9
$THICKNESS
 40
0.0
  9
$LIMCHECK
 70
     0
  9
$CHAMFERA
 40
0.0
  9
$CHAMFERB
 40
0.0
  9
$CHAMFERC
 40
0.0
  9
$CHAMFERD
 40
0.0
  9
$SKPOLY
 70
     0
  9
$TDCREATE
 40
2444972.041666667
  9
$TDUCREATE
 40
2444972.000000000
  9
$TDUPDATE
 40
2453768.769389468
  9
$TDUUPDATE
 40
2453768.727722801
  9
$TDINDWG
 40
0.0118704861
  9
$TDUSRTIMER
 40
0.0118704861
  9
$USRTIMER
 70
     1
  9
$ANGBASE
 50
0.0
  9
$ANGDIR
 70
     0
  9
$PDMODE
 70
     0
  9
$PDSIZE
 40
-1.0
  9
$PLINEWID
 40
0.0
  9
$SPLFRAME
 70
     0
  9
$SPLINETYPE
 70
     6
  9
$SPLINESEGS
 70
     8
  9
$HANDSEED
  5
CFE
  9
$SURFTAB1
 70
     6
  9
$SURFTAB2
 70
     6
  9
$SURFTYPE
 70
     6
  9
$SURFU
 70
     6
  9
$SURFV
 70
     6
  9
$UCSBASE
  2

  9
$UCSNAME
  2

  9
$UCSORG
 10
0.0
 20
0.0
 30
0.0
  9
$UCSXDIR
 10
1.0
 20
0.0
 30
0.0
  9
$UCSYDIR
 10
0.0
 20
1.0
 30
0.0
  9
$UCSORTHOREF
  2

  9
$UCSORTHOVIEW
 70
     1
  9
$UCSORGTOP
 10
0.0
 20
0.0
 30
0.0
  9
$UCSORGBOTTOM
 10
0.0
 20
0.0
 30
0.0
  9
$UCSORGLEFT
 10
0.0
 20
0.0
 30
0.0
  9
$UCSORGRIGHT
 10
0.0
 20
0.0
 30
0.0
  9
$UCSORGFRONT
 10
0.0
 20
0.0
 30
0.0
  9
$UCSORGBACK
 10
0.0
 20
0.0
 30
0.0
  9
$PUCSBASE
  2

  9
$PUCSNAME
  2

  9
$PUCSORG
 10
0.0
 20
0.0
 30
0.0
  9
$PUCSXDIR
 10
1.0
 20
0.0
 30
0.0
  9
$PUCSYDIR
 10
0.0
 20
1.0
 30
0.0
  9
$PUCSORTHOREF
  2

  9
$PUCSORTHOVIEW
 70
     0
  9
$PUCSORGTOP
 10
0.0
 20
0.0
 30
0.0
  9
$PUCSORGBOTTOM
 10
0.0
 20
0.0
 30
0.0
  9
$PUCSORGLEFT
 10
0.0
 20
0.0
 30
0.0
  9
$PUCSORGRIGHT
 10
0.0
 20
0.0
 30
0.0
  9
$PUCSORGFRONT
 10
0.0
 20
0.0
 30
0.0
  9
$PUCSORGBACK
 10
0.0
 20
0.0
 30
0.0
  9
$USERI1
 70
     0
  9
$USERI2
 70
     0
  9
$USERI3
 70
     0
  9
$USERI4
 70
     0
  9
$USERI5
 70
     0
  9
$USERR1
 40
0.0
  9
$USERR2
 40
0.0
  9
$USERR3
 40
0.0
  9
$USERR4
 40
0.0
  9
$USERR5
 40
0.0
  9
$WORLDVIEW
 70
     1
  9
$SHADEDGE
 70
     3
  9
$SHADEDIF
 70
    70
  9
$TILEMODE
 70
     1
  9
$MAXACTVP
 70
    16
  9
$PINSBASE
 10
0.0
 20
0.0
 30
0.0
  9
$PLIMCHECK
 70
     0
  9
$PEXTMIN
 10
1.000000000000000E+20
 20
1.000000000000000E+20
 30
1.000000000000000E+20
  9
$PEXTMAX
 10
-1.000000000000000E+20
 20
-1.000000000000000E+20
 30
-1.000000000000000E+20
  9
$PLIMMIN
 10
0.0
 20
0.0
  9
$PLIMMAX
 10
12.0
 20
9.0
  9
$UNITMODE
 70
     0
  9
$VISRETAIN
 70
     0
  9
$PLINEGEN
 70
     1
  9
$PSLTSCALE
 70
     1
  9
$TREEDEPTH
 70
  3020
  9
$CMLSTYLE
  2
STANDARD
  9
$CMLJUST
 70
     0
  9
$CMLSCALE
 40
1.0
  9
$PROXYGRAPHICS
 70
     0
  9
$MEASUREMENT
 70
     0
  9
$CELWEIGHT
370
    -1
  9
$ENDCAPS
280
     0
  9
$JOINSTYLE
280
     0
  9
$LWDISPLAY
290
     0
  9
$INSUNITS
 70
     0
  9
$HYPERLINKBASE
  1

  9
$STYLESHEET
  1

  9
$XEDIT
290
     1
  9
$CEPSNTYPE
380
     0
  9
$PSTYLEMODE
290
     1
  9
$FINGERPRINTGUID
  2
{CAD523AE-BF9E-46FA-B43A-7294FE4AA664}
  9
$VERSIONGUID
  2
{333538CB-8C94-489A-A574-EB03F66AAD11}
  9
$EXTNAMES
290
     1
  9
$PSVPSCALE
 40
0.0
  9
$OLESTARTUP
290
     0
  0
ENDSEC
  0
SECTION
  2
CLASSES
  0
CLASS
  1
IMAGE
  2
AcDbRasterImage
  3
ISM
 90
    32895
280
     0
281
     1
  0
CLASS
  1
DICTIONARYVAR
  2
AcDbDictionaryVar
  3
ObjectDBX Classes
 90
        0
280
     0
281
     0
  0
CLASS
  1
RASTERVARIABLES
  2
AcDbRasterVariables
  3
ISM
 90
    32768
280
     0
281
     0
  0
CLASS
  1
IMAGEDEF
  2
AcDbRasterImageDef
  3
ISM
 90
    32768
280
     0
281
     0
  0
CLASS
  1
IMAGEDEF_REACTOR
  2
AcDbRasterImageDefReactor
  3
ISM
 90
    32769
280
     0
281
     0
  0
CLASS
  1
IDBUFFER
  2
AcDbIdBuffer
  3
ObjectDBX Classes
 90
    32768
280
     0
281
     0
  0
CLASS
  1
SPATIAL_FILTER
  2
AcDbSpatialFilter
  3
ObjectDBX Classes
 90
    32768
280
     0
281
     0
  0
CLASS
  1
SORTENTSTABLE
  2
AcDbSortentsTable
  3
ObjectDBX Classes
 90
    32768
280
     0
281
     0
  0
CLASS
  1
LAYER_INDEX
  2
AcDbLayerIndex
  3
ObjectDBX Classes
 90
    32768
280
     0
281
     0
  0
CLASS
  1
SPATIAL_INDEX
  2
AcDbSpatialIndex
  3
ObjectDBX Classes
 90
    32768
280
     0
281
     0
  0
CLASS
  1
OBJECT_PTR
  2
CAseDLPNTableRecord
  3
ASE-LPNTableRecord
 90
    32769
280
     0
281
     0
  0
CLASS
  1
LAYOUT
  2
AcDbLayout
  3
ObjectDBX Classes
 90
        0
280
     0
281
     0
  0
CLASS
  1
PLOTSETTINGS
  2
AcDbPlotSettings
  3
ObjectDBX Classes
 90
    32768
280
     0
281
     0
  0
CLASS
  1
ACDBDICTIONARYWDFLT
  2
AcDbDictionaryWithDefault
  3
ObjectDBX Classes
 90
        0
280
     0
281
     0
  0
CLASS
  1
ACDBPLACEHOLDER
  2
AcDbPlaceHolder
  3
ObjectDBX Classes
 90
        0
280
     0
281
     0
  0
CLASS
  1
VBA_PROJECT
  2
AcDbVbaProject
  3
acad
 90
    32768
280
     0
281
     0
  0
CLASS
  1
WIPEOUT
  2
AcDbWipeout
  3
"WipeOut|Product Desc: Object Enabler for WipeOut entity^I^I^I^I^I^I|Company: Autodesk, Inc.^I^I^I^I^I^I|WEB Address: www.autodesk.com"
 90
    32895
280
     0
281
     1
  0
CLASS
  1
WIPEOUTVARIABLES
  2
AcDbWipeoutVariables
  3
"WipeOut|Product Desc:     WipeOut Dbx Application|Company:          Autodesk, Inc.|WEB Address:      www.autodesk.com"
 90
    32768
280
     0
281
     0
  0
CLASS
  1
RTEXT
  2
RText
  3
RText|AutoCAD Express Tool|expresstools@autodesk.com
 90
    32768
280
     0
281
     1
  0
CLASS
  1
ARCALIGNEDTEXT
  2
AcDbArcAlignedText
  3
ATEXT|AutoCAD Express Tool|expresstools@autodesk.com
 90
    32768
280
     0
281
     1
  0
ENDSEC
  0
SECTION
  2
TABLES
  0
TABLE
  2
VPORT
  5
7
330
0
100
AcDbSymbolTable
 70
     2
  0
VPORT
  5
CF6
330
7
100
AcDbSymbolTableRecord
100
AcDbViewportTableRecord
  2
*Active
 70
     0
 10
0.0
 20
0.0
 11
1.0
 21
1.0
 12
691.2936505276539
 22
-350.2416203233006
 13
0.0
 23
0.0
 14
1.0
 24
1.0
 15
0.0
 25
0.0
 16
0.0
 26
0.0
 36
1.0
 17
0.0
 27
0.0
 37
0.0
 40
2906.760401300819
 41
1.569570871261378
 42
50.0
 43
0.0
 44
0.0
 50
0.0
 51
0.0
 71
     0
 72
  2000
 73
     1
 74
     1
 75
     0
 76
     0
 77
     0
 78
     0
281
     0
 65
     1
110
0.0
120
0.0
130
0.0
111
1.0
121
0.0
131
0.0
112
0.0
122
1.0
132
0.0
 79
     1
146
0.0
  0
ENDTAB
  0
TABLE
  2
LTYPE
  5
4
330
0
100
AcDbSymbolTable
 70
     6
  0
LTYPE
  5
11
330
4
100
AcDbSymbolTableRecord
100
AcDbLinetypeTableRecord
  2
BYBLOCK
 70
     0
  3

 72
    65
 73
     0
 40
0.0
  0
LTYPE
  5
12
330
4
100
AcDbSymbolTableRecord
100
AcDbLinetypeTableRecord
  2
BYLAYER
 70
     0
  3

 72
    65
 73
     0
 40
0.0
  0
LTYPE
  5
13
330
4
100
AcDbSymbolTableRecord
100
AcDbLinetypeTableRecord
  2
CONTINUOUS
 70
     0
  3
Solid line
 72
    65
 73
     0
 40
0.0
  0
LTYPE
  5
1E
330
4
100
AcDbSymbolTableRecord
100
AcDbLinetypeTableRecord
  2
HIDDEN
 70
     0
  3
Hidden __ __ __ __ __ __ __ __ __ __ __ __ __ __
 72
    65
 73
     2
 40
1.905
 49
1.27
 74
     0
 49
-0.635
 74
     0
  0
LTYPE
  5
1F
330
4
100
AcDbSymbolTableRecord
100
AcDbLinetypeTableRecord
  2
PHANTOM
 70
     0
  3
Phantom ______  __  __  ______  __  __  ______
 72
    65
 73
     6
 40
12.7
 49
6.349999999999999
 74
     0
 49
-1.27
 74
     0
 49
1.27
 74
     0
 49
-1.27
 74
     0
 49
1.27
 74
     0
 49
-1.27
 74
     0
  0
LTYPE
  5
20
330
4
100
AcDbSymbolTableRecord
100
AcDbLinetypeTableRecord
  2
CENTER
 70
     0
  3
Center ____ _ ____ _ ____ _ ____ _ ____ _ ____
 72
    65
 73
     4
 40
10.16
 49
6.349999999999999
 74
     0
 49
-1.27
 74
     0
 49
1.27
 74
     0
 49
-1.27
 74
     0
  0
LTYPE
  5
21
330
4
100
AcDbSymbolTableRecord
100
AcDbLinetypeTableRecord
  2
CENTERX2
 70
     0
  3
Center (2x) ________  __  ________  __  _____
 72
    65
 73
     4
 40
20.32
 49
12.7
 74
     0
 49
-2.54
 74
     0
 49
2.54
 74
     0
 49
-2.54
 74
     0
  0
LTYPE
  5
22
330
4
100
AcDbSymbolTableRecord
100
AcDbLinetypeTableRecord
  2
DOT2
 70
     0
  3
Dot (.5x) ........................................
 72
    65
 73
     2
 40
0.635
 49
0.0
 74
     0
 49
-0.635
 74
     0
  0
ENDTAB
  0
TABLE
  2
LAYER
  5
2
330
0
100
AcDbSymbolTable
 70
     2
  0
LAYER
  5
14
330
2
100
AcDbSymbolTableRecord
100
AcDbLayerTableRecord
  2
0
 70
     0
 62
     7
  6
CONTINUOUS
370
    -3
390
CDB
  0
LAYER
  5
26
330
2
100
AcDbSymbolTableRecord
100
AcDbLayerTableRecord
  2
DEFPOINTS
 70
     0
 62
     7
  6
CONTINUOUS
290
     0
370
    -3
390
CDB
  0
ENDTAB
  0
TABLE
  2
STYLE
  5
3
330
0
100
AcDbSymbolTable
 70
     1
  0
STYLE
  5
17
330
3
100
AcDbSymbolTableRecord
100
AcDbTextStyleTableRecord
  2
STANDARD
 70
     0
 40
0.0
 41
1.0
 50
0.0
 71
     0
 42
0.0
  3
Century Gothic
  4

  0
ENDTAB
  0
TABLE
  2
VIEW
  5
5
330
0
100
AcDbSymbolTable
 70
     0
  0
ENDTAB
  0
TABLE
  2
UCS
  5
6
330
0
100
AcDbSymbolTable
 70
     0
  0
ENDTAB
  0
TABLE
  2
APPID
  5
8
330
0
100
AcDbSymbolTable
 70
     2
  0
APPID
  5
16
330
8
100
AcDbSymbolTableRecord
100
AcDbRegAppTableRecord
  2
ACAD
 70
     0
  0
APPID
  5
CE6
330
8
100
AcDbSymbolTableRecord
100
AcDbRegAppTableRecord
  2
DCO15
 70
     0
  0
ENDTAB
  0
TABLE
  2
DIMSTYLE
  5
9
330
0
100
AcDbSymbolTable
 70
     1
100
AcDbDimStyleTable
 71
     0
  0
DIMSTYLE
105
18
330
9
100
AcDbSymbolTableRecord
100
AcDbDimStyleTableRecord
  2
STANDARD
 70
     0
289
     0
340
17
  0
ENDTAB
  0
TABLE
  2
BLOCK_RECORD
  5
1
330
0
100
AcDbSymbolTable
 70
     0
  0
BLOCK_RECORD
  5
A
330
1
100
AcDbSymbolTableRecord
100
AcDbBlockTableRecord
  2
*MODEL_SPACE
340
CE0
  0
BLOCK_RECORD
  5
B
330
1
100
AcDbSymbolTableRecord
100
AcDbBlockTableRecord
  2
*PAPER_SPACE
340
CE1
  0
ENDTAB
  0
ENDSEC
  0
SECTION
  2
BLOCKS
  0
BLOCK
  5
D
330
A
100
AcDbEntity
  8
0
100
AcDbBlockBegin
  2
*MODEL_SPACE
 70
     0
 10
0.0
 20
0.0
 30
0.0
  3
*MODEL_SPACE
  1

  0
ENDBLK
  5
E
330
A
100
AcDbEntity
  8
0
100
AcDbBlockEnd
  0
BLOCK
  5
F
330
B
100
AcDbEntity
 67
     1
  8
0
100
AcDbBlockBegin
  2
*PAPER_SPACE
 70
     0
 10
0.0
 20
0.0
 30
0.0
  3
*PAPER_SPACE
  1

  0
ENDBLK
  5
10
330
B
100
AcDbEntity
 67
     1
  8
0
100
AcDbBlockEnd
  0
ENDSEC
  0
SECTION
  2
ENTITIES
  0
ARC
  5
27
330
A
100
AcDbEntity
  8
0
  6
Continuous
 62
     7
100
AcDbCircle
 10
37.50637611981583
 20
1291.405403249684
 30
0.0
 40
250.9999999999999
100
AcDbArc
 50
248.7431291678446
 51
259.0697639830231
  0
ARC
  5
28
330
A
100
AcDbEntity
  8
0
  6
Continuous
 62
     7
100
AcDbCircle
 10
37.50637611981583
 20
1291.405403249684
 30
0.0
 40
250.9999999999999
100
AcDbArc
 50
259.5293779214026
 51
280.4706220785989
  0
ARC
  5
29
330
A
100
AcDbEntity
  8
0
  6
Continuous
 62
     7
100
AcDbCircle
 10
37.50637611981583
 20
1291.405403249684
 30
0.0
 40
250.9999999999999
100
AcDbArc
 50
280.9302360169785
 51
291.256870832157
  0
LINE
  5
2A
330
A
100
AcDbEntity
  8
0
  6
Continuous
 62
     7
100
AcDbLine
 10
-53.49362388018414
 20
1064.167327455872
 30
0.0
 11
-53.49362388018414
 21
1057.482338974269
 31
0.0
  0
LINE
  5
2B
330
A
100
AcDbEntity
  8
0
  6
Continuous
 62
     7
100
AcDbLine
 10
128.5063761198158
 20
1057.482338974269
 30
0.0
 11
128.5063761198158
 21
1064.167327455872
 31
0.0
  0
LINE
  5
2C
330
A
100
AcDbEntity
  8
0
  6
Continuous
 62
     7
100
AcDbLine
 10
-28.49362388018414
 20
1091.167327455872
 30
0.0
 11
-28.49362388018414
 21
1064.167327455872
 31
0.0
  0
LINE
  5
2D
330
A
100
AcDbEntity
  8
0
  6
Continuous
 62
     7
100
AcDbLine
 10
103.5063761198159
 20
1064.167327455872
 30
0.0
 11
103.5063761198159
 21
1091.167327455872
 31
0.0
  0
LWPOLYLINE
  5
2E
330
A
100
AcDbEntity
  8
0
  6
Continuous
 62
     7
100
AcDbPolyline
 90
        9
 70
   128
 43
0.0
 10
30.56249177336615
 20
-765.8326725441281
 10
33.01512151317404
 20
-646.8756421893231
 10
33.63662792133282
 20
-617.4404518956962
 10
33.79005602964543
 20
-610.2336879699594
 10
33.8458003906535
 20
-607.6215282110609
 10
33.92467868808016
 20
-603.9312613734529
 10
34.08075763311238
 20
-596.64938033347
 10
34.6737749277396
 20
-569.2378743614413
 10
37.05365288057897
 20
-466.0823185833717
  0
LWPOLYLINE
  5
39
330
A
100
AcDbEntity
  8
0
  6
Continuous
 62
     7
100
AcDbPolyline
 90
        9
 70
   128
 43
0.0
 10
27.05159016210168
 20
-455.832672546095
 10
29.03142709074503
 20
-456.0305816773178
 10
30.93440775513847
 20
-456.6171914162542
 10
32.68342360116457
 20
-457.5692399898987
 10
34.20911760841511
 20
-458.8489740225448
 10
35.45098855808293
 20
-460.4056458096351
 10
36.35979020177287
 20
-462.1775257120981
 10
36.899484115767
 20
-464.0943500380211
 10
37.04866880053506
 20
-466.0801073411988
  0
LWPOLYLINE
  5
44
330
A
100
AcDbEntity
  8
0
  6
Continuous
 62
     7
100
AcDbPolyline
 90
       64
 70
   128
 43
0.0
 10
-286.8706849903482
 20
-465.4522866125581
 10
-287.0790805934624
 20
-470.9438424338554
 10
-287.3507524278148
 20
-477.9898513413107
 10
-287.5789744567579
 20
-483.824580061024
 10
-287.7206195428204
 20
-487.4057239776033
 10
-287.8362451705448
 20
-490.3055227885773
 10
-287.9252879463032
 20
-492.5239764939466
 10
-287.9872892135736
 20
-494.0610850937107
 10
-288.0391479315233
 20
-495.3419787121709
 10
-288.0979671621743
 20
-496.7895515476188
 10
-288.1786155701442
 20
-498.7650869443667
 10
-288.2814633240505
 20
-501.2685849024145
 10
-288.4070090820117
 20
-504.3000454217625
 10
-288.55590129207
 20
-507.8594685024103
 10
-288.7624861642448
 20
-512.7323017223939
 10
-288.9963427334141
 20
-518.1543699839084
 10
-289.2290948911237
 20
-523.4503825209215
 10
-289.4579583694035
 20
-528.5579348936935
 10
-289.7251586840984
 20
-534.3926296811467
 10
-289.9863940774015
 20
-539.9602323990975
 10
-290.241353969504
 20
-545.2607430475458
 10
-290.4896773965543
 20
-550.2941616264918
 10
-290.7260946381899
 20
-554.9658520640332
 10
-290.9200282142175
 20
-558.7094331068302
 10
-291.0463460123974
 20
-561.1045753962364
 10
-291.1376031250243
 20
-562.8136304466933
 10
-291.2537876991951
 20
-564.9645093861311
 10
-291.418491908702
 20
-567.9672791970713
 10
-291.6345096147172
 20
-571.8219398795143
 10
-291.9061075302179
 20
-576.5284914334596
 10
-292.2212969087381
 20
-581.7892715272392
 10
-293.1085537841134
 20
-595.4492669468159
 10
-294.0182497276493
 20
-607.8090222991254
 10
-294.348493824493
 20
-611.9250228040892
 10
-294.63449096521
 20
-615.3439221652249
 10
-294.8679992529478
 20
-618.0398472461575
 10
-295.0463172242395
 20
-620.0425827276867
 10
-295.2630871460322
 20
-622.4139119754193
 10
-295.5660580110934
 20
-625.6171880469377
 10
-295.9689104703766
 20
-629.686879602975
 10
-296.4407052631431
 20
-634.1970886073043
 10
-296.9173400054202
 20
-638.4993651201528
 10
-297.7697638573997
 20
-645.6478369665042
 10
-298.607154380602
 20
-652.1117166755812
 10
-299.5121207730849
 20
-658.6112573914342
 10
-300.5839396871963
 20
-665.8163429734225
 10
-301.1971544513252
 20
-669.7554090662195
 10
-301.8564955933737
 20
-673.8773337292809
 10
-302.5045772532676
 20
-677.8354815791772
 10
-303.0171373188543
 20
-680.9115038185638
 10
-303.3832114398212
 20
-683.0833550043622
 10
-303.5651073703732
 20
-684.1555058346915
 10
-303.6950310420461
 20
-684.9186786400289
 10
-303.9224558811945
 20
-686.2495379222535
 10
-304.2618497572429
 20
-688.2242928240327
 10
-304.7153145613492
 20
-690.8429433453668
 10
-305.5607812836615
 20
-695.669520846658
 10
-306.6507808604455
 20
-701.7952808189646
 10
-307.9954794275631
 20
-709.2202232622866
 10
-309.6054198820441
 20
-717.9443481766242
 10
-311.4905348487273
 20
-727.9676555619769
 10
-313.6589476210241
 20
-739.2901454183453
 10
-316.1156915570825
 20
-751.9118177457293
 10
-318.8640568877373
 20
-765.8326725441286
  0
LWPOLYLINE
  5
86
330
A
100
AcDbEntity
  8
0
  6
Continuous
 62
     7
100
AcDbPolyline
 90
        9
 70
   128
 43
0.0
 10
-286.6896778681713
 20
-465.432970791284
 10
-286.4317840444627
 20
-463.5259698297207
 10
-285.8185973260863
 20
-461.7044352897921
 10
-284.8728371013215
 20
-460.0358574631768
 10
-283.6295450517987
 20
-458.5820593906893
 10
-282.1347868113149
 20
-457.3969062359061
 10
-280.4439451724701
 20
-456.5243095087921
 10
-278.6196680801081
 20
-455.9966000855064
 10
-276.7465265645772
 20
-455.8331475308772
  0
LWPOLYLINE
  5
91
330
A
100
AcDbEntity
  8
0
  6
Continuous
 62
     7
100
AcDbPolyline
 90
       31
 70
   128
 43
0.0
 10
347.654384911237
 20
-765.8326725441278
 10
347.2682639519616
 20
-743.7452302051823
 10
346.9012546841664
 20
-722.6960802970741
 10
346.5562714509704
 20
-702.6852228198032
 10
346.2364319980575
 20
-683.7126577733698
 10
345.9443581112231
 20
-665.7783851577739
 10
345.6817508366531
 20
-648.8824049730151
 10
345.4616708098379
 20
-633.9029004783238
 10
345.2678431665201
 20
-619.8464167650055
 10
345.0989507090255
 20
-606.7129538330602
 10
344.9529495876257
 20
-594.502511682488
 10
344.8265819110016
 20
-583.2181452673028
 10
344.7214368552172
 20
-573.3941394313535
 10
344.6293855957834
 20
-564.4091360676464
 10
344.5495682106429
 20
-556.2631351761813
 10
344.4811451880521
 20
-548.9561367569582
 10
344.423303159672
 20
-542.4881408099772
 10
344.3736191517048
 20
-536.6622257310065
 10
344.3488539472972
 20
-533.6480136497844
 10
344.3238394164859
 20
-530.5241830349436
 10
344.2984520456786
 20
-527.2678674109487
 10
344.2721226909864
 20
-523.7897764928965
 10
344.244951177548
 20
-520.0809004588773
 10
344.2161027896951
 20
-515.9973846265144
 10
344.1855129760329
 20
-511.5012649587926
 10
344.149548997249
 20
-505.9652408332707
 10
344.1093034666443
 20
-499.3893122499482
 10
344.0660975149488
 20
-491.7734792088254
 10
344.0215007045261
 20
-483.1177417099026
 10
343.9773546111715
 20
-473.4220997531795
 10
343.9477266933021
 20
-465.7677137802133
  0
LWPOLYLINE
  5
B2
330
A
100
AcDbEntity
  8
0
  6
Continuous
 62
     7
100
AcDbPolyline
 90
        9
 70
   128
 43
0.0
 10
334.1191913158741
 20
-455.8326729322559
 10
336.0706643354492
 20
-456.0254894982172
 10
337.9469871600146
 20
-456.5954370721621
 10
339.6760066019709
 20
-457.5205985651513
 10
341.1912339619728
 20
-458.7653972896934
 10
342.434401823278
 20
-460.2819650459673
 10
343.35770470021
 20
-462.0119828728686
 10
343.9256373775588
 20
-463.8889236785872
 10
344.1163602483674
 20
-465.840610511325
  0
LINE
  5
BD
330
A
100
AcDbEntity
  8
0
  6
Continuous
 62
     7
100
AcDbLine
 10
36.50637611981585
 20
1040.407395289461
 30
0.0
 11
36.50637611981585
 21
-434.8326725441278
 31
0.0
  0
LINE
  5
BE
330
A
100
AcDbEntity
  8
0
  6
Continuous
 62
     7
100
AcDbLine
 10
38.50637611981586
 20
-434.8326725441278
 30
0.0
 11
38.50637611981586
 21
1040.407395289461
 31
0.0
  0
LINE
  5
BF
330
A
100
AcDbEntity
  8
0
  6
Continuous
 62
     7
100
AcDbLine
 10
-6.792370210699838
 20
1091.238329903366
 30
0.0
 11
-6.7974243140929
 21
1091.167327455872
 31
0.0
  0
LINE
  5
C0
330
A
100
AcDbEntity
  8
0
  6
Continuous
 62
     7
100
AcDbLine
 10
-9.983697172300464
 20
1046.405051395311
 30
0.0
 11
-116.1331315418789
 21
-444.8326725441278
 31
0.0
  0
LINE
  5
C1
330
A
100
AcDbEntity
  8
0
  6
Continuous
 62
     7
100
AcDbLine
 10
-114.1280710525058
 20
-444.8326725441278
 30
0.0
 11
-8.005271055837038
 21
1046.03087906107
 31
0.0
  0
LINE
  5
C2
330
A
100
AcDbEntity
  8
0
  6
Continuous
 62
     7
100
AcDbLine
 10
83.01802329546836
 20
1046.03087906107
 30
0.0
 11
189.1408232921362
 21
-444.8326725441278
 31
0.0
  0
LINE
  5
C3
330
A
100
AcDbEntity
  8
0
  6
Continuous
 62
     7
100
AcDbLine
 10
191.1458837815094
 20
-444.8326725441278
 30
0.0
 11
84.9964494119318
 21
1046.405051395311
 31
0.0
  0
LINE
  5
C4
330
A
100
AcDbEntity
  8
0
  6
Continuous
 62
     7
100
AcDbLine
 10
81.81017655372425
 20
1091.167327455872
 30
0.0
 11
81.80512245033122
 21
1091.238329903366
 31
0.0
  0
LINE
  5
C5
330
A
100
AcDbEntity
  8
0
  6
Continuous
 62
     7
100
AcDbLine
 10
221.5608217820922
 20
-454.8326725441278
 30
0.0
 11
221.5608217820922
 21
-444.8326725441278
 31
0.0
  0
LINE
  5
C6
330
A
100
AcDbEntity
  8
0
  6
Continuous
 62
     7
100
AcDbLine
 10
156.5608217820922
 20
-444.8326725441278
 30
0.0
 11
156.5608217820922
 21
-454.8326725441278
 31
0.0
  0
LINE
  5
C7
330
A
100
AcDbEntity
  8
0
  6
Continuous
 62
     7
100
AcDbLine
 10
-81.5480695424609
 20
-454.8326725441278
 30
0.0
 11
-81.5480695424609
 21
-444.8326725441278
 31
0.0
  0
LINE
  5
C8
330
A
100
AcDbEntity
  8
0
  6
Continuous
 62
     7
100
AcDbLine
 10
-146.5480695424609
 20
-444.8326725441278
 30
0.0
 11
-146.5480695424609
 21
-454.8326725441278
 31
0.0
  0
LINE
  5
C9
330
A
100
AcDbEntity
  8
0
  6
Continuous
 62
     7
100
AcDbLine
 10
168.0608217820922
 20
-454.8326725441278
 30
0.0
 11
168.0608217820922
 21
-455.8326725441297
 31
0.0
  0
LINE
  5
CA
330
A
100
AcDbEntity
  8
0
  6
Continuous
 62
     7
100
AcDbLine
 10
210.0608217820922
 20
-455.8326725441282
 30
0.0
 11
210.0608217820922
 21
-454.8326725441278
 31
0.0
  0
LINE
  5
CB
330
A
100
AcDbEntity
  8
0
  6
Continuous
 62
     7
100
AcDbLine
 10
-135.0480695424609
 20
-454.8326725441278
 30
0.0
 11
-135.0480695424609
 21
-455.8326725441266
 31
0.0
  0
LINE
  5
CC
330
A
100
AcDbEntity
  8
0
  6
Continuous
 62
     7
100
AcDbLine
 10
-93.04806954246092
 20
-455.8326725441288
 30
0.0
 11
-93.04806954246092
 21
-454.8326725441278
 31
0.0
  0
LINE
  5
CD
330
A
100
AcDbEntity
  8
0
  6
Continuous
 62
     7
100
AcDbLine
 10
107.5063761198154
 20
-435.0737948741318
 30
0.0
 11
105.6532762694191
 21
-434.8326725441278
 31
0.0
  0
LINE
  5
CE
330
A
100
AcDbEntity
  8
0
  6
Continuous
 62
     7
100
AcDbLine
 10
-30.64052402978744
 20
-434.8326725441278
 30
0.0
 11
-32.49362388018369
 21
-435.0737948741318
 31
0.0
  0
LINE
  5
CF
330
A
100
AcDbEntity
  8
0
  6
Continuous
 62
     7
100
AcDbLine
 10
107.5063761198158
 20
-435.5261859612706
 30
0.0
 11
107.5063761198154
 21
-435.0737948741318
 31
0.0
  0
LINE
  5
D0
330
A
100
AcDbEntity
  8
0
  6
Continuous
 62
     7
100
AcDbLine
 10
-32.49362388018369
 20
-435.0737948741318
 30
0.0
 11
-32.49362388018415
 21
-435.5261859612706
 31
0.0
  0
LINE
  5
D1
330
A
100
AcDbEntity
  8
0
  6
Continuous
 62
     7
100
AcDbLine
 10
16.50637611981587
 20
-454.8326725441278
 30
0.0
 11
16.50637611981587
 21
-455.8326725441264
 31
0.0
  0
LINE
  5
D2
330
A
100
AcDbEntity
  8
0
  6
Continuous
 62
     7
100
AcDbLine
 10
58.50637611981585
 20
-455.8326725441292
 30
0.0
 11
58.50637611981585
 21
-454.8326725441278
 31
0.0
  0
LINE
  5
D3
330
A
100
AcDbEntity
  8
0
  6
Continuous
 62
     7
100
AcDbLine
 10
37.50637611981586
 20
1057.482338974269
 30
0.0
 11
128.5063761198158
 21
1057.482338974269
 31
0.0
  0
LINE
  5
D4
330
A
100
AcDbEntity
  8
0
  6
Continuous
 62
     7
100
AcDbLine
 10
-53.49362388018414
 20
1057.482338974269
 30
0.0
 11
37.50637611981586
 21
1057.482338974269
 31
0.0
  0
LINE
  5
D5
330
A
100
AcDbEntity
  8
0
  6
Continuous
 62
     7
100
AcDbLine
 10
37.50637611981586
 20
1064.167327455872
 30
0.0
 11
128.5063761198158
 21
1064.167327455872
 31
0.0
  0
LINE
  5
D6
330
A
100
AcDbEntity
  8
0
  6
Continuous
 62
     7
100
AcDbLine
 10
-53.49362388018414
 20
1064.167327455872
 30
0.0
 11
37.50637611981586
 21
1064.167327455872
 31
0.0
  0
LINE
  5
D7
330
A
100
AcDbEntity
  8
0
  6
Continuous
 62
     7
100
AcDbLine
 10
37.50637611981586
 20
1091.167327455872
 30
0.0
 11
103.5063761198159
 21
1091.167327455872
 31
0.0
  0
LINE
  5
D8
330
A
100
AcDbEntity
  8
0
  6
Continuous
 62
     7
100
AcDbLine
 10
-28.49362388018414
 20
1091.167327455872
 30
0.0
 11
37.50637611981586
 21
1091.167327455872
 31
0.0
  0
LINE
  5
D9
330
A
100
AcDbEntity
  8
0
  6
Continuous
 62
     7
100
AcDbLine
 10
-121.3440560822085
 20
-765.8326725441297
 30
0.0
 11
-119.4712453438429
 21
-466.6257286374579
 31
0.0
  0
LINE
  5
DA
330
A
100
AcDbEntity
  8
0
  6
Continuous
 62
     7
100
AcDbLine
 10
-119.471282421251
 20
-466.6242518887946
 30
0.0
 11
-119.4712453438428
 21
-466.6257286374578
 31
0.0
  0
LINE
  5
DB
330
A
100
AcDbEntity
  8
0
  6
Continuous
 62
     7
100
AcDbLine
 10
30.46973349168514
 20
-765.8326725441276
 30
0.0
 11
-121.3440560822072
 21
-765.8326725441284
 31
0.0
  0
LWPOLYLINE
  5
DC
330
A
100
AcDbEntity
  8
0
  6
Continuous
 62
     7
100
AcDbPolyline
 90
        7
 70
   128
 43
0.0
 10
-119.471282421251
 20
-466.6242518887946
 10
-119.2579106212781
 20
-463.2799613350082
 10
-118.2690453128173
 20
-460.2234696073808
 10
-116.6161734532132
 20
-457.7993724734475
 10
-114.4856432173919
 20
-456.2809681656434
 10
-112.7277620727851
 20
-455.8446652302639
 10
-112.379451819428
 20
-455.8326725441297
  0
LINE
  5
E5
330
A
100
AcDbEntity
  8
0
  6
Continuous
 62
     7
100
AcDbLine
 10
-112.3794518194279
 20
-455.8326725441297
 30
0.0
 11
27.01593665773863
 21
-455.8326725441288
 31
0.0
  0
LWPOLYLINE
  5
E6
330
A
100
AcDbEntity
  8
0
  6
Continuous
 62
     7
100
AcDbPolyline
 90
        3
 70
   128
 43
0.0
 10
-286.5764318589726
 20
-465.4416007227366
 10
-286.8329721642289
 20
-465.4451135877038
 10
-286.7683263845984
 20
-465.4561069671703
  0
LINE
  5
EB
330
A
100
AcDbEntity
  8
0
  6
Continuous
 62
     7
100
AcDbLine
 10
-121.3440560822072
 20
-765.8326725441284
 30
0.0
 11
-318.7683205135553
 21
-765.8326725441289
 31
0.0
  0
LINE
  5
EC
330
A
100
AcDbEntity
  8
0
  6
Continuous
 62
     7
100
AcDbLine
 10
-276.8132185287745
 20
-455.8326725441275
 30
0.0
 11
-112.3794518194279
 21
-455.8326725441297
 31
0.0
  0
LINE
  5
ED
330
A
100
AcDbEntity
  8
0
  6
Continuous
 62
     7
100
AcDbLine
 10
96.81169382806736
 20
-466.6693221423125
 30
0.0
 11
127.7490598991698
 21
-765.8326725441269
 31
0.0
  0
LINE
  5
EE
330
A
100
AcDbEntity
  8
0
  6
Continuous
 62
     7
100
AcDbLine
 10
261.4952841778634
 20
-464.4945818826265
 30
0.0
 11
261.4952471085015
 21
-464.4942966858534
 31
0.0
  0
LINE
  5
EF
330
A
100
AcDbEntity
  8
0
  6
Continuous
 62
     7
100
AcDbLine
 10
261.4952841778635
 20
-464.4945818826267
 30
0.0
 11
300.6626653665164
 21
-765.8326725441293
 31
0.0
  0
LINE
  5
F0
330
A
100
AcDbEntity
  8
0
  6
Continuous
 62
     7
100
AcDbLine
 10
300.6626653665168
 20
-765.832672544129
 30
0.0
 11
165.9440672367383
 21
-765.8326725441281
 31
0.0
  0
LINE
  5
F1
330
A
100
AcDbEntity
  8
0
  6
Continuous
 62
     7
100
AcDbLine
 10
127.749059899175
 20
-765.8326725441271
 30
0.0
 11
166.5820736864539
 21
-765.8326725441282
 31
0.0
  0
LWPOLYLINE
  5
F2
330
A
100
AcDbEntity
  8
0
  6
Continuous
 62
     7
100
AcDbPolyline
 90
        7
 70
   128
 43
0.0
 10
98.51844718988257
 20
-455.8326725441273
 10
98.43791958899345
 20
-455.8437303982514
 10
98.00422476606705
 20
-456.2939660635814
 10
97.49240898373814
 20
-457.8254121616365
 10
97.09627126168301
 20
-460.2596151612918
 10
96.86047296220879
 20
-463.3221375339484
 10
96.81152645925266
 20
-466.6677036911742
  0
LWPOLYLINE
  5
FB
330
A
100
AcDbEntity
  8
0
  6
Continuous
 62
     7
100
AcDbPolyline
 90
       11
 70
   128
 43
0.0
 10
265.2939594022456
 20
-455.8326725441301
 10
264.8914477830918
 20
-455.8879571998144
 10
264.3725324297559
 20
-456.1258871873512
 10
263.9870226517217
 20
-456.431867228259
 10
263.507666617072
 20
-456.9848616975393
 10
263.0888254956705
 20
-457.6530633445519
 10
262.7855524761188
 20
-458.2711103719255
 10
262.4595477240749
 20
-459.1004371074487
 10
262.1690838676868
 20
-460.0410898774629
 10
261.9242125621745
 20
-461.0662435314057
 10
261.4952471085016
 20
-464.4942966858538
  0
LINE
  5
108
330
A
100
AcDbEntity
  8
0
  6
Continuous
 62
     7
100
AcDbLine
 10
96.81169382806746
 20
-466.6693221423132
 30
0.0
 11
96.81152645925285
 21
-466.667703691175
 31
0.0
  0
LINE
  5
109
330
A
100
AcDbEntity
  8
0
  6
Continuous
 62
     7
100
AcDbLine
 10
98.51844718988257
 20
-455.8326725441273
 30
0.0
 11
265.2939594022464
 21
-455.8326725441301
 31
0.0
  0
LWPOLYLINE
  5
10A
330
A
100
AcDbEntity
  8
0
  6
Continuous
 62
     7
100
AcDbPolyline
 90
        3
 70
   128
 43
0.0
 10
344.0335773063898
 20
-465.8352020385003
 10
344.0331406014456
 20
-465.7855913778425
 10
343.9163055046589
 20
-465.7679517357669
  0
LINE
  5
10F
330
A
100
AcDbEntity
  8
0
  6
Continuous
 62
     7
100
AcDbLine
 10
300.6626653665168
 20
-765.832672544129
 30
0.0
 11
347.531574903431
 21
-765.8326725441278
 31
0.0
  0
LINE
  5
110
330
A
100
AcDbEntity
  8
0
  6
Continuous
 62
     7
100
AcDbLine
 10
323.3138991589513
 20
-466.6242518887946
 30
0.0
 11
323.3137685525414
 21
-466.6257286374578
 31
0.0
  0
LWPOLYLINE
  5
111
330
A
100
AcDbEntity
  8
0
  6
Continuous
 62
     7
100
AcDbPolyline
 90
        7
 70
   128
 43
0.0
 10
323.3138991589513
 20
-466.6242518887946
 10
323.0246728711514
 20
-463.2799613350082
 10
321.6842621789347
 20
-460.2234696073808
 10
319.443788080991
 20
-457.7993724734475
 10
316.5558462423975
 20
-456.2809681656434
 10
314.1730316700279
 20
-455.8446652302639
 10
313.7008957984799
 20
-455.8326725441297
  0
LINE
  5
11A
330
A
100
AcDbEntity
  8
0
  6
Continuous
 62
     7
100
AcDbLine
 10
265.2939594022464
 20
-455.8326725441301
 30
0.0
 11
334.0449796486417
 21
-455.8326725441288
 31
0.0
  0
LINE
  5
11B
330
A
100
AcDbEntity
  8
0
  6
Continuous
 62
     7
100
AcDbLine
 10
127.749059899175
 20
-765.8326725441271
 30
0.0
 11
30.93167759101709
 21
-765.8326725441273
 31
0.0
  0
LINE
  5
11C
330
A
100
AcDbEntity
  8
0
  6
Continuous
 62
     7
100
AcDbLine
 10
27.36593665773868
 20
-455.8326725441284
 30
0.0
 11
98.51844718988258
 21
-455.8326725441273
 31
0.0
  0
LWPOLYLINE
  5
11D
330
A
100
AcDbEntity
  8
0
  6
Continuous
 62
     7
100
AcDbPolyline
 90
        5
 70
   128
 43
0.0
 10
37.50637611981586
 20
1091.249245219792
 10
37.88905955218095
 20
1091.243009601307
 10
38.21348290100241
 20
1091.225252062239
 10
38.43025565232714
 20
1091.19867602694
 10
38.50637611981586
 20
1091.167327455872
  0
LWPOLYLINE
  5
124
330
A
100
AcDbEntity
  8
0
  6
Continuous
 62
     7
100
AcDbPolyline
 90
        5
 70
   128
 43
0.0
 10
36.50637611981585
 20
1091.167327455872
 10
36.58249658730458
 20
1091.19867602694
 10
36.79926933862932
 20
1091.225252062239
 10
37.12369268745078
 20
1091.243009601307
 10
37.50637611981586
 20
1091.249245219792
  0
LWPOLYLINE
  5
12B
330
A
100
AcDbEntity
  8
0
  6
Continuous
 62
     7
100
AcDbPolyline
 90
        7
 70
   128
 43
0.0
 10
-5.29489406940628
 20
1091.167327455872
 10
-5.410489667175083
 20
1091.177901562755
 10
-5.791985888540532
 20
1091.208182963401
 10
-6.173924854080081
 20
1091.232244483382
 10
-6.498159818575654
 20
1091.246422974398
 10
-6.715328947880086
 20
1091.248559889722
 10
-6.792370210699838
 20
1091.238329903366
  0
LWPOLYLINE
  5
134
330
A
100
AcDbEntity
  8
0
  6
Continuous
 62
     7
100
AcDbPolyline
 90
        7
 70
   128
 43
0.0
 10
81.80512245033122
 20
1091.238329903366
 10
81.72808118751147
 20
1091.248559889722
 10
81.51091205820703
 20
1091.246422974398
 10
81.18667709371145
 20
1091.232244483382
 10
80.80473812817192
 20
1091.208182963401
 10
80.42324190680647
 20
1091.177901562755
 10
80.30764630903764
 20
1091.167327455872
  0
LINE
  5
13D
330
A
100
AcDbEntity
  8
0
  6
Continuous
 62
     7
100
AcDbLine
 10
156.5608217820922
 20
-454.8326725441278
 30
0.0
 11
221.5608217820922
 21
-454.8326725441278
 31
0.0
  0
LINE
  5
13E
330
A
100
AcDbEntity
  8
0
  6
Continuous
 62
     7
100
AcDbLine
 10
221.5608217820922
 20
-444.8326725441278
 30
0.0
 11
156.5608217820922
 21
-444.8326725441278
 31
0.0
  0
LINE
  5
13F
330
A
100
AcDbEntity
  8
0
  6
Continuous
 62
     7
100
AcDbLine
 10
-81.5480695424609
 20
-444.8326725441278
 30
0.0
 11
-146.5480695424609
 21
-444.8326725441278
 31
0.0
  0
LINE
  5
140
330
A
100
AcDbEntity
  8
0
  6
Continuous
 62
     7
100
AcDbLine
 10
-146.5480695424609
 20
-454.8326725441278
 30
0.0
 11
-81.5480695424609
 21
-454.8326725441278
 31
0.0
  0
LINE
  5
141
330
A
100
AcDbEntity
  8
0
  6
Continuous
 62
     7
100
AcDbLine
 10
88.52332283853364
 20
-435.0737948741318
 30
0.0
 11
88.52332283853364
 21
-454.8326725441278
 31
0.0
  0
LINE
  5
142
330
A
100
AcDbEntity
  8
0
  6
Continuous
 62
     7
100
AcDbLine
 10
156.3483894344633
 20
-444.8326725441278
 30
0.0
 11
88.52332283853364
 21
-435.0737948741318
 31
0.0
  0
LINE
  5
143
330
A
100
AcDbEntity
  8
0
  6
Continuous
 62
     7
100
AcDbLine
 10
156.5608217820922
 20
-444.8326725441278
 30
0.0
 11
156.3483894344633
 21
-444.8326725441278
 31
0.0
  0
LINE
  5
144
330
A
100
AcDbEntity
  8
0
  6
Continuous
 62
     7
100
AcDbLine
 10
88.52332283853364
 20
-454.8326725441278
 30
0.0
 11
156.5608217820922
 21
-454.8326725441278
 31
0.0
  0
LINE
  5
145
330
A
100
AcDbEntity
  8
0
  6
Continuous
 62
     7
100
AcDbLine
 10
-13.51057059890259
 20
-435.0737948741318
 30
0.0
 11
-13.51057059890259
 21
-454.8326725441278
 31
0.0
  0
LINE
  5
146
330
A
100
AcDbEntity
  8
0
  6
Continuous
 62
     7
100
AcDbLine
 10
-13.51057059890259
 20
-435.0737948741318
 30
0.0
 11
-81.33563719483275
 21
-444.8326725441278
 31
0.0
  0
LINE
  5
147
330
A
100
AcDbEntity
  8
0
  6
Continuous
 62
     7
100
AcDbLine
 10
-81.33563719483275
 20
-444.8326725441278
 30
0.0
 11
-81.5480695424609
 21
-444.8326725441278
 31
0.0
  0
LINE
  5
148
330
A
100
AcDbEntity
  8
0
  6
Continuous
 62
     7
100
AcDbLine
 10
-81.5480695424609
 20
-454.8326725441278
 30
0.0
 11
-13.51057059890259
 21
-454.8326725441278
 31
0.0
  0
LINE
  5
149
330
A
100
AcDbEntity
  8
0
  6
Continuous
 62
     7
100
AcDbLine
 10
107.5063761198154
 20
-435.0737948741318
 30
0.0
 11
104.5233228385338
 21
-435.0737948741318
 31
0.0
  0
LINE
  5
14A
330
A
100
AcDbEntity
  8
0
  6
Continuous
 62
     7
100
AcDbLine
 10
104.5233228385338
 20
-435.0737948741318
 30
0.0
 11
168.8730699549738
 21
-444.8326725441278
 31
0.0
  0
LINE
  5
14B
330
A
100
AcDbEntity
  8
0
  6
Continuous
 62
     7
100
AcDbLine
 10
88.52332283853364
 20
-435.0737948741318
 30
0.0
 11
-13.51057059890259
 21
-435.0737948741318
 31
0.0
  0
LINE
  5
14C
330
A
100
AcDbEntity
  8
0
  6
Continuous
 62
     7
100
AcDbLine
 10
-93.86031771534296
 20
-444.8326725441278
 30
0.0
 11
-29.51057059890235
 21
-435.0737948741318
 31
0.0
  0
LINE
  5
14D
330
A
100
AcDbEntity
  8
0
  6
Continuous
 62
     7
100
AcDbLine
 10
-29.51057059890235
 20
-435.0737948741318
 30
0.0
 11
-32.49362388018369
 21
-435.0737948741318
 31
0.0
  0
LINE
  5
14E
330
A
100
AcDbEntity
  8
0
  6
Continuous
 62
     7
100
AcDbLine
 10
105.6532762694191
 20
-434.8326725441278
 30
0.0
 11
-30.64052402978744
 21
-434.8326725441278
 31
0.0
  0
LINE
  5
14F
330
A
100
AcDbEntity
  8
0
  6
Continuous
 62
     7
100
AcDbLine
 10
-13.51057059890259
 20
-454.8326725441278
 30
0.0
 11
88.52332283853364
 21
-454.8326725441278
 31
0.0
  0
LINE
  5
150
330
A
100
AcDbEntity
  8
0
  6
PHANTOM
 62
     7
100
AcDbLine
 10
-119.4712360979112
 20
-466.6242514743448
 30
0.0
 11
-119.471282421251
 21
-466.6242518887946
 31
0.0
  0
LWPOLYLINE
  5
151
330
A
100
AcDbEntity
  8
0
  6
PHANTOM
 62
     7
100
AcDbPolyline
 90
       48
 70
   128
 43
0.0
 10
36.9925232569277
 20
-466.081043501436
 10
36.91475236113842
 20
-466.0002917244874
 10
36.23900071240896
 20
-465.9001750242635
 10
35.37682410908125
 20
-465.8331847774615
 10
34.17433488218169
 20
-465.7585162217139
 10
32.4395162061246
 20
-465.6536095956704
 10
30.29390962954523
 20
-465.5369214793574
 10
27.16514692632951
 20
-465.4052081162567
 10
23.77375171275176
 20
-465.2970431392062
 10
20.28626146434351
 20
-465.2129021761397
 10
14.01982317012085
 20
-465.1102168246928
 10
8.098458446271244
 20
-465.0596530983901
 10
2.830547570067121
 20
-465.0543337122923
 10
-0.4190305170465592
 20
-465.0872956347158
 10
-3.026283866595341
 20
-465.1776775685572
 10
-4.838430979860697
 20
-465.313252834562
 10
-5.927726479614592
 20
-465.4499091972592
 10
-6.499998126360123
 20
-465.564648039565
 10
-6.96430929462849
 20
-465.7172538099354
 10
-7.469251251589523
 20
-465.7683686200955
 10
-8.312539793187093
 20
-465.7364652932212
 10
-9.953284614571094
 20
-465.611815605045
 10
-11.4987154723533
 20
-465.4775364412944
 10
-13.49631194341469
 20
-465.3357916880652
 10
-16.14030921516886
 20
-465.2238048802444
 10
-19.09477910798013
 20
-465.1523556652947
 10
-23.67058188483284
 20
-465.0854548972918
 10
-28.48969651153402
 20
-465.0394519104199
 10
-35.16514756948665
 20
-464.9788977333357
 10
-41.89686854227211
 20
-464.9300325971601
 10
-48.64882409010801
 20
-464.9286630182722
 10
-55.38497887321195
 20
-465.0105955130514
 10
-62.65652100863331
 20
-465.2310150240914
 10
-69.90682401069022
 20
-465.5478573227836
 10
-77.05452770664736
 20
-465.8836705143625
 10
-82.75692584098615
 20
-466.1215303268422
 10
-88.48939044025255
 20
-466.311873247001
 10
-92.96820811187229
 20
-466.4206471093737
 10
-95.61822359278041
 20
-466.4550905368883
 10
-98.19162498024134
 20
-466.4514134040514
 10
-100.5026430702956
 20
-466.4260915488756
 10
-102.6338475301313
 20
-466.4073274445297
 10
-106.6973331832697
 20
-466.4127660516403
 10
-110.5056254814099
 20
-466.4864123920056
 10
-114.9939796141549
 20
-466.5932761949645
 10
-119.4711939545516
 20
-466.624251703623
 10
-119.4712360979112
 20
-466.6242514743448
 10
-119.4712360979112
 20
-466.6242514743448
  0
LWPOLYLINE
  5
183
330
A
100
AcDbEntity
  8
0
  6
PHANTOM
 62
     7
100
AcDbPolyline
 90
       37
 70
   128
 43
0.0
 10
-119.4712453438429
 20
-466.6257286374579
 10
-119.4712875649343
 20
-466.6257282851711
 10
-123.6578834494266
 20
-466.5363746462856
 10
-127.2404549994486
 20
-466.3791583919647
 10
-130.4210737852627
 20
-466.2063019070759
 10
-133.4018113771314
 20
-466.0700275764864
 10
-136.4075301156701
 20
-465.9932351008733
 10
-139.8524656584877
 20
-465.9428404262651
 10
-143.863881795586
 20
-465.8993330196166
 10
-148.889978693411
 20
-465.8453701743079
 10
-154.561713253906
 20
-465.7932042620513
 10
-158.9677263473823
 20
-465.7665935130519
 10
-163.6130238764786
 20
-465.7614116661957
 10
-168.3746656678886
 20
-465.7772029322502
 10
-173.1010909071875
 20
-465.8025780785066
 10
-178.7765702217925
 20
-465.8437209019159
 10
-184.2706744610605
 20
-465.8931779011667
 10
-189.6310346387258
 20
-465.9481810892764
 10
-194.9052817685229
 20
-466.0059624792629
 10
-201.3904824722211
 20
-466.0679474030429
 10
-205.5937921360867
 20
-466.0897238857231
 10
-209.9715438608872
 20
-466.0786550966031
 10
-213.3302564460009
 20
-466.0339874371932
 10
-216.6411753395511
 20
-465.9713126336073
 10
-219.5838338137074
 20
-465.9163608944258
 10
-222.4134795982169
 20
-465.8686313922768
 10
-229.0184760346541
 20
-465.7855913778425
 10
-239.3206522913757
 20
-465.7022174416217
 10
-249.3800337525961
 20
-465.6375362392591
 10
-259.039290583621
 20
-465.5847215901795
 10
-268.1410929497559
 20
-465.5369473138075
 10
-273.1899717372941
 20
-465.5098190797812
 10
-277.9947500761903
 20
-465.4831695841106
 10
-282.3553948108873
 20
-465.4561193273178
 10
-284.3528422062407
 20
-465.4417252682563
 10
-285.9274791593216
 20
-465.4327144652672
 10
-286.5764318589726
 20
-465.4416007227366
  0
LWPOLYLINE
  5
1AA
330
A
100
AcDbEntity
  8
0
  6
PHANTOM
 62
     7
100
AcDbPolyline
 90
       52
 70
   128
 43
0.0
 10
261.4952471085016
 20
-464.4942966858535
 10
261.495191788355
 20
-464.4942951421775
 10
256.3094622391775
 20
-464.3467017782884
 10
250.9774656216805
 20
-464.194573141146
 10
245.5311278565087
 20
-464.0467853373269
 10
240.1236202811304
 20
-463.9215615995706
 10
234.7381261228877
 20
-463.8380437607985
 10
229.3355547787315
 20
-463.8040184284601
 10
224.2874921482539
 20
-463.8286800864033
 10
219.6743792570236
 20
-463.9237582716358
 10
215.6567787988871
 20
-464.0630766355909
 10
212.1496612234812
 20
-464.2207003692266
 10
209.1266926642166
 20
-464.3845799227996
 10
206.5219534772775
 20
-464.5488893559641
 10
202.6565928600404
 20
-464.8445087206758
 10
199.2561980086173
 20
-465.1231129019763
 10
195.6583989857321
 20
-465.3435996892667
 10
193.1731416401274
 20
-465.4284862109945
 10
190.2507155647424
 20
-465.4988599351773
 10
186.7233903124008
 20
-465.59441863534
 10
182.7749064290677
 20
-465.7373735971415
 10
178.1231675736759
 20
-465.9030948342135
 10
173.5417754903682
 20
-466.0303793304144
 10
168.7208865126764
 20
-466.1416989701006
 10
161.3881430397562
 20
-466.3031599482687
 10
153.9733917586565
 20
-466.478740274095
 10
149.1350359102806
 20
-466.6136793126908
 10
144.3097539814738
 20
-466.7742626321707
 10
138.3815550251941
 20
-467.0134687042735
 10
132.6901436862954
 20
-467.2917665080789
 10
129.6001828629066
 20
-467.4597806068354
 10
126.827789592542
 20
-467.5971063633823
 10
124.5272708523402
 20
-467.6702311756691
 10
122.6714149000564
 20
-467.6907479459251
 10
120.8042094026366
 20
-467.6780684825414
 10
119.4659266490945
 20
-467.6471970889026
 10
118.3856706611211
 20
-467.6080235854767
 10
117.6716854592943
 20
-467.5702791968743
 10
116.7982755982145
 20
-467.4993729517182
 10
116.5606356426571
 20
-467.4488838800363
 10
116.4099247313342
 20
-467.3992671968328
 10
116.0701752525825
 20
-467.3528729126767
 10
115.2654195947394
 20
-467.3120510381381
 10
113.719690146142
 20
-467.2791515837862
 10
112.3046446548876
 20
-467.2597436339422
 10
110.2117293824393
 20
-467.2163926107071
 10
108.5981299311684
 20
-467.1664825185295
 10
106.6430636085872
 20
-467.0822314845286
 10
104.372028213906
 20
-466.9665125730544
 10
101.8789595125316
 20
-466.8476732002562
 10
96.81175293367914
 20
-466.669323769471
 10
96.81169382806736
 20
-466.6693221423125
  0
LWPOLYLINE
  5
1E0
330
A
100
AcDbEntity
  8
0
  6
PHANTOM
 62
     7
100
AcDbPolyline
 90
       23
 70
   128
 43
0.0
 10
343.9163055046589
 20
-465.7679517357669
 10
343.4809184040763
 20
-465.7022174416217
 10
342.4663860275746
 20
-465.6375362392591
 10
340.8069002559694
 20
-465.5847215901795
 10
338.3198178732893
 20
-465.5369473138075
 10
336.5006195121594
 20
-465.5098190797812
 10
334.3559201658089
 20
-465.4831695841106
 10
331.6840872053893
 20
-465.4561193273178
 10
329.9536645015197
 20
-465.4417252682563
 10
327.8202734534986
 20
-465.4327144652672
 10
324.8887534052229
 20
-465.4451135877038
 10
321.6809100263719
 20
-465.4930370247439
 10
320.3614555248977
 20
-465.5095664347124
 10
316.2571310943711
 20
-465.5359584978584
 10
312.165957806706
 20
-465.5313862869173
 10
307.1726873019237
 20
-465.4947850035902
 10
302.3222696059536
 20
-465.4311616503375
 10
292.0017779352281
 20
-465.2458458819335
 10
281.9071148139185
 20
-465.025652394543
 10
271.813296560866
 20
-464.7740689778845
 10
261.4953394949118
 20
-464.4945834216754
 10
261.4952841778635
 20
-464.4945818826265
 10
261.4952841778635
 20
-464.4945818826265
  0
LWPOLYLINE
  5
1F9
330
A
100
AcDbEntity
  8
0
  6
PHANTOM
 62
     7
100
AcDbPolyline
 90
       11
 70
   128
 43
0.0
 10
96.81152645925271
 20
-466.6677036911742
 10
96.81146733656303
 20
-466.6677019715779
 10
90.41583720309656
 20
-466.5250608630788
 10
83.97516879342431
 20
-466.4431937012937
 10
74.6487178598405
 20
-466.370021604026
 10
65.42074417601096
 20
-466.2972330318799
 10
58.34056159927378
 20
-466.2236535551167
 10
51.6213192207601
 20
-466.1518538799587
 10
46.00326745551402
 20
-466.0965795850741
 10
41.15407383037092
 20
-466.0227794666049
 10
36.93206601880794
 20
-465.9212842123117
  0
LWPOLYLINE
  5
206
330
A
100
AcDbEntity
  8
0
  6
Continuous
 62
     7
100
AcDbPolyline
 90
       12
 70
   128
 43
0.0
 10
-106.0237928059108
 20
-1444.967716809728
 10
-107.3948038776314
 20
-1445.897527412245
 10
-110.154150976312
 20
-1448.106413234948
 10
-112.8254186030152
 20
-1450.574119490068
 10
-115.5755254230966
 20
-1453.47669669086
 10
-118.2849725448607
 20
-1456.717851908523
 10
-121.0194274612214
 20
-1460.375420064651
 10
-123.8821672378649
 20
-1464.579236356641
 10
-127.1053895736978
 20
-1469.621860476539
 10
-130.0270162334671
 20
-1474.052293485157
 10
-133.2352989521341
 20
-1478.392415988007
 10
-133.7142556440276
 20
-1478.990932361073
  0
LWPOLYLINE
  5
214
330
A
100
AcDbEntity
  8
0
  6
Continuous
 62
     7
100
AcDbPolyline
 90
        3
 70
   128
 43
0.0
 10
0.8923524911856883
 20
-1597.667193844652
 10
-0.1009862903539882
 20
-1593.659179181132
 10
-0.4228421757479506
 20
-1591.993338510712
  0
LWPOLYLINE
  5
219
330
A
100
AcDbEntity
  8
0
  6
Continuous
 62
     7
100
AcDbPolyline
 90
       11
 70
   128
 43
0.0
 10
36.80663340694612
 20
-1663.290880071803
 10
36.68234961277392
 20
-1662.193264437949
 10
36.06535916625062
 20
-1659.371578809632
 10
35.1801051105643
 20
-1656.654143124614
 10
34.11474027319906
 20
-1654.111923016522
 10
32.63873968571651
 20
-1651.223374124689
 10
30.88848478460238
 20
-1648.325110725631
 10
28.80674105160883
 20
-1645.277793330808
 10
26.23387759675799
 20
-1641.757943010433
 10
21.70583286082295
 20
-1635.665298301068
 10
20.62235135577697
 20
-1634.176658563757
  0
LWPOLYLINE
  5
226
330
A
100
AcDbEntity
  8
0
  6
Continuous
 62
     7
100
AcDbPolyline
 90
       15
 70
   128
 43
0.0
 10
-119.4809403452348
 20
-1748.790826733538
 10
-111.9876302516312
 20
-1756.072242268948
 10
-107.7415323398743
 20
-1760.279510251542
 10
-105.4967903964279
 20
-1762.484638500524
 10
-103.5829166620784
 20
-1764.148740824377
 10
-102.139046598821
 20
-1765.240477726703
 10
-100.4516958556775
 20
-1766.29064615651
 10
-98.57078000894254
 20
-1767.130496981804
 10
-96.64996731717193
 20
-1767.69336173637
 10
-94.69036561261798
 20
-1768.007583507128
 10
-92.69599577495572
 20
-1768.093204679386
 10
-90.66053387920856
 20
-1767.969662308688
 10
-88.57561481627374
 20
-1767.661905416849
 10
-86.39469364535761
 20
-1767.212764963765
 10
-84.5010930642125
 20
-1766.757933793398
  0
LWPOLYLINE
  5
237
330
A
100
AcDbEntity
  8
0
  6
Continuous
 62
     7
100
AcDbPolyline
 90
        8
 70
   128
 43
0.0
 10
-131.9136917559861
 20
-1730.191621938812
 10
-131.4816414361063
 20
-1731.072846727857
 10
-129.0292071377108
 20
-1735.835907618066
 10
-126.9600749597001
 20
-1739.397166591194
 10
-124.8439688628008
 20
-1742.560454778853
 10
-122.5511653911356
 20
-1745.491254469186
 10
-120.2210804584398
 20
-1748.099427391565
 10
-119.5173899261403
 20
-1748.822913913729
  0
LWPOLYLINE
  5
241
330
A
100
AcDbEntity
  8
0
  6
Continuous
 62
     7
100
AcDbPolyline
 90
       41
 70
   128
 43
0.0
 10
-133.6196567561236
 20
-1479.062514335702
 10
-134.4957494142528
 20
-1480.079889237894
 10
-136.4790091965852
 20
-1482.055687236682
 10
-138.2378627593006
 20
-1483.485389472251
 10
-140.1789962085312
 20
-1484.685474361054
 10
-142.254946465484
 20
-1485.60755453137
 10
-144.3702039775128
 20
-1486.208299843412
 10
-146.5837193757052
 20
-1486.498113431955
 10
-149.0017971181887
 20
-1486.515991373952
 10
-151.7415934504973
 20
-1486.242592865431
 10
-154.7615696691095
 20
-1485.651122144873
 10
-158.1323681858979
 20
-1484.708618453908
 10
-161.8805607765409
 20
-1483.404173400707
 10
-166.1833524259807
 20
-1481.626305272817
 10
-170.9171013417
 20
-1479.393023747569
 10
-176.4247749027975
 20
-1476.547833779062
 10
-183.5470085236383
 20
-1472.711175791094
 10
-191.8578020676557
 20
-1468.191510096788
 10
-199.2260195294909
 20
-1464.383746841938
 10
-204.6321283318409
 20
-1461.854868132184
 10
-209.5890409262302
 20
-1459.802755477945
 10
-213.4241457166735
 20
-1458.431823457217
 10
-216.929319025183
 20
-1457.41959010778
 10
-220.2820375280854
 20
-1456.715409268121
 10
-222.9581071078973
 20
-1456.363834236795
 10
-225.464888824554
 20
-1456.262819604893
 10
-227.8585438240449
 20
-1456.417218142507
 10
-230.1409748014228
 20
-1456.829217335243
 10
-232.3583543374711
 20
-1457.515202228395
 10
-234.4093618415065
 20
-1458.427141431568
 10
-236.4291398378405
 20
-1459.606248078236
 10
-238.3497333370482
 20
-1461.011572742704
 10
-240.1989776236459
 20
-1462.645186135534
 10
-242.0133627631523
 20
-1464.512137896689
 10
-244.111284779017
 20
-1466.978157077647
 10
-246.2622281929013
 20
-1469.880578496133
 10
-248.4013980383072
 20
-1473.130687618921
 10
-250.8666297184895
 20
-1477.256437172932
 10
-253.2195505838864
 20
-1481.691596474723
 10
-255.2207898132897
 20
-1486.0393290428
 10
-256.5594049539778
 20
-1489.46119779042
  0
LWPOLYLINE
  5
26C
330
A
100
AcDbEntity
  8
0
  6
Continuous
 62
     7
100
AcDbPolyline
 90
        3
 70
   128
 43
0.0
 10
29.50673246431754
 20
-1690.382475044631
 10
32.10053519607931
 20
-1683.893346803299
 10
35.37870131598467
 20
-1675.691806685559
  0
LWPOLYLINE
  5
271
330
A
100
AcDbEntity
  8
0
  6
Continuous
 62
     7
100
AcDbPolyline
 90
        3
 70
   128
 43
0.0
 10
-258.8253262335651
 20
-1503.06487342244
 10
-258.2280950573375
 20
-1513.658203496183
 10
-257.4914414762604
 20
-1526.806542753761
  0
LWPOLYLINE
  5
276
330
A
100
AcDbEntity
  8
0
  6
Continuous
 62
     7
100
AcDbPolyline
 90
        3
 70
   128
 43
0.0
 10
-239.1805761322328
 20
-1705.409348349913
 10
-232.8162208992746
 20
-1707.902701546482
 10
-224.889136788528
 20
-1711.943986146463
  0
LWPOLYLINE
  5
27B
330
A
100
AcDbEntity
  8
0
  6
Continuous
 62
     7
100
AcDbPolyline
 90
       40
 70
   128
 43
0.0
 10
-179.0709182319071
 20
-1702.900870829904
 10
-179.0722450877753
 20
-1702.901466346399
 10
-179.01993355547
 20
-1702.891787040138
 10
-178.8725049366043
 20
-1702.853749381325
 10
-178.6301050133243
 20
-1702.788104920362
 10
-178.3273556240561
 20
-1702.705256288135
 10
-177.9460794136485
 20
-1702.601276162661
 10
-177.4861267548325
 20
-1702.477358883881
 10
-176.947259763757
 20
-1702.335077248275
 10
-176.3293015013243
 20
-1702.176530707912
 10
-175.9104685827649
 20
-1702.07217904781
 10
-175.6938088427901
 20
-1702.019259019631
 10
-175.4722688634259
 20
-1701.965941641791
 10
-175.3596568204335
 20
-1701.939159039485
 10
-175.2458103920642
 20
-1701.912307893256
 10
-175.1307248361131
 20
-1701.885399174805
 10
-175.0143954271691
 20
-1701.85844419182
 10
-174.7779862358385
 20
-1701.804442331068
 10
-174.5365453708526
 20
-1701.75039941682
 10
-173.8678223004537
 20
-1701.606879066555
 10
-173.1623625798829
 20
-1701.465932657809
 10
-172.4349833645421
 20
-1701.332691104332
 10
-169.9519629212294
 20
-1700.980681925512
 10
-167.4077940791939
 20
-1700.808191768963
 10
-166.5936932387808
 20
-1700.798013373935
 10
-165.6476716941592
 20
-1700.81505340424
 10
-164.4935248327001
 20
-1700.878902073234
 10
-163.1313167900014
 20
-1701.016801065934
 10
-161.5620021634001
 20
-1701.262148040839
 10
-160.7473347132893
 20
-1701.427004219898
 10
-159.9497065805823
 20
-1701.613766929384
 10
-159.24400792324
 20
-1701.800144774093
 10
-158.7751665551467
 20
-1701.934984365701
 10
-158.3580781396418
 20
-1702.062295024681
 10
-157.9926662096605
 20
-1702.179426041534
 10
-157.6788313891132
 20
-1702.284028209628
 10
-157.2959357341609
 20
-1702.416243727924
 10
-156.919555224089
 20
-1702.552015030066
 10
-156.524768766812
 20
-1702.701291677934
 10
-156.0812473868253
 20
-1702.878178307834
  0
LWPOLYLINE
  5
2A5
330
A
100
AcDbEntity
  8
0
  6
Continuous
 62
     7
100
AcDbPolyline
 90
       20
 70
   128
 43
0.0
 10
-55.37986469614128
 20
-1434.177086620975
 10
-56.56460683181921
 20
-1434.278762391316
 10
-57.8524016910951
 20
-1434.337751311957
 10
-59.05609713024931
 20
-1434.349546761949
 10
-60.17485420176563
 20
-1434.324664657164
 10
-61.20780058341418
 20
-1434.272556008291
 10
-62.15403887450979
 20
-1434.201571222871
 10
-63.01266041085348
 20
-1434.118971038131
 10
-63.62523729716812
 20
-1434.050006943627
 10
-64.18273958929102
 20
-1433.980319836847
 10
-64.68475654591829
 20
-1433.912154553979
 10
-65.13090017804437
 20
-1433.847437940839
 10
-65.52081141413437
 20
-1433.787807042869
 10
-65.8621806443456
 20
-1433.733332066919
 10
-66.21618285014685
 20
-1433.674669320249
 10
-66.78896097028772
 20
-1433.575228492973
 10
-67.41846045377456
 20
-1433.459771456861
 10
-68.10515942347897
 20
-1433.326850431938
 10
-68.84958996831066
 20
-1433.17502030015
 10
-68.97466986074864
 20
-1433.148196286917
  0
LWPOLYLINE
  5
2BB
330
A
100
AcDbEntity
  8
0
  6
Continuous
 62
     7
100
AcDbPolyline
 90
       11
 70
   128
 43
0.0
 10
171.1402095111813
 20
-1433.042280958679
 10
170.2517883857592
 20
-1433.698721698637
 10
168.1166321734048
 20
-1435.643893913377
 10
166.2058908648716
 20
-1437.769264256914
 10
164.5369460879356
 20
-1439.963007324417
 10
162.7733896612759
 20
-1442.685535775094
 10
161.13854738139
 20
-1445.650432682086
 10
159.540364970576
 20
-1448.976934336439
 10
157.7785169030384
 20
-1452.965024608995
 10
154.766154176463
 20
-1459.93274873447
 10
154.0186950993911
 20
-1461.615391111027
  0
LWPOLYLINE
  5
2C8
330
A
100
AcDbEntity
  8
0
  6
Continuous
 62
     7
100
AcDbPolyline
 90
       15
 70
   128
 43
0.0
 10
323.3291222185497
 20
-1525.641316793033
 10
325.8883580009237
 20
-1515.511212125833
 10
327.4089099985003
 20
-1509.730349475998
 10
328.1962361089979
 20
-1506.683781803542
 10
328.6804541287768
 20
-1504.194267368033
 10
328.9039909888111
 20
-1502.397970762326
 10
328.9697881557045
 20
-1500.411597938765
 10
328.7566623824315
 20
-1498.362751620465
 10
328.2837112128951
 20
-1496.417846656197
 10
327.5760343965166
 20
-1494.563670913375
 10
326.6529995879629
 20
-1492.793685383289
 10
325.5282778086212
 20
-1491.092694858485
 10
324.2192929906316
 20
-1489.440980431069
 10
322.7398653629352
 20
-1487.776817519947
 10
321.3991697243919
 20
-1486.364326897238
  0
LWPOLYLINE
  5
2D9
330
A
100
AcDbEntity
  8
0
  6
Continuous
 62
     7
100
AcDbPolyline
 90
       12
 70
   128
 43
0.0
 10
53.48201699807714
 20
-1665.898640123409
 10
54.97276213642465
 20
-1666.62106523913
 10
58.26538692228517
 20
-1667.906287013095
 10
61.73811704164894
 20
-1668.985819510567
 10
65.62687604402026
 20
-1669.916193279482
 10
69.78852236100711
 20
-1670.64206570831
 10
74.32329675846722
 20
-1671.181389053317
 10
79.39527834849591
 20
-1671.558686278319
 10
85.37393010597972
 20
-1671.828766643247
 10
90.6716109710932
 20
-1672.143753046672
 10
96.03440867343095
 20
-1672.752146132135
 10
96.79221740303383
 20
-1672.867676608095
  0
LWPOLYLINE
  5
2E7
330
A
100
AcDbEntity
  8
0
  6
Continuous
 62
     7
100
AcDbPolyline
 90
        3
 70
   128
 43
0.0
 10
132.2655706063708
 20
-1496.956803703953
 10
129.2911974797912
 20
-1499.821067655091
 10
127.9477894901049
 20
-1500.986215048074
  0
LWPOLYLINE
  5
2EC
330
A
100
AcDbEntity
  8
0
  6
Continuous
 62
     7
100
AcDbPolyline
 90
        8
 70
   128
 43
0.0
 10
313.4381140815037
 20
-1545.707997751043
 10
313.9852519753214
 20
-1544.893218803792
 10
316.8839665568163
 20
-1540.387817955164
 10
318.933541207995
 20
-1536.815267438655
 10
320.6149760895495
 20
-1533.401021707808
 10
322.0067213389487
 20
-1529.949995810294
 10
323.1004228808434
 20
-1526.627996604415
 10
323.3751353221833
 20
-1525.656839465959
  0
LWPOLYLINE
  5
2F6
330
A
100
AcDbEntity
  8
0
  6
Continuous
 62
     7
100
AcDbPolyline
 90
       41
 70
   128
 43
0.0
 10
96.80690976756352
 20
-1672.749960580685
 10
98.12602860709873
 20
-1672.999991627599
 10
100.8287497579622
 20
-1673.729645982008
 10
102.9463349951702
 20
-1674.538006731072
 10
104.9562057201862
 20
-1675.61903516584
 10
106.7927257004826
 20
-1676.955820740196
 10
108.3706151579302
 20
-1678.487314825138
 10
109.7283587870662
 20
-1680.259368597369
 10
110.9528804102448
 20
-1682.344546379687
 10
112.0860085226626
 20
-1684.853978858922
 10
113.0837679623709
 20
-1687.765090343344
 10
113.9529350812292
 20
-1691.155539335404
 10
114.697348822637
 20
-1695.053791863778
 10
115.3090656840264
 20
-1699.669052803329
 10
115.7418616072179
 20
-1704.885240382104
 10
116.0316915964477
 20
-1711.077620586019
 10
116.2701651236547
 20
-1719.163984827339
 10
116.5114165877817
 20
-1728.621176009219
 10
116.8979056084026
 20
-1736.906121139201
 10
117.4108868038409
 20
-1742.852388052536
 10
118.1121614110376
 20
-1748.171256610735
 10
118.8424518494468
 20
-1752.178020795799
 10
119.7184187085314
 20
-1755.719706600354
 10
120.7849394639797
 20
-1758.975336415435
 10
121.8185013454208
 20
-1761.46866816951
 10
122.9844109663681
 20
-1763.690112133828
 10
124.3149515219948
 20
-1765.685878902475
 10
125.8129687779319
 20
-1767.456522514901
 10
127.5157388900379
 20
-1769.033837076375
 10
129.3310051587105
 20
-1770.354092076636
 10
131.3620304666629
 20
-1771.513717808131
 10
133.5393740762609
 20
-1772.474338236555
 10
135.8787469177126
 20
-1773.259024070137
 10
138.4027671402667
 20
-1773.896851812621
 10
141.5873634051283
 20
-1774.480695983039
 10
145.1764057929671
 20
-1774.892256912323
 10
149.0606677810756
 20
-1775.11977778006
 10
153.8662875445927
 20
-1775.191856264307
 10
158.8837086024735
 20
-1775.011965855939
 10
163.6495750699903
 20
-1774.571223583614
 10
167.2823079041895
 20
-1774.01956392753
  0
LWPOLYLINE
  5
321
330
A
100
AcDbEntity
  8
0
  6
Continuous
 62
     7
100
AcDbPolyline
 90
        3
 70
   128
 43
0.0
 10
198.2521694580049
 20
-1425.818383133688
 10
191.3355181867149
 20
-1426.816648196244
 10
182.5991811272918
 20
-1428.077650966235
  0
LINE
  5
326
330
A
100
AcDbEntity
  8
0
  6
Continuous
 62
     7
100
AcDbLine
 10
182.5983305376998
 20
-1428.077773740325
 30
0.0
 11
182.5936930346412
 21
-1428.078443117452
 31
0.0
  0
LWPOLYLINE
  5
327
330
A
100
AcDbEntity
  8
0
  6
Continuous
 62
     7
100
AcDbPolyline
 90
        3
 70
   128
 43
0.0
 10
180.1963972261558
 20
-1769.180071502618
 10
189.0718745925775
 20
-1763.366189095201
 10
200.0903436166789
 20
-1756.154058751409
  0
LWPOLYLINE
  5
32C
330
A
100
AcDbEntity
  8
0
  6
Continuous
 62
     7
100
AcDbPolyline
 90
        3
 70
   128
 43
0.0
 10
345.6094777781049
 20
-1650.994981400129
 10
344.5866073704617
 20
-1644.236611491395
 10
344.1229204425944
 20
-1635.350912973563
  0
LWPOLYLINE
  5
331
330
A
100
AcDbEntity
  8
0
  6
Continuous
 62
     7
100
AcDbPolyline
 90
       40
 70
   128
 43
0.0
 10
313.382243570791
 20
-1600.192729405661
 10
313.3834227311389
 20
-1600.193580738302
 10
313.3488844398728
 20
-1600.153117275545
 10
313.2422285516075
 20
-1600.044459175769
 10
313.0641788191558
 20
-1599.867356914815
 10
312.8410551043444
 20
-1599.646592568842
 10
312.5603675689912
 20
-1599.368387747508
 10
312.2230757281925
 20
-1599.032015699824
 10
311.8304227217273
 20
-1598.636484014095
 10
311.3841382588745
 20
-1598.180589730532
 10
311.08435061102
 20
-1597.870045613168
 10
310.9301906522606
 20
-1597.708872788462
 10
310.7732464589056
 20
-1597.543672227299
 10
310.6937460234328
 20
-1597.459538638449
 10
310.6135690344936
 20
-1597.374370312465
 10
310.532722622756
 20
-1597.288157656629
 10
310.4512142182609
 20
-1597.200890924768
 10
310.2862426393325
 20
-1597.023155489764
 10
310.1187196702056
 20
-1596.841083024299
 10
309.6600658657174
 20
-1596.333712032368
 10
309.1852728348853
 20
-1595.793239197381
 10
308.7061926570641
 20
-1595.229931095449
 10
307.1598335441843
 20
-1593.255576902835
 10
305.7383682656921
 20
-1591.13850713239
 10
305.3225030968217
 20
-1590.438564320863
 10
304.864249423637
 20
-1589.610765615541
 10
304.342470562253
 20
-1588.579320779323
 10
303.7807905717389
 20
-1587.330664512756
 10
303.2086099714474
 20
-1585.848924692136
 10
302.9440458854276
 20
-1585.060973895175
 10
302.7069730699683
 20
-1584.276826314735
 10
302.5155316895186
 20
-1583.572484427705
 10
302.39788551724
 20
-1583.099036096787
 10
302.299595574337
 20
-1582.674171603845
 10
302.218328045512
 20
-1582.299150081209
 10
302.1519987700987
 20
-1581.975060069976
 10
302.0750529402416
 20
-1581.577354946641
 10
302.0044440819656
 20
-1581.183514212358
 10
301.9363282225725
 20
-1580.766980787352
 10
301.8677558476603
 20
-1580.294436690199
  0
LWPOLYLINE
  5
35B
330
A
100
AcDbEntity
  8
0
  6
Continuous
 62
     7
100
AcDbPolyline
 90
        7
 70
   128
 43
0.0
 10
301.6703992448325
 20
-1578.29229480557
 10
301.6341170553053
 20
-1577.535330287137
 10
301.6171610487687
 20
-1576.720238529239
 10
301.6229177437504
 20
-1575.854553276036
 10
301.6543861199269
 20
-1574.9368843146
 10
301.7146023906523
 20
-1573.965891761081
 10
301.7759237149379
 20
-1573.282534174836
  0
LWPOLYLINE
  5
364
330
A
100
AcDbEntity
  8
0
  6
Continuous
 62
     7
100
AcDbPolyline
 90
       20
 70
   128
 43
0.0
 10
18.81509307688817
 20
-1627.435026927293
 10
19.49551794479198
 20
-1628.410205828553
 10
20.19050127824676
 20
-1629.495974431228
 10
20.80256415716652
 20
-1630.532507534959
 10
21.34039415808112
 20
-1631.513820631948
 10
21.81173993522476
 20
-1632.434432763639
 10
22.2233844533164
 20
-1633.289391554472
 10
22.58116136314592
 20
-1634.074279709552
 10
22.82772514851375
 20
-1634.639268902124
 10
23.04612548978843
 20
-1635.15692360316
 10
23.23810110148186
 20
-1635.625765682164
 10
23.40512668651901
 20
-1636.044495707891
 10
23.54844043207127
 20
-1636.411984192551
 10
23.67194833413366
 20
-1636.73485610596
 10
23.79814600816205
 20
-1637.070762382514
 10
23.9984167856378
 20
-1637.616523198926
 10
24.21317780106317
 20
-1638.219414261351
 10
24.44141430163505
 20
-1638.880573526329
 10
24.6821408228623
 20
-1639.6011843554
 10
24.72145049219144
 20
-1639.722918726374
  0
LWPOLYLINE
  5
37A
330
A
100
AcDbEntity
  8
0
  6
Continuous
 62
     7
100
AcDbPolyline
 90
       11
 70
   128
 43
0.0
 10
-95.42771455867994
 20
-1431.830291027762
 10
-94.41500963908556
 20
-1432.271465921657
 10
-91.66286298020795
 20
-1433.147979335234
 10
-88.86686761598836
 20
-1433.740044676716
 10
-86.13255800168717
 20
-1434.088521717304
 10
-82.89300098754488
 20
-1434.25454215846
 10
-79.50790380654485
 20
-1434.187908650527
 10
-75.82797766273721
 20
-1433.908724390996
 10
-71.4932661403488
 20
-1433.440484438814
 10
-63.95285867783834
 20
-1432.565405022705
 10
-62.12191809572043
 20
-1432.37140238346
  0
LWPOLYLINE
  5
387
330
A
100
AcDbEntity
  8
0
  6
Continuous
 62
     7
100
AcDbPolyline
 90
       15
 70
   128
 43
0.0
 10
-91.32905351386616
 20
-1253.731308531671
 10
-101.3815993898437
 20
-1256.579997663461
 10
-107.1482492991773
 20
-1258.153592330702
 10
-110.1803173531213
 20
-1258.995031754176
 10
-112.5784091072497
 20
-1259.820443865832
 10
-114.2458160305414
 20
-1260.525003569214
 10
-115.9989639405783
 20
-1261.461207962967
 10
-117.6667540140402
 20
-1262.670203455973
 10
-119.1146155362745
 20
-1264.052243665675
 10
-120.3665404244499
 20
-1265.592197637739
 10
-121.4378754535585
 20
-1267.276561995567
 10
-122.348615569964
 20
-1269.101094891069
 10
-123.1245498149092
 20
-1271.060566210324
 10
-123.826043358129
 20
-1273.17386957453
 10
-124.3789483007308
 20
-1275.041191367607
  0
LWPOLYLINE
  5
398
330
A
100
AcDbEntity
  8
0
  6
Continuous
 62
     7
100
AcDbPolyline
 90
       12
 70
   128
 43
0.0
 10
165.0609041672823
 20
-1417.297095125107
 10
164.9411701006554
 20
-1415.644859406869
 10
164.4078924134755
 20
-1412.150751810202
 10
163.6064299208149
 20
-1408.603513057609
 10
162.4677777385251
 20
-1404.770562087903
 10
161.0155785433024
 20
-1400.803534441412
 10
159.215259062203
 20
-1396.606642940277
 10
157.0060172488178
 20
-1392.025529423284
 10
154.250587827167
 20
-1386.712824938459
 10
151.8745336218228
 20
-1381.967405526415
 10
149.7200186381521
 20
-1377.018889938102
 10
149.4411666004427
 20
-1376.304843089077
  0
LWPOLYLINE
  5
3A6
330
A
100
AcDbEntity
  8
0
  6
Continuous
 62
     7
100
AcDbPolyline
 90
        3
 70
   128
 43
0.0
 10
-20.63879473810867
 20
-1433.539454509638
 10
-16.67108282998936
 20
-1434.683205222021
 10
-15.01833790018836
 20
-1435.25437825727
  0
LWPOLYLINE
  5
3AB
330
A
100
AcDbEntity
  8
0
  6
Continuous
 62
     7
100
AcDbPolyline
 90
        8
 70
   128
 43
0.0
 10
-69.00529396606867
 20
-1252.263832368387
 10
-69.98448217976622
 20
-1252.197386526593
 10
-75.33563105965652
 20
-1251.939726485012
 10
-79.45433788884601
 20
-1251.951018028393
 10
-83.25187886729986
 20
-1252.201975571582
 10
-86.93642758836425
 20
-1252.722201778762
 10
-90.3602140629548
 20
-1253.436028062263
 10
-91.33861703659418
 20
-1253.683698678555
  0
LWPOLYLINE
  5
3B5
330
A
100
AcDbEntity
  8
0
  6
Continuous
 62
     7
100
AcDbPolyline
 90
       41
 70
   128
 43
0.0
 10
149.3318753480089
 20
-1376.350977141857
 10
148.8888491666029
 20
-1375.083571192752
 10
148.169387798072
 20
-1372.378118839554
 10
147.8106561235794
 20
-1370.140055854921
 10
147.7419188477939
 20
-1367.858942531351
 10
147.9813491244504
 20
-1365.600076786679
 10
148.5187171790316
 20
-1363.467837389695
 10
149.374488948088
 20
-1361.405970028921
 10
150.568045067393
 20
-1359.302914304606
 10
152.1747132872837
 20
-1357.066880333892
 10
154.1969300661877
 20
-1354.747239570027
 10
156.6985614641178
 20
-1352.299294268932
 10
159.702340313353
 20
-1349.70548679376
 10
163.3934151014035
 20
-1346.868093982098
 10
167.6943680939313
 20
-1343.885187928573
 10
172.9122116657991
 20
-1340.537997693163
 10
179.795971759433
 20
-1336.288291439812
 10
187.8655138393234
 20
-1331.350765952238
 10
194.8472422805377
 20
-1326.873584077105
 10
199.7403698874494
 20
-1323.456195873525
 10
203.9960078746421
 20
-1320.189439969564
 10
207.1008222266762
 20
-1317.553607805229
 10
209.7300286761012
 20
-1315.024155350111
 10
212.0162264235553
 20
-1312.472706374689
 10
213.6587341219261
 20
-1310.33094965194
 10
214.9996062176355
 20
-1308.210520319524
 10
216.0627206614997
 20
-1306.060355013262
 10
216.8471343829406
 20
-1303.8777122081
 10
217.3617438068828
 20
-1301.614412753475
 10
217.5974850422458
 20
-1299.382218550041
 10
217.5862377306273
 20
-1297.043486171877
 10
217.3294876202371
 20
-1294.677541078986
 10
216.839359065383
 20
-1292.259241852574
 10
216.1297239823354
 20
-1289.754462348935
 10
215.0430497333385
 20
-1286.704598997559
 10
213.604950759384
 20
-1283.390616649789
 10
211.8598586166815
 20
-1279.912986659264
 10
209.5194705333467
 20
-1275.715158621006
 10
206.8549703408628
 20
-1271.459889727583
 10
204.0903431027493
 20
-1267.552899431831
 10
201.7962254092382
 20
-1264.682690340295
  0
LWPOLYLINE
  5
3E0
330
A
100
AcDbEntity
  8
0
  6
Continuous
 62
     7
100
AcDbPolyline
 90
        3
 70
   128
 43
0.0
 10
-115.2397735628748
 20
-1411.96259387992
 10
-110.9169250233467
 20
-1417.453457058698
 10
-105.4566960605813
 20
-1424.388845503187
  0
LINE
  5
3E5
330
A
100
AcDbEntity
  8
0
  6
Continuous
 62
     7
100
AcDbLine
 10
-105.4561644403045
 20
-1424.389520748337
 30
0.0
 11
-105.4532659911784
 21
-1424.393202255233
 31
0.0
  0
LWPOLYLINE
  5
3E6
330
A
100
AcDbEntity
  8
0
  6
Continuous
 62
     7
100
AcDbPolyline
 90
        3
 70
   128
 43
0.0
 10
191.1480573668592
 20
-1255.918507133186
 10
181.6753488242099
 20
-1251.139059466859
 10
169.9202262190314
 20
-1245.202850553071
  0
LWPOLYLINE
  5
3EB
330
A
100
AcDbEntity
  8
0
  6
Continuous
 62
     7
100
AcDbPolyline
 90
        3
 70
   128
 43
0.0
 10
6.090226713577756
 20
-1171.759122308198
 10
0.7487418882626552
 20
-1176.024139020364
 10
-6.714655294616803
 20
-1180.868552938217
  0
LWPOLYLINE
  5
3F0
330
A
100
AcDbEntity
  8
0
  6
Continuous
 62
     7
100
AcDbPolyline
 90
       40
 70
   128
 43
0.0
 10
-21.79219697943461
 20
-1225.069851822678
 10
-21.79204928391424
 20
-1225.068404973541
 10
-21.80982252495352
 20
-1225.118547742559
 10
-21.85059525555394
 20
-1225.265243501148
 10
-21.91494544638226
 20
-1225.507990223065
 10
-21.99457112083908
 20
-1225.811603201265
 10
-22.09515979589339
 20
-1226.193788148074
 10
-22.2178206139107
 20
-1226.654077474536
 10
-22.36403459852096
 20
-1227.191890795872
 10
-22.53570839810091
 20
-1227.806331619798
 10
-22.6547536688059
 20
-1228.221227397263
 10
-22.71725345002117
 20
-1228.435320250148
 10
-22.78184923603037
 20
-1228.653838189151
 10
-22.81496084354996
 20
-1228.764754380308
 10
-22.84863028298016
 20
-1228.87677385252
 10
-22.88286942719353
 20
-1228.989895226808
 10
-22.91769043164257
 20
-1229.104116941653
 10
-22.98912804404472
 20
-1229.335854237409
 10
-23.06304593990366
 20
-1229.571969617123
 10
-23.27311520581444
 20
-1230.222860959317
 10
-23.50378189555318
 20
-1230.904280203052
 10
-23.75208093307277
 20
-1231.60082985846
 10
-24.68874226350568
 20
-1233.927193229895
 10
-25.81144582704903
 20
-1236.216753156889
 10
-26.20968149859181
 20
-1236.926874363443
 10
-26.69744937002852
 20
-1237.73763303846
 10
-27.32981737010372
 20
-1238.705229205685
 10
-28.13034542228832
 20
-1239.815986479551
 10
-29.12747944859809
 20
-1241.052379325267
 10
-29.67758281268904
 20
-1241.675473943169
 10
-30.23813812993685
 20
-1242.272858814124
 10
-30.7523954068294
 20
-1242.790822856444
 10
-31.10359060264413
 20
-1243.129431595754
 10
-31.42238907524614
 20
-1243.426985429715
 10
-31.70653347640233
 20
-1243.684875935499
 10
-31.95403902153638
 20
-1243.904363778638
 10
-32.2599888466315
 20
-1244.169853383677
 10
-32.56576049842747
 20
-1244.427922815818
 10
-32.89243109631135
 20
-1244.695179592956
 10
-33.26738010140523
 20
-1244.99083706021
  0
LWPOLYLINE
  5
41A
330
A
100
AcDbEntity
  8
0
  6
Continuous
 62
     7
100
AcDbPolyline
 90
        7
 70
   128
 43
0.0
 10
-34.90260753405568
 20
-1246.162823834173
 10
-35.54001694201678
 20
-1246.572727391224
 10
-36.23742910750347
 20
-1246.99495760258
 10
-36.99001287594998
 20
-1247.422814785086
 10
-37.80047169690603
 20
-1247.854396852619
 10
-38.67148405050189
 20
-1248.28774430921
 10
-39.29394974220177
 20
-1248.576317277707
  0
LWPOLYLINE
  5
423
330
A
100
AcDbEntity
  8
0
  6
Continuous
 62
     7
100
AcDbPolyline
 90
       20
 70
   128
 43
0.0
 10
149.0838999787014
 20
-1466.551338509978
 10
149.5882172464755
 20
-1465.474483838376
 10
150.1810287722966
 20
-1464.32972631506
 10
150.7726613325311
 20
-1463.281397761336
 10
151.3535884031328
 20
-1462.324966769132
 10
151.9151890076377
 20
-1461.456463286314
 10
152.4497827806417
 20
-1460.672489280901
 10
152.9506274071559
 20
-1459.970201310561
 10
153.3166405081027
 20
-1459.474176212493
 10
153.6557424589509
 20
-1459.026208618236
 10
153.9657838038847
 20
-1458.625531822101
 10
154.2449018509737
 20
-1458.271518409513
 10
154.4914993415114
 20
-1457.963660822823
 10
154.7093606696603
 20
-1457.695263885365
 10
154.9371652014331
 20
-1457.41802035548
 10
155.3096725440983
 20
-1456.971700366344
 10
155.7244110121598
 20
-1456.484266340032
 10
156.1828734812923
 20
-1455.956028099976
 10
156.6865775048967
 20
-1455.387247402693
 10
156.7723477280057
 20
-1455.292337044956
  0
LINE
  5
439
330
A
100
AcDbEntity
  8
0
  6
Continuous
 62
     7
100
AcDbLine
 10
38.50637611981586
 20
-1418.393312024135
 30
0.0
 11
38.50637611981586
 21
-1333.137817352748
 31
0.0
  0
LINE
  5
43A
330
A
100
AcDbEntity
  8
0
  6
Continuous
 62
     7
100
AcDbLine
 10
36.50637611981585
 20
-1333.137817352748
 30
0.0
 11
36.50637611981585
 21
-1418.393312024135
 31
0.0
  0
LINE
  5
43B
330
A
100
AcDbEntity
  8
0
  6
Continuous
 62
     7
100
AcDbLine
 10
-41.79717709956743
 20
-1554.019044613276
 30
0.0
 11
-115.6306012971923
 21
-1596.646791948962
 31
0.0
  0
LINE
  5
43C
330
A
100
AcDbEntity
  8
0
  6
Continuous
 62
     7
100
AcDbLine
 10
-114.6306012971924
 20
-1598.378842756531
 30
0.0
 11
-40.79717709956747
 21
-1555.751095420845
 31
0.0
  0
LINE
  5
43D
330
A
100
AcDbEntity
  8
0
  6
Continuous
 62
     7
100
AcDbLine
 10
115.8099293391985
 20
-1555.751095420846
 30
0.0
 11
189.6433535368228
 21
-1598.378842756533
 31
0.0
  0
LINE
  5
43E
330
A
100
AcDbEntity
  8
0
  6
Continuous
 62
     7
100
AcDbLine
 10
190.6433535368227
 20
-1596.646791948965
 30
0.0
 11
116.8099293391985
 21
-1554.019044613277
 31
0.0
  0
CIRCLE
  5
43F
330
A
100
AcDbEntity
  8
0
  6
Continuous
 62
     7
100
AcDbCircle
 10
37.50637611981586
 20
-1509.387817352753
 30
0.0
 40
66.0
  0
CIRCLE
  5
440
330
A
100
AcDbEntity
  8
0
  6
Continuous
 62
     7
100
AcDbCircle
 10
37.50637611981586
 20
-1509.387817352753
 30
0.0
 40
91.0
  0
LWPOLYLINE
  5
441
330
A
100
AcDbEntity
  8
0
  6
Continuous
 62
     7
100
AcDbPolyline
 90
        5
 70
   128
 43
0.0
 10
-105.9703353444062
 20
-1445.034494860113
 10
-104.3103833761879
 20
-1443.808405479982
 10
-98.24524804698612
 20
-1440.822945596996
 10
-91.73905255370494
 20
-1438.979932826784
 10
-82.12791296117265
 20
-1437.352276678952
  0
LWPOLYLINE
  5
448
330
A
100
AcDbEntity
  8
0
  6
Continuous
 62
     7
100
AcDbPolyline
 90
        7
 70
   128
 43
0.0
 10
-62.97938457077165
 20
-1434.838612070172
 10
-52.11244909545889
 20
-1433.912855209205
 10
-44.91950537182415
 20
-1433.795481455825
 10
-37.72887498513071
 20
-1434.328959548294
 10
-30.63330376525907
 20
-1435.520007380104
 10
-24.46842198856594
 20
-1437.174136798409
 10
-19.92909079404703
 20
-1438.926498785503
  0
LWPOLYLINE
  5
451
330
A
100
AcDbEntity
  8
0
  6
Continuous
 62
     7
100
AcDbPolyline
 90
        7
 70
   128
 43
0.0
 10
0.8421344109846573
 20
-1597.685879744064
 10
0.3741413025848406
 20
-1597.816079604893
 10
-1.126961522035896
 20
-1598.23369982909
 10
-3.491936183603841
 20
-1598.891656968588
 10
-6.454150014158138
 20
-1599.715771471281
 10
-8.143520905180389
 20
-1600.185769666266
 10
-8.789312917859671
 20
-1600.365434825693
  0
LWPOLYLINE
  5
45A
330
A
100
AcDbEntity
  8
0
  6
Continuous
 62
     7
100
AcDbPolyline
 90
        7
 70
   128
 43
0.0
 10
-125.9567667308604
 20
-1485.462999137567
 10
-126.3176422074799
 20
-1485.161662319895
 10
-128.2611972455328
 20
-1483.538762649965
 10
-130.5548426287376
 20
-1481.62353191114
 10
-132.3300896533082
 20
-1480.141172122696
 10
-133.3867934261789
 20
-1479.258807491624
 10
-133.552274234955
 20
-1479.120556350205
  0
LINE
  5
463
330
A
100
AcDbEntity
  8
0
  6
Continuous
 62
     7
100
AcDbLine
 10
0.8421344480637193
 20
-1597.685879876853
 30
0.0
 11
0.8421331808157461
 21
-1597.685879943267
 31
0.0
  0
LWPOLYLINE
  5
464
330
A
100
AcDbEntity
  8
0
  6
Continuous
 62
     7
100
AcDbPolyline
 90
        8
 70
   128
 43
0.0
 10
0.8421331808157461
 20
-1597.685879943267
 10
0.84214925538037
 20
-1597.685937739784
 10
3.322459381335046
 20
-1605.015554739074
 10
6.516001944698757
 20
-1612.09572199174
 10
10.27392434506532
 20
-1618.93556693573
 10
14.44737398202839
 20
-1625.544217008993
 10
18.88749825518157
 20
-1631.930799649476
 10
20.58766554057209
 20
-1634.191419535832
  0
LWPOLYLINE
  5
46E
330
A
100
AcDbEntity
  8
0
  6
Continuous
 62
     7
100
AcDbPolyline
 90
        9
 70
   128
 43
0.0
 10
36.78129131305708
 20
-1663.304937700119
 10
37.02392183764455
 20
-1665.425511276426
 10
36.91475236113831
 20
-1669.272636270633
 10
36.23900071240882
 20
-1673.059829682477
 10
35.37682410908113
 20
-1675.696580075712
 10
34.17433488218158
 20
-1678.193867974067
 10
32.43951620612445
 20
-1680.65272311938
 10
30.29390962954507
 20
-1682.763446272133
 10
29.36937936674208
 20
-1683.401723905916
  0
LWPOLYLINE
  5
479
330
A
100
AcDbEntity
  8
0
  6
Continuous
 62
     7
100
AcDbPolyline
 90
        7
 70
   128
 43
0.0
 10
-6.091538297953682
 20
-1718.966698789749
 10
-6.499998126360123
 20
-1722.59693539845
 10
-6.964309294628518
 20
-1733.297047812845
 10
-7.469251251589495
 20
-1741.100496695438
 10
-8.312539793187106
 20
-1746.230446304156
 10
-9.953284614571082
 20
-1751.1376771653
 10
-11.31188185596417
 20
-1753.531813996363
  0
LWPOLYLINE
  5
482
330
A
100
AcDbEntity
  8
0
  6
Continuous
 62
     7
100
AcDbPolyline
 90
        5
 70
   128
 43
0.0
 10
-68.53632634050035
 20
-1763.325000888858
 10
-69.90682401069022
 20
-1763.468946610499
 10
-77.05452770664731
 20
-1764.844041188587
 10
-82.75692584098607
 20
-1766.306809282562
 10
-84.50059865100149
 20
-1766.710315724032
  0
LINE
  5
489
330
A
100
AcDbEntity
  8
0
  6
Continuous
 62
     7
100
AcDbLine
 10
-119.4212680682447
 20
-1748.729417949311
 30
0.0
 11
-112.3794518194279
 21
-1741.773154814668
 31
0.0
  0
LWPOLYLINE
  5
48A
330
A
100
AcDbEntity
  8
0
  6
Continuous
 62
     7
100
AcDbPolyline
 90
       39
 70
   128
 43
0.0
 10
-131.7752701449395
 20
-1730.113018583572
 10
-133.4018113771313
 20
-1726.953755914852
 10
-136.4075301156701
 20
-1721.486473413271
 10
-139.8524656584876
 20
-1716.278805193754
 10
-143.8638817955858
 20
-1711.533404051317
 10
-148.8899786934109
 20
-1707.083397741189
 10
-154.5617132539059
 20
-1703.511164966753
 10
-158.9677263473821
 20
-1701.675768547041
 10
-163.6130238764784
 20
-1700.618542333882
 10
-168.3746656678884
 20
-1700.487859437685
 10
-173.1010909071875
 20
-1701.159656168339
 10
-178.7765702217924
 20
-1702.790435616821
 10
-184.2706744610603
 20
-1705.020538636156
 10
-189.6310346387256
 20
-1707.620378217576
 10
-194.9052817685226
 20
-1710.360367352316
 10
-201.390482472221
 20
-1713.548414866318
 10
-205.5937921360865
 20
-1715.14902516291
 10
-209.971543860887
 20
-1716.103965383789
 10
-213.3302564460005
 20
-1716.152365858139
 10
-216.6411753395507
 20
-1715.572456145421
 10
-219.5838338137071
 20
-1714.568740143162
 10
-222.4134795982168
 20
-1713.270482714121
 10
-229.0184760346541
 20
-1709.456242190227
 10
-239.3206522913757
 20
-1702.870626686562
 10
-249.380033752596
 20
-1695.891359010696
 10
-259.0392905836209
 20
-1688.398375365227
 10
-268.1410929497558
 20
-1680.271611952753
 10
-273.189971737294
 20
-1675.256011098647
 10
-277.99475007619
 20
-1670.005485541396
 10
-282.355394810887
 20
-1664.402699172122
 10
-284.3528422062403
 20
-1661.251352352941
 10
-285.9274791593211
 20
-1657.878807492481
 10
-286.8329721642285
 20
-1653.970993084335
 10
-286.5511618292493
 20
-1650.429597880499
 10
-286.1613841309967
 20
-1649.131061316291
 10
-284.2895204077216
 20
-1645.472516711198
 10
-281.7297447772292
 20
-1642.226323862658
 10
-278.0118256460462
 20
-1638.607133333726
 10
-277.2971205261519
 20
-1638.028638501127
  0
LINE
  5
4B3
330
A
100
AcDbEntity
  8
0
  6
Continuous
 62
     7
100
AcDbLine
 10
-236.0328697915524
 20
-1610.099972817499
 30
0.0
 11
-236.0328018225726
 21
-1610.099969255396
 31
0.0
  0
LWPOLYLINE
  5
4B4
330
A
100
AcDbEntity
  8
0
  6
Continuous
 62
     7
100
AcDbPolyline
 90
       11
 70
   128
 43
0.0
 10
-230.0053741532586
 20
-1617.96628137353
 10
-230.6440384843998
 20
-1617.132767966683
 10
-231.467410729822
 20
-1616.058201941275
 10
-232.0790988145713
 20
-1615.259895312638
 10
-232.8397002389499
 20
-1614.267249204242
 10
-233.5042779965837
 20
-1613.399918988597
 10
-233.9854809929034
 20
-1612.771906790184
 10
-234.5027551626615
 20
-1612.09682054633
 10
-234.9636374697054
 20
-1611.495331250943
 10
-235.35217698178
 20
-1610.988254830747
 10
-236.0328018225727
 20
-1610.099969255396
  0
LWPOLYLINE
  5
4C1
330
A
100
AcDbEntity
  8
0
  6
Continuous
 62
     7
100
AcDbPolyline
 90
        8
 70
   128
 43
0.0
 10
-253.8036429143683
 20
-1518.07632316715
 10
-254.2895251669195
 20
-1517.293346187861
 10
-256.8960828785655
 20
-1511.715445023466
 10
-258.4195333470082
 20
-1506.276564019547
 10
-258.8519095151557
 20
-1500.655566161755
 10
-258.2820791580485
 20
-1495.694421966702
 10
-257.0277939762828
 20
-1490.851900756027
 10
-256.4883434620533
 20
-1489.497494104911
  0
LWPOLYLINE
  5
4CB
330
A
100
AcDbEntity
  8
0
  6
Continuous
 62
     7
100
AcDbPolyline
 90
       32
 70
   128
 43
0.0
 10
29.41812656820764
 20
-1690.343694882829
 10
28.79116705872514
 20
-1691.948762026689
 10
26.69934787836512
 20
-1695.490243504478
 10
24.19020305799019
 20
-1698.993116122645
 10
18.65980738318984
 20
-1706.182206998477
 10
13.66212732359545
 20
-1713.095093433032
 10
9.317074011655519
 20
-1720.184354543491
 10
5.718008410781127
 20
-1727.812720254959
 10
2.941367959378466
 20
-1735.952012339633
 10
1.057721229223401
 20
-1744.475604929491
 10
-0.1204178715903947
 20
-1753.203462071285
 10
-0.9100836805064904
 20
-1759.279238431181
 10
-1.981905955494522
 20
-1765.207510075343
 10
-3.608014935559053
 20
-1770.883511235279
 10
-6.060540859704532
 20
-1776.202476142496
 10
-9.575642508813389
 20
-1781.050970038757
 10
-14.05227424520538
 20
-1785.234293135193
 10
-19.20498277088184
 20
-1788.513304071769
 10
-24.74881948360478
 20
-1790.653514844082
 10
-30.49941755973548
 20
-1791.636055231652
 10
-36.40789089138596
 20
-1791.732485866393
 10
-44.870099851619
 20
-1790.934880582478
 10
-53.45673645380516
 20
-1789.774286119044
 10
-62.05705149985674
 20
-1789.015845260472
 10
-67.05963842056023
 20
-1788.719250002203
 10
-71.94344383163588
 20
-1788.184970773794
 10
-76.64976621680536
 20
-1787.107848181149
 10
-81.12264823093743
 20
-1785.240490450416
 10
-86.51460692216662
 20
-1781.720470133007
 10
-91.3589288699417
 20
-1777.235503546881
 10
-95.57279265747011
 20
-1772.0804511522
 10
-98.76140397294234
 20
-1767.04538116242
  0
LWPOLYLINE
  5
4ED
330
A
100
AcDbEntity
  8
0
  6
Continuous
 62
     7
100
AcDbPolyline
 90
       23
 70
   128
 43
0.0
 10
-307.8486985146059
 20
-1613.86368091761
 10
-305.7521439066121
 20
-1611.654513262194
 10
-299.8808146254012
 20
-1606.401543339771
 10
-293.7399771380389
 20
-1601.95138279403
 10
-287.4181552488737
 20
-1598.040825478314
 10
-281.0031539614346
 20
-1594.405777918955
 10
-275.8630687270976
 20
-1591.518636081741
 10
-270.7645000419309
 20
-1588.503584806929
 10
-265.7542060007298
 20
-1585.225630819977
 10
-260.9560057621184
 20
-1581.559299822886
 10
-256.5980795631545
 20
-1577.392008731569
 10
-253.472768657706
 20
-1573.456026405137
 10
-250.9527316372952
 20
-1569.032036075779
 10
-249.1515568264371
 20
-1564.164922126447
 10
-248.1499564516944
 20
-1559.057786791303
 10
-248.0260079820221
 20
-1553.926412206112
 10
-248.8577888863751
 20
-1548.986580506641
 10
-250.4649176348705
 20
-1544.865329622304
 10
-252.6070775962272
 20
-1540.959533830698
 10
-254.7802039432966
 20
-1537.00212226712
 10
-256.4796169311845
 20
-1532.72715839654
 10
-257.3897993931252
 20
-1528.081948252845
 10
-257.4265568292146
 20
-1526.797755919404
  0
LINE
  5
506
330
A
100
AcDbEntity
  8
0
  6
Continuous
 62
     7
100
AcDbLine
 10
-236.0328697915524
 20
-1610.099972817499
 30
0.0
 11
-307.8486985146057
 21
-1613.86368091761
 31
0.0
  0
LWPOLYLINE
  5
507
330
A
100
AcDbEntity
  8
0
  6
Continuous
 62
     7
100
AcDbPolyline
 90
       20
 70
   128
 43
0.0
 10
-239.1326225945484
 20
-1705.299449230543
 10
-245.0070824475786
 20
-1703.216352604658
 10
-254.0278574817726
 20
-1699.033268681332
 10
-264.8629929628703
 20
-1692.801044664735
 10
-274.9551774821378
 20
-1685.844406673072
 10
-284.604561992275
 20
-1678.1994279932
 10
-294.1680457801473
 20
-1669.852838440865
 10
-299.8818655803644
 20
-1664.624301988554
 10
-305.7062025270633
 20
-1659.144832932632
 10
-311.187796430865
 20
-1653.390602789335
 10
-313.9776653066199
 20
-1649.857531980413
 10
-316.2658069368072
 20
-1646.21056095382
 10
-317.9100743346958
 20
-1642.442825020428
 10
-318.7683205135551
 20
-1638.547459491115
 10
-318.72181348562
 20
-1634.365543610647
 10
-317.7972000666277
 20
-1630.11208948601
 10
-316.1210310583044
 20
-1625.861136635796
 10
-313.8198572623757
 20
-1621.686724578596
 10
-311.0202294805677
 20
-1617.662892833004
 10
-307.8486985146059
 20
-1613.86368091761
  0
LWPOLYLINE
  5
51D
330
A
100
AcDbEntity
  8
0
  6
Continuous
 62
     7
100
AcDbPolyline
 90
        5
 70
   128
 43
0.0
 10
-103.2330679906075
 20
-1443.27811527368
 10
-99.41901434906235
 20
-1439.928900224856
 10
-95.78234119753835
 20
-1437.299950082323
 10
-91.92402856726179
 20
-1434.920094209703
 10
-89.31933349667461
 20
-1433.64423287045
  0
LINE
  5
524
330
A
100
AcDbEntity
  8
0
  6
Continuous
 62
     7
100
AcDbLine
 10
132.3068622065135
 20
-1496.990950788924
 30
0.0
 11
132.3068628976534
 21
-1496.990951853186
 31
0.0
  0
LWPOLYLINE
  5
525
330
A
100
AcDbEntity
  8
0
  6
Continuous
 62
     7
100
AcDbPolyline
 90
        8
 70
   128
 43
0.0
 10
132.3068628976534
 20
-1496.990951853186
 10
132.306904913623
 20
-1496.990909033947
 10
137.4143843720413
 20
-1491.178088955961
 10
141.949217794211
 20
-1484.872316341688
 10
145.9937360734699
 20
-1478.197937605525
 10
149.6302701031557
 20
-1471.279299161869
 10
152.9411507766062
 20
-1464.240747425117
 10
154.0488213837949
 20
-1461.638049422107
  0
LWPOLYLINE
  5
52F
330
A
100
AcDbEntity
  8
0
  6
Continuous
 62
     7
100
AcDbPolyline
 90
        9
 70
   128
 43
0.0
 10
171.165054821365
 20
-1433.057199041613
 10
172.8802101467469
 20
-1431.786788055434
 10
176.2665028615175
 20
-1429.957769098302
 10
179.8841843895846
 20
-1428.649390486829
 10
182.598765515228
 20
-1428.077682131242
 10
185.3627248892163
 20
-1427.870424400337
 10
188.3595652473126
 20
-1428.143393872105
 10
191.2603084062422
 20
-1428.946182097573
 10
192.2753381831669
 20
-1429.427709974837
  0
LWPOLYLINE
  5
53A
330
A
100
AcDbEntity
  8
0
  6
Continuous
 62
     7
100
AcDbPolyline
 90
        7
 70
   128
 43
0.0
 10
240.8059687498697
 20
-1442.355278072055
 10
244.1540757889562
 20
-1440.89389635553
 10
253.6528005473056
 20
-1435.945945415314
 10
260.6632564952455
 20
-1432.481513536182
 10
265.5275674473281
 20
-1430.646848031567
 10
270.597726446006
 20
-1429.614159297441
 10
273.3504083825388
 20
-1429.593670606467
  0
LWPOLYLINE
  5
543
330
A
100
AcDbEntity
  8
0
  6
Continuous
 62
     7
100
AcDbPolyline
 90
        5
 70
   128
 43
0.0
 10
310.4437792577167
 20
-1474.25489980128
 10
311.2536887445188
 20
-1475.369812738672
 10
316.0184074297274
 20
-1480.87235842905
 10
320.1364008261244
 20
-1485.079396028893
 10
321.3576840600363
 20
-1486.38770775752
  0
LINE
  5
54A
330
A
100
AcDbEntity
  8
0
  6
Continuous
 62
     7
100
AcDbLine
 10
323.2461045128989
 20
-1525.620343477371
 30
0.0
 11
313.7008957984798
 21
-1523.000083284436
 31
0.0
  0
LWPOLYLINE
  5
54B
330
A
100
AcDbEntity
  8
0
  6
Continuous
 62
     7
100
AcDbPolyline
 90
        5
 70
   128
 43
0.0
 10
53.51311975537356
 20
-1665.818955578532
 10
51.62131922076021
 20
-1664.994439695058
 10
46.00326745551416
 20
-1661.234608364072
 10
41.15407383037106
 20
-1656.521584170009
 10
34.93891246145587
 20
-1649.011921197474
  0
LWPOLYLINE
  5
552
330
A
100
AcDbEntity
  8
0
  6
Continuous
 62
     7
100
AcDbPolyline
 90
        7
 70
   128
 43
0.0
 10
23.18775085845787
 20
-1633.685641470689
 10
16.95255416147712
 20
-1624.737477718265
 10
13.25443364749457
 20
-1618.566892602296
 10
10.12112403458867
 20
-1612.07288497196
 10
7.60481610412253
 20
-1605.332416125284
 10
5.954893313175668
 20
-1599.166407186188
 10
5.194562370863603
 20
-1594.306280926024
  0
LWPOLYLINE
  5
55B
330
A
100
AcDbEntity
  8
0
  6
Continuous
 62
     7
100
AcDbPolyline
 90
        7
 70
   128
 43
0.0
 10
132.3068621100545
 20
-1496.99095088743
 10
132.6536150513009
 20
-1497.331144877686
 10
133.7658361869
 20
-1498.422327945402
 10
135.5181311150907
 20
-1500.141477511878
 10
137.7129421253272
 20
-1502.294772689233
 10
138.9646579474283
 20
-1503.522811699779
 10
139.4431485460067
 20
-1503.992251408607
  0
LWPOLYLINE
  5
564
330
A
100
AcDbEntity
  8
0
  6
Continuous
 62
     7
100
AcDbPolyline
 90
        7
 70
   128
 43
0.0
 10
98.51844718988274
 20
-1662.913460751469
 10
98.43791958899345
 20
-1663.37665649066
 10
98.00422476606707
 20
-1665.871274362232
 10
97.4924089837382
 20
-1668.815244900773
 10
97.09627126168301
 20
-1671.093833816265
 10
96.86047296220893
 20
-1672.450148443382
 10
96.82348436602572
 20
-1672.662584598331
  0
LWPOLYLINE
  5
56D
330
A
100
AcDbEntity
  8
0
  6
Continuous
 62
     7
100
AcDbPolyline
 90
       39
 70
   128
 43
0.0
 10
313.3008307735196
 20
-1545.627422797064
 10
311.3780996612763
 20
-1548.615680158805
 10
308.1461534945098
 20
-1553.952350193801
 10
305.3586482933362
 20
-1559.53958599804
 10
303.2547184213868
 20
-1565.386274849136
 10
301.9139483587277
 20
-1571.964005599599
 10
301.6561713080822
 20
-1578.661988199727
 10
302.2696779293348
 20
-1583.395405677941
 10
303.6767419357407
 20
-1587.946964452855
 10
305.9443881234991
 20
-1592.136008656036
 10
308.8893937780742
 20
-1595.89331461703
 10
313.1394298657314
 20
-1599.99303415789
 10
317.8178078531658
 20
-1603.636016490468
 10
322.749515065273
 20
-1606.978304787051
 10
327.7595388269493
 20
-1610.175942219922
 10
333.7630693143959
 20
-1614.198267020965
 10
337.2508933247366
 20
-1617.038134821549
 10
340.2667716775139
 20
-1620.351908916247
 10
341.9880440104131
 20
-1623.236439101791
 10
343.1412869140734
 20
-1626.393733829834
 10
343.7433725950096
 20
-1629.444008824245
 10
344.0338715730631
 20
-1632.543682671862
 10
344.0331406014455
 20
-1640.17089763967
 10
343.4809184040763
 20
-1652.385651744088
 10
342.4663860275745
 20
-1664.586965473796
 10
340.8069002559693
 20
-1676.698619093877
 10
338.3198178732893
 20
-1688.644392869411
 10
336.5006195121592
 20
-1695.524650587101
 10
334.3559201658087
 20
-1702.310973466764
 10
331.6840872053891
 20
-1708.888795768527
 10
329.9536645015193
 20
-1712.194309365217
 10
327.8202734534983
 20
-1715.244257398553
 10
324.8887534052228
 20
-1717.982344547825
 10
321.6809100263717
 20
-1719.508987240601
 10
320.3614555248975
 20
-1719.82069813419
 10
316.257131094371
 20
-1720.028888899958
 10
312.1659578067057
 20
-1719.435154600233
 10
307.1726873019235
 20
-1718.024937447879
 10
306.3143435209876
 20
-1717.695232074134
  0
LINE
  5
596
330
A
100
AcDbEntity
  8
0
  6
Continuous
 62
     7
100
AcDbLine
 10
261.4952841778631
 20
-1695.923675511655
 30
0.0
 11
261.4952471085014
 21
-1695.923618429844
 31
0.0
  0
LWPOLYLINE
  5
597
330
A
100
AcDbEntity
  8
0
  6
Continuous
 62
     7
100
AcDbPolyline
 90
       11
 70
   128
 43
0.0
 10
265.2939594022453
 20
-1686.770556889678
 10
264.8914477830916
 20
-1687.74041312836
 10
264.3725324297558
 20
-1688.990757422371
 10
263.9870226517217
 20
-1689.919648157274
 10
263.5076666170719
 20
-1691.074671367139
 10
263.0888254956704
 20
-1692.083877695862
 10
262.7855524761187
 20
-1692.814617814259
 10
262.4595477240748
 20
-1693.600133507918
 10
262.1690838676867
 20
-1694.300013941666
 10
261.9242125621744
 20
-1694.890037239595
 10
261.4952471085014
 20
-1695.923618429844
  0
LWPOLYLINE
  5
5A4
330
A
100
AcDbEntity
  8
0
  6
Continuous
 62
     7
100
AcDbPolyline
 90
        8
 70
   128
 43
0.0
 10
190.6858523931104
 20
-1757.325441306078
 10
190.2507155647423
 20
-1758.13771616968
 10
186.7233903124008
 20
-1763.184011946593
 10
182.7749064290677
 20
-1767.222799255632
 10
178.1231675736759
 20
-1770.407746930134
 10
173.5417754903681
 20
-1772.394831462559
 10
168.7208865126763
 20
-1773.729849236897
 10
167.2782106886409
 20
-1773.939874713047
  0
LWPOLYLINE
  5
5AE
330
A
100
AcDbEntity
  8
0
  6
Continuous
 62
     7
100
AcDbPolyline
 90
       32
 70
   128
 43
0.0
 10
198.262887800776
 20
-1425.914508171546
 10
199.9663964768797
 20
-1425.654937461972
 10
204.0793189938572
 20
-1425.695765273393
 10
208.3674680775983
 20
-1426.117312120528
 10
217.3586012435842
 20
-1427.312229829969
 10
225.8441765391828
 20
-1428.183904504287
 10
234.1561834108712
 20
-1428.402200497995
 10
242.5620747067982
 20
-1427.704899882505
 10
250.9992286466488
 20
-1426.039895008258
 10
259.3226997260515
 20
-1423.409384633399
 10
267.4703152818537
 20
-1420.065754452999
 10
273.1269248616945
 20
-1417.711736924072
 10
278.7968698435679
 20
-1415.675826420472
 10
284.5254855300146
 20
-1414.246077526562
 10
290.358107223575
 20
-1413.710544826704
 10
296.3145769323856
 20
-1414.330465203586
 10
302.1757568743332
 20
-1416.115680462471
 10
307.5918179075331
 20
-1418.938551475716
 10
312.2172131621711
 20
-1422.66954951721
 10
315.9434171361159
 20
-1427.158443344308
 10
318.9811651813298
 20
-1432.22711602973
 10
322.5215232233836
 20
-1439.954406603381
 10
325.8097372356516
 20
-1447.970949265657
 10
329.4530657078857
 20
-1455.798261005373
 10
331.6975001399348
 20
-1460.278925992476
 10
333.6767034609557
 20
-1464.775565159812
 10
335.0970491253197
 20
-1469.389921200091
 10
335.7163108996179
 20
-1474.197229517826
 10
335.3638632285188
 20
-1480.626812879292
 10
333.9019292036972
 20
-1487.064602043238
 10
331.5444547658275
 20
-1493.291441328666
 10
328.7782619025814
 20
-1498.570394725551
  0
LWPOLYLINE
  5
5D0
330
A
100
AcDbEntity
  8
0
  6
Continuous
 62
     7
100
AcDbPolyline
 90
       23
 70
   128
 43
0.0
 10
300.6626653665167
 20
-1756.236153529594
 10
297.7011927517104
 20
-1755.525067806359
 10
290.216322712971
 20
-1753.066832456058
 10
283.2919518857585
 20
-1749.973791464361
 10
276.7443989628109
 20
-1746.454211768002
 10
270.3888547887222
 20
-1742.716181467448
 10
265.318473996197
 20
-1739.708307995503
 10
260.158078655914
 20
-1736.800343628615
 10
254.814140210176
 20
-1734.100278701981
 10
249.2399043087074
 20
-1731.778080901445
 10
243.4519612591808
 20
-1730.087651650982
 10
238.4806451229194
 20
-1729.349044175355
 10
233.3893386013939
 20
-1729.378623261881
 10
228.2737068727299
 20
-1730.252317093687
 10
223.3499977445581
 20
-1731.938473392293
 10
218.8441227626127
 20
-1734.396818161392
 10
214.9819934726275
 20
-1737.587077404679
 10
212.2164498856704
 20
-1741.039517170197
 10
209.9050114888235
 20
-1744.847580011505
 10
207.5643557150696
 20
-1748.708268415489
 10
204.7118348968303
 20
-1752.317485169812
 10
201.1440561374437
 20
-1755.428331375779
 10
200.0502916713834
 20
-1756.102260415931
  0
LINE
  5
5E9
330
A
100
AcDbEntity
  8
0
  6
Continuous
 62
     7
100
AcDbLine
 10
261.4952841778633
 20
-1695.923675511655
 30
0.0
 11
300.6626653665164
 21
-1756.236153529594
 31
0.0
  0
LWPOLYLINE
  5
5EA
330
A
100
AcDbEntity
  8
0
  6
Continuous
 62
     7
100
AcDbPolyline
 90
       20
 70
   128
 43
0.0
 10
345.4903255800352
 20
-1651.008401977978
 10
346.6235409099967
 20
-1657.137381757156
 10
347.511271483331
 20
-1667.041144060255
 10
347.5315749034308
 20
-1679.540758648631
 10
346.5530419373527
 20
-1691.759165817828
 10
344.7569884442619
 20
-1703.938267274427
 10
342.3103717509139
 20
-1716.393781959572
 10
340.6392362587087
 20
-1723.956363285363
 10
338.8060453303789
 20
-1731.740121569365
 10
336.5635327989626
 20
-1739.364436214936
 10
334.8987381629445
 20
-1743.547068939028
 10
332.884439422142
 20
-1747.352143231524
 10
330.443618088018
 20
-1750.659988535406
 10
327.4992556720359
 20
-1753.350934293655
 10
323.854356769094
 20
-1755.401615966243
 10
319.7084507338306
 20
-1756.727604319034
 10
315.1889330710934
 20
-1757.401475801897
 10
310.4231992857303
 20
-1757.495806864699
 10
305.5386448825891
 20
-1757.083173957309
 10
300.6626653665165
 20
-1756.236153529594
  0
LWPOLYLINE
  5
600
330
A
100
AcDbEntity
  8
0
  6
Continuous
 62
     7
100
AcDbPolyline
 90
        5
 70
   128
 43
0.0
 10
50.62341673792844
 20
-1664.326602306405
 10
45.81588460214422
 20
-1662.698142485845
 10
41.72081041766515
 20
-1660.863166222631
 10
37.73063845949304
 20
-1658.711697405379
 10
35.32336259269766
 20
-1657.093895974764
  0
LINE
  5
607
330
A
100
AcDbEntity
  8
0
  6
Continuous
 62
     7
100
AcDbLine
 10
-20.62986829512947
 20
-1433.486621392466
 30
0.0
 11
-20.62986771902139
 21
-1433.48662026179
 31
0.0
  0
LWPOLYLINE
  5
608
330
A
100
AcDbEntity
  8
0
  6
Continuous
 62
     7
100
AcDbPolyline
 90
        8
 70
   128
 43
0.0
 10
-20.62986771902139
 20
-1433.48662026179
 10
-20.62992580955561
 20
-1433.486605284513
 10
-28.21771539392855
 20
-1431.969808363209
 10
-35.94609137946206
 20
-1431.195413724815
 10
-43.74853205908755
 20
-1431.029947516988
 10
-51.55851572573647
 20
-1431.339935887381
 10
-59.30952067234017
 20
-1431.991904983651
 10
-62.11735856491934
 20
-1432.333983100304
  0
LWPOLYLINE
  5
612
330
A
100
AcDbEntity
  8
0
  6
Continuous
 62
     7
100
AcDbPolyline
 90
        9
 70
   128
 43
0.0
 10
-95.42721777497462
 20
-1431.80131531651
 10
-97.38500362494395
 20
-1430.951152726384
 10
-100.6621268632083
 20
-1428.933046689308
 10
-103.6040567425459
 20
-1426.454231888937
 10
-105.4564612648616
 20
-1424.389189851289
 10
-107.0179314119504
 20
-1422.099159683839
 10
-108.2799530939895
 20
-1419.367335066757
 10
-109.0350896763397
 20
-1416.453823688536
 10
-109.1255891904614
 20
-1415.33401817749
  0
LWPOLYLINE
  5
61D
330
A
100
AcDbEntity
  8
0
  6
Continuous
 62
     7
100
AcDbPolyline
 90
        7
 70
   128
 43
0.0
 10
-122.1953020924681
 20
-1366.841475196439
 10
-125.1349493031482
 20
-1364.672620304263
 10
-134.1693628932292
 20
-1358.920458830084
 10
-140.6748768842081
 20
-1354.581441826623
 10
-144.6958992946931
 20
-1351.286157722519
 10
-148.1253134719871
 20
-1347.411615595501
 10
-149.5193981671267
 20
-1345.037967455412
  0
LWPOLYLINE
  5
626
330
A
100
AcDbEntity
  8
0
  6
Continuous
 62
     7
100
AcDbPolyline
 90
        5
 70
   128
 43
0.0
 10
-129.3883245577679
 20
-1290.583551368104
 10
-128.8277363743802
 20
-1289.324692709071
 10
-126.4447513636317
 20
-1282.447052440605
 10
-124.8603466256898
 20
-1276.777246746787
 10
-124.3379570495862
 20
-1275.065428576691
  0
LINE
  5
62D
330
A
100
AcDbEntity
  8
0
  6
Continuous
 62
     7
100
AcDbLine
 10
-91.30570808520541
 20
-1253.81369063156
 30
0.0
 11
-88.80231561960311
 21
-1263.390213959139
 31
0.0
  0
LWPOLYLINE
  5
62E
330
A
100
AcDbEntity
  8
0
  6
Continuous
 62
     7
100
AcDbPolyline
 90
        5
 70
   128
 43
0.0
 10
164.9763439484813
 20
-1417.3100016196
 10
165.2081925148764
 20
-1419.360606883205
 10
164.7611089509205
 20
-1426.105898097176
 10
163.1041070827824
 20
-1432.661935061452
 10
159.7081288591652
 20
-1441.799254181819
  0
LWPOLYLINE
  5
635
330
A
100
AcDbEntity
  8
0
  6
Continuous
 62
     7
100
AcDbPolyline
 90
        7
 70
   128
 43
0.0
 10
152.3107620717621
 20
-1459.639198517384
 10
147.67902329343
 20
-1469.513119130774
 10
144.1842000837778
 20
-1475.801078000124
 10
140.1268793099901
 20
-1481.76160753799
 10
135.5476160205846
 20
-1487.311028552856
 10
131.0326570348383
 20
-1491.822908073647
 10
127.3055291723431
 20
-1494.829401089639
  0
LWPOLYLINE
  5
63E
330
A
100
AcDbEntity
  8
0
  6
Continuous
 62
     7
100
AcDbPolyline
 90
        7
 70
   128
 43
0.0
 10
-20.62986816159133
 20
-1433.486621426749
 10
-20.50862799443795
 20
-1433.016227575665
 10
-20.11974630541633
 20
-1431.507424283752
 10
-19.50706657203899
 20
-1429.130317577778
 10
-18.73966375172117
 20
-1426.15290789773
 10
-18.30200868280006
 20
-1424.454870692199
 10
-18.13470726869912
 20
-1423.805765823944
  0
LWPOLYLINE
  5
647
330
A
100
AcDbEntity
  8
0
  6
Continuous
 62
     7
100
AcDbPolyline
 90
        7
 70
   128
 43
0.0
 10
139.9574479004265
 20
-1379.786992169209
 10
140.3988509779353
 20
-1379.62513324769
 10
142.7761008389146
 20
-1378.753415046048
 10
145.5815620044482
 20
-1377.724675246332
 10
147.7529467510741
 20
-1376.928446119283
 10
149.0454488234188
 20
-1376.454496123238
 10
149.2479182283782
 20
-1376.380311109709
  0
LWPOLYLINE
  5
650
330
A
100
AcDbEntity
  8
0
  6
Continuous
 62
     7
100
AcDbPolyline
 90
       39
 70
   128
 43
0.0
 10
-69.00643226913117
 20
-1252.423010677606
 10
-65.457159924696
 20
-1252.594015984585
 10
-59.21949501939081
 20
-1252.724628451171
 10
-52.98705427539961
 20
-1252.345060866449
 10
-46.87170826635206
 20
-1251.24377315779
 10
-40.50484130586776
 20
-1249.116048717455
 10
-34.57532969472724
 20
-1245.990298891763
 10
-30.78282322250361
 20
-1243.092277833261
 10
-27.54458969981311
 20
-1239.597945271506
 10
-25.05059409616138
 20
-1235.539583964522
 10
-23.26917451143748
 20
-1231.110481272874
 10
-21.84373128448971
 20
-1225.379982283532
 10
-21.02800503265603
 20
-1219.506896931619
 10
-20.59935206709802
 20
-1213.564769053616
 10
-20.3351286989773
 20
-1207.627142486005
 10
-19.85345848272543
 20
-1200.41677017096
 10
-19.13797282920058
 20
-1195.976292073784
 10
-17.77609945717728
 20
-1191.707577758206
 10
-16.13865920496307
 20
-1188.774647098312
 10
-13.98098321507313
 20
-1186.197262082987
 10
-11.6404104218529
 20
-1184.150703090836
 10
-9.10126361539662
 20
-1182.349286672259
 10
-2.495536207341719
 20
-1178.536312228346
 10
8.358862246749177
 20
-1172.907173627593
 10
19.43277608447135
 20
-1167.685127573751
 10
30.75151868710156
 20
-1163.066457599139
 10
42.34040343591662
 20
-1159.247447236078
 10
49.20848058458478
 20
-1157.382790372495
 10
56.15795826983148
 20
-1155.846993050083
 10
63.19043596494814
 20
-1154.871957117594
 10
66.91830606417109
 20
-1154.717790340085
 10
70.62633406527305
 20
-1155.04038716721
 10
74.46334711845596
 20
-1156.210114426084
 10
77.38938016232785
 20
-1158.224866937142
 10
78.3190569655493
 20
-1159.211692607762
 10
80.55151767280083
 20
-1162.662046447087
 10
82.08291532997355
 20
-1166.501973595352
 10
83.35826670357279
 20
-1171.531381276638
 10
83.50190536461436
 20
-1172.439581482981
  0
LINE
  5
679
330
A
100
AcDbEntity
  8
0
  6
Continuous
 62
     7
100
AcDbLine
 10
87.05671397313894
 20
-1222.139803729089
 30
0.0
 11
87.05668307352096
 21
-1222.139864373004
 31
0.0
  0
LWPOLYLINE
  5
67A
330
A
100
AcDbEntity
  8
0
  6
Continuous
 62
     7
100
AcDbPolyline
 90
       11
 70
   128
 43
0.0
 10
77.23054311046299
 20
-1223.426613795036
 10
78.27171906075786
 20
-1223.2902709632
 10
79.61400665951583
 20
-1223.114492694598
 10
80.61120452229941
 20
-1222.983908588331
 10
81.85116198132778
 20
-1222.821531486863
 10
82.93458086036308
 20
-1222.679655373784
 10
83.71905687623444
 20
-1222.5769274538
 10
84.56233579803649
 20
-1222.466498003996
 10
85.31368196146843
 20
-1222.368106865634
 10
85.94709277905533
 20
-1222.285159987901
 10
87.05668307352102
 20
-1222.139864373004
  0
LWPOLYLINE
  5
687
330
A
100
AcDbEntity
  8
0
  6
Continuous
 62
     7
100
AcDbPolyline
 90
        8
 70
   128
 43
0.0
 10
175.6369188807079
 20
-1252.761687585016
 10
176.5579379616271
 20
-1252.732389700703
 10
182.6918209256146
 20
-1253.263995088185
 10
188.1637552773904
 20
-1254.664088783066
 10
193.2478703009297
 20
-1257.100138966355
 10
197.2594320271302
 20
-1260.074198628984
 10
200.8260358230565
 20
-1263.581702065321
 10
201.7292611328624
 20
-1264.726083240286
  0
LWPOLYLINE
  5
691
330
A
100
AcDbEntity
  8
0
  6
Continuous
 62
     7
100
AcDbPolyline
 90
       32
 70
   128
 43
0.0
 10
-115.161886009536
 20
-1411.905249003865
 10
-116.2384351761572
 20
-1410.559752569579
 10
-118.2595385127746
 20
-1406.977443280369
 10
-120.0385427761408
 20
-1403.053023815066
 10
-123.4992802673264
 20
-1394.669015229794
 10
-126.9871755033305
 20
-1386.88445412092
 10
-130.954129063079
 20
-1379.576897016753
 10
-135.7609547581315
 20
-1372.645831920775
 10
-141.4214682465794
 20
-1366.171544710348
 10
-147.861292595827
 20
-1360.278462495349
 10
-154.8307690508155
 20
-1354.894235533956
 10
-159.6977128217402
 20
-1351.172476702986
 10
-164.2958355286255
 20
-1347.280115562423
 10
-168.3983422350076
 20
-1343.033863296398
 10
-171.7784380044226
 20
-1338.250431089039
 10
-174.2198060641243
 20
-1332.782016815896
 10
-175.6043542696798
 20
-1326.813478460575
 10
-175.8677067772033
 20
-1320.711596510754
 10
-174.9492653191183
 20
-1314.840387696947
 10
-172.9248712169323
 20
-1309.368953482279
 10
-170.0541459304956
 20
-1304.203850162116
 10
-165.1322950123165
 20
-1297.27416487238
 10
-159.833872422398
 20
-1290.418216673538
 10
-154.8768858485806
 20
-1283.349345792394
 10
-152.1187333599262
 20
-1279.165276063559
 10
-149.2141312698713
 20
-1275.202916124633
 10
-145.9281545490659
 20
-1271.665682676999
 10
-142.0745343092318
 20
-1268.725732089997
 10
-136.3301279469035
 20
-1265.816169045941
 10
-130.0238719743069
 20
-1263.863346468119
 10
-123.4525337489088
 20
-1262.791559577373
 10
-117.497729570188
 20
-1262.547676170269
  0
LWPOLYLINE
  5
6B3
330
A
100
AcDbEntity
  8
0
  6
Continuous
 62
     7
100
AcDbPolyline
 90
       23
 70
   128
 43
0.0
 10
119.7051615075396
 20
-1158.063617611035
 10
120.570079514352
 20
-1160.983870989688
 10
122.1836202718804
 20
-1168.695076262411
 10
122.9671536117306
 20
-1176.23827779985
 10
123.192884645513
 20
-1183.668414811925
 10
123.1334275321625
 20
-1191.041492671836
 10
123.0637230903507
 20
-1196.936507980997
 10
123.1255497454669
 20
-1202.859523622697
 10
123.4591941500037
 20
-1208.837542536283
 10
124.235229812861
 20
-1214.82607133391
 10
125.6652466634237
 20
-1220.683791675689
 10
127.5112518942364
 20
-1225.358381477749
 10
130.0825213953512
 20
-1229.75279272058
 10
133.396978313157
 20
-1233.746212838106
 10
137.3190870665861
 20
-1237.167191874645
 10
141.7010135788593
 20
-1239.840221690737
 10
146.3949237731974
 20
-1241.589794146921
 10
150.76759610865
 20
-1242.25860526574
 10
155.2211944668535
 20
-1242.356338216038
 10
159.7349765876769
 20
-1242.453061375632
 10
164.286910393804
 20
-1243.11880849189
 10
168.7648716151315
 20
-1244.653172429617
 10
169.895393517281
 20
-1245.263435722907
  0
LINE
  5
6CC
330
A
100
AcDbEntity
  8
0
  6
Continuous
 62
     7
100
AcDbLine
 10
87.05671397313887
 20
-1222.139803729089
 30
0.0
 11
119.7051615075397
 21
-1158.063617611036
 31
0.0
  0
LWPOLYLINE
  5
6CD
330
A
100
AcDbEntity
  8
0
  6
Continuous
 62
     7
100
AcDbPolyline
 90
       20
 70
   128
 43
0.0
 10
6.161425373963025
 20
-1171.855600849719
 10
10.90266989703178
 20
-1167.809717696425
 10
19.03571435789147
 20
-1162.089039316652
 10
29.85054641888964
 20
-1155.821648744874
 10
40.92126390423517
 20
-1150.55987956734
 10
52.36670190746325
 20
-1146.025756790613
 10
64.37680238868373
 20
-1141.916831657802
 10
71.76175768110602
 20
-1139.582786784323
 10
79.41928555613469
 20
-1137.278497556243
 10
87.14339199135286
 20
-1135.408413053969
 10
91.59805550312583
 20
-1134.758851138799
 10
95.90049587411561
 20
-1134.600747872896
 10
99.98558460612819
 20
-1135.060638502406
 10
103.7881932009697
 20
-1136.26505827347
 10
107.3865850759764
 20
-1138.39629248135
 10
110.6078776922476
 20
-1141.323758253196
 10
113.4512263466614
 20
-1144.900839620547
 10
115.9157863360958
 20
-1148.980920614944
 10
118.000712957429
 20
-1153.417385267927
 10
119.7051615075397
 20
-1158.063617611036
  0
LWPOLYLINE
  5
6E3
330
A
100
AcDbEntity
  8
0
  6
Continuous
 62
     7
100
AcDbPolyline
 90
        5
 70
   128
 43
0.0
 10
165.1287796121219
 20
-1420.558734478158
 10
166.1222581063667
 20
-1425.536409347541
 10
166.5806591393218
 20
-1430.000335753289
 10
166.7125184672173
 20
-1434.53166044316
 10
166.5150992634237
 20
-1437.425323213027
  0
LWPOLYLINE
  5
6EA
330
A
100
AcDbEntity
  8
0
  6
Continuous
 62
     7
100
AcDbPolyline
 90
        5
 70
   128
 43
0.0
 10
37.50637611981586
 20
-1458.391178260627
 10
37.88905955218095
 20
-1458.467042894238
 10
38.21348290100241
 20
-1458.683087092316
 10
38.43025565232714
 20
-1459.006420084149
 10
38.50637611981586
 20
-1459.387817352754
  0
LWPOLYLINE
  5
6F1
330
A
100
AcDbEntity
  8
0
  6
Continuous
 62
     7
100
AcDbPolyline
 90
        5
 70
   128
 43
0.0
 10
36.50637611981585
 20
-1459.387817352754
 10
36.58249658730458
 20
-1459.006420084149
 10
36.79926933862932
 20
-1458.683087092316
 10
37.12369268745078
 20
-1458.467042894238
 10
37.50637611981586
 20
-1458.391178260627
  0
LWPOLYLINE
  5
6F8
330
A
100
AcDbEntity
  8
0
  6
Continuous
 62
     7
100
AcDbPolyline
 90
       10
 70
   128
 43
0.0
 10
-5.294894069406364
 20
-1535.253842756538
 10
-5.410489667175083
 20
-1535.310921595951
 10
-5.791985888540532
 20
-1535.386978185647
 10
-6.173924854080081
 20
-1535.310921595951
 10
-6.498159818575654
 20
-1535.094330753188
 10
-6.715328947880086
 20
-1534.770179649769
 10
-6.792370210699838
 20
-1534.387817352753
 10
-6.71755477315139
 20
-1534.005455055737
 10
-6.502272607397871
 20
-1533.681303952318
 10
-6.294894069406309
 20
-1533.521791948969
  0
LWPOLYLINE
  5
704
330
A
100
AcDbEntity
  8
0
  6
Continuous
 62
     7
100
AcDbPolyline
 90
       20
 70
   128
 43
0.0
 10
-114.6306012971923
 20
-1598.378842756531
 10
-114.7890882841578
 20
-1598.452802765343
 10
-114.9579519712103
 20
-1598.498201793048
 10
-115.1320615206681
 20
-1598.513660413163
 10
-115.3061267019745
 20
-1598.498708923339
 10
-115.4748586326767
 20
-1598.453801617028
 10
-115.6331304784428
 20
-1598.380302980007
 10
-115.7761332293286
 20
-1598.280446231171
 10
-115.8995218191115
 20
-1598.157265467303
 10
-115.9995471479283
 20
-1598.01450347358
 10
-116.0731699967784
 20
-1597.856498000942
 10
-116.1181533726543
 20
-1597.688049965719
 10
-116.1331304784428
 20
-1597.514277576223
 10
-116.1176462423632
 20
-1597.340460818575
 10
-116.0721711450934
 20
-1597.171881027001
 10
-115.9980869244525
 20
-1597.013660413163
 10
-115.8976445919962
 20
-1596.870606430349
 10
-115.77389603717
 20
-1596.747065701438
 10
-115.6306012971923
 20
-1596.646791948962
 10
-115.6306012971923
 20
-1596.646791948962
  0
LWPOLYLINE
  5
71A
330
A
100
AcDbEntity
  8
0
  6
Continuous
 62
     7
100
AcDbPolyline
 90
        7
 70
   128
 43
0.0
 10
81.80512245033122
 20
-1534.387817352754
 10
81.72808118751147
 20
-1534.77017964977
 10
81.51091205820703
 20
-1535.094330753189
 10
81.18667709371145
 20
-1535.310921595951
 10
80.80473812817192
 20
-1535.386978185647
 10
80.42324190680647
 20
-1535.310921595951
 10
80.30764630903769
 20
-1535.253842756538
  0
LWPOLYLINE
  5
723
330
A
100
AcDbEntity
  8
0
  6
Continuous
 62
     7
100
AcDbPolyline
 90
        4
 70
   128
 43
0.0
 10
81.30764630903764
 20
-1533.521791948969
 10
81.51502484702927
 20
-1533.681303952319
 10
81.73030701278278
 20
-1534.005455055737
 10
81.80512245033122
 20
-1534.387817352754
  0
LWPOLYLINE
  5
729
330
A
100
AcDbEntity
  8
0
  6
Continuous
 62
     7
100
AcDbPolyline
 90
       20
 70
   128
 43
0.0
 10
190.6433535368227
 20
-1596.646791948965
 10
190.7866482768004
 20
-1596.74706570144
 10
190.9103968316267
 20
-1596.870606430352
 10
191.010839164083
 20
-1597.013660413166
 10
191.0849233847239
 20
-1597.171881027004
 10
191.1303984819936
 20
-1597.340460818577
 10
191.1458827180732
 20
-1597.514277576224
 10
191.1309056122848
 20
-1597.688049965721
 10
191.0859222364088
 20
-1597.856498000944
 10
191.0122993875588
 20
-1598.014503473583
 10
190.9122740587419
 20
-1598.157265467305
 10
190.7888854689591
 20
-1598.280446231173
 10
190.6458827180732
 20
-1598.380302980009
 10
190.4876108723071
 20
-1598.45380161703
 10
190.3188789416049
 20
-1598.498708923341
 10
190.1448137602985
 20
-1598.513660413166
 10
189.9707042108408
 20
-1598.49820179305
 10
189.8018405237882
 20
-1598.452802765345
 10
189.6433535368228
 20
-1598.378842756533
 10
189.6433535368228
 20
-1598.378842756533
  0
LINE
  5
73F
330
A
100
AcDbEntity
  8
0
  6
Continuous
 62
     7
100
AcDbLine
 10
22.48305446808868
 20
-1419.794986168422
 30
0.0
 11
24.98169559930541
 21
-1364.92975292622
 31
0.0
  0
ARC
  5
740
330
A
100
AcDbEntity
  8
0
  6
Continuous
 62
     7
100
AcDbCircle
 10
37.50637611981586
 20
-1509.387817352748
 30
0.0
 40
145.0
100
AcDbArc
 50
90.39514643938286
 51
94.95521857391407
  0
ARC
  5
741
330
A
100
AcDbEntity
  8
0
  6
Continuous
 62
     7
100
AcDbCircle
 10
37.50637611981586
 20
-1509.387817352748
 30
0.0
 40
145.0
100
AcDbArc
 50
85.04478142608594
 51
89.60485356061715
  0
LINE
  5
742
330
A
100
AcDbEntity
  8
0
  6
Continuous
 62
     7
100
AcDbLine
 10
50.03105664032631
 20
-1364.92975292622
 30
0.0
 11
52.52281608937483
 21
-1419.643877995047
 31
0.0
  0
LINE
  5
743
330
A
100
AcDbEntity
  8
0
  6
Continuous
 62
     7
100
AcDbLine
 10
122.6388270486677
 20
-1541.193564050289
 30
0.0
 11
168.8730699549738
 21
-1570.770158060967
 31
0.0
  0
ARC
  5
744
330
A
100
AcDbEntity
  8
0
  6
Continuous
 62
     7
100
AcDbCircle
 10
37.50637611981586
 20
-1509.387817352748
 30
0.0
 40
144.9999999999999
100
AcDbArc
 50
330.395146439383
 51
334.9552185739147
  0
ARC
  5
745
330
A
100
AcDbEntity
  8
0
  6
Continuous
 62
     7
100
AcDbCircle
 10
37.50637611981586
 20
-1509.387817352748
 30
0.0
 40
145.0
100
AcDbArc
 50
325.0447814260865
 51
329.6048535606173
  0
LINE
  5
746
330
A
100
AcDbEntity
  8
0
  6
Continuous
 62
     7
100
AcDbLine
 10
156.3483894344633
 20
-1592.463541071059
 30
0.0
 11
107.6670790331896
 21
-1567.237662859268
 31
0.0
  0
LINE
  5
747
330
A
100
AcDbEntity
  8
0
  6
Continuous
 62
     7
100
AcDbLine
 10
-32.55604286798663
 20
-1567.186733697414
 30
0.0
 11
-81.33563719483275
 21
-1592.463541071058
 31
0.0
  0
ARC
  5
748
330
A
100
AcDbEntity
  8
0
  6
Continuous
 62
     7
100
AcDbCircle
 10
37.50637611981586
 20
-1509.387817352748
 30
0.0
 40
144.9999999999999
100
AcDbArc
 50
210.3951464393835
 51
214.9552185739143
  0
ARC
  5
749
330
A
100
AcDbEntity
  8
0
  6
Continuous
 62
     7
100
AcDbCircle
 10
37.50637611981586
 20
-1509.387817352748
 30
0.0
 40
145.0
100
AcDbArc
 50
205.0447814260862
 51
209.6048535606179
  0
LINE
  5
74A
330
A
100
AcDbEntity
  8
0
  6
Continuous
 62
     7
100
AcDbLine
 10
-93.86031771534296
 20
-1570.770158060965
 30
0.0
 11
-47.66106284728902
 21
-1541.215946313683
 31
0.0
  0
ARC
  5
74B
330
A
100
AcDbEntity
  8
0
  6
Continuous
 62
     7
100
AcDbCircle
 10
37.50637611981586
 20
-1334.387817352748
 30
0.0
 40
32.5
100
AcDbArc
 50
292.6198649480412
 51
247.3801350519604
  0
LINE
  5
74C
330
A
100
AcDbEntity
  8
0
  6
Continuous
 62
     7
100
AcDbLine
 10
24.98169559930541
 20
-1364.92975292622
 30
0.0
 11
25.00637611981586
 21
-1364.387817352748
 31
0.0
  0
LINE
  5
74D
330
A
100
AcDbEntity
  8
0
  6
Continuous
 62
     7
100
AcDbLine
 10
50.00637611981586
 20
-1364.387817352748
 30
0.0
 11
50.03105664032631
 21
-1364.92975292622
 31
0.0
  0
ARC
  5
74E
330
A
100
AcDbEntity
  8
0
  6
Continuous
 62
     7
100
AcDbCircle
 10
-114.0480695424609
 20
-1596.887817352748
 30
0.0
 40
32.50000000000003
100
AcDbArc
 50
52.61986494804248
 51
7.380135051970476
  0
LINE
  5
74F
330
A
100
AcDbEntity
  8
0
  6
Continuous
 62
     7
100
AcDbLine
 10
-81.33563719483275
 20
-1592.463541071058
 30
0.0
 11
-81.81730742892851
 21
-1592.713134900052
 31
0.0
  0
LINE
  5
750
330
A
100
AcDbEntity
  8
0
  6
Continuous
 62
     7
100
AcDbLine
 10
-94.31730742892865
 20
-1571.062499805442
 30
0.0
 11
-93.86031771534296
 21
-1570.770158060965
 31
0.0
  0
ARC
  5
751
330
A
100
AcDbEntity
  8
0
  6
Continuous
 62
     7
100
AcDbCircle
 10
189.0608217820922
 20
-1596.887817352749
 30
0.0
 40
32.49999999999995
100
AcDbArc
 50
172.6198649480403
 51
127.3801350519593
  0
LINE
  5
752
330
A
100
AcDbEntity
  8
0
  6
Continuous
 62
     7
100
AcDbLine
 10
156.8300596685591
 20
-1592.713134900054
 30
0.0
 11
156.3483894344633
 21
-1592.463541071059
 31
0.0
  0
LINE
  5
753
330
A
100
AcDbEntity
  8
0
  6
Continuous
 62
     7
100
AcDbLine
 10
168.8730699549738
 20
-1570.770158060967
 30
0.0
 11
169.3300596685592
 21
-1571.062499805443
 31
0.0
  0
LWPOLYLINE
  5
754
330
A
100
AcDbEntity
  8
0
  6
PHANTOM
 62
     7
100
AcDbPolyline
 90
        4
 70
   128
 43
0.0
 10
-82.12791296117265
 20
-1437.352276678952
 10
-78.60157464732589
 20
-1436.75508774203
 10
-65.38221501516305
 20
-1435.043309776778
 10
-62.97938457077165
 20
-1434.838612070172
  0
LWPOLYLINE
  5
75A
330
A
100
AcDbEntity
  8
0
  6
PHANTOM
 62
     7
100
AcDbPolyline
 90
        3
 70
   128
 43
0.0
 10
-8.789312917803048
 20
-1600.365434825627
 10
-10.66736080453352
 20
-1591.983428957915
 10
-11.32607542060705
 20
-1586.114864458155
  0
LWPOLYLINE
  5
75F
330
A
100
AcDbEntity
  8
0
  6
PHANTOM
 62
     7
100
AcDbPolyline
 90
       15
 70
   128
 43
0.0
 10
-28.14180233381969
 20
-1446.512751304345
 10
-32.75364736423933
 20
-1445.284252019172
 10
-42.07542350083811
 20
-1443.945241062678
 10
-51.49524716681955
 20
-1443.893239849826
 10
-64.35679262847485
 20
-1444.992380866095
 10
-77.16516985552726
 20
-1446.652397861355
 10
-89.89562756735393
 20
-1448.806714786191
 10
-94.64664505562662
 20
-1450.147823765514
 10
-99.07578859379334
 20
-1452.322930759702
 10
-103.8105877533778
 20
-1455.839973949257
 10
-108.0066063097901
 20
-1460.00370404552
 10
-113.2389558387951
 20
-1466.64580894186
 10
-117.8828413216509
 20
-1473.731130176985
 10
-121.7230679785068
 20
-1479.739473555837
 10
-125.9567667308603
 20
-1485.462999137567
  0
LWPOLYLINE
  5
770
330
A
100
AcDbEntity
  8
0
  6
PHANTOM
 62
     7
100
AcDbPolyline
 90
       12
 70
   128
 43
0.0
 10
29.36937936674208
 20
-1683.401723905916
 10
27.16514692632938
 20
-1684.923482925581
 10
23.77375171275165
 20
-1686.69755277566
 10
20.2862614643434
 20
-1688.279664132928
 10
14.01982317012076
 20
-1691.368546600038
 10
8.098458446271134
 20
-1695.094159581212
 10
2.830547570067065
 20
-1699.615717783939
 10
-0.4190305170466424
 20
-1703.460308784604
 10
-3.026283866595438
 20
-1707.757114255892
 10
-4.838430979860766
 20
-1712.504690274911
 10
-5.927726479614634
 20
-1717.510801248508
 10
-6.091538297953682
 20
-1718.966698789749
  0
LWPOLYLINE
  5
77E
330
A
100
AcDbEntity
  8
0
  6
PHANTOM
 62
     7
100
AcDbPolyline
 90
       13
 70
   128
 43
0.0
 10
-11.31188185596417
 20
-1753.531813996363
 10
-11.4987154723533
 20
-1753.86105450168
 10
-13.4963119434147
 20
-1756.26868747566
 10
-16.14030921516889
 20
-1758.479420345599
 10
-19.09477910798019
 20
-1760.266904242527
 10
-23.67058188483283
 20
-1762.157266062799
 10
-28.48969651153399
 20
-1763.316075218322
 10
-35.16514756948664
 20
-1763.894632439242
 10
-41.8968685422721
 20
-1763.706791897671
 10
-48.64882409010801
 20
-1763.161593433653
 10
-55.38497887321198
 20
-1762.66807688723
 10
-62.65652100863331
 20
-1762.707434846964
 10
-68.53632634050035
 20
-1763.325000888858
  0
LWPOLYLINE
  5
78D
330
A
100
AcDbEntity
  8
0
  6
PHANTOM
 62
     7
100
AcDbPolyline
 90
       54
 70
   128
 43
0.0
 10
-112.3794518194278
 20
-1741.773154814634
 10
-107.9219231556721
 20
-1746.090352570996
 10
-103.4492398646498
 20
-1750.392501547937
 10
-100.157383929531
 20
-1753.757076190551
 10
-96.64676436857114
 20
-1756.869334521652
 10
-94.82726101295231
 20
-1757.949952838874
 10
-93.15403642509883
 20
-1758.142228795016
 10
-90.30368608004611
 20
-1757.811012111233
 10
-84.80047715155334
 20
-1756.522110252523
 10
-79.32401008245768
 20
-1755.105106495669
 10
-71.25909019289086
 20
-1753.566866725422
 10
-63.07764252221018
 20
-1752.736272109073
 10
-54.87737418569043
 20
-1752.714859978302
 10
-48.67664018392708
 20
-1753.202451183304
 10
-42.46264737860192
 20
-1753.763718790405
 10
-36.2675795446826
 20
-1753.992442946844
 10
-30.12362045713675
 20
-1753.482403799861
 10
-26.8231927501852
 20
-1752.697457123991
 10
-23.6897990734409
 20
-1751.411230329075
 10
-22.03964912286746
 20
-1750.428730780817
 10
-20.56244995956258
 20
-1749.21016050811
 10
-19.03857541711996
 20
-1746.965302152723
 10
-17.94869580370697
 20
-1743.562404469859
 10
-17.40909781786376
 20
-1740.007191960115
 10
-16.95670353190266
 20
-1732.924575098828
 10
-16.4676770163143
 20
-1721.839610889593
 10
-15.71325181618326
 20
-1715.494986349818
 10
-14.28057616636591
 20
-1709.257782288965
 10
-11.97313990565921
 20
-1703.33843248434
 10
-8.561691123985983
 20
-1697.704535478788
 10
-4.313663018764665
 20
-1692.661981829412
 10
0.2518359718010898
 20
-1688.548034317704
 10
5.288118332366864
 20
-1684.967714777124
 10
10.65516945006709
 20
-1681.861008660503
 10
16.2129747120362
 20
-1679.167901420674
 10
18.89960282210298
 20
-1677.982754048814
 10
21.52679660728205
 20
-1676.676165187158
 10
23.93897016789182
 20
-1675.0480541404
 10
25.50373462413488
 20
-1673.212383054386
 10
26.56312226213028
 20
-1670.535385262291
 10
26.97345850596225
 20
-1668.209515722204
 10
27.03674019755573
 20
-1665.846530341355
 10
26.76749042921667
 20
-1663.504956258977
 10
26.18640701636243
 20
-1661.219228245476
 10
24.00654799820309
 20
-1656.092959658579
 10
21.0987988812818
 20
-1651.308720284994
 10
17.74051360572723
 20
-1646.7437642827
 10
14.20904611166798
 20
-1642.275345809675
 10
10.78175033923267
 20
-1637.780719023897
 10
5.945002605160176
 20
-1630.808824001244
 10
1.41917170549613
 20
-1623.585834227305
 10
-2.645391652835171
 20
-1616.107263544866
 10
-6.09833676290962
 20
-1608.368625796711
 10
-8.789312917803021
 20
-1600.365434825627
  0
LWPOLYLINE
  5
7C5
330
A
100
AcDbEntity
  8
0
  6
PHANTOM
 62
     7
100
AcDbPolyline
 90
        8
 70
   128
 43
0.0
 10
-277.2971205261519
 20
-1638.028638501127
 10
-273.9730961323821
 20
-1635.338114980724
 10
-264.6449883688383
 20
-1628.80662322051
 10
-255.0028201304847
 20
-1622.717218707562
 10
-245.3607452427226
 20
-1616.628735868456
 10
-236.0329175309535
 20
-1610.100009129769
 10
-236.0328697915524
 20
-1610.099972817499
 10
-236.0328697915524
 20
-1610.099972817499
  0
LWPOLYLINE
  5
7CF
330
A
100
AcDbEntity
  8
0
  6
PHANTOM
 62
     7
100
AcDbPolyline
 90
       45
 70
   128
 43
0.0
 10
-230.0053741532595
 20
-1617.96628137353
 10
-239.318482932631
 20
-1624.526228037609
 10
-248.952244536296
 20
-1630.638036590322
 10
-258.5905721425435
 20
-1636.743868911255
 10
-267.9173789296626
 20
-1643.285886879995
 10
-271.2540387306515
 20
-1645.970306296985
 10
-274.3267386364689
 20
-1648.942329124053
 10
-275.7191465606303
 20
-1650.61256279544
 10
-276.7511312487014
 20
-1652.49896023599
 10
-276.8389397463675
 20
-1652.787009581233
 10
-276.8727449828698
 20
-1653.168701023416
 10
-276.5528023968034
 20
-1654.421139328318
 10
-275.4995881067675
 20
-1656.61888527939
 10
-274.1692473199073
 20
-1658.67162624196
 10
-270.1897298373861
 20
-1663.763881171965
 10
-265.7983702132907
 20
-1668.528596292737
 10
-261.192454632748
 20
-1673.086281610482
 10
-252.4833850821765
 20
-1680.851324438232
 10
-243.2363698632029
 20
-1688.003623739309
 10
-233.6068366317142
 20
-1694.664842293551
 10
-223.7502130435973
 20
-1700.956642880798
 10
-217.8980592290076
 20
-1704.34805670711
 10
-214.0195299866298
 20
-1705.923220187633
 10
-211.1061567473424
 20
-1706.171586706868
 10
-208.2010622813449
 20
-1705.499027448137
 10
-205.4123140656466
 20
-1704.395846026102
 10
-199.5263588036296
 20
-1701.493822499106
 10
-193.6519737544332
 20
-1698.465454796903
 10
-187.6715554330174
 20
-1695.617371616027
 10
-181.5422894614769
 20
-1693.180824387378
 10
-175.2213614619061
 20
-1691.38706454186
 10
-168.8123855321449
 20
-1690.498643345043
 10
-162.3557364546068
 20
-1690.698151705178
 10
-156.0296460637101
 20
-1692.118496762987
 10
-150.0290140401597
 20
-1694.597519242785
 10
-145.2384681896276
 20
-1697.413079970306
 10
-140.7814791752804
 20
-1700.765393646145
 10
-136.7049209684982
 20
-1704.551653822525
 10
-132.0327435869986
 20
-1710.04733941923
 10
-128.0036532735777
 20
-1716.069768910935
 10
-124.4998100985795
 20
-1722.404246509952
 10
-121.897120990775
 20
-1727.530413539384
 10
-119.1487542503581
 20
-1732.601715349555
 10
-116.045825864264
 20
-1737.416509816095
 10
-112.3794518194278
 20
-1741.773154814634
  0
LWPOLYLINE
  5
7FE
330
A
100
AcDbEntity
  8
0
  6
PHANTOM
 62
     7
100
AcDbPolyline
 90
       51
 70
   128
 43
0.0
 10
-125.9567667308604
 20
-1485.462999137567
 10
-128.3328481532704
 20
-1488.088140834807
 10
-130.9379308828775
 20
-1490.482784150334
 10
-134.516707580921
 20
-1493.006875758636
 10
-138.4557874623162
 20
-1494.908019930215
 10
-142.6830398753453
 20
-1496.071345643635
 10
-147.0485201912764
 20
-1496.528366049101
 10
-153.3342590798515
 20
-1496.113325649259
 10
-159.4983538154828
 20
-1494.740179407013
 10
-167.709796332539
 20
-1491.879076437535
 10
-175.6521423967527
 20
-1488.298634521248
 10
-183.4189695685901
 20
-1484.26362788011
 10
-191.103855408517
 20
-1480.038830736079
 10
-198.8003774769997
 20
-1475.889017311114
 10
-209.3757411652843
 20
-1470.724137001826
 10
-213.6930761095992
 20
-1468.937005089443
 10
-218.1208355562341
 20
-1467.454722012521
 10
-221.4089273723198
 20
-1466.666717131266
 10
-224.761032006244
 20
-1466.292752042485
 10
-226.5835250771784
 20
-1466.352126453173
 10
-228.3645669510513
 20
-1466.709828643034
 10
-230.0435390276522
 20
-1467.439954466987
 10
-231.5828151842836
 20
-1468.442819036093
 10
-234.8490481457938
 20
-1471.479326431306
 10
-237.6285698906894
 20
-1474.992952929127
 10
-242.1567621377808
 20
-1482.240919364981
 10
-245.1254923520339
 20
-1487.950707303629
 10
-247.5129304474514
 20
-1493.91325253192
 10
-248.4315113609128
 20
-1497.402591760574
 10
-248.857337707883
 20
-1500.97739700293
 10
-248.558944417832
 20
-1504.627658710694
 10
-247.552708635953
 20
-1508.159521396975
 10
-245.3438385505047
 20
-1512.837268939113
 10
-242.5661244130188
 20
-1517.23630574406
 10
-239.4703618647358
 20
-1521.416106542523
 10
-232.7521106696359
 20
-1529.529876162186
 10
-225.8781889355813
 20
-1537.519370485999
 10
-219.4138728731746
 20
-1545.82103498698
 10
-215.7260645167619
 20
-1551.46846915939
 10
-212.5160596055422
 20
-1557.410095925664
 10
-209.933356089592
 20
-1563.62646542045
 10
-208.0234984873051
 20
-1570.68295281641
 10
-207.2597696266098
 20
-1577.943037479493
 10
-207.5019532872632
 20
-1582.834625863468
 10
-208.344702942813
 20
-1587.679636928979
 10
-209.7387856936275
 20
-1592.379304121595
 10
-212.5415341626079
 20
-1598.622270360395
 10
-216.2200538627612
 20
-1604.396443952288
 10
-220.3623875397237
 20
-1609.345817401244
 10
-225.0096360511921
 20
-1613.856446942431
 10
-230.0053741532595
 20
-1617.96628137353
  0
LWPOLYLINE
  5
833
330
A
100
AcDbEntity
  8
0
  6
PHANTOM
 62
     7
100
AcDbPolyline
 90
       19
 70
   128
 43
0.0
 10
-236.0328018225726
 20
-1610.099969255396
 10
-236.032754088291
 20
-1610.099932936593
 10
-231.7256719686953
 20
-1606.59866325544
 10
-227.7076901905678
 20
-1602.76158675178
 10
-224.1266895622588
 20
-1598.540189278863
 10
-221.1943418196912
 20
-1593.989129128813
 10
-218.958929744509
 20
-1589.061111888208
 10
-217.5091136062766
 20
-1583.659811586163
 10
-217.0557719165682
 20
-1578.092547895566
 10
-217.6871945879444
 20
-1572.401231907167
 10
-219.2240393794052
 20
-1566.874808741111
 10
-221.4895747312167
 20
-1561.517130743404
 10
-224.3019470722675
 20
-1556.40278339235
 10
-227.5167399937713
 20
-1551.539028092235
 10
-233.9206614339781
 20
-1543.378388339109
 10
-240.7242712641376
 20
-1535.523884606565
 10
-247.3637151483725
 20
-1527.536219424026
 10
-251.0262873257378
 20
-1522.551904396517
 10
-253.8036429143683
 20
-1518.07632316715
  0
LWPOLYLINE
  5
848
330
A
100
AcDbEntity
  8
0
  6
PHANTOM
 62
     7
100
AcDbPolyline
 90
       12
 70
   128
 43
0.0
 10
192.2753381831669
 20
-1429.427709974837
 10
194.6953363728411
 20
-1430.575751754248
 10
197.9274235378869
 20
-1432.625751238439
 10
201.0413172891015
 20
-1434.854950710377
 10
206.8495871220345
 20
-1438.737404230866
 10
213.0367449703242
 20
-1442.002650016206
 10
219.5864846766779
 20
-1444.304015558508
 10
224.5407871939712
 20
-1445.195937233198
 10
229.5655565620019
 20
-1445.305482132364
 10
234.5831515575024
 20
-1444.501059558337
 10
239.4632185846788
 20
-1442.941361646554
 10
240.8059687498697
 20
-1442.355278072055
  0
LWPOLYLINE
  5
856
330
A
100
AcDbEntity
  8
0
  6
PHANTOM
 62
     7
100
AcDbPolyline
 90
       13
 70
   128
 43
0.0
 10
273.3504083825388
 20
-1429.593670606467
 10
273.7289558322923
 20
-1429.590853011883
 10
276.8128253862786
 20
-1430.117005815342
 10
280.0493748485042
 20
-1431.301408185249
 10
283.074616258505
 20
-1432.966312218675
 10
286.999619005632
 20
-1435.983892756001
 10
290.412734485803
 20
-1439.577963868712
 10
294.251505265639
 20
-1445.069795456158
 10
297.4546910711713
 20
-1450.993557100565
 10
300.3585131251454
 20
-1457.113521362223
 10
303.299192650307
 20
-1463.193960801426
 10
306.9690487109884
 20
-1469.471622035523
 10
310.4437792577167
 20
-1474.25489980128
  0
LWPOLYLINE
  5
865
330
A
100
AcDbEntity
  8
0
  6
PHANTOM
 62
     7
100
AcDbPolyline
 90
       54
 70
   128
 43
0.0
 10
313.7008957984509
 20
-1523.000083284452
 10
315.2109343967437
 20
-1516.981151345361
 10
316.7003630561284
 20
-1510.956619503783
 10
317.9682422020012
 20
-1506.423501317065
 10
318.9082271993946
 20
-1501.827086428701
 10
318.9343184360943
 20
-1499.711041141853
 10
318.2642220047238
 20
-1498.165848164464
 10
316.5522047698837
 20
-1495.862980697854
 10
312.6843785530098
 20
-1491.741512892801
 10
308.7189837677682
 20
-1487.707255166402
 10
303.3543691048393
 20
-1481.491949547674
 10
298.5443292314938
 20
-1474.821905333307
 10
294.4256516140374
 20
-1467.730970701417
 10
291.7475509833489
 20
-1462.117181931279
 10
289.1266265867573
 20
-1456.455072499383
 10
286.2271735997335
 20
-1450.975624298821
 10
282.7134871977487
 20
-1445.909819222686
 10
280.3834895823525
 20
-1443.444038323048
 10
277.7028876645549
 20
-1441.373553196387
 10
276.0269431212706
 20
-1440.435731193266
 10
274.2330307271569
 20
-1439.765724327748
 10
271.5269890922731
 20
-1439.568439439506
 10
268.0350534457272
 20
-1440.326024848656
 10
264.686350103515
 20
-1441.636325539956
 10
258.3264268333881
 20
-1444.785849026431
 10
248.4820529703547
 20
-1449.904821745425
 10
242.6102343413702
 20
-1452.423782626743
 10
236.4923193511752
 20
-1454.301651149045
 10
230.2122939161306
 20
-1455.263027631972
 10
223.6274715961807
 20
-1455.12557482611
 10
217.1364779832642
 20
-1453.967951395686
 10
211.2909454330067
 20
-1452.071087044757
 10
205.6721565769151
 20
-1449.499698350166
 10
200.2981445989786
 20
-1446.405048797139
 10
195.1869426831864
 20
-1442.938401870901
 10
192.8172608968939
 20
-1441.204287362992
 10
190.3721248578091
 20
-1439.58236523519
 10
187.7560525508296
 20
-1438.307417176744
 10
185.383932529227
 20
-1437.870126949705
 10
182.5358906164006
 20
-1438.291169238794
 10
180.316460386881
 20
-1439.098742397585
 10
178.2384141724972
 20
-1440.225431535495
 10
176.3451764164842
 20
-1441.629395716029
 10
174.656219597078
 20
-1443.275492720029
 10
171.3066702832823
 20
-1447.726440299872
 10
168.6172720064327
 20
-1452.63674458975
 10
166.343046779065
 20
-1457.827582952683
 10
164.2390166137153
 20
-1463.12013275169
 10
162.0602035229195
 20
-1468.335571349791
 10
158.4407391878202
 20
-1476.010265270521
 10
154.4483620021458
 20
-1483.541244689832
 10
150.0040114863214
 20
-1490.800545154658
 10
145.0286271607717
 20
-1497.660202211933
 10
139.4431485459215
 20
-1503.992251408591
  0
LWPOLYLINE
  5
89D
330
A
100
AcDbEntity
  8
0
  6
PHANTOM
 62
     7
100
AcDbPolyline
 90
        4
 70
   128
 43
0.0
 10
34.93891246145587
 20
-1649.011921197474
 10
32.65856251429927
 20
-1646.256617103805
 10
24.56643949467094
 20
-1635.664204823215
 10
23.18775085845787
 20
-1633.685641470689
  0
LWPOLYLINE
  5
8A3
330
A
100
AcDbEntity
  8
0
  6
PHANTOM
 62
     7
100
AcDbPolyline
 90
        3
 70
   128
 43
0.0
 10
139.4431485459216
 20
-1503.992251408591
 10
133.1231424731774
 20
-1509.809691521879
 10
128.2692652925702
 20
-1513.388845347198
  0
LWPOLYLINE
  5
8A8
330
A
100
AcDbEntity
  8
0
  6
PHANTOM
 62
     7
100
AcDbPolyline
 90
       15
 70
   128
 43
0.0
 10
15.8656859317112
 20
-1597.628715636123
 10
17.12107180981131
 20
-1602.286565227219
 10
20.62234237384092
 20
-1611.028965648153
 10
25.28721983547472
 20
-1619.212772848488
 10
32.6698766087328
 20
-1629.801627442075
 10
40.51168211086794
 20
-1640.063999004327
 10
48.74260415149245
 20
-1650.011740322154
 10
52.27954734096604
 20
-1653.455687671161
 10
56.37781702296485
 20
-1656.203884995127
 10
61.79106535111889
 20
-1658.545819754367
 10
67.49497066719048
 20
-1660.09781337084
 10
75.86337700652499
 20
-1661.308108536267
 10
84.32138793154479
 20
-1661.787170719124
 10
91.44487926071828
 20
-1662.108732870825
 10
98.51844718988274
 20
-1662.913460751469
  0
LWPOLYLINE
  5
8B9
330
A
100
AcDbEntity
  8
0
  6
PHANTOM
 62
     7
100
AcDbPolyline
 90
        8
 70
   128
 43
0.0
 10
306.3143435209876
 20
-1717.695232074134
 10
302.3222696059534
 20
-1716.161804266533
 10
292.0017779352278
 20
-1711.349171854172
 10
281.9071148139183
 20
-1706.043511468668
 10
271.8132965608659
 20
-1700.737471090227
 10
261.4953394949117
 20
-1695.923698699054
 10
261.4952841778633
 20
-1695.923675511655
 10
261.4952841778633
 20
-1695.923675511655
  0
LWPOLYLINE
  5
8C3
330
A
100
AcDbEntity
  8
0
  6
PHANTOM
 62
     7
100
AcDbPolyline
 90
       45
 70
   128
 43
0.0
 10
265.2939594022464
 20
-1686.770556889678
 10
275.6315942504953
 20
-1691.555972348782
 10
285.7414565220443
 20
-1696.843150355203
 10
295.8484262263444
 20
-1702.137270751743
 10
306.1773833728472
 20
-1706.943513381207
 10
310.170488682867
 20
-1708.490935824155
 10
314.2806859046434
 20
-1709.665960587265
 10
316.4233546564014
 20
-1710.036704386326
 10
318.5730151055874
 20
-1709.987230622237
 10
318.8663774049449
 20
-1709.919250339263
 10
319.2138345085329
 20
-1709.757680811764
 10
320.1385066042176
 20
-1708.854383252026
 10
321.5152032838923
 20
-1706.843399945691
 10
322.6277587114374
 20
-1704.664920547294
 10
325.0480221021076
 20
-1698.672429847624
 10
326.9787066264437
 20
-1692.487043295618
 10
328.6228201037954
 20
-1686.219360736309
 10
330.993009678815
 20
-1674.794563848313
 10
332.5635749595302
 20
-1663.210264108962
 10
333.5175928319198
 20
-1651.540234426786
 10
334.0381401819631
 20
-1639.858247710312
 10
334.0491138030007
 20
-1633.094426926867
 10
333.473980771057
 20
-1628.947940333386
 10
332.2323858665205
 20
-1626.30070183784
 10
330.1973852299104
 20
-1624.121095859258
 10
327.8476279855962
 20
-1622.257559770722
 10
322.3914242578288
 20
-1618.611184751775
 10
316.8315883711226
 20
-1615.03800191866
 10
311.3748668236847
 20
-1611.282849317495
 10
306.2001220403845
 20
-1607.193022893914
 10
301.4862164460914
 20
-1602.615818593552
 10
297.5123331555069
 20
-1597.509693224544
 10
294.456787924882
 20
-1591.818316920007
 10
292.5237976316361
 20
-1585.62958940595
 10
291.6703780639183
 20
-1579.193378394894
 10
291.7134522545834
 20
-1573.636863626578
 10
292.3881465521401
 20
-1568.100841077846
 10
293.6288649468318
 20
-1562.677308022577
 10
296.0521795940406
 20
-1555.883240920858
 10
299.2532113696471
 20
-1549.382731609441
 10
302.9871083026006
 20
-1543.181075609508
 10
306.1251546202283
 20
-1538.36399720928
 10
309.142847447886
 20
-1533.448190888077
 10
311.7611175768635
 20
-1528.353578846326
 10
313.700895798451
 20
-1523.000083284452
  0
LWPOLYLINE
  5
8F2
330
A
100
AcDbEntity
  8
0
  6
PHANTOM
 62
     7
100
AcDbPolyline
 90
       51
 70
   128
 43
0.0
 10
98.51844718988274
 20
-1662.913460751469
 10
101.9799272994315
 20
-1663.658636776116
 10
105.3562906084842
 20
-1664.717382941153
 10
109.3316064117746
 20
-1666.554648671979
 10
112.9475855013166
 20
-1669.015419831014
 10
116.0686813285288
 20
-1672.094664952196
 10
118.6472127676758
 20
-1675.64677160278
 10
121.4306466821028
 20
-1681.297901361763
 10
123.3235145210223
 20
-1687.322737115277
 10
124.9514479251397
 20
-1695.864606421502
 10
125.8218673009673
 20
-1704.533100836902
 10
126.2108626312213
 20
-1713.276873795086
 10
126.3945238986183
 20
-1722.044578729661
 10
126.6489410858747
 20
-1730.784869074237
 10
127.463705374667
 20
-1742.525842837195
 10
128.0746712107865
 20
-1747.15833053181
 10
129.0048561338905
 20
-1751.734024232902
 10
129.9664697964598
 20
-1754.975597716236
 10
131.3186588464094
 20
-1758.065588029748
 10
132.281325129867
 20
-1759.614226122055
 10
133.4816252502122
 20
-1760.977802535103
 10
134.9534188000153
 20
-1762.066772093707
 10
136.5915630717327
 20
-1762.898392064236
 10
140.854372095521
 20
-1764.208779085976
 10
145.2870227744919
 20
-1764.859102278516
 10
153.8280419572642
 20
-1765.15664857979
 10
160.2572284694819
 20
-1764.872750392991
 10
166.6146631561046
 20
-1763.95905981944
 10
170.0958100272711
 20
-1763.009904611602
 10
173.4045953542179
 20
-1761.591278424501
 10
176.4166180785777
 20
-1759.507731401116
 10
178.9721829966364
 20
-1756.870374308671
 10
181.9187961578938
 20
-1752.618562929944
 10
184.3396167144179
 20
-1748.013473519957
 10
186.4115491145035
 20
-1743.242564109828
 10
190.0791541280365
 20
-1733.367503096034
 10
193.5612983088218
 20
-1723.419765088811
 10
197.5185926291643
 20
-1713.670670910184
 10
200.5655099104654
 20
-1707.653218103037
 10
204.1061071742542
 20
-1701.902458920512
 10
208.1982893180742
 20
-1696.557587317862
 10
213.3544578633169
 20
-1691.375358418691
 10
219.2600111848248
 20
-1687.083907492184
 10
223.6173428205303
 20
-1684.847850502704
 10
228.234620312655
 20
-1683.155187580685
 10
233.0016928662001
 20
-1682.01266506156
 10
239.8096344584594
 20
-1681.318433316715
 10
246.6494753249766
 20
-1681.617038029423
 10
253.0069253030704
 20
-1682.729717500146
 10
259.236869328533
 20
-1684.499037998183
 10
265.2939594022464
 20
-1686.770556889678
  0
LWPOLYLINE
  5
927
330
A
100
AcDbEntity
  8
0
  6
PHANTOM
 62
     7
100
AcDbPolyline
 90
       19
 70
   128
 43
0.0
 10
261.4952471085014
 20
-1695.923618429844
 10
261.4951917883548
 20
-1695.923595250144
 10
256.3094622391774
 20
-1693.944187558965
 10
250.9774656216802
 20
-1692.383051518994
 10
245.5311278565086
 20
-1691.392512740369
 10
240.1236202811303
 20
-1691.1285551776
 10
234.7381261228876
 20
-1691.656640152868
 10
229.3355547787314
 20
-1693.101712697365
 10
224.2874921482539
 20
-1695.492739122782
 10
219.6743792570235
 20
-1698.885225190919
 10
215.6567787988869
 20
-1702.979383405025
 10
212.149661223481
 20
-1707.62023357172
 10
209.1266926642165
 20
-1712.612993139497
 10
206.5219534772775
 20
-1717.828963127483
 10
202.6565928600403
 20
-1727.455241655105
 10
199.2561980086172
 20
-1737.274592471733
 10
195.658398985732
 20
-1747.018352133751
 10
193.1731416401273
 20
-1752.682390196298
 10
190.6858523931104
 20
-1757.325441306078
  0
LWPOLYLINE
  5
93C
330
A
100
AcDbEntity
  8
0
  6
PHANTOM
 62
     7
100
AcDbPolyline
 90
       12
 70
   128
 43
0.0
 10
-109.1255891904614
 20
-1415.33401817749
 10
-109.3413549397229
 20
-1412.664217378415
 10
-109.1820468911909
 20
-1408.840148044143
 10
-108.8084503939972
 20
-1405.028837214937
 10
-108.3502819327075
 20
-1398.057501227338
 10
-108.6160750571476
 20
-1391.066642460824
 10
-109.8979038872971
 20
-1384.243718715796
 10
-111.6026283174766
 20
-1379.507206040442
 10
-114.0201443359586
 20
-1375.100855669986
 10
-117.2255922181938
 20
-1371.157702224995
 10
-121.0163637456163
 20
-1367.711289163181
 10
-122.1953020924681
 20
-1366.841475196439
  0
LWPOLYLINE
  5
94A
330
A
100
AcDbEntity
  8
0
  6
PHANTOM
 62
     7
100
AcDbPolyline
 90
       13
 70
   128
 43
0.0
 10
-149.5193981671267
 20
-1345.037967455412
 10
-149.711112000491
 20
-1344.71154454468
 10
-150.797385083416
 20
-1341.777758767241
 10
-151.3899372738873
 20
-1338.382623527395
 10
-151.4607087910769
 20
-1334.93023559704
 10
-150.8099087613512
 20
-1330.022293239442
 10
-149.4039096148209
 20
-1325.269412971209
 10
-146.5672293367042
 20
-1319.199024162842
 10
-143.038694169451
 20
-1313.463103060006
 10
-139.1905606755892
 20
-1307.888337262366
 10
-135.3950854176467
 20
-1302.301414369585
 10
-131.7933993429067
 20
-1295.984395175755
 10
-129.3883245577679
 20
-1290.583551368104
  0
LWPOLYLINE
  5
959
330
A
100
AcDbEntity
  8
0
  6
PHANTOM
 62
     7
100
AcDbPolyline
 90
       54
 70
   128
 43
0.0
 10
-88.80231561957428
 20
-1263.390213959156
 10
-94.7698828816228
 20
-1265.091948141885
 10
-100.7319948320299
 20
-1266.814331006522
 10
-105.2917299130215
 20
-1267.982874550627
 10
-109.7423344713749
 20
-1269.46703110789
 10
-111.5879290636934
 20
-1270.502458077516
 10
-112.5910572201764
 20
-1271.855375098762
 10
-113.729390330389
 20
-1274.489459249155
 10
-115.3647730420079
 20
-1279.899828912918
 10
-116.875845325862
 20
-1285.351090396171
 10
-119.5761505525001
 20
-1293.104635785146
 10
-122.9475583498353
 20
-1300.605274615863
 10
-127.0291490688985
 20
-1307.717621378524
 10
-130.5517824399736
 20
-1312.84381894366
 10
-134.1448508487072
 20
-1317.944660768455
 10
-137.4404656956027
 20
-1323.195384812577
 10
-140.0707383811639
 20
-1328.771229035695
 10
-141.0411684727192
 20
-1332.021956611205
 10
-141.493960231666
 20
-1335.378668532781
 10
-141.4681656389552
 20
-1337.29899008416
 10
-141.1514524081463
 20
-1339.187567222385
 10
-139.9692853157052
 20
-1341.629710466013
 10
-137.5672292825722
 20
-1344.275022739728
 10
-134.7581239262034
 20
-1346.519934558171
 10
-128.8505949420374
 20
-1350.453027932984
 10
-119.4952475945924
 20
-1356.419019423225
 10
-114.377854165739
 20
-1360.244683081681
 10
-109.6926148253613
 20
-1364.604018620233
 10
-105.7200256510234
 20
-1369.561991941931
 10
-102.5466521127468
 20
-1375.333341753345
 10
-100.3036866050517
 20
-1381.533518833146
 10
-99.02365304536001
 20
-1387.544330695781
 10
-98.44114654983419
 20
-1393.696038930953
 10
-98.43418568959798
 20
-1399.897394600602
 10
-98.88078903577488
 20
-1406.057148766668
 10
-99.19773535954925
 20
-1408.976410646437
 10
-99.37979310564355
 20
-1411.904921635895
 10
-99.1758943592738
 20
-1414.807980741099
 10
-98.36853879391435
 20
-1417.080942054152
 10
-96.57988451908334
 20
-1419.336897557158
 10
-94.77079053339563
 20
-1420.855193938454
 10
-92.75602601060533
 20
-1422.091490181393
 10
-90.59353848625333
 20
-1423.029100083237
 10
-88.32349825399282
 20
-1423.668731092738
 10
-82.79408992203785
 20
-1424.344052099792
 10
-77.19694252826688
 20
-1424.217987183499
 10
-71.56443202534463
 20
-1423.59210482286
 10
-65.92893436593563
 20
-1422.767973496879
 10
-60.32282550270451
 20
-1422.047161684556
 10
-51.86661343353259
 20
-1421.344362786479
 10
-43.3484053481942
 20
-1421.036373141106
 10
-34.83949147403841
 20
-1421.25564335872
 10
-26.4111620384142
 20
-1422.1346240496
 10
-18.13470726867063
 20
-1423.805765824026
  0
LWPOLYLINE
  5
991
330
A
100
AcDbEntity
  8
0
  6
PHANTOM
 62
     7
100
AcDbPolyline
 90
        4
 70
   128
 43
0.0
 10
159.7081288591652
 20
-1441.799254181819
 10
158.4621404924751
 20
-1445.15174721241
 10
153.3349038799404
 20
-1457.455937458252
 10
152.3107620717621
 20
-1459.639198517384
  0
LWPOLYLINE
  5
997
330
A
100
AcDbEntity
  8
0
  6
PHANTOM
 62
     7
100
AcDbPolyline
 90
        3
 70
   128
 43
0.0
 10
-18.13470726867064
 20
-1423.805765824026
 10
-9.936653309196048
 20
-1426.37033157845
 10
-4.457178520072519
 20
-1428.763761524448
  0
LWPOLYLINE
  5
99C
330
A
100
AcDbEntity
  8
0
  6
PHANTOM
 62
     7
100
AcDbPolyline
 90
       15
 70
   128
 43
0.0
 10
124.8347787927676
 20
-1483.919295840783
 10
128.1517039138761
 20
-1480.592634811854
 10
133.9722094864453
 20
-1473.189245347415
 10
138.7271556907931
 20
-1465.057439359931
 10
144.2060443791904
 20
-1453.369443750075
 10
149.1726161041078
 20
-1441.447055192563
 10
153.67215177531
 20
-1429.344996949899
 10
154.8862260741091
 20
-1424.55994062157
 10
155.2170999302771
 20
-1419.636636303416
 10
154.5386507617075
 20
-1413.777658354621
 10
153.0307640020483
 20
-1408.061934641885
 10
149.8947071917189
 20
-1400.209534580118
 10
146.0805817495549
 20
-1392.645151162136
 10
142.7973170772373
 20
-1386.315245631583
 10
139.9574479004265
 20
-1379.786992169209
  0
LWPOLYLINE
  5
9AD
330
A
100
AcDbEntity
  8
0
  6
PHANTOM
 62
     7
100
AcDbPolyline
 90
        8
 70
   128
 43
0.0
 10
83.50190536461436
 20
-1172.439581482981
 10
84.16995488587872
 20
-1176.663532810987
 10
85.16233879306042
 20
-1188.007656983562
 10
85.61483367601626
 20
-1199.402721882013
 10
86.06657704130652
 20
-1210.79724509956
 10
87.05670639549159
 20
-1222.13974422942
 10
87.0567139731389
 20
-1222.139803729089
 10
87.0567139731389
 20
-1222.139803729089
  0
LWPOLYLINE
  5
9B7
330
A
100
AcDbEntity
  8
0
  6
PHANTOM
 62
     7
100
AcDbPolyline
 90
       45
 70
   128
 43
0.0
 10
77.23054311046276
 20
-1223.426613795035
 10
76.20601704158547
 20
-1212.081251671852
 10
75.7299163737016
 20
-1200.682265112719
 10
75.26127427564897
 20
-1189.282312395245
 10
74.2591239162655
 20
-1177.93405179704
 10
73.60267840723448
 20
-1173.702209937103
 10
72.56518109127556
 20
-1169.555162346925
 10
71.81492026367905
 20
-1167.514184876477
 10
70.69724450256403
 20
-1165.677261200016
 10
70.49169070087279
 20
-1165.457192137747
 10
70.17803883378705
 20
-1165.237070223064
 10
68.93342415203588
 20
-1164.887929477899
 10
66.50351318232534
 20
-1164.701166833163
 10
64.06061696792012
 20
-1164.826905268989
 10
57.66083609472856
 20
-1165.727141038654
 10
51.33879194629692
 20
-1167.147812469888
 10
45.08876288840263
 20
-1168.857809711452
 10
34.00950376281141
 20
-1172.517563771698
 10
23.1919232631226
 20
-1176.949564209972
 10
12.60837215924412
 20
-1181.958375337906
 10
2.231201221083833
 20
-1187.348561467133
 10
-3.631926214543473
 20
-1190.720968424265
 10
-6.935322424977657
 20
-1193.292291537225
 10
-8.607100759728536
 20
-1195.691163513536
 10
-9.477194589115917
 20
-1198.543328750849
 10
-9.916185560500084
 20
-1201.510046261419
 10
-10.34593709474971
 20
-1208.058444807363
 10
-10.66048625723996
 20
-1214.65999534268
 10
-11.18418303121786
 20
-1221.263231124722
 10
-12.13870421945826
 20
-1227.789604776951
 10
-13.74572662473605
 20
-1234.160568922831
 10
-16.18081926391288
 20
-1240.155115488656
 10
-19.58192311082607
 20
-1245.646983433058
 10
-23.97502320847678
 20
-1250.415365889306
 10
-29.12223566430951
 20
-1254.372554420565
 10
-33.95585570550676
 20
-1257.113508461359
 10
-39.08753901741072
 20
-1259.297217334252
 10
-44.40481561888471
 20
-1260.934490213141
 10
-51.50030764759315
 20
-1262.232871718155
 10
-58.73042973662054
 20
-1262.710951537867
 10
-65.96816984457216
 20
-1262.578129938783
 10
-71.70890527000442
 20
-1262.269041309579
 10
-77.47496483807911
 20
-1262.113545820611
 10
-83.1961633531508
 20
-1262.393363395822
 10
-88.80231561957433
 20
-1263.390213959156
  0
LWPOLYLINE
  5
9E6
330
A
100
AcDbEntity
  8
0
  6
PHANTOM
 62
     7
100
AcDbPolyline
 90
       51
 70
   128
 43
0.0
 10
139.9574479004265
 20
-1379.786992169209
 10
138.8720492132878
 20
-1376.416674447322
 10
138.1007686338422
 20
-1372.963284966758
 10
137.7042295285953
 20
-1368.60192762763
 10
138.0273303204485
 20
-1364.240012297016
 10
139.1334869062654
 20
-1359.997441462414
 10
140.9204357830495
 20
-1355.988314406363
 10
144.4227407571977
 20
-1350.752225047223
 10
148.6939676539097
 20
-1346.100535535955
 10
155.2774767668485
 20
-1340.419769199207
 10
162.3494034552347
 20
-1335.331716700095
 10
169.727235296818
 20
-1330.62295038305
 10
177.2284598693481
 20
-1326.080042592505
 10
184.6705647505744
 20
-1321.489565672894
 10
194.4311641500668
 20
-1314.913472219224
 10
198.1375332582621
 20
-1312.068116436993
 10
201.6351077817931
 20
-1308.974705812821
 10
203.9615859353095
 20
-1306.521137210743
 10
205.9615015192842
 20
-1303.805111986012
 10
206.821328306761
 20
-1302.197099483017
 10
207.4020700602887
 20
-1300.475820880109
 10
207.6092485870867
 20
-1298.656725497551
 10
207.5103804720006
 20
-1296.822240957915
 10
206.5138044097225
 20
-1292.475346540963
 10
204.8606754756473
 20
-1288.311396850602
 10
200.8478485399663
 20
-1280.765884113474
 10
197.3873922420017
 20
-1275.339994361625
 10
193.4173956507967
 20
-1270.291139706885
 10
190.8548296930915
 20
-1267.750955686068
 10
187.9718707131149
 20
-1265.594776630814
 10
184.6614546987041
 20
-1264.028061946435
 10
181.0996539987663
 20
-1263.133556352598
 10
175.9441707520607
 20
-1262.707620189187
 10
170.7456360580507
 20
-1262.913672794227
 10
165.577941109682
 20
-1263.504781405893
 10
155.192084901049
 20
-1265.266072800023
 10
144.836018986209
 20
-1267.224316483434
 10
134.41440860346
 20
-1268.671746161079
 10
127.6796829657461
 20
-1269.041764795816
 10
120.9290807907375
 20
-1268.850897212068
 10
114.2541951309674
 20
-1267.979399319932
 10
107.1881689834377
 20
-1266.105140823143
 10
100.5188868012345
 20
-1263.136507086567
 10
96.40373882618241
 20
-1260.480975692072
 10
92.62921098960751
 20
-1257.32862754858
 10
89.25622118687693
 20
-1253.771482875089
 10
85.25102806359802
 20
-1248.222748381134
 10
82.08970689723416
 20
-1242.149970076533
 10
79.87459059610296
 20
-1236.087917156854
 10
78.29189508210882
 20
-1229.807967117629
 10
77.23054311046276
 20
-1223.426613795035
  0
LWPOLYLINE
  5
A1B
330
A
100
AcDbEntity
  8
0
  6
PHANTOM
 62
     7
100
AcDbPolyline
 90
       19
 70
   128
 43
0.0
 10
87.05668307352096
 20
-1222.139864373004
 10
87.05669065938595
 20
-1222.139923871506
 10
87.93533808896762
 20
-1227.620601243838
 10
89.24935292833724
 20
-1233.01881378747
 10
91.11469006519994
 20
-1238.230750039011
 10
93.58984989801058
 20
-1243.04576775183
 10
96.73993198107101
 20
-1247.445700017167
 10
100.6926871869947
 20
-1251.401927774715
 10
105.2874081277639
 20
-1254.578165039896
 10
110.5319436903704
 20
-1256.876994960159
 10
116.0863889399679
 20
-1258.309259912107
 10
121.8590418671853
 20
-1259.02608774312
 10
127.6943827675007
 20
-1259.147675526397
 10
133.5139148759434
 20
-1258.795460838526
 10
143.7831969333875
 20
-1257.32982206403
 10
153.9872016149701
 20
-1255.364974979946
 10
164.2244445220903
 20
-1253.608880500467
 10
170.3722740450604
 20
-1252.929157465429
 10
175.6369188807079
 20
-1252.761687585016
  0
ARC
  5
A30
330
A
100
AcDbEntity
  8
0
  6
Continuous
 62
     7
100
AcDbCircle
 10
1107.504968694995
 20
1291.405403249684
 30
0.0
 40
250.9999999999999
100
AcDbArc
 50
248.7431291678446
 51
257.417250970104
  0
ARC
  5
A31
330
A
100
AcDbEntity
  8
0
  6
Continuous
 62
     7
100
AcDbCircle
 10
1107.504968694995
 20
1291.405403249684
 30
0.0
 40
251.0000000000002
100
AcDbArc
 50
257.8778960069996
 51
275.9525028398371
  0
ARC
  5
A32
330
A
100
AcDbEntity
  8
0
  6
Continuous
 62
     7
100
AcDbCircle
 10
1107.504968694995
 20
1291.405403249684
 30
0.0
 40
250.9999999999999
100
AcDbArc
 50
276.4100649264765
 51
291.256870832157
  0
LINE
  5
A33
330
A
100
AcDbEntity
  8
0
  6
Continuous
 62
     7
100
AcDbLine
 10
1016.504968694995
 20
1064.167327455872
 30
0.0
 11
1016.504968694995
 21
1057.482338974269
 31
0.0
  0
LINE
  5
A34
330
A
100
AcDbEntity
  8
0
  6
Continuous
 62
     7
100
AcDbLine
 10
1198.504968694995
 20
1057.482338974269
 30
0.0
 11
1198.504968694995
 21
1064.167327455872
 31
0.0
  0
LINE
  5
A35
330
A
100
AcDbEntity
  8
0
  6
Continuous
 62
     7
100
AcDbLine
 10
1041.504968694995
 20
1091.167327455872
 30
0.0
 11
1041.504968694995
 21
1064.167327455872
 31
0.0
  0
LINE
  5
A36
330
A
100
AcDbEntity
  8
0
  6
Continuous
 62
     7
100
AcDbLine
 10
1173.504968694994
 20
1064.167327455872
 30
0.0
 11
1173.504968694994
 21
1091.167327455872
 31
0.0
  0
LWPOLYLINE
  5
A37
330
A
100
AcDbEntity
  8
0
  6
Continuous
 62
     7
100
AcDbPolyline
 90
       11
 70
   128
 43
0.0
 10
1308.049198652555
 20
-765.8326725441276
 10
1308.435318968809
 20
-741.2211385676544
 10
1308.87427082092
 20
-715.3422539369427
 10
1309.371672211107
 20
-688.1960186519921
 10
1309.931657375904
 20
-659.7824327128032
 10
1310.556116411869
 20
-630.1014961193754
 10
1311.243736584931
 20
-599.1532088717089
 10
1311.988811749365
 20
-566.9375709698036
 10
1312.779783747629
 20
-533.4545824136596
 10
1313.597477107575
 20
-498.7042432032771
 10
1314.336807429511
 20
-466.0510409398244
  0
LWPOLYLINE
  5
A44
330
A
100
AcDbEntity
  8
0
  6
Continuous
 62
     7
100
AcDbPolyline
 90
       45
 70
   128
 43
0.0
 10
1054.575738754784
 20
-467.694590041737
 10
1056.41644363094
 20
-477.444239485276
 10
1059.128857461354
 20
-491.913059968736
 10
1061.635529884516
 20
-505.3829671622342
 10
1063.938925344589
 20
-517.8539610657708
 10
1066.041785637932
 20
-529.3260416793454
 10
1067.914745206036
 20
-539.6209477610425
 10
1069.600011519154
 20
-548.9522974963956
 10
1071.100544098751
 20
-557.3200908854048
 10
1072.419294629569
 20
-564.7243279280702
 10
1073.578779129131
 20
-571.2762699031915
 10
1074.61170235667
 20
-577.1481653389383
 10
1075.556659439793
 20
-582.5508483215562
 10
1076.414730821102
 20
-587.4843188510452
 10
1077.187015513073
 20
-591.9485769274051
 10
1077.864773900752
 20
-595.8862898277876
 10
1078.492530001813
 20
-599.5508846983774
 10
1079.093826833775
 20
-603.0775444514196
 10
1079.805049334133
 20
-607.27104555203
 10
1080.677865088565
 20
-612.4522868890271
 10
1081.696776498183
 20
-618.5532346523752
 10
1082.856155797192
 20
-625.5698193753967
 10
1084.072976051573
 20
-633.0269454844206
 10
1085.291530405298
 20
-640.5991577134848
 10
1086.089535892901
 20
-645.6195002860659
 10
1086.88710643822
 20
-650.6891817919126
 10
1087.683784107416
 20
-655.8082022310252
 10
1088.479124849781
 20
-660.9765616034033
 10
1089.271015355962
 20
-666.1830788577625
 10
1089.956235723523
 20
-670.739356618299
 10
1090.41061379979
 20
-673.7878208300427
 10
1090.748348229664
 20
-676.0681313042645
 10
1090.971295019148
 20
-677.5802880409636
 10
1091.156249337791
 20
-678.8389311162299
 10
1091.470209283506
 20
-680.9841870591966
 10
1091.917172580452
 20
-684.0574834584152
 10
1092.494146792834
 20
-688.058820313886
 10
1093.197259867837
 20
-692.9881976256084
 10
1094.149183853851
 20
-699.7581477650287
 10
1095.251388712898
 20
-707.7402323779209
 10
1096.494485750752
 20
-716.9344514642853
 10
1097.868350879197
 20
-727.3408050241214
 10
1099.362693090656
 20
-738.9592930574298
 10
1100.96788002629
 20
-751.7899155642099
 10
1102.676083078089
 20
-765.8326725441286
  0
LWPOLYLINE
  5
A73
330
A
100
AcDbEntity
  8
0
  6
Continuous
 62
     7
100
AcDbPolyline
 90
        9
 70
   128
 43
0.0
 10
1304.332994905365
 20
-455.8326745940324
 10
1306.229751780767
 20
-456.0131314029653
 10
1308.146870371416
 20
-456.5865761182396
 10
1309.911406828174
 20
-457.5305522230232
 10
1311.452648483224
 20
-458.8072304798025
 10
1312.708831064846
 20
-460.3654488255124
 10
1313.629613861022
 20
-462.1427626584324
 10
1314.178097091221
 20
-464.0679472655831
 10
1314.332300641452
 20
-466.0638521074623
  0
LINE
  5
A7E
330
A
100
AcDbEntity
  8
0
  6
Continuous
 62
     7
100
AcDbLine
 10
1304.236887939459
 20
-459.8335490255021
 30
0.0
 11
1304.332994910026
 21
-459.8326759606301
 31
0.0
  0
ARC
  5
A7F
330
A
100
AcDbEntity
  8
0
  6
Continuous
 62
     7
100
AcDbCircle
 10
1064.403212193442
 20
-465.832672544129
 30
0.0
 40
9.999999999999541
100
AcDbArc
 50
90.14057949396551
 51
190.7250657927032
  0
LINE
  5
A80
330
A
100
AcDbEntity
  8
0
  6
Continuous
 62
     7
100
AcDbLine
 10
1094.658530149671
 20
-455.8326725849766
 30
0.0
 11
1094.657623258008
 21
-455.8326725441292
 31
0.0
  0
LWPOLYLINE
  5
A81
330
A
100
AcDbEntity
  8
0
  6
Continuous
 62
     7
100
AcDbPolyline
 90
       41
 70
   128
 43
0.0
 10
1032.011739875844
 20
-471.2656142274611
 10
1032.012041991833
 20
-471.2783608017761
 10
1032.153403244369
 20
-478.1053394482577
 10
1032.253408358326
 20
-483.8139491016684
 10
1032.320704952264
 20
-488.4041897620082
 10
1032.363321406601
 20
-491.876061429277
 10
1032.380503074687
 20
-493.4780594670263
 10
1032.392019619761
 20
-494.643194616857
 10
1032.405326750824
 20
-496.1027103960057
 10
1032.41858865785
 20
-497.7600545786637
 10
1032.433390058907
 20
-499.9428185595881
 10
1032.448177517085
 20
-502.6510023387793
 10
1032.461317840525
 20
-505.8846059162371
 10
1032.471114176139
 20
-509.6436292919617
 10
1032.475672948043
 20
-513.8775031961995
 10
1032.446454800734
 20
-526.2987525812262
 10
1032.347708800374
 20
-539.6608068972557
 10
1032.289806019198
 20
-545.2690540043485
 10
1032.224035655968
 20
-551.0245798869504
 10
1032.163797163487
 20
-556.1179297493146
 10
1032.119030709371
 20
-559.9232935362272
 10
1032.089693328772
 20
-562.4406712476887
 10
1032.064203070597
 20
-564.6216386318927
 10
1032.036119610405
 20
-566.9908711049386
 10
1032.004902353884
 20
-569.5847951740115
 10
1031.962518972039
 20
-573.0455932179832
 10
1031.905045044332
 20
-577.6416519271034
 10
1031.831198551075
 20
-583.4171982427887
 10
1031.740263243826
 20
-590.3722321650393
 10
1031.631563103002
 20
-598.5067536938551
 10
1031.504475030768
 20
-607.8207628292358
 10
1031.35844251588
 20
-618.3142595711816
 10
1031.192990322653
 20
-629.987243919693
 10
1031.007740258066
 20
-642.8397158747691
 10
1030.802415998975
 20
-656.8716754364105
 10
1030.576812785865
 20
-672.083122604617
 10
1030.330829286149
 20
-688.4740573793887
 10
1030.064488168836
 20
-706.0444797607257
 10
1029.777946582314
 20
-724.7943897486277
 10
1029.471506606806
 20
-744.723787343095
 10
1029.145625652633
 20
-765.8326725441273
  0
LWPOLYLINE
  5
AAC
330
A
100
AcDbEntity
  8
0
  6
Continuous
 62
     7
100
AcDbPolyline
 90
        8
 70
   128
 43
0.0
 10
1032.115992792433
 20
-463.7096773094535
 10
1032.57924879827
 20
-462.1793643892899
 10
1033.485686535972
 20
-460.4103936385103
 10
1034.724084838681
 20
-458.8556534679013
 10
1036.245515425228
 20
-457.5765706123404
 10
1037.989867599923
 20
-456.6236807722225
 10
1039.88822318557
 20
-456.0346319820436
 10
1041.865579434147
 20
-455.8326971619666
  0
LWPOLYLINE
  5
AB6
330
A
100
AcDbEntity
  8
0
  6
Continuous
 62
     7
100
AcDbPolyline
 90
        9
 70
   128
 43
0.0
 10
1356.232053483495
 20
-455.832692202206
 10
1358.237242476932
 20
-456.0320911158637
 10
1360.180547658313
 20
-456.6381895924553
 10
1361.960797562499
 20
-457.6258940437301
 10
1363.504105054841
 20
-458.9542109824189
 10
1364.746417010987
 20
-460.5680102089508
 10
1365.636172764899
 20
-462.4003129241896
 10
1366.136444072378
 20
-464.3750716040663
 10
1366.226467773506
 20
-466.4103262607541
  0
LWPOLYLINE
  5
AC1
330
A
100
AcDbEntity
  8
0
  6
Continuous
 62
     7
100
AcDbPolyline
 90
       27
 70
   128
 43
0.0
 10
1389.889881881942
 20
-765.8326725441278
 10
1387.130284404549
 20
-739.7867279206719
 10
1384.557385196909
 20
-714.8085438393585
 10
1382.168897341391
 20
-690.8981203012491
 10
1379.953707555771
 20
-668.0554573063444
 10
1377.898624559332
 20
-646.2805548546437
 10
1375.99004995054
 20
-625.5734129461476
 10
1374.215319968175
 20
-605.9340315808559
 10
1372.563382104271
 20
-587.3624107587683
 10
1371.670956240928
 20
-577.2301742855042
 10
1370.844050252061
 20
-567.7940636912484
 10
1370.106301472863
 20
-559.3426381506474
 10
1369.456652789181
 20
-551.8758976637014
 10
1368.894234128425
 20
-545.3938422304103
 10
1368.418339559849
 20
-539.896471850774
 10
1368.02840673126
 20
-535.3837865247929
 10
1367.757384853948
 20
-532.2429363226357
 10
1367.551618607664
 20
-529.8559856146829
 10
1367.473152794199
 20
-528.9452225710331
 10
1367.372723940551
 20
-527.7790892107648
 10
1367.18988710236
 20
-525.6548199716367
 10
1366.924066382619
 20
-522.5636060665008
 10
1366.575513144151
 20
-518.5054474953569
 10
1366.144530105246
 20
-513.4803442582053
 10
1365.631448396288
 20
-507.4882963550459
 10
1365.036598467505
 20
-500.5293037858788
 10
1364.644328174823
 20
-495.9322325860759
  0
LWPOLYLINE
  5
ADE
330
A
100
AcDbEntity
  8
0
  6
Continuous
 62
     7
100
AcDbPolyline
 90
       17
 70
   128
 43
0.0
 10
1363.84283400126
 20
-503.2029166697764
 10
1363.913014603286
 20
-503.2269712102805
 10
1364.099762325356
 20
-503.0006067460253
 10
1364.239054873219
 20
-502.4961448074704
 10
1364.338732723203
 20
-501.7135853946164
 10
1364.414743240007
 20
-500.6529285074625
 10
1364.484253002356
 20
-499.3141741460093
 10
1364.585791476103
 20
-497.1590979503859
 10
1364.688089896198
 20
-495.0150346331159
 10
1364.787812494973
 20
-492.9683685847203
 10
1364.86428057069
 20
-491.4265555627926
 10
1364.969669285894
 20
-489.3376283985715
 10
1365.111167311449
 20
-486.592502255107
 10
1365.291002428633
 20
-483.1911771323988
 10
1365.594858618941
 20
-477.6353230010759
 10
1365.977979292223
 20
-470.9128929066535
 10
1366.244844224447
 20
-466.4234769680895
  0
LWPOLYLINE
  5
AF1
330
A
100
AcDbEntity
  8
0
  6
Continuous
 62
     7
100
AcDbPolyline
 90
        9
 70
   128
 43
0.0
 10
1363.312880807661
 20
-455.8327178295691
 10
1365.341638655383
 20
-456.0469213407971
 10
1367.284708373089
 20
-456.6684016658937
 10
1369.061220620519
 20
-457.6712931843844
 10
1370.597238074632
 20
-459.0138561816757
 10
1371.82883265451
 20
-460.6402140297405
 10
1372.704746167906
 20
-462.4826787372526
 10
1373.188523644981
 20
-464.4645680812383
 10
1373.260030571237
 20
-466.5033970729943
  0
LWPOLYLINE
  5
AFC
330
A
100
AcDbEntity
  8
0
  6
Continuous
 62
     7
100
AcDbPolyline
 90
        9
 70
   128
 43
0.0
 10
1368.779418785239
 20
-544.0675348748773
 10
1368.8388445171
 20
-542.9008976662917
 10
1369.234480460356
 20
-535.1789197106069
 10
1369.701649462547
 20
-526.1773919327961
 10
1370.248135177045
 20
-515.8963143328594
 10
1370.886892296986
 20
-504.3356869107971
 10
1371.637523853151
 20
-491.4955096666087
 10
1372.526325526046
 20
-477.3757826002942
 10
1373.267522547196
 20
-466.545677373189
  0
LWPOLYLINE
  5
B07
330
A
100
AcDbEntity
  8
0
  6
Continuous
 62
     7
100
AcDbPolyline
 90
       20
 70
   128
 43
0.0
 10
863.6546950060974
 20
-692.9458903847407
 10
863.6222861283178
 20
-692.9267081886325
 10
863.5352854265523
 20
-693.1780719921449
 10
863.4719308522717
 20
-693.7480796901876
 10
863.4277693791261
 20
-694.6367312827598
 10
863.380225502993
 20
-696.8258869668344
 10
863.346489591489
 20
-699.2060155684794
 10
863.3206174346057
 20
-701.1003880260929
 10
863.2984299662613
 20
-702.7324368651074
 10
863.2838369675114
 20
-703.8024539993131
 10
863.2585720995422
 20
-705.5602601538476
 10
863.2131121569047
 20
-708.3058920195049
 10
863.1390125503015
 20
-712.0393495962852
 10
863.0249810514731
 20
-716.7606328841887
 10
862.8570555061756
 20
-722.4697418832148
 10
862.6191209839165
 20
-729.1666765933642
 10
862.2939451274131
 20
-736.8514370146364
 10
861.8649423749271
 20
-745.5240231470314
 10
861.3189096388206
 20
-755.1844349905494
 10
860.6500079339349
 20
-765.8326725441286
  0
LWPOLYLINE
  5
B1D
330
A
100
AcDbEntity
  8
0
  6
Continuous
 62
     7
100
AcDbPolyline
 90
       30
 70
   128
 43
0.0
 10
1029.131731812171
 20
-765.8326725441281
 10
1029.128718151664
 20
-750.0424841939222
 10
1029.126163576579
 20
-735.358454337611
 10
1029.123782107311
 20
-721.7805829762567
 10
1029.121225136034
 20
-709.308870109859
 10
1029.118104729626
 20
-697.9433157384183
 10
1029.114003917157
 20
-687.683919861934
 10
1029.108473979291
 20
-678.5306824804067
 10
1029.101018548716
 20
-670.4836035938359
 10
1029.091064122541
 20
-663.5426832022221
 10
1029.077916379365
 20
-657.707921305565
 10
1029.063461928377
 20
-652.9581668560555
 10
1029.061023147368
 20
-649.1992157545456
 10
1029.068266954276
 20
-647.0228166586943
 10
1029.080975286867
 20
-645.3974011887984
 10
1029.095180562335
 20
-644.322969344858
 10
1029.105224242031
 20
-643.7007624994557
 10
1029.106835362052
 20
-643.2588630580583
 10
1029.106675808424
 20
-642.6620092741708
 10
1029.103251727877
 20
-641.0034386789272
 10
1029.098520540105
 20
-638.7250507137244
 10
1029.094783686482
 20
-635.8268453785629
 10
1029.090257597983
 20
-632.4996285460461
 10
1029.070609679238
 20
-629.4233252880108
 10
1029.020415701045
 20
-626.6581835405611
 10
1028.922399123384
 20
-624.204203303697
 10
1028.77011208142
 20
-622.0613845774187
 10
1028.584930926548
 20
-620.2297273617262
 10
1028.419525303229
 20
-618.7092316566198
 10
1028.354018828933
 20
-617.499897462099
  0
LWPOLYLINE
  5
B3D
330
A
100
AcDbEntity
  8
0
  6
Continuous
 62
     7
100
AcDbPolyline
 90
       14
 70
   128
 43
0.0
 10
1028.045210988698
 20
-526.9832911692384
 10
1028.046268241657
 20
-526.9902491006977
 10
1028.066311364481
 20
-526.9023846120806
 10
1028.146294587813
 20
-526.3077242863902
 10
1028.28268174316
 20
-525.1134356667763
 10
1028.470853184278
 20
-523.1860112743595
 10
1028.702860699607
 20
-520.5151708728326
 10
1028.972332314475
 20
-517.1009144621954
 10
1029.385960791438
 20
-511.3921476782854
 10
1029.863613291537
 20
-504.3617524337354
 10
1030.411872089864
 20
-496.0097287285448
 10
1031.038453918596
 20
-486.336076562714
 10
1031.748868769951
 20
-475.3407959362427
 10
1032.322128206104
 20
-466.453792700724
  0
LWPOLYLINE
  5
B4D
330
A
100
AcDbEntity
  8
0
  6
Continuous
 62
     7
100
AcDbPolyline
 90
        9
 70
   128
 43
0.0
 10
1022.376284132844
 20
-455.8327247396329
 10
1024.39828939093
 20
-456.0459587652925
 10
1026.335369325882
 20
-456.663775312825
 10
1028.107445097869
 20
-457.6606338604065
 10
1029.641259135352
 20
-458.9953242986736
 10
1030.873403601403
 20
-460.6126705556952
 10
1031.752941672214
 20
-462.445811574512
 10
1032.243513264228
 20
-464.41896534769
 10
1032.324838159145
 20
-466.4505617437597
  0
LWPOLYLINE
  5
B58
330
A
100
AcDbEntity
  8
0
  6
Continuous
 62
     7
100
AcDbPolyline
 90
        9
 70
   128
 43
0.0
 10
752.835879111505
 20
-465.4450818084914
 10
753.0916927517754
 20
-463.5529216721081
 10
753.7024737741806
 20
-461.7438746847057
 10
754.6459548622639
 20
-460.0838934876985
 10
755.8877394136612
 20
-458.6334962132319
 10
757.3825555411286
 20
-457.4455601674334
 10
759.0759065551265
 20
-456.5633940761664
 10
760.9060577561178
 20
-456.0191591736559
 10
762.8062871038605
 20
-455.8326966965425
  0
LWPOLYLINE
  5
B63
330
A
100
AcDbEntity
  8
0
  6
Continuous
 62
     7
100
AcDbPolyline
 90
       47
 70
   128
 43
0.0
 10
753.0221735665821
 20
-465.4569978331347
 10
752.4814710824157
 20
-476.611812036964
 10
751.906674962655
 20
-489.5793951794784
 10
751.4085661547966
 20
-501.5893027661997
 10
750.9667479811612
 20
-512.641534797128
 10
750.5658760165696
 20
-522.7360912722631
 10
750.1964803378491
 20
-531.8729721916053
 10
749.8737502104955
 20
-539.610592998332
 10
749.5772378741121
 20
-546.4968597803581
 10
749.2948439232865
 20
-552.9897728896441
 10
749.0098670066487
 20
-559.5600143102368
 10
748.7206781235036
 20
-566.2076059129641
 10
748.4755308820368
 20
-571.8063525265904
 10
748.2259611692441
 20
-577.4588145444767
 10
747.9714801912544
 20
-583.1649919666237
 10
747.7116952650691
 20
-588.9246039162075
 10
747.4686727458192
 20
-594.2493400365516
 10
747.2634716916878
 20
-598.6958095218209
 10
747.1056499826984
 20
-602.0837744940106
 10
746.9832771893282
 20
-604.6912224704475
 10
746.8521652811956
 20
-607.4655296456488
 10
746.6695769191076
 20
-611.2949269489367
 10
746.4337963176712
 20
-616.1794143803116
 10
745.9141024170279
 20
-626.6930576181019
 10
745.3709617331967
 20
-637.2846919797634
 10
744.8020684918179
 20
-647.9108469208019
 10
744.2254926536446
 20
-658.1523283557316
 10
743.6702246882913
 20
-667.4383727014425
 10
743.1395137087841
 20
-675.6955836007256
 10
742.657541083936
 20
-682.6149607514245
 10
742.3728383702203
 20
-686.4422205300241
 10
742.0197310329432
 20
-690.9329083485837
 10
741.6095510915641
 20
-695.8196167063653
 10
741.1798590914369
 20
-700.5995379449243
 10
740.7321718936061
 20
-705.260975645271
 10
740.2856129128121
 20
-709.6361092102652
 10
739.9006341649061
 20
-713.222697551211
 10
739.6764139344134
 20
-715.2440836291418
 10
739.4515707547976
 20
-717.2284906785259
 10
739.119586149969
 20
-720.0883841063621
 10
738.6668667155287
 20
-723.867028764302
 10
738.0823677125009
 20
-728.5644246523463
 10
737.35317994008
 20
-734.1805717704946
 10
736.4652731314762
 20
-740.7154701187468
 10
735.4046668115387
 20
-748.1691196971033
 10
734.159174016599
 20
-756.5415205055638
 10
732.7208852707791
 20
-765.8326725441286
  0
LINE
  5
B94
330
A
100
AcDbEntity
  8
0
  6
Continuous
 62
     7
100
AcDbLine
 10
1056.508329602868
 20
1091.249245219792
 30
0.0
 11
1056.501596453327
 21
1091.167327455872
 31
0.0
  0
LINE
  5
B95
330
A
100
AcDbEntity
  8
0
  6
Continuous
 62
     7
100
AcDbLine
 10
1052.82477019429
 20
1046.43382144493
 30
0.0
 11
930.2515964533276
 21
-444.8326725441278
 31
0.0
  0
LINE
  5
B96
330
A
100
AcDbEntity
  8
0
  6
Continuous
 62
     7
100
AcDbLine
 10
932.2583409366622
 20
-444.8326725441278
 30
0.0
 11
1054.796031980532
 21
1046.002127007432
 31
0.0
  0
LINE
  5
B97
330
A
100
AcDbEntity
  8
0
  6
Continuous
 62
     7
100
AcDbLine
 10
1133.355856026679
 20
1046.109750925858
 30
0.0
 11
1194.629124569349
 21
-444.8326725441278
 31
0.0
  0
LINE
  5
B98
330
A
100
AcDbEntity
  8
0
  6
Continuous
 62
     7
100
AcDbLine
 10
1196.630812820638
 20
-444.8326725441278
 30
0.0
 11
1135.348651197118
 21
1046.326143356511
 31
0.0
  0
LINE
  5
B99
330
A
100
AcDbEntity
  8
0
  6
Continuous
 62
     7
100
AcDbLine
 10
1133.505812820639
 20
1091.167327455872
 30
0.0
 11
1133.504125281297
 21
1091.208389799303
 31
0.0
  0
LINE
  5
B9A
330
A
100
AcDbEntity
  8
0
  6
Continuous
 62
     7
100
AcDbLine
 10
1227.504968694995
 20
-454.8326725441278
 30
0.0
 11
1227.504968694995
 21
-444.8326725441278
 31
0.0
  0
LINE
  5
B9B
330
A
100
AcDbEntity
  8
0
  6
Continuous
 62
     7
100
AcDbLine
 10
1162.504968694995
 20
-444.8326725441278
 30
0.0
 11
1162.504968694995
 21
-454.8326725441278
 31
0.0
  0
LINE
  5
B9C
330
A
100
AcDbEntity
  8
0
  6
Continuous
 62
     7
100
AcDbLine
 10
1174.004968694995
 20
-454.8326725441278
 30
0.0
 11
1174.004968694995
 21
-455.8326725441275
 31
0.0
  0
LINE
  5
B9D
330
A
100
AcDbEntity
  8
0
  6
Continuous
 62
     7
100
AcDbLine
 10
1216.004968694995
 20
-455.8326725441282
 30
0.0
 11
1216.004968694995
 21
-454.8326725441278
 31
0.0
  0
LINE
  5
B9E
330
A
100
AcDbEntity
  8
0
  6
Continuous
 62
     7
100
AcDbLine
 10
1177.504968694994
 20
-435.0737948741318
 30
0.0
 11
1175.651868844598
 21
-434.8326725441278
 31
0.0
  0
LINE
  5
B9F
330
A
100
AcDbEntity
  8
0
  6
Continuous
 62
     7
100
AcDbLine
 10
1039.358068545392
 20
-434.8326725441278
 30
0.0
 11
962.5049686949948
 21
-444.8326725441278
 31
0.0
  0
LINE
  5
BA0
330
A
100
AcDbEntity
  8
0
  6
Continuous
 62
     7
100
AcDbLine
 10
1177.504968694994
 20
-441.2019643430926
 30
0.0
 11
1177.504968694994
 21
-435.0737948741318
 31
0.0
  0
LINE
  5
BA1
330
A
100
AcDbEntity
  8
0
  6
Continuous
 62
     7
100
AcDbLine
 10
900.0049686949948
 20
-444.8326725441278
 30
0.0
 11
900.0049686949948
 21
-454.8326725441278
 31
0.0
  0
LINE
  5
BA2
330
A
100
AcDbEntity
  8
0
  6
Continuous
 62
     7
100
AcDbLine
 10
911.5049686949948
 20
-454.8326725441278
 30
0.0
 11
911.5049686949948
 21
-455.8326725441282
 31
0.0
  0
LINE
  5
BA3
330
A
100
AcDbEntity
  8
0
  6
Continuous
 62
     7
100
AcDbLine
 10
953.5049686949948
 20
-455.832672544127
 30
0.0
 11
953.5049686949948
 21
-454.8326725441278
 31
0.0
  0
LINE
  5
BA4
330
A
100
AcDbEntity
  8
0
  6
Continuous
 62
     7
100
AcDbLine
 10
1016.504968694995
 20
1057.482338974269
 30
0.0
 11
1198.504968694995
 21
1057.482338974269
 31
0.0
  0
LINE
  5
BA5
330
A
100
AcDbEntity
  8
0
  6
Continuous
 62
     7
100
AcDbLine
 10
1016.504968694995
 20
1064.167327455872
 30
0.0
 11
1198.504968694995
 21
1064.167327455872
 31
0.0
  0
LINE
  5
BA6
330
A
100
AcDbEntity
  8
0
  6
Continuous
 62
     7
100
AcDbLine
 10
1041.504968694995
 20
1091.167327455872
 30
0.0
 11
1173.504968694994
 21
1091.167327455872
 31
0.0
  0
LINE
  5
BA7
330
A
100
AcDbEntity
  8
0
  6
Continuous
 62
     7
100
AcDbLine
 10
1208.217124159747
 20
-464.4945818826258
 30
0.0
 11
1211.980832259859
 21
-765.8326725441289
 31
0.0
  0
LINE
  5
BA8
330
A
100
AcDbEntity
  8
0
  6
Continuous
 62
     7
100
AcDbLine
 10
1311.160488827933
 20
-765.8326725441289
 30
0.0
 11
1346.895846601043
 21
-466.6257286374575
 31
0.0
  0
LINE
  5
BA9
330
A
100
AcDbEntity
  8
0
  6
Continuous
 62
     7
100
AcDbLine
 10
1311.160488827935
 20
-765.8326725441282
 30
0.0
 11
1308.049198652555
 21
-765.8326725441282
 31
0.0
  0
LINE
  5
BAA
330
A
100
AcDbEntity
  8
0
  6
Continuous
 62
     7
100
AcDbLine
 10
1211.980832259859
 20
-765.8326725441289
 30
0.0
 11
1307.978975339771
 21
-765.8326725441282
 31
0.0
  0
LINE
  5
BAB
330
A
100
AcDbEntity
  8
0
  6
Continuous
 62
     7
100
AcDbLine
 10
1208.217124159747
 20
-464.4945818826256
 30
0.0
 11
1208.217120597644
 21
-464.4942966858525
 31
0.0
  0
LINE
  5
BAC
330
A
100
AcDbEntity
  8
0
  6
Continuous
 62
     7
100
AcDbLine
 10
1211.980832259859
 20
-765.8326725441289
 30
0.0
 11
1102.709968738158
 21
-765.8326725441282
 31
0.0
  0
LINE
  5
BAD
330
A
100
AcDbEntity
  8
0
  6
Continuous
 62
     7
100
AcDbLine
 10
1346.895976005683
 20
-466.6242518887941
 30
0.0
 11
1346.895846601043
 21
-466.6257286374572
 31
0.0
  0
LWPOLYLINE
  5
BAE
330
A
100
AcDbEntity
  8
0
  6
Continuous
 62
     7
100
AcDbPolyline
 90
       11
 70
   128
 43
0.0
 10
1216.083432715777
 20
-455.8326725441292
 10
1215.249919308931
 20
-455.8879571998136
 10
1214.175353283522
 20
-456.1258871873503
 10
1213.377046654886
 20
-456.431867228258
 10
1212.384400546489
 20
-456.9848616975384
 10
1211.517070330844
 20
-457.653063344551
 10
1210.889058132432
 20
-458.2711103719246
 10
1210.213971888578
 20
-459.1004371074478
 10
1209.612482593191
 20
-460.0410898774621
 10
1209.105406172995
 20
-461.0662435314047
 10
1208.217120597644
 20
-464.4942966858529
  0
LINE
  5
BBB
330
A
100
AcDbEntity
  8
0
  6
Continuous
 62
     7
100
AcDbLine
 10
1216.083432715778
 20
-455.8326725441292
 30
0.0
 11
1304.22990425365
 21
-455.8326725441273
 31
0.0
  0
LINE
  5
BBC
330
A
100
AcDbEntity
  8
0
  6
Continuous
 62
     7
100
AcDbLine
 10
1305.09860835389
 20
-455.8326725441279
 30
0.0
 11
1339.890306156882
 21
-455.8326725441288
 31
0.0
  0
LWPOLYLINE
  5
BBD
330
A
100
AcDbEntity
  8
0
  6
Continuous
 62
     7
100
AcDbPolyline
 90
        7
 70
   128
 43
0.0
 10
1346.895976005683
 20
-466.6242518887941
 10
1346.685196521599
 20
-463.2799613350078
 10
1345.708345225679
 20
-460.2234696073804
 10
1344.075554591637
 20
-457.7993724734469
 10
1341.970908800973
 20
-456.2809681656425
 10
1340.234384683442
 20
-455.8446652302629
 10
1339.890306156915
 20
-455.8326725441288
  0
LINE
  5
BC6
330
A
100
AcDbEntity
  8
0
  6
Continuous
 62
     7
100
AcDbLine
 10
1064.424738915127
 20
-455.8326725441276
 30
0.0
 11
1216.083432715778
 21
-455.8326725441292
 31
0.0
  0
LINE
  5
BC7
330
A
100
AcDbEntity
  8
0
  6
Continuous
 62
     7
100
AcDbLine
 10
1102.676083078089
 20
-765.8326725441276
 30
0.0
 11
1029.153087211629
 21
-765.8326725441273
 31
0.0
  0
LINE
  5
BC8
330
A
100
AcDbEntity
  8
0
  6
Continuous
 62
     7
100
AcDbLine
 10
1064.834005584934
 20
-455.8326725441286
 30
0.0
 11
1042.010391192073
 21
-455.8326725441282
 31
0.0
  0
LWPOLYLINE
  5
BC9
330
A
100
AcDbEntity
  8
0
  6
Continuous
 62
     7
100
AcDbPolyline
 90
        3
 70
   128
 43
0.0
 10
1366.187351257377
 20
-466.4088780131665
 10
1366.24034971685
 20
-466.4206471093727
 10
1366.231380014383
 20
-466.4226455053144
  0
LINE
  5
BCE
330
A
100
AcDbEntity
  8
0
  6
Continuous
 62
     7
100
AcDbLine
 10
1339.890306156882
 20
-455.8326725441288
 30
0.0
 11
1356.259380137263
 21
-455.8326725441288
 31
0.0
  0
LINE
  5
BCF
330
A
100
AcDbEntity
  8
0
  6
Continuous
 62
     7
100
AcDbLine
 10
1311.160488827935
 20
-765.8326725441282
 30
0.0
 11
1389.849637208641
 21
-765.8326725441281
 31
0.0
  0
LINE
  5
BD0
330
A
100
AcDbEntity
  8
0
  6
Continuous
 62
     7
100
AcDbLine
 10
1373.243231350931
 20
-466.5041873305206
 30
0.0
 11
1373.23006846526
 21
-466.5430545425259
 31
0.0
  0
LINE
  5
BD1
330
A
100
AcDbEntity
  8
0
  6
Continuous
 62
     7
100
AcDbLine
 10
1356.609390137263
 20
-455.8326725441276
 30
0.0
 11
1363.244840214253
 21
-455.8326725441292
 31
0.0
  0
LINE
  5
BD2
330
A
100
AcDbEntity
  8
0
  6
Continuous
 62
     7
100
AcDbLine
 10
868.108698939435
 20
-765.8326725441289
 30
0.0
 11
851.8629217287852
 21
-466.6257286374575
 31
0.0
  0
LINE
  5
BD3
330
A
100
AcDbEntity
  8
0
  6
Continuous
 62
     7
100
AcDbLine
 10
851.8628249164876
 20
-466.6242518887941
 30
0.0
 11
851.8629217287852
 21
-466.6257286374572
 31
0.0
  0
LINE
  5
BD4
330
A
100
AcDbEntity
  8
0
  6
Continuous
 62
     7
100
AcDbLine
 10
1032.310598437435
 20
-466.453042603937
 30
0.0
 11
1032.313983835476
 21
-466.4523020043829
 31
0.0
  0
LINE
  5
BD5
330
A
100
AcDbEntity
  8
0
  6
Continuous
 62
     7
100
AcDbLine
 10
1031.23364059171
 20
-483.3151202280554
 30
0.0
 11
1028.354018828933
 21
-617.499897462099
 31
0.0
  0
LINE
  5
BD6
330
A
100
AcDbEntity
  8
0
  6
Continuous
 62
     7
100
AcDbLine
 10
1029.044565332356
 20
-765.8326725441278
 30
0.0
 11
860.6406388359655
 21
-765.8326725441278
 31
0.0
  0
LWPOLYLINE
  5
BD7
330
A
100
AcDbEntity
  8
0
  6
Continuous
 62
     7
100
AcDbPolyline
 90
        7
 70
   128
 43
0.0
 10
851.8628249164876
 20
-466.6242518887941
 10
852.1530000577575
 20
-463.2799613350078
 10
853.4978081837657
 20
-460.2234696073804
 10
855.7456325204041
 20
-457.7993724734469
 10
858.6430487234881
 20
-456.2809681656425
 10
861.033680510317
 20
-455.8446652302629
 10
861.5073653013864
 20
-455.8326725441288
  0
LINE
  5
BE0
330
A
100
AcDbEntity
  8
0
  6
Continuous
 62
     7
100
AcDbLine
 10
861.5073653014032
 20
-455.8326725441288
 30
0.0
 11
1022.461203442039
 21
-455.8326725441279
 31
0.0
  0
LWPOLYLINE
  5
BE1
330
A
100
AcDbEntity
  8
0
  6
Continuous
 62
     7
100
AcDbPolyline
 90
        5
 70
   128
 43
0.0
 10
1031.603772768996
 20
-466.0676817656606
 10
1031.133378917911
 20
-462.745292607833
 10
1029.624575625999
 20
-459.7709821192587
 10
1027.247468920025
 20
-457.4800810322146
 10
1024.528378783132
 20
-456.2479282388864
  0
LWPOLYLINE
  5
BE8
330
A
100
AcDbEntity
  8
0
  6
Continuous
 62
     7
100
AcDbPolyline
 90
        3
 70
   128
 43
0.0
 10
753.0336327142448
 20
-465.4573545561704
 10
752.9891084598399
 20
-465.4561193273187
 10
752.8579715908749
 20
-465.443875497178
  0
LINE
  5
BED
330
A
100
AcDbEntity
  8
0
  6
Continuous
 62
     7
100
AcDbLine
 10
762.8230662653627
 20
-455.8326725441279
 30
0.0
 11
861.5073653014032
 21
-455.8326725441288
 31
0.0
  0
LINE
  5
BEE
330
A
100
AcDbEntity
  8
0
  6
Continuous
 62
     7
100
AcDbLine
 10
860.6500079339349
 20
-765.8326725441281
 30
0.0
 11
732.7890444125539
 21
-765.8326725441289
 31
0.0
  0
LINE
  5
BEF
330
A
100
AcDbEntity
  8
0
  6
Continuous
 62
     7
100
AcDbLine
 10
1022.806188508654
 20
-455.832672544127
 30
0.0
 11
1041.660381192073
 21
-455.8326725441268
 31
0.0
  0
LINE
  5
BF0
330
A
100
AcDbEntity
  8
0
  6
Continuous
 62
     7
100
AcDbLine
 10
1057.504968694995
 20
1091.167327455872
 30
0.0
 11
1056.508329602868
 21
1091.249245219792
 31
0.0
  0
LWPOLYLINE
  5
BF1
330
A
100
AcDbEntity
  8
0
  6
Continuous
 62
     7
100
AcDbPolyline
 90
        8
 70
   128
 43
0.0
 10
1133.504125281297
 20
1091.208389799303
 10
1133.428072938192
 20
1091.232244483382
 10
1133.21148209543
 20
1091.246422974398
 10
1132.887330992011
 20
1091.248559889722
 10
1132.504968694995
 20
1091.238329903366
 10
1132.122606397978
 20
1091.217290438018
 10
1131.79845529456
 20
1091.188644561553
 10
1131.63894329121
 20
1091.167327455872
  0
LINE
  5
BFB
330
A
100
AcDbEntity
  8
0
  6
Continuous
 62
     7
100
AcDbLine
 10
1227.504968694995
 20
-444.8326725441278
 30
0.0
 11
1162.504968694995
 21
-444.8326725441278
 31
0.0
  0
LINE
  5
BFC
330
A
100
AcDbEntity
  8
0
  6
Continuous
 62
     7
100
AcDbLine
 10
1162.504968694995
 20
-454.8326725441278
 30
0.0
 11
1227.504968694995
 21
-454.8326725441278
 31
0.0
  0
LINE
  5
BFD
330
A
100
AcDbEntity
  8
0
  6
Continuous
 62
     7
100
AcDbLine
 10
1127.722012309245
 20
-435.0737948741318
 30
0.0
 11
1127.722012309245
 21
-454.8326725441278
 31
0.0
  0
LINE
  5
BFE
330
A
100
AcDbEntity
  8
0
  6
Continuous
 62
     7
100
AcDbLine
 10
1168.887309403212
 20
-444.8326725441278
 30
0.0
 11
1127.722012309245
 21
-435.0737948741318
 31
0.0
  0
LINE
  5
BFF
330
A
100
AcDbEntity
  8
0
  6
Continuous
 62
     7
100
AcDbLine
 10
1127.722012309245
 20
-454.8326725441278
 30
0.0
 11
1162.504968694995
 21
-454.8326725441278
 31
0.0
  0
LINE
  5
C00
330
A
100
AcDbEntity
  8
0
  6
Continuous
 62
     7
100
AcDbLine
 10
1039.358068545392
 20
-435.0737948741318
 30
0.0
 11
963.0469042684662
 21
-444.8326725441278
 31
0.0
  0
LINE
  5
C01
330
A
100
AcDbEntity
  8
0
  6
Continuous
 62
     7
100
AcDbLine
 10
1177.504968694994
 20
-435.0737948741318
 30
0.0
 11
1155.434825230347
 21
-435.0737948741318
 31
0.0
  0
LINE
  5
C02
330
A
100
AcDbEntity
  8
0
  6
Continuous
 62
     7
100
AcDbLine
 10
1155.434825230347
 20
-435.0737948741318
 30
0.0
 11
1190.580692413304
 21
-444.8326725441278
 31
0.0
  0
LINE
  5
C03
330
A
100
AcDbEntity
  8
0
  6
Continuous
 62
     7
100
AcDbLine
 10
1127.722012309245
 20
-435.0737948741318
 30
0.0
 11
1039.358068545392
 21
-435.0737948741318
 31
0.0
  0
LINE
  5
C04
330
A
100
AcDbEntity
  8
0
  6
Continuous
 62
     7
100
AcDbLine
 10
1175.651868844598
 20
-434.8326725441278
 30
0.0
 11
1039.358068545392
 21
-434.8326725441278
 31
0.0
  0
LINE
  5
C05
330
A
100
AcDbEntity
  8
0
  6
Continuous
 62
     7
100
AcDbLine
 10
1039.358068545392
 20
-435.0737948741318
 30
0.0
 11
1039.358068545392
 21
-454.8326725441278
 31
0.0
  0
LINE
  5
C06
330
A
100
AcDbEntity
  8
0
  6
Continuous
 62
     7
100
AcDbLine
 10
1039.358068545392
 20
-454.8326725441278
 30
0.0
 11
1127.722012309245
 21
-454.8326725441278
 31
0.0
  0
LINE
  5
C07
330
A
100
AcDbEntity
  8
0
  6
Continuous
 62
     7
100
AcDbLine
 10
962.5049686949948
 20
-444.8326725441278
 30
0.0
 11
962.5049686949948
 21
-454.8326725441278
 31
0.0
  0
LINE
  5
C08
330
A
100
AcDbEntity
  8
0
  6
Continuous
 62
     7
100
AcDbLine
 10
962.5049686949948
 20
-444.8326725441278
 30
0.0
 11
900.0049686949948
 21
-444.8326725441278
 31
0.0
  0
LINE
  5
C09
330
A
100
AcDbEntity
  8
0
  6
Continuous
 62
     7
100
AcDbLine
 10
900.0049686949948
 20
-454.8326725441278
 30
0.0
 11
962.5049686949948
 21
-454.8326725441278
 31
0.0
  0
LINE
  5
C0A
330
A
100
AcDbEntity
  8
0
  6
Continuous
 62
     7
100
AcDbLine
 10
963.0469042684662
 20
-444.8326725441278
 30
0.0
 11
962.5049686949948
 21
-444.8326725441278
 31
0.0
  0
LINE
  5
C0B
330
A
100
AcDbEntity
  8
0
  6
Continuous
 62
     7
100
AcDbLine
 10
962.5049686949948
 20
-454.8326725441278
 30
0.0
 11
1039.358068545392
 21
-454.8326725441278
 31
0.0
  0
LWPOLYLINE
  5
C0C
330
A
100
AcDbEntity
  8
0
  6
PHANTOM
 62
     7
100
AcDbPolyline
 90
        9
 70
   128
 43
0.0
 10
1346.895846601043
 20
-466.6257286374575
 10
1346.895803971765
 20
-466.6257282851707
 10
1341.978791273027
 20
-466.5363746462853
 10
1336.565043545216
 20
-466.3791583919647
 10
1330.860451852013
 20
-466.2063019070763
 10
1325.0709072571
 20
-466.0700275764868
 10
1319.603624755518
 20
-465.9932351008737
 10
1314.395956536001
 20
-465.9428404262655
 10
1310.267909953143
 20
-465.9049931303356
  0
LWPOLYLINE
  5
C17
330
A
100
AcDbEntity
  8
0
  6
PHANTOM
 62
     7
100
AcDbPolyline
 90
       28
 70
   128
 43
0.0
 10
1314.253087371068
 20
-466.0491501402459
 10
1314.269517200387
 20
-466.0339874371939
 10
1313.689607487669
 20
-465.9713126336082
 10
1312.68589148541
 20
-465.9163608944263
 10
1311.387634056369
 20
-465.8686313922768
 10
1307.573393532474
 20
-465.7855913778425
 10
1300.98777802881
 20
-465.7022174416218
 10
1294.008510352943
 20
-465.6375362392592
 10
1286.515526707474
 20
-465.5847215901798
 10
1278.388763295001
 20
-465.536947313808
 10
1273.373162440895
 20
-465.5098190797819
 10
1268.122636883644
 20
-465.4831695841113
 10
1262.51985051437
 20
-465.4561193273187
 10
1259.368503695189
 20
-465.4417252682563
 10
1255.995958834729
 20
-465.4327144652663
 10
1252.088144426583
 20
-465.4451135877029
 10
1248.546749222747
 20
-465.493037024743
 10
1247.248212658538
 20
-465.5095664347115
 10
1243.589668053445
 20
-465.5359584978582
 10
1240.343475204906
 20
-465.5313862869177
 10
1236.724284675974
 20
-465.4947850035906
 10
1233.455266322971
 20
-465.4311616503378
 10
1226.923774562758
 20
-465.2458458819337
 10
1220.834370049809
 20
-465.0256523945428
 10
1214.745887210703
 20
-464.7740689778839
 10
1208.217160472017
 20
-464.4945834216744
 10
1208.217124159747
 20
-464.4945818826256
 10
1208.217124159747
 20
-464.4945818826256
  0
LWPOLYLINE
  5
C35
330
A
100
AcDbEntity
  8
0
  6
PHANTOM
 62
     7
100
AcDbPolyline
 90
       34
 70
   128
 43
0.0
 10
1208.217120597644
 20
-464.4942966858527
 10
1208.217084278841
 20
-464.4942951421766
 10
1204.715814597687
 20
-464.3467017782876
 10
1200.878738094028
 20
-464.1945731411452
 10
1196.657340621111
 20
-464.046785337326
 10
1192.106280471061
 20
-463.9215615995704
 10
1187.178263230456
 20
-463.8380437607989
 10
1181.77696292841
 20
-463.8040184284606
 10
1176.209699237814
 20
-463.8286800864038
 10
1170.518383249414
 20
-463.9237582716367
 10
1164.991960083359
 20
-464.0630766355922
 10
1159.634282085651
 20
-464.2207003692275
 10
1154.519934734598
 20
-464.3845799227996
 10
1149.656179434482
 20
-464.5488893559637
 10
1141.495539681356
 20
-464.8445087206753
 10
1133.641035948812
 20
-465.1231129019759
 10
1125.653370766274
 20
-465.3435996892662
 10
1120.669055738765
 20
-465.4284862109943
 10
1115.410497530108
 20
-465.498859935177
 10
1109.832596365714
 20
-465.59441863534
 10
1104.393715361794
 20
-465.7373735971415
 10
1098.772717504002
 20
-465.9030948342135
 10
1093.811573308949
 20
-466.0303793304141
 10
1088.969052098274
 20
-466.1416989701002
 10
1082.084957719493
 20
-466.3031599482685
 10
1075.494922625297
 20
-466.478740274095
 10
1071.327632976222
 20
-466.6136793126904
 10
1067.310019778491
 20
-466.7742626321698
 10
1062.64680455621
 20
-467.0134687042725
 10
1058.635640590842
 20
-467.291766508078
 10
1056.777565863348
 20
-467.4597806068345
 10
1055.437839890482
 20
-467.5971063633815
 10
1054.734106721027
 20
-467.6702311756688
 10
1054.619712395525
 20
-467.6863066363321
  0
LWPOLYLINE
  5
C59
330
A
100
AcDbEntity
  8
0
  6
PHANTOM
 62
     7
100
AcDbPolyline
 90
       10
 70
   128
 43
0.0
 10
1054.451005387169
 20
-466.3272000226676
 10
1051.438783918756
 20
-466.297233031879
 10
1046.280345592023
 20
-466.2236535551158
 10
1041.925556822229
 20
-466.1518538799578
 10
1038.940096939243
 20
-466.096579585074
 10
1037.097084169031
 20
-466.0227794666054
 10
1034.872239084277
 20
-465.8185510236793
 10
1033.160461119025
 20
-465.7259749518543
 10
1032.030006551453
 20
-465.9374781000504
 10
1031.943218625611
 20
-466.0775656056586
  0
LWPOLYLINE
  5
C65
330
A
100
AcDbEntity
  8
0
  6
PHANTOM
 62
     7
100
AcDbPolyline
 90
       11
 70
   128
 43
0.0
 10
1366.231380014383
 20
-466.4226455053144
 10
1366.085752076661
 20
-466.4550905368874
 10
1365.463817161939
 20
-466.4514134040504
 10
1364.387052070614
 20
-466.4260915488746
 10
1362.975516278287
 20
-466.4073274445288
 10
1359.416930708067
 20
-466.4127660516397
 10
1355.565150479928
 20
-466.4864123920051
 10
1351.236579569486
 20
-466.593276194964
 10
1346.896065730891
 20
-466.6242517036224
 10
1346.896023023928
 20
-466.6242514743443
 10
1346.896023023928
 20
-466.6242514743443
  0
LINE
  5
C72
330
A
100
AcDbEntity
  8
0
  6
PHANTOM
 62
     7
100
AcDbLine
 10
1346.896023023928
 20
-466.6242514743443
 30
0.0
 11
1346.895976005683
 21
-466.6242518887941
 31
0.0
  0
LINE
  5
C73
330
A
100
AcDbEntity
  8
0
  6
PHANTOM
 62
     7
100
AcDbLine
 10
1310.313903614464
 20
-465.5337437489735
 30
0.0
 11
1314.270428371098
 21
-465.5927558159613
 31
0.0
  0
LWPOLYLINE
  5
C74
330
A
100
AcDbEntity
  8
0
  6
PHANTOM
 62
     7
100
AcDbPolyline
 90
        8
 70
   128
 43
0.0
 10
1373.23006846526
 20
-466.5430545425259
 10
1373.206150470445
 20
-466.6136793126904
 10
1372.88374340437
 20
-466.7742626321698
 10
1371.942232059278
 20
-467.0134687042725
 10
1370.106746384268
 20
-467.291766508078
 10
1368.470926699749
 20
-467.4597806068345
 10
1366.348452642648
 20
-467.5971063633815
 10
1366.174787106246
 20
-467.6020340023095
  0
LINE
  5
C7E
330
A
100
AcDbEntity
  8
0
  6
PHANTOM
 62
     7
100
AcDbLine
 10
851.862841524554
 20
-466.6242514743443
 30
0.0
 11
851.8628249164876
 21
-466.6242518887941
 31
0.0
  0
LWPOLYLINE
  5
C7F
330
A
100
AcDbEntity
  8
0
  6
PHANTOM
 62
     7
100
AcDbPolyline
 90
       52
 70
   128
 43
0.0
 10
1032.313983835476
 20
-466.4523020043829
 10
1032.331735054245
 20
-466.4484186959676
 10
1031.550861069872
 20
-466.3400743822907
 10
1030.544249123429
 20
-466.2314124541204
 10
1029.068304068631
 20
-466.1136455585532
 10
1027.050198031555
 20
-466.0002917244878
 10
1024.571383231184
 20
-465.9001750242639
 10
1022.506341193536
 20
-465.8331847774612
 10
1020.216311026087
 20
-465.758516221713
 10
1017.484486409005
 20
-465.6536095956695
 10
1014.570975030784
 20
-465.5369214793565
 10
1010.781368720662
 20
-465.4052081162558
 10
1006.957299386391
 20
-465.2970431392054
 10
1003.145988557184
 20
-465.2129021761388
 10
996.1746525695852
 20
-465.1102168246922
 10
989.1837938030718
 20
-465.0596530983903
 10
982.3608700580431
 20
-465.0543337122927
 10
977.6243573826892
 20
-465.0872956347162
 10
973.2180070122334
 20
-465.1776775685577
 10
969.2748535672416
 20
-465.3132528345625
 10
965.8284405054279
 20
-465.4499091972597
 10
962.7897716465103
 20
-465.5646480395654
 10
957.0376101723315
 20
-465.7172538099358
 10
952.6985931688697
 20
-465.7683686200959
 10
949.403309064767
 20
-465.7364652932217
 10
945.5287669377485
 20
-465.6118156050454
 10
942.8286958869271
 20
-465.4775364412948
 10
939.894910109488
 20
-465.3357916880656
 10
936.4997748696426
 20
-465.2238048802447
 10
933.0473869392877
 20
-465.1523556652952
 10
928.1394445816895
 20
-465.0854548972918
 10
923.3865643134558
 20
-465.0394519104195
 10
917.3161755050891
 20
-464.9788977333352
 10
911.5802544022537
 20
-464.9300325971597
 10
906.0054886046133
 20
-464.9286630182718
 10
900.418565711833
 20
-465.010595513051
 10
894.1015465180022
 20
-465.2310150240912
 10
887.4418440513187
 20
-465.5478573227838
 10
880.5642037828523
 20
-465.8836705143629
 10
874.8943980890343
 20
-466.1215303268419
 10
869.2666581804365
 20
-466.3118732470001
 10
865.1429736912129
 20
-466.4206471093727
 10
862.9252917844189
 20
-466.4550905368874
 10
861.0076282661047
 20
-466.4514134040504
 10
859.5446104371751
 20
-466.4260915488746
 10
858.4047011304619
 20
-466.4073274445288
 10
856.6649121120402
 20
-466.4127660516397
 10
855.2927243508838
 20
-466.4864123920051
 10
853.5699811059668
 20
-466.593276194964
 10
851.8628566682927
 20
-466.6242517036224
 10
851.862841524554
 20
-466.6242514743443
 10
851.862841524554
 20
-466.6242514743443
  0
LWPOLYLINE
  5
CB5
330
A
100
AcDbEntity
  8
0
  6
PHANTOM
 62
     7
100
AcDbPolyline
 90
       34
 70
   128
 43
0.0
 10
851.8629217287852
 20
-466.6257286374575
 10
851.8629064788864
 20
-466.6257282851707
 10
850.6957144369057
 20
-466.5363746462853
 10
850.2999903276165
 20
-466.3791583919647
 10
850.3977895059488
 20
-466.2063019070763
 10
850.7111673268324
 20
-466.0700275764868
 10
850.8417797934178
 20
-465.9932351008737
 10
850.4622122086962
 20
-465.9428404262655
 10
849.3609245000369
 20
-465.899333019617
 10
847.2332000597022
 20
-465.8453701743077
 10
844.1074502340095
 20
-465.7932042620505
 10
841.2094291755082
 20
-465.7665935130512
 10
837.7150966137529
 20
-465.7614116661952
 10
833.6567353067687
 20
-465.7772029322497
 10
829.227632615121
 20
-465.8025780785061
 10
823.4971336257792
 20
-465.8437209019155
 10
817.6240482738659
 20
-465.8931779011665
 10
811.6819203958629
 20
-465.9481810892764
 10
805.744293828252
 20
-466.0059624792629
 10
798.5339215132074
 20
-466.0679474030433
 10
794.0934434160311
 20
-466.0897238857235
 10
789.8247291004529
 20
-466.0786550966036
 10
786.891798440559
 20
-466.0339874371939
 10
784.3144134252335
 20
-465.9713126336082
 10
782.2678544330825
 20
-465.9163608944263
 10
780.4664380145062
 20
-465.8686313922768
 10
776.6534635705928
 20
-465.7855913778425
 10
771.0243249698393
 20
-465.7022174416218
 10
765.8022789159974
 20
-465.6375362392592
 10
761.1836089413863
 20
-465.5847215901798
 10
757.3645985783246
 20
-465.536947313808
 10
755.4999417147414
 20
-465.5098190797819
 10
753.9641443923296
 20
-465.4831695841113
 10
753.0336327142448
 20
-465.4573545561704
  0
ENDSEC
  0
SECTION
  2
OBJECTS
  0
DICTIONARY
  5
19
330
0
100
AcDbDictionary
281
     1
  3
ACAD_COLOR
350
CDD
  3
ACAD_GROUP
350
1A
  3
ACAD_LAYOUT
350
CDE
  3
ACAD_MATERIAL
350
CDC
  3
ACAD_MLINESTYLE
350
1B
  3
ACAD_PLOTSETTINGS
350
CDF
  3
ACAD_PLOTSTYLENAME
350
CDA
  3
ACDBHEADERROUNDTRIPXREC
350
CF7
  3
AcDbVariableDictionary
350
CF0
  3
ASE_INDEX_DICTIONARY
350
CE5
  0
DICTIONARY
  5
CDD
102
{ACAD_REACTORS
330
19
102
}
330
19
100
AcDbDictionary
281
     1
  0
DICTIONARY
  5
1A
102
{ACAD_REACTORS
330
19
102
}
330
19
100
AcDbDictionary
281
     1
  0
DICTIONARY
  5
CDE
102
{ACAD_REACTORS
330
19
102
}
330
19
100
AcDbDictionary
281
     1
  3
Layout1
350
CE1
  3
Model
350
CE0
  0
DICTIONARY
  5
CDC
102
{ACAD_REACTORS
330
19
102
}
330
19
100
AcDbDictionary
281
     1
  0
DICTIONARY
  5
1B
102
{ACAD_REACTORS
330
19
102
}
330
19
100
AcDbDictionary
281
     1
  3
STANDARD
350
1C
  0
DICTIONARY
  5
CDF
102
{ACAD_REACTORS
330
19
102
}
330
19
100
AcDbDictionary
281
     1
  0
ACDBDICTIONARYWDFLT
  5
CDA
102
{ACAD_REACTORS
330
19
102
}
330
19
100
AcDbDictionary
281
     1
  3
Normal
350
CDB
100
AcDbDictionaryWithDefault
340
CDB
  0
DICTIONARY
  5
CF7
102
{ACAD_REACTORS
330
19
102
}
330
19
100
AcDbDictionary
281
     1
  3
COLORDICT
350
CF9
  3
MATERIALDICT
350
CF8
  0
DICTIONARY
  5
CF0
102
{ACAD_REACTORS
330
19
102
}
330
19
100
AcDbDictionary
281
     1
  3
DIMASSOC
350
CF1
  3
PROJECTNAME
350
CF2
  0
DICTIONARY
  5
CE5
102
{ACAD_REACTORS
330
19
102
}
330
19
100
AcDbDictionary
281
     1
  3
ASEBlockHierarchyIndexRecord
350
CE7
1001
DCO15
1040
1521898728.828
  0
LAYOUT
  5
CE1
102
{ACAD_XDICTIONARY
360
CFC
102
}
102
{ACAD_REACTORS
330
CDE
102
}
330
CDE
100
AcDbPlotSettings
  1

  2
ProgeSOFT PDF Wizard
  4

  6

 40
0.0
 41
0.0
 42
0.0
 43
0.0
 44
0.0
 45
0.0
 46
0.0
 47
0.0
 48
0.0
 49
0.0
140
0.0
141
0.0
142
1.0
143
1.0
 70
   688
 72
     0
 73
     0
 74
     5
  7

 75
    16
147
1.0
148
0.0
149
0.0
100
AcDbLayout
  1
Layout1
 70
     1
 71
     1
 10
0.0
 20
0.0
 11
12.0
 21
9.0
 12
0.0
 22
0.0
 32
0.0
 14
1.000000000000000E+20
 24
1.000000000000000E+20
 34
1.000000000000000E+20
 15
-1.000000000000000E+20
 25
-1.000000000000000E+20
 35
-1.000000000000000E+20
146
0.0
 13
0.0
 23
0.0
 33
0.0
 16
1.0
 26
0.0
 36
0.0
 17
0.0
 27
1.0
 37
0.0
 76
     0
330
B
  0
LAYOUT
  5
CE0
102
{ACAD_XDICTIONARY
360
CFA
102
}
102
{ACAD_REACTORS
330
CDE
102
}
330
CDE
100
AcDbPlotSettings
  1

  2
ProgeSOFT PDF Wizard
  4

  6

 40
0.0
 41
0.0
 42
0.0
 43
0.0
 44
0.0
 45
0.0
 46
0.0
 47
0.0
 48
0.0
 49
0.0
140
0.0
141
0.0
142
1.0
143
1.0
 70
  1712
 72
     0
 73
     0
 74
     0
  7

 75
     0
147
1.0
148
0.0
149
0.0
100
AcDbLayout
  1
Model
 70
     1
 71
     0
 10
0.0
 20
0.0
 11
12.0
 21
9.0
 12
0.0
 22
0.0
 32
0.0
 14
0.0
 24
0.0
 34
0.0
 15
0.0
 25
0.0
 35
0.0
146
0.0
 13
0.0
 23
0.0
 33
0.0
 16
1.0
 26
0.0
 36
0.0
 17
0.0
 27
1.0
 37
0.0
 76
     0
330
A
  0
MLINESTYLE
  5
1C
102
{ACAD_REACTORS
330
1B
102
}
330
1B
100
AcDbMlineStyle
  2
STANDARD
 70
     0
  3

 62
     0
 51
90.0
 52
90.0
 71
     2
 49
0.5
 62
   256
  6
BYLAYER
 49
-0.5
 62
   256
  6
BYLAYER
  0
ACDBPLACEHOLDER
  5
CDB
102
{ACAD_REACTORS
330
CDA
102
}
330
CDA
  0
XRECORD
  5
CF9
102
{ACAD_REACTORS
330
CF7
102
}
330
CF7
100
AcDbXrecord
280
     1
340
CDD
  0
XRECORD
  5
CF8
102
{ACAD_REACTORS
330
CF7
102
}
330
CF7
100
AcDbXrecord
280
     1
340
CDC
  0
DICTIONARYVAR
  5
CF1
102
{ACAD_REACTORS
330
CF0
102
}
330
CF0
100
DictionaryVariables
280
     0
  1
1
  0
DICTIONARYVAR
  5
CF2
102
{ACAD_REACTORS
330
CF0
102
}
330
CF0
100
DictionaryVariables
280
     0
  1

  0
XRECORD
  5
CE7
102
{ACAD_REACTORS
330
CE5
102
}
330
CE5
100
AcDbXrecord
280
     1
  0
DICTIONARY
  5
CFC
330
CE1
100
AcDbDictionary
280
     1
281
     1
  3
ACAD_XREC_ROUNDTRIP
360
CFD
  0
DICTIONARY
  5
CFA
330
CE0
100
AcDbDictionary
280
     1
281
     1
  3
ACAD_XREC_ROUNDTRIP
360
CFB
  0
XRECORD
  5
CFD
102
{ACAD_REACTORS
330
CFC
102
}
330
CFC
100
AcDbXrecord
280
     1
102
SHADEPLOT
 70
     0
102
SHADEPLOTRESLEVEL
 70
     2
102
SHADEPLOTCUSTOMDPI
 70
   300
  0
XRECORD
  5
CFB
102
{ACAD_REACTORS
330
CFA
102
}
330
CFA
100
AcDbXrecord
280
     1
102
SHADEPLOT
 70
     0
102
SHADEPLOTRESLEVEL
 70
     2
102
SHADEPLOTCUSTOMDPI
 70
   300
  0
ENDSEC
  0
EOF
