  0
SECTION
  2
HEADER
  9
$ACADVER
  1
AC1015
  9
$ACADMAINTVER
 70
    20
  9
$DWGCODEPAGE
  3
ANSI_1252
  9
$INSBASE
 10
0.0
 20
0.0
 30
0.0
  9
$EXTMIN
 10
-160.2281593514146
 20
-1451.782053614157
 30
0.0
  9
$EXTMAX
 10
905.8831532007348
 20
1073.17127187604
 30
0.0
  9
$LIMMIN
 10
0.0
 20
0.0
  9
$LIMMAX
 10
0.0
 20
0.0
  9
$ORTHOMODE
 70
     0
  9
$REGENMODE
 70
     1
  9
$FILLMODE
 70
     1
  9
$QTEXTMODE
 70
     0
  9
$MIRRTEXT
 70
     1
  9
$LTSCALE
 40
1.0
  9
$ATTMODE
 70
     1
  9
$TEXTSIZE
 40
0.0
  9
$TRACEWID
 40
0.05
  9
$TEXTSTYLE
  7
STANDARD
  9
$CLAYER
  8
0
  9
$CELTYPE
  6
CONTINUOUS
  9
$CECOLOR
 62
   256
  9
$CELTSCALE
 40
1.0
  9
$DISPSILH
 70
     0
  9
$DIMSCALE
 40
1.0
  9
$DIMASZ
 40
6.0
  9
$DIMEXO
 40
1.0
  9
$DIMDLI
 40
0.38
  9
$DIMRND
 40
0.0
  9
$DIMDLE
 40
1.0
  9
$DIMEXE
 40
0.18
  9
$DIMTP
 40
0.0
  9
$DIMTM
 40
0.0
  9
$DIMTXT
 40
3.5
  9
$DIMCEN
 40
0.09
  9
$DIMTSZ
 40
0.0
  9
$DIMTOL
 70
     0
  9
$DIMLIM
 70
     0
  9
$DIMTIH
 70
     1
  9
$DIMTOH
 70
     1
  9
$DIMSE1
 70
     0
  9
$DIMSE2
 70
     0
  9
$DIMTAD
 70
     1
  9
$DIMZIN
 70
     0
  9
$DIMBLK
  1

  9
$DIMASO
 70
     1
  9
$DIMSHO
 70
     1
  9
$DIMPOST
  1

  9
$DIMAPOST
  1

  9
$DIMALT
 70
     0
  9
$DIMALTD
 70
     2
  9
$DIMALTF
 40
0.0394
  9
$DIMLFAC
 40
1.0
  9
$DIMTOFL
 70
     0
  9
$DIMTVP
 40
0.0
  9
$DIMTIX
 70
     0
  9
$DIMSOXD
 70
     0
  9
$DIMSAH
 70
     0
  9
$DIMBLK1
  1

  9
$DIMBLK2
  1

  9
$DIMSTYLE
  2
STANDARD
  9
$DIMCLRD
 70
     0
  9
$DIMCLRE
 70
     0
  9
$DIMCLRT
 70
     0
  9
$DIMTFAC
 40
1.0
  9
$DIMGAP
 40
1.0
  9
$DIMJUST
 70
     0
  9
$DIMSD1
 70
     0
  9
$DIMSD2
 70
     0
  9
$DIMTOLJ
 70
     1
  9
$DIMTZIN
 70
     0
  9
$DIMALTZ
 70
     0
  9
$DIMALTTZ
 70
     0
  9
$DIMUPT
 70
     0
  9
$DIMDEC
 70
     4
  9
$DIMTDEC
 70
     4
  9
$DIMALTU
 70
     2
  9
$DIMALTTD
 70
     2
  9
$DIMTXSTY
  7
STANDARD
  9
$DIMAUNIT
 70
     0
  9
$DIMADEC
 70
     0
  9
$DIMALTRND
 40
0.0
  9
$DIMAZIN
 70
     0
  9
$DIMDSEP
 70
    46
  9
$DIMATFIT
 70
     3
  9
$DIMFRAC
 70
     0
  9
$DIMLDRBLK
  1

  9
$DIMLUNIT
 70
     2
  9
$DIMLWD
 70
    -2
  9
$DIMLWE
 70
    -2
  9
$DIMTMOVE
 70
     0
  9
$LUNITS
 70
     2
  9
$LUPREC
 70
     2
  9
$SKETCHINC
 40
0.1
  9
$FILLETRAD
 40
0.0
  9
$AUNITS
 70
     0
  9
$AUPREC
 70
     2
  9
$MENU
  1
acad
  9
$ELEVATION
 40
0.0
  9
$PELEVATION
 40
0.0
  9
$THICKNESS
 40
0.0
  9
$LIMCHECK
 70
     0
  9
$CHAMFERA
 40
0.0
  9
$CHAMFERB
 40
0.0
  9
$CHAMFERC
 40
0.0
  9
$CHAMFERD
 40
0.0
  9
$SKPOLY
 70
     0
  9
$TDCREATE
 40
2444972.041666667
  9
$TDUCREATE
 40
2444972.000000000
  9
$TDUPDATE
 40
2453768.759549688
  9
$TDUUPDATE
 40
2453768.717883021
  9
$TDINDWG
 40
0.0020057523
  9
$TDUSRTIMER
 40
0.0020057523
  9
$USRTIMER
 70
     1
  9
$ANGBASE
 50
0.0
  9
$ANGDIR
 70
     0
  9
$PDMODE
 70
     0
  9
$PDSIZE
 40
-1.0
  9
$PLINEWID
 40
0.0
  9
$SPLFRAME
 70
     0
  9
$SPLINETYPE
 70
     6
  9
$SPLINESEGS
 70
     8
  9
$HANDSEED
  5
642
  9
$SURFTAB1
 70
     6
  9
$SURFTAB2
 70
     6
  9
$SURFTYPE
 70
     6
  9
$SURFU
 70
     6
  9
$SURFV
 70
     6
  9
$UCSBASE
  2

  9
$UCSNAME
  2

  9
$UCSORG
 10
0.0
 20
0.0
 30
0.0
  9
$UCSXDIR
 10
1.0
 20
0.0
 30
0.0
  9
$UCSYDIR
 10
0.0
 20
1.0
 30
0.0
  9
$UCSORTHOREF
  2

  9
$UCSORTHOVIEW
 70
     1
  9
$UCSORGTOP
 10
0.0
 20
0.0
 30
0.0
  9
$UCSORGBOTTOM
 10
0.0
 20
0.0
 30
0.0
  9
$UCSORGLEFT
 10
0.0
 20
0.0
 30
0.0
  9
$UCSORGRIGHT
 10
0.0
 20
0.0
 30
0.0
  9
$UCSORGFRONT
 10
0.0
 20
0.0
 30
0.0
  9
$UCSORGBACK
 10
0.0
 20
0.0
 30
0.0
  9
$PUCSBASE
  2

  9
$PUCSNAME
  2

  9
$PUCSORG
 10
0.0
 20
0.0
 30
0.0
  9
$PUCSXDIR
 10
1.0
 20
0.0
 30
0.0
  9
$PUCSYDIR
 10
0.0
 20
1.0
 30
0.0
  9
$PUCSORTHOREF
  2

  9
$PUCSORTHOVIEW
 70
     0
  9
$PUCSORGTOP
 10
0.0
 20
0.0
 30
0.0
  9
$PUCSORGBOTTOM
 10
0.0
 20
0.0
 30
0.0
  9
$PUCSORGLEFT
 10
0.0
 20
0.0
 30
0.0
  9
$PUCSORGRIGHT
 10
0.0
 20
0.0
 30
0.0
  9
$PUCSORGFRONT
 10
0.0
 20
0.0
 30
0.0
  9
$PUCSORGBACK
 10
0.0
 20
0.0
 30
0.0
  9
$USERI1
 70
     0
  9
$USERI2
 70
     0
  9
$USERI3
 70
     0
  9
$USERI4
 70
     0
  9
$USERI5
 70
     0
  9
$USERR1
 40
0.0
  9
$USERR2
 40
0.0
  9
$USERR3
 40
0.0
  9
$USERR4
 40
0.0
  9
$USERR5
 40
0.0
  9
$WORLDVIEW
 70
     1
  9
$SHADEDGE
 70
     3
  9
$SHADEDIF
 70
    70
  9
$TILEMODE
 70
     1
  9
$MAXACTVP
 70
    16
  9
$PINSBASE
 10
0.0
 20
0.0
 30
0.0
  9
$PLIMCHECK
 70
     0
  9
$PEXTMIN
 10
1.000000000000000E+20
 20
1.000000000000000E+20
 30
1.000000000000000E+20
  9
$PEXTMAX
 10
-1.000000000000000E+20
 20
-1.000000000000000E+20
 30
-1.000000000000000E+20
  9
$PLIMMIN
 10
0.0
 20
0.0
  9
$PLIMMAX
 10
12.0
 20
9.0
  9
$UNITMODE
 70
     0
  9
$VISRETAIN
 70
     0
  9
$PLINEGEN
 70
     1
  9
$PSLTSCALE
 70
     1
  9
$TREEDEPTH
 70
  3020
  9
$CMLSTYLE
  2
STANDARD
  9
$CMLJUST
 70
     0
  9
$CMLSCALE
 40
1.0
  9
$PROXYGRAPHICS
 70
     0
  9
$MEASUREMENT
 70
     0
  9
$CELWEIGHT
370
    -1
  9
$ENDCAPS
280
     0
  9
$JOINSTYLE
280
     0
  9
$LWDISPLAY
290
     0
  9
$INSUNITS
 70
     0
  9
$HYPERLINKBASE
  1

  9
$STYLESHEET
  1

  9
$XEDIT
290
     1
  9
$CEPSNTYPE
380
     0
  9
$PSTYLEMODE
290
     1
  9
$FINGERPRINTGUID
  2
{DC816741-0FDE-48A6-B8D1-B8E03A29A628}
  9
$VERSIONGUID
  2
{FD441576-FC1D-44A8-8951-319A49E0B3E1}
  9
$EXTNAMES
290
     1
  9
$PSVPSCALE
 40
0.0
  9
$OLESTARTUP
290
     0
  0
ENDSEC
  0
SECTION
  2
CLASSES
  0
CLASS
  1
IMAGE
  2
AcDbRasterImage
  3
ISM
 90
    32895
280
     0
281
     1
  0
CLASS
  1
DICTIONARYVAR
  2
AcDbDictionaryVar
  3
ObjectDBX Classes
 90
        0
280
     0
281
     0
  0
CLASS
  1
RASTERVARIABLES
  2
AcDbRasterVariables
  3
ISM
 90
    32768
280
     0
281
     0
  0
CLASS
  1
IMAGEDEF
  2
AcDbRasterImageDef
  3
ISM
 90
    32768
280
     0
281
     0
  0
CLASS
  1
IMAGEDEF_REACTOR
  2
AcDbRasterImageDefReactor
  3
ISM
 90
    32769
280
     0
281
     0
  0
CLASS
  1
IDBUFFER
  2
AcDbIdBuffer
  3
ObjectDBX Classes
 90
    32768
280
     0
281
     0
  0
CLASS
  1
SPATIAL_FILTER
  2
AcDbSpatialFilter
  3
ObjectDBX Classes
 90
    32768
280
     0
281
     0
  0
CLASS
  1
SORTENTSTABLE
  2
AcDbSortentsTable
  3
ObjectDBX Classes
 90
    32768
280
     0
281
     0
  0
CLASS
  1
LAYER_INDEX
  2
AcDbLayerIndex
  3
ObjectDBX Classes
 90
    32768
280
     0
281
     0
  0
CLASS
  1
SPATIAL_INDEX
  2
AcDbSpatialIndex
  3
ObjectDBX Classes
 90
    32768
280
     0
281
     0
  0
CLASS
  1
OBJECT_PTR
  2
CAseDLPNTableRecord
  3
ASE-LPNTableRecord
 90
    32769
280
     0
281
     0
  0
CLASS
  1
LAYOUT
  2
AcDbLayout
  3
ObjectDBX Classes
 90
        0
280
     0
281
     0
  0
CLASS
  1
PLOTSETTINGS
  2
AcDbPlotSettings
  3
ObjectDBX Classes
 90
    32768
280
     0
281
     0
  0
CLASS
  1
ACDBDICTIONARYWDFLT
  2
AcDbDictionaryWithDefault
  3
ObjectDBX Classes
 90
        0
280
     0
281
     0
  0
CLASS
  1
ACDBPLACEHOLDER
  2
AcDbPlaceHolder
  3
ObjectDBX Classes
 90
        0
280
     0
281
     0
  0
CLASS
  1
VBA_PROJECT
  2
AcDbVbaProject
  3
acad
 90
    32768
280
     0
281
     0
  0
CLASS
  1
WIPEOUT
  2
AcDbWipeout
  3
"WipeOut|Product Desc: Object Enabler for WipeOut entity^I^I^I^I^I^I|Company: Autodesk, Inc.^I^I^I^I^I^I|WEB Address: www.autodesk.com"
 90
    32895
280
     0
281
     1
  0
CLASS
  1
WIPEOUTVARIABLES
  2
AcDbWipeoutVariables
  3
"WipeOut|Product Desc:     WipeOut Dbx Application|Company:          Autodesk, Inc.|WEB Address:      www.autodesk.com"
 90
    32768
280
     0
281
     0
  0
CLASS
  1
RTEXT
  2
RText
  3
RText|AutoCAD Express Tool|expresstools@autodesk.com
 90
    32768
280
     0
281
     1
  0
CLASS
  1
ARCALIGNEDTEXT
  2
AcDbArcAlignedText
  3
ATEXT|AutoCAD Express Tool|expresstools@autodesk.com
 90
    32768
280
     0
281
     1
  0
ENDSEC
  0
SECTION
  2
TABLES
  0
TABLE
  2
VPORT
  5
7
330
0
100
AcDbSymbolTable
 70
     2
  0
VPORT
  5
63A
330
7
100
AcDbSymbolTableRecord
100
AcDbViewportTableRecord
  2
*Active
 70
     0
 10
0.0
 20
0.0
 11
1.0
 21
1.0
 12
508.0448905760297
 22
-189.3053908690583
 13
0.0
 23
0.0
 14
1.0
 24
1.0
 15
0.0
 25
0.0
 16
0.0
 26
0.0
 36
1.0
 17
0.0
 27
0.0
 37
0.0
 40
2546.620002247435
 41
1.569570871261378
 42
50.0
 43
0.0
 44
0.0
 50
0.0
 51
0.0
 71
     0
 72
  2000
 73
     1
 74
     1
 75
     0
 76
     0
 77
     0
 78
     0
281
     0
 65
     1
110
0.0
120
0.0
130
0.0
111
1.0
121
0.0
131
0.0
112
0.0
122
1.0
132
0.0
 79
     1
146
0.0
  0
ENDTAB
  0
TABLE
  2
LTYPE
  5
4
330
0
100
AcDbSymbolTable
 70
     6
  0
LTYPE
  5
11
330
4
100
AcDbSymbolTableRecord
100
AcDbLinetypeTableRecord
  2
BYBLOCK
 70
     0
  3

 72
    65
 73
     0
 40
0.0
  0
LTYPE
  5
12
330
4
100
AcDbSymbolTableRecord
100
AcDbLinetypeTableRecord
  2
BYLAYER
 70
     0
  3

 72
    65
 73
     0
 40
0.0
  0
LTYPE
  5
13
330
4
100
AcDbSymbolTableRecord
100
AcDbLinetypeTableRecord
  2
CONTINUOUS
 70
     0
  3
Solid line
 72
    65
 73
     0
 40
0.0
  0
LTYPE
  5
1E
330
4
100
AcDbSymbolTableRecord
100
AcDbLinetypeTableRecord
  2
HIDDEN
 70
     0
  3
Hidden __ __ __ __ __ __ __ __ __ __ __ __ __ __
 72
    65
 73
     2
 40
1.905
 49
1.27
 74
     0
 49
-0.635
 74
     0
  0
LTYPE
  5
1F
330
4
100
AcDbSymbolTableRecord
100
AcDbLinetypeTableRecord
  2
PHANTOM
 70
     0
  3
Phantom ______  __  __  ______  __  __  ______
 72
    65
 73
     6
 40
12.7
 49
6.349999999999999
 74
     0
 49
-1.27
 74
     0
 49
1.27
 74
     0
 49
-1.27
 74
     0
 49
1.27
 74
     0
 49
-1.27
 74
     0
  0
LTYPE
  5
20
330
4
100
AcDbSymbolTableRecord
100
AcDbLinetypeTableRecord
  2
CENTER
 70
     0
  3
Center ____ _ ____ _ ____ _ ____ _ ____ _ ____
 72
    65
 73
     4
 40
10.16
 49
6.349999999999999
 74
     0
 49
-1.27
 74
     0
 49
1.27
 74
     0
 49
-1.27
 74
     0
  0
LTYPE
  5
21
330
4
100
AcDbSymbolTableRecord
100
AcDbLinetypeTableRecord
  2
CENTERX2
 70
     0
  3
Center (2x) ________  __  ________  __  _____
 72
    65
 73
     4
 40
20.32
 49
12.7
 74
     0
 49
-2.54
 74
     0
 49
2.54
 74
     0
 49
-2.54
 74
     0
  0
LTYPE
  5
22
330
4
100
AcDbSymbolTableRecord
100
AcDbLinetypeTableRecord
  2
DOT2
 70
     0
  3
Dot (.5x) ........................................
 72
    65
 73
     2
 40
0.635
 49
0.0
 74
     0
 49
-0.635
 74
     0
  0
ENDTAB
  0
TABLE
  2
LAYER
  5
2
330
0
100
AcDbSymbolTable
 70
     2
  0
LAYER
  5
14
330
2
100
AcDbSymbolTableRecord
100
AcDbLayerTableRecord
  2
0
 70
     0
 62
     7
  6
CONTINUOUS
370
    -3
390
61F
  0
LAYER
  5
26
330
2
100
AcDbSymbolTableRecord
100
AcDbLayerTableRecord
  2
DEFPOINTS
 70
     0
 62
     7
  6
CONTINUOUS
290
     0
370
    -3
390
61F
  0
ENDTAB
  0
TABLE
  2
STYLE
  5
3
330
0
100
AcDbSymbolTable
 70
     1
  0
STYLE
  5
17
330
3
100
AcDbSymbolTableRecord
100
AcDbTextStyleTableRecord
  2
STANDARD
 70
     0
 40
0.0
 41
1.0
 50
0.0
 71
     0
 42
0.0
  3
Century Gothic
  4

  0
ENDTAB
  0
TABLE
  2
VIEW
  5
5
330
0
100
AcDbSymbolTable
 70
     0
  0
ENDTAB
  0
TABLE
  2
UCS
  5
6
330
0
100
AcDbSymbolTable
 70
     0
  0
ENDTAB
  0
TABLE
  2
APPID
  5
8
330
0
100
AcDbSymbolTable
 70
     2
  0
APPID
  5
16
330
8
100
AcDbSymbolTableRecord
100
AcDbRegAppTableRecord
  2
ACAD
 70
     0
  0
APPID
  5
62A
330
8
100
AcDbSymbolTableRecord
100
AcDbRegAppTableRecord
  2
DCO15
 70
     0
  0
ENDTAB
  0
TABLE
  2
DIMSTYLE
  5
9
330
0
100
AcDbSymbolTable
 70
     1
100
AcDbDimStyleTable
 71
     0
  0
DIMSTYLE
105
18
330
9
100
AcDbSymbolTableRecord
100
AcDbDimStyleTableRecord
  2
STANDARD
 70
     0
289
     0
340
17
  0
ENDTAB
  0
TABLE
  2
BLOCK_RECORD
  5
1
330
0
100
AcDbSymbolTable
 70
     0
  0
BLOCK_RECORD
  5
A
330
1
100
AcDbSymbolTableRecord
100
AcDbBlockTableRecord
  2
*MODEL_SPACE
340
624
  0
BLOCK_RECORD
  5
B
330
1
100
AcDbSymbolTableRecord
100
AcDbBlockTableRecord
  2
*PAPER_SPACE
340
625
  0
ENDTAB
  0
ENDSEC
  0
SECTION
  2
BLOCKS
  0
BLOCK
  5
D
330
A
100
AcDbEntity
  8
0
100
AcDbBlockBegin
  2
*MODEL_SPACE
 70
     0
 10
0.0
 20
0.0
 30
0.0
  3
*MODEL_SPACE
  1

  0
ENDBLK
  5
E
330
A
100
AcDbEntity
  8
0
100
AcDbBlockEnd
  0
BLOCK
  5
F
330
B
100
AcDbEntity
 67
     1
  8
0
100
AcDbBlockBegin
  2
*PAPER_SPACE
 70
     0
 10
0.0
 20
0.0
 30
0.0
  3
*PAPER_SPACE
  1

  0
ENDBLK
  5
10
330
B
100
AcDbEntity
 67
     1
  8
0
100
AcDbBlockEnd
  0
ENDSEC
  0
SECTION
  2
ENTITIES
  0
ARC
  5
27
330
A
100
AcDbEntity
  8
0
  6
Continuous
 62
     7
100
AcDbCircle
 10
54.21389757078237
 20
1273.409347669852
 30
0.0
 40
250.9999999999999
100
AcDbArc
 50
248.7431291678446
 51
259.7521966040114
  0
ARC
  5
28
330
A
100
AcDbEntity
  8
0
  6
Continuous
 62
     7
100
AcDbCircle
 10
54.21389757078237
 20
1273.409347669852
 30
0.0
 40
250.9999999999999
100
AcDbArc
 50
260.2151998237361
 51
279.7848001762655
  0
ARC
  5
29
330
A
100
AcDbEntity
  8
0
  6
Continuous
 62
     7
100
AcDbCircle
 10
54.21389757078237
 20
1273.409347669852
 30
0.0
 40
250.9999999999999
100
AcDbArc
 50
280.2478033959902
 51
291.256870832157
  0
LINE
  5
2A
330
A
100
AcDbEntity
  8
0
  6
Continuous
 62
     7
100
AcDbLine
 10
-36.78610242921759
 20
1046.17127187604
 30
0.0
 11
-36.78610242921759
 21
1039.486283394437
 31
0.0
  0
LINE
  5
2B
330
A
100
AcDbEntity
  8
0
  6
Continuous
 62
     7
100
AcDbLine
 10
145.2138975707823
 20
1039.486283394437
 30
0.0
 11
145.2138975707824
 21
1046.17127187604
 31
0.0
  0
LINE
  5
2C
330
A
100
AcDbEntity
  8
0
  6
Continuous
 62
     7
100
AcDbLine
 10
-11.78610242921759
 20
1073.17127187604
 30
0.0
 11
-11.78610242921759
 21
1046.17127187604
 31
0.0
  0
LINE
  5
2D
330
A
100
AcDbEntity
  8
0
  6
Continuous
 62
     7
100
AcDbLine
 10
120.2138975707824
 20
1046.17127187604
 30
0.0
 11
120.2138975707824
 21
1073.17127187604
 31
0.0
  0
LINE
  5
2E
330
A
100
AcDbEntity
  8
0
  6
Continuous
 62
     7
100
AcDbLine
 10
118.1036250281242
 20
-427.8287281239595
 30
0.0
 11
118.1036250281242
 21
-417.8287281239595
 31
0.0
  0
LINE
  5
2F
330
A
100
AcDbEntity
  8
0
  6
Continuous
 62
     7
100
AcDbLine
 10
-9.675829886559448
 20
-417.8287281239595
 30
0.0
 11
-9.675829886559448
 21
-427.8287281239595
 31
0.0
  0
LINE
  5
30
330
A
100
AcDbEntity
  8
0
  6
Continuous
 62
     7
100
AcDbLine
 10
96.86114509493151
 20
1027.34789492921
 30
0.0
 11
107.7734695018751
 21
-417.8287281239595
 31
0.0
  0
LINE
  5
31
330
A
100
AcDbEntity
  8
0
  6
Continuous
 62
     7
100
AcDbLine
 10
109.7735265165288
 20
-417.8287281239595
 30
0.0
 11
98.858557314351
 21
1027.698159098665
 31
0.0
  0
LINE
  5
32
330
A
100
AcDbEntity
  8
0
  6
Continuous
 62
     7
100
AcDbLine
 10
9.569239367733649
 20
1027.698363117872
 30
0.0
 11
-1.345731374964409
 21
-417.8287281239595
 31
0.0
  0
LINE
  5
33
330
A
100
AcDbEntity
  8
0
  6
Continuous
 62
     7
100
AcDbLine
 10
0.6543256396892849
 20
-417.8287281239595
 30
0.0
 11
11.56663600849678
 21
1027.346035784863
 31
0.0
  0
LINE
  5
34
330
A
100
AcDbEntity
  8
0
  6
Continuous
 62
     7
100
AcDbLine
 10
38.21389757078241
 20
-427.8287281239595
 30
0.0
 11
38.21389757078241
 21
-437.8287281239611
 31
0.0
  0
LINE
  5
35
330
A
100
AcDbEntity
  8
0
  6
Continuous
 62
     7
100
AcDbLine
 10
70.21389757078241
 20
-437.8287281239608
 30
0.0
 11
70.21389757078241
 21
-427.8287281239595
 31
0.0
  0
LINE
  5
36
330
A
100
AcDbEntity
  8
0
  6
Continuous
 62
     7
100
AcDbLine
 10
53.2138975707824
 20
1022.41133970963
 30
0.0
 11
53.2138975707824
 21
-417.8287281239595
 31
0.0
  0
LINE
  5
37
330
A
100
AcDbEntity
  8
0
  6
Continuous
 62
     7
100
AcDbLine
 10
55.21389757078241
 20
-417.8287281239595
 30
0.0
 11
55.21389757078241
 21
1022.41133970963
 31
0.0
  0
LWPOLYLINE
  5
38
330
A
100
AcDbEntity
  8
0
  6
Continuous
 62
     7
100
AcDbPolyline
 90
       30
 70
   128
 43
0.0
 10
208.2888189613985
 20
-747.8287281239603
 10
207.913972657303
 20
-734.5571257438713
 10
207.5737334810166
 20
-722.2839853132129
 10
207.2661197762351
 20
-711.0093068319851
 10
206.9895384877538
 20
-700.7330903001879
 10
206.7427087431956
 20
-691.4553357178213
 10
206.5246002593728
 20
-683.1760430848853
 10
206.3343843198873
 20
-675.89521240138
 10
206.1713952968302
 20
-669.6128436673051
 10
206.0351009157034
 20
-664.3289368826609
 10
205.9084090064716
 20
-659.3925825866723
 10
205.8175353370759
 20
-655.8370772036592
 10
205.7583300569473
 20
-653.5138208259935
 10
205.6981649379965
 20
-651.1472900776091
 10
205.586735387863
 20
-646.749647832931
 10
205.4548903637166
 20
-641.5223511075275
 10
205.2716999795098
 20
-634.2176297758863
 10
205.0604911561111
 20
-625.7370942708817
 10
204.8218391896833
 20
-616.0807445925135
 10
204.5532679099166
 20
-605.1066119978067
 10
204.2632791240237
 20
-593.0964770336824
 10
203.9526497102837
 20
-580.0526140522181
 10
203.6215237700689
 20
-565.9750230534136
 10
203.2695179776842
 20
-550.8637040372689
 10
202.8958360450416
 20
-534.7186570037841
 10
202.5227590490505
 20
-518.5493736085756
 10
202.1287960061817
 20
-501.4611271024417
 10
201.7137525267482
 20
-483.4539174853828
 10
201.278560493031
 20
-464.5277447573985
 10
200.8937309364073
 20
-447.650351120436
  0
LINE
  5
58
330
A
100
AcDbEntity
  8
0
  6
Continuous
 62
     7
100
AcDbLine
 10
139.3829217524123
 20
-437.8287281239615
 30
0.0
 11
139.382781059152
 21
-437.8287281248875
 31
0.0
  0
LWPOLYLINE
  5
59
330
A
100
AcDbEntity
  8
0
  6
Continuous
 62
     7
100
AcDbPolyline
 90
        9
 70
   128
 43
0.0
 10
191.0069175671909
 20
-437.8287281252592
 10
192.9326069387311
 20
-438.0158621919804
 10
194.7873410245728
 20
-438.5707799508064
 10
196.5003918147605
 20
-439.4726833146672
 10
198.0075545898713
 20
-440.6877691688188
 10
199.2523412623045
 20
-442.1704963963323
 10
200.188097535817
 20
-443.8652927478805
 10
200.7797514969939
 20
-445.7086376758804
 10
201.0051281018782
 20
-447.6314430688877
  0
LWPOLYLINE
  5
64
330
A
100
AcDbEntity
  8
0
  6
Continuous
 62
     7
100
AcDbPolyline
 90
       42
 70
   128
 43
0.0
 10
-143.9456151625021
 20
-447.740783319822
 10
-144.0126137743314
 20
-457.3602424724366
 10
-144.1805892312871
 20
-468.3980243891218
 10
-144.4181972565753
 20
-478.4424144921112
 10
-144.7016618537217
 20
-487.4934127814055
 10
-145.0055772830867
 20
-495.5510192570043
 10
-145.3070819191045
 20
-502.6152339189077
 10
-145.6218791348365
 20
-509.3966357859947
 10
-145.8919854329988
 20
-514.9119094398407
 10
-146.1086957994691
 20
-519.2089115481247
 10
-146.3067025071696
 20
-523.0704414523786
 10
-146.498911163398
 20
-526.7720795197655
 10
-146.7433729614249
 20
-531.4178341017001
 10
-147.018022460591
 20
-536.5498639109479
 10
-147.3388389427847
 20
-542.4341316180142
 10
-147.7296683345465
 20
-549.4621051608255
 10
-148.1661504394891
 20
-557.1561854115361
 10
-148.6493837060451
 20
-565.5163723701463
 10
-149.1722061527627
 20
-574.4058928029004
 10
-149.672877850998
 20
-582.7773437660168
 10
-150.1632306458715
 20
-590.8510018193815
 10
-150.6086484843625
 20
-598.095825311088
 10
-151.0286025759428
 20
-604.8975777730171
 10
-151.4576008683027
 20
-611.8273094121453
 10
-151.6787884626488
 20
-615.3849705332103
 10
-151.8528648680097
 20
-618.177185449807
 10
-151.9731581588165
 20
-620.1029064805371
 10
-152.0559856452841
 20
-621.4271076110614
 10
-152.1806897784023
 20
-623.4182518108028
 10
-152.3578521210561
 20
-626.2419361850459
 10
-152.6232440557373
 20
-630.4612414708999
 10
-152.957341003471
 20
-635.7556244614309
 10
-153.3608028673422
 20
-642.1250851566385
 10
-153.8343589227633
 20
-649.5696235565231
 10
-154.3787761290795
 20
-658.0892396610841
 10
-154.9948229929398
 20
-667.6839334703218
 10
-155.6832292592488
 20
-678.3537049842362
 10
-156.4446417432812
 20
-690.0985542028273
 10
-157.2795766553273
 20
-702.9184811260954
 10
-158.1883688070154
 20
-716.8134857540401
 10
-159.1711181262321
 20
-731.7835680866616
 10
-160.2276339453452
 20
-747.8287281239596
  0
LWPOLYLINE
  5
90
330
A
100
AcDbEntity
  8
0
  6
Continuous
 62
     7
100
AcDbPolyline
 90
        9
 70
   128
 43
0.0
 10
-143.9497338647246
 20
-447.7656255014913
 10
-143.7435253315795
 20
-445.8074540125497
 10
-143.1576234277826
 20
-443.9276464628721
 10
-142.2147433214273
 20
-442.1990821931775
 10
-140.9514400739825
 20
-440.6887769064225
 10
-139.4166914160766
 20
-439.4552844974468
 10
-137.6699989016726
 20
-438.5464269433264
 10
-135.7790810580792
 20
-437.9974402656222
 10
-133.9499246039703
 20
-437.8287281239646
  0
LWPOLYLINE
  5
9B
330
A
100
AcDbEntity
  8
0
  6
Continuous
 62
     7
100
AcDbPolyline
 90
       12
 70
   128
 43
0.0
 10
9.581519793944774
 20
1027.698273982363
 10
9.574710753945018
 20
1027.710019777361
 10
9.664976341028545
 20
1027.727092432915
 10
9.853600646357811
 20
1027.721460623748
 10
10.11848693367324
 20
1027.694354586921
 10
10.43287603550625
 20
1027.648591699952
 10
10.76544825236743
 20
1027.588506880302
 10
11.08016983088598
 20
1027.520206378345
 10
11.33892903162301
 20
1027.45149980289
 10
11.50810744077558
 20
1027.390959661001
 10
11.56663505620345
 20
1027.346180897556
 10
11.56630197666505
 20
1027.34603855282
  0
LINE
  5
A9
330
A
100
AcDbEntity
  8
0
  6
Continuous
 62
     7
100
AcDbLine
 10
54.21389757078241
 20
1039.486283394437
 30
0.0
 11
145.2138975707823
 21
1039.486283394437
 31
0.0
  0
LINE
  5
AA
330
A
100
AcDbEntity
  8
0
  6
Continuous
 62
     7
100
AcDbLine
 10
-36.78610242921759
 20
1039.486283394437
 30
0.0
 11
54.21389757078241
 21
1039.486283394437
 31
0.0
  0
LWPOLYLINE
  5
AB
330
A
100
AcDbEntity
  8
0
  6
Continuous
 62
     7
100
AcDbPolyline
 90
       11
 70
   128
 43
0.0
 10
96.87288696393828
 20
1027.347980476821
 10
96.88636360336676
 20
1027.373374573583
 10
97.01258508013882
 20
1027.427096632842
 10
97.23516813093922
 20
1027.492250517476
 10
97.53239947664871
 20
1027.561815926631
 10
97.87028729927492
 20
1027.627414847667
 10
98.20662720582262
 20
1027.68072242374
 10
98.49966910599986
 20
1027.715306223819
 10
98.71662820517041
 20
1027.727772635302
 10
98.83702973801486
 20
1027.717630866899
 10
98.84586052046739
 20
1027.698060896277
  0
LINE
  5
B8
330
A
100
AcDbEntity
  8
0
  6
Continuous
 62
     7
100
AcDbLine
 10
54.21389757078241
 20
1046.17127187604
 30
0.0
 11
145.2138975707824
 21
1046.17127187604
 31
0.0
  0
LINE
  5
B9
330
A
100
AcDbEntity
  8
0
  6
Continuous
 62
     7
100
AcDbLine
 10
-36.78610242921759
 20
1046.17127187604
 30
0.0
 11
54.21389757078241
 21
1046.17127187604
 31
0.0
  0
LINE
  5
BA
330
A
100
AcDbEntity
  8
0
  6
Continuous
 62
     7
100
AcDbLine
 10
54.21389757078241
 20
1073.17127187604
 30
0.0
 11
120.2138975707824
 21
1073.17127187604
 31
0.0
  0
LINE
  5
BB
330
A
100
AcDbEntity
  8
0
  6
Continuous
 62
     7
100
AcDbLine
 10
-11.78610242921759
 20
1073.17127187604
 30
0.0
 11
54.21389757078241
 21
1073.17127187604
 31
0.0
  0
LINE
  5
BC
330
A
100
AcDbEntity
  8
0
  6
Continuous
 62
     7
100
AcDbLine
 10
110.7562672141947
 20
-427.8287281239595
 30
0.0
 11
118.1036250281242
 21
-427.8287281239595
 31
0.0
  0
LINE
  5
BD
330
A
100
AcDbEntity
  8
0
  6
Continuous
 62
     7
100
AcDbLine
 10
110.7562672141947
 20
-417.8287281239595
 30
0.0
 11
118.1036250281242
 21
-417.8287281239595
 31
0.0
  0
LINE
  5
BE
330
A
100
AcDbEntity
  8
0
  6
Continuous
 62
     7
100
AcDbLine
 10
-9.675829886559448
 20
-427.8287281239595
 30
0.0
 11
-2.328472072629955
 21
-427.8287281239595
 31
0.0
  0
LINE
  5
BF
330
A
100
AcDbEntity
  8
0
  6
Continuous
 62
     7
100
AcDbLine
 10
-9.675829886559448
 20
-417.8287281239595
 30
0.0
 11
-2.328472072629955
 21
-417.8287281239595
 31
0.0
  0
LINE
  5
C0
330
A
100
AcDbEntity
  8
0
  6
Continuous
 62
     7
100
AcDbLine
 10
29.72781146224111
 20
-417.8287281239595
 30
0.0
 11
29.72781146224111
 21
-427.8287281239595
 31
0.0
  0
LINE
  5
C1
330
A
100
AcDbEntity
  8
0
  6
Continuous
 62
     7
100
AcDbLine
 10
-2.328472072629955
 20
-427.8287281239595
 30
0.0
 11
29.72781146224111
 21
-427.8287281239595
 31
0.0
  0
LINE
  5
C2
330
A
100
AcDbEntity
  8
0
  6
Continuous
 62
     7
100
AcDbLine
 10
-2.328472072629955
 20
-417.8287281239595
 30
0.0
 11
29.72781146224111
 21
-417.8287281239595
 31
0.0
  0
LINE
  5
C3
330
A
100
AcDbEntity
  8
0
  6
Continuous
 62
     7
100
AcDbLine
 10
78.69998367932371
 20
-417.8287281239595
 30
0.0
 11
78.69998367932371
 21
-427.8287281239595
 31
0.0
  0
LINE
  5
C4
330
A
100
AcDbEntity
  8
0
  6
Continuous
 62
     7
100
AcDbLine
 10
78.69998367932371
 20
-427.8287281239595
 30
0.0
 11
110.7562672141947
 21
-427.8287281239595
 31
0.0
  0
LINE
  5
C5
330
A
100
AcDbEntity
  8
0
  6
Continuous
 62
     7
100
AcDbLine
 10
78.69998367932371
 20
-417.8287281239595
 30
0.0
 11
110.7562672141947
 21
-417.8287281239595
 31
0.0
  0
LINE
  5
C6
330
A
100
AcDbEntity
  8
0
  6
Continuous
 62
     7
100
AcDbLine
 10
29.72781146224111
 20
-427.8287281239595
 30
0.0
 11
78.69998367932371
 21
-427.8287281239595
 31
0.0
  0
LINE
  5
C7
330
A
100
AcDbEntity
  8
0
  6
Continuous
 62
     7
100
AcDbLine
 10
29.72781146224111
 20
-417.8287281239595
 30
0.0
 11
78.69998367932371
 21
-417.8287281239595
 31
0.0
  0
LINE
  5
C8
330
A
100
AcDbEntity
  8
0
  6
Continuous
 62
     7
100
AcDbLine
 10
-41.91221458290955
 20
-448.665377722146
 30
0.0
 11
-13.65392310516743
 21
-747.8287281239603
 31
0.0
  0
LINE
  5
C9
330
A
100
AcDbEntity
  8
0
  6
Continuous
 62
     7
100
AcDbLine
 10
124.3703066735161
 20
-446.4906374624578
 30
0.0
 11
124.3702629239407
 21
-446.4903522656848
 31
0.0
  0
LINE
  5
CA
330
A
100
AcDbEntity
  8
0
  6
Continuous
 62
     7
100
AcDbLine
 10
124.3703066735156
 20
-446.4906374624578
 30
0.0
 11
170.595982237365
 21
-747.8287281239606
 31
0.0
  0
LINE
  5
CB
330
A
100
AcDbEntity
  8
0
  6
Continuous
 62
     7
100
AcDbLine
 10
170.5959822373653
 20
-747.8287281239606
 30
0.0
 11
-13.65392310516226
 21
-747.8287281239601
 31
0.0
  0
LWPOLYLINE
  5
CC
330
A
100
AcDbEntity
  8
0
  6
Continuous
 62
     7
100
AcDbPolyline
 90
        7
 70
   128
 43
0.0
 10
-41.41465888406599
 20
-437.8287281239606
 10
-41.43813688382649
 20
-437.8397859780846
 10
-41.56458156925373
 20
-438.2900216434149
 10
-41.71380259781757
 20
-439.8214677414704
 10
-41.8292974343421
 20
-442.2556707411255
 10
-41.89804495599071
 20
-445.318193113782
 10
-41.91236745813302
 20
-448.6637592710078
  0
LWPOLYLINE
  5
D5
330
A
100
AcDbEntity
  8
0
  6
Continuous
 62
     7
100
AcDbPolyline
 90
       11
 70
   128
 43
0.0
 10
127.025182592241
 20
-437.8287281239608
 10
126.7438669766648
 20
-437.8840127796451
 10
126.3811981778253
 20
-438.1219427671819
 10
126.1117652351752
 20
-438.4279228080897
 10
125.7767441679215
 20
-438.9809172773701
 10
125.4840163373674
 20
-439.6491189243824
 10
125.2720586873436
 20
-440.2671659517559
 10
125.0442142071062
 20
-441.0964926872794
 10
124.8412093931805
 20
-442.0371454572934
 10
124.6700690731593
 20
-443.0622991112362
 10
124.3702629239407
 20
-446.4903522656843
  0
LINE
  5
E2
330
A
100
AcDbEntity
  8
0
  6
Continuous
 62
     7
100
AcDbLine
 10
-41.91221458290917
 20
-448.665377722146
 30
0.0
 11
-41.91236745813251
 21
-448.6637592710078
 31
0.0
  0
LINE
  5
E3
330
A
100
AcDbEntity
  8
0
  6
Continuous
 62
     7
100
AcDbLine
 10
-41.41465888406599
 20
-437.8287281239606
 30
0.0
 11
127.0251825922432
 21
-437.8287281239608
 31
0.0
  0
LWPOLYLINE
  5
E4
330
A
100
AcDbEntity
  8
0
  6
Continuous
 62
     7
100
AcDbPolyline
 90
        3
 70
   128
 43
0.0
 10
200.7806108245433
 20
-447.6522238178021
 10
200.9188779318133
 20
-447.6335918190924
 10
200.8757362954331
 20
-447.6202731897177
  0
LINE
  5
E9
330
A
100
AcDbEntity
  8
0
  6
Continuous
 62
     7
100
AcDbLine
 10
208.2421030506931
 20
-747.8287281239601
 30
0.0
 11
170.5959822373654
 21
-747.8287281239606
 31
0.0
  0
LINE
  5
EA
330
A
100
AcDbEntity
  8
0
  6
Continuous
 62
     7
100
AcDbLine
 10
164.9756478483723
 20
-448.6203074686264
 30
0.0
 11
164.9755221874904
 21
-448.6217842172898
 31
0.0
  0
LWPOLYLINE
  5
EB
330
A
100
AcDbEntity
  8
0
  6
Continuous
 62
     7
100
AcDbPolyline
 90
        7
 70
   128
 43
0.0
 10
164.9756478483723
 20
-448.6203074686264
 10
164.6789015128529
 20
-445.2760169148403
 10
163.3036393813898
 20
-442.2195251872126
 10
161.0049116841162
 20
-439.7954280532795
 10
158.0418817164236
 20
-438.2770237454743
 10
155.5971126103698
 20
-437.8407208100949
 10
155.1127009376518
 20
-437.8287281239606
  0
LINE
  5
F4
330
A
100
AcDbEntity
  8
0
  6
Continuous
 62
     7
100
AcDbLine
 10
127.0251825922432
 20
-437.8287281239608
 30
0.0
 11
190.8812028496578
 21
-437.8287281239615
 31
0.0
  0
LINE
  5
F5
330
A
100
AcDbEntity
  8
0
  6
Continuous
 62
     7
100
AcDbLine
 10
-143.8195691722892
 20
-447.7748154209471
 30
0.0
 11
-143.8286587689982
 21
-447.7414347093454
 31
0.0
  0
LINE
  5
F6
330
A
100
AcDbEntity
  8
0
  6
Continuous
 62
     7
100
AcDbLine
 10
-13.65392310516226
 20
-747.8287281239601
 30
0.0
 11
-160.2281593514146
 21
-747.8287281239596
 31
0.0
  0
LINE
  5
F7
330
A
100
AcDbEntity
  8
0
  6
Continuous
 62
     7
100
AcDbLine
 10
-133.8397544183851
 20
-437.8287281239602
 30
0.0
 11
-41.41465888406599
 21
-437.8287281239606
 31
0.0
  0
LINE
  5
F8
330
A
100
AcDbEntity
  8
0
  6
PHANTOM
 62
     7
100
AcDbLine
 10
110.7562672141947
 20
-417.8287281239595
 30
0.0
 11
110.7562672141947
 21
-427.8287281239595
 31
0.0
  0
LINE
  5
F9
330
A
100
AcDbEntity
  8
0
  6
PHANTOM
 62
     7
100
AcDbLine
 10
-2.328472072629955
 20
-417.8287281239595
 30
0.0
 11
-2.328472072629955
 21
-427.8287281239595
 31
0.0
  0
LWPOLYLINE
  5
FA
330
A
100
AcDbEntity
  8
0
  6
PHANTOM
 62
     7
100
AcDbPolyline
 90
       52
 70
   128
 43
0.0
 10
124.3702629239403
 20
-446.4903522656848
 10
124.3702051912475
 20
-446.4903507220086
 10
118.9819001681036
 20
-446.3427573581198
 10
113.4993928206848
 20
-446.1906287209772
 10
107.9729349207563
 20
-446.0428409171578
 10
102.5735657519817
 20
-445.9176171794029
 10
97.29257161972913
 20
-445.8340993406318
 10
92.10638026529004
 20
-445.8000740082938
 10
87.38733794869524
 20
-445.8247356662369
 10
83.22205055105229
 20
-445.9198138514702
 10
79.73334905084612
 20
-446.0591322154262
 10
76.81795036067999
 20
-446.2167559490613
 10
74.425978880954
 20
-446.380635502633
 10
72.47632186258512
 20
-446.5449449357969
 10
69.81292130083675
 20
-446.8405643005083
 10
67.63455031368308
 20
-447.1191684818086
 10
65.25103433144707
 20
-447.3396552690988
 10
63.474574316933
 20
-447.4245417908268
 10
61.23876855679025
 20
-447.4949155150097
 10
58.35272420495181
 20
-447.5904742151729
 10
54.92587607923723
 20
-447.7334291769742
 10
50.69695806174899
 20
-447.899150414046
 10
46.39187966755904
 20
-448.0264349102464
 10
41.76962260485375
 20
-448.1377545499322
 10
34.62163236276896
 20
-448.299215528101
 10
27.30326143485841
 20
-448.4747958539277
 10
22.49540066766562
 20
-448.6097348925227
 10
17.66679412119236
 20
-448.7703182120019
 10
11.6680416915379
 20
-449.0095242841044
 10
5.795363835663105
 20
-449.2878220879098
 10
2.529078840804707
 20
-449.4558361866668
 10
-0.4813139502653497
 20
-449.5931619432139
 10
-3.078760429469834
 20
-449.6662867555015
 10
-5.27693879686264
 20
-449.6868035257588
 10
-7.642152873916785
 20
-449.6741240623753
 10
-9.507439578821468
 20
-449.6432526687365
 10
-11.21860503540978
 20
-449.6040791653105
 10
-12.57422996679308
 20
-449.5663347767082
 10
-14.9470116261582
 20
-449.4954285315519
 10
-16.20015721341997
 20
-449.4449394598699
 10
-17.37038657849391
 20
-449.3953227766663
 10
-18.72550998145958
 20
-449.3489284925104
 10
-20.53333768239646
 20
-449.3081066179716
 10
-23.06167994138399
 20
-449.2752071636197
 10
-25.02400039680773
 20
-449.2557992137756
 10
-27.62433034443432
 20
-449.2124481905404
 10
-29.49769014151515
 20
-449.1625380983631
 10
-31.67331388813055
 20
-449.0782870643622
 10
-34.11191941924667
 20
-448.962568152888
 10
-36.72342860666109
 20
-448.8437287800898
 10
-41.91215467575683
 20
-448.6653793493045
 10
-41.91221458290955
 20
-448.665377722146
  0
LWPOLYLINE
  5
130
330
A
100
AcDbEntity
  8
0
  6
PHANTOM
 62
     7
100
AcDbPolyline
 90
       21
 70
   128
 43
0.0
 10
200.8757362954331
 20
-447.6202731897177
 10
200.7478009897326
 20
-447.5807771700127
 10
199.7350805484792
 20
-447.5330028936407
 10
198.7679347065806
 20
-447.5058746596149
 10
197.4662663374125
 20
-447.4792251639446
 10
195.6159836996713
 20
-447.4521749071524
 10
194.3013000758778
 20
-447.4377808480893
 10
192.5555061654608
 20
-447.4287700450989
 10
189.9795261061532
 20
-447.4411691675354
 10
186.9816444479898
 20
-447.4890926045757
 10
185.7100129622197
 20
-447.505622014544
 10
181.66165361554
 20
-447.5320140776909
 10
177.5286173039054
 20
-447.5274418667508
 10
172.4007036418637
 20
-447.4908405834235
 10
167.3593814063888
 20
-447.4272172301708
 10
156.529304763419
 20
-447.2419014617664
 10
145.8632883827357
 20
-447.0217079743755
 10
135.1980642632999
 20
-446.7701245577161
 10
124.3703644040725
 20
-446.4906390015065
 10
124.3703066735157
 20
-446.4906374624576
 10
124.3703066735157
 20
-446.4906374624576
  0
LWPOLYLINE
  5
147
330
A
100
AcDbEntity
  8
0
  6
PHANTOM
 62
     7
100
AcDbPolyline
 90
       20
 70
   128
 43
0.0
 10
-41.91236745813302
 20
-448.6637592710078
 10
-41.91242736823659
 20
-448.6637575514115
 10
-48.34567051336617
 20
-448.521116442912
 10
-54.77110605203589
 20
-448.4392492811267
 10
-64.09421666155454
 20
-448.3660771838579
 10
-73.41795421733168
 20
-448.2932886117109
 10
-80.68256371626153
 20
-448.2197091349476
 10
-87.70861523535433
 20
-448.1479094597896
 10
-93.74299907029252
 20
-448.0926351649064
 10
-99.13042070547506
 20
-448.0188350464383
 10
-108.8135925649011
 20
-447.8146066035123
 10
-118.1362884563533
 20
-447.722030531687
 10
-127.0250541007006
 20
-447.9335336798832
 10
-131.4476145416684
 20
-448.1229908673377
 10
-135.3489893858358
 20
-448.2253176878638
 10
-138.6679976511516
 20
-448.2332891832609
 10
-141.0570696286491
 20
-448.1709067504805
 10
-142.8086580646479
 20
-448.059746686423
 10
-143.7845837937413
 20
-447.9032960201402
 10
-143.8195691722892
 20
-447.7748154209471
  0
LWPOLYLINE
  5
15D
330
A
100
AcDbEntity
  8
0
  6
Continuous
 62
     7
100
AcDbPolyline
 90
       11
 70
   128
 43
0.0
 10
2.651542084260008
 20
-1109.2870828085
 10
1.849743116963647
 20
-1110.046901838137
 10
-0.03244110412505
 20
-1112.237785119843
 10
-1.669922548404243
 20
-1114.580174063818
 10
-3.0590772368176
 20
-1116.960958507337
 10
-4.477695626601136
 20
-1119.878117107581
 10
-5.739022000713883
 20
-1123.020151277873
 10
-6.919893229733658
 20
-1126.516627134411
 10
-8.182582806009918
 20
-1130.689706054099
 10
-10.32333987357829
 20
-1137.972608488661
 10
-10.86016498213685
 20
-1139.733801050113
  0
LWPOLYLINE
  5
16A
330
A
100
AcDbEntity
  8
0
  6
Continuous
 62
     7
100
AcDbPolyline
 90
       15
 70
   128
 43
0.0
 10
164.9910454115268
 20
-1182.648736606418
 10
166.2966558338579
 20
-1172.282247820141
 10
167.101363931877
 20
-1166.359166170738
 10
167.5115382312934
 20
-1163.239356234059
 10
167.6887514737561
 20
-1160.709386928998
 10
167.6917086360138
 20
-1158.899237355434
 10
167.5149374089889
 20
-1156.919651996114
 10
167.0537086873135
 20
-1154.912050965654
 10
166.3472585330526
 20
-1153.039281276577
 10
165.4188894519763
 20
-1151.285170387549
 10
164.2870278304916
 20
-1149.640867707279
 10
162.9633909583085
 20
-1148.089625212684
 10
161.4628697618651
 20
-1146.609747534449
 10
159.7916591219973
 20
-1145.138285914874
 10
158.2888175210347
 20
-1143.899713480553
  0
LWPOLYLINE
  5
17B
330
A
100
AcDbEntity
  8
0
  6
Continuous
 62
     7
100
AcDbPolyline
 90
       12
 70
   128
 43
0.0
 10
-85.75159250460041
 20
-1354.746692650486
 10
-84.18391767935931
 20
-1355.282056787925
 10
-80.75920648561476
 20
-1356.156428692903
 10
-77.18079965323958
 20
-1356.804695179338
 10
-73.20764283039896
 20
-1357.254213576942
 10
-68.98855519763417
 20
-1357.467498358581
 10
-64.42185533886349
 20
-1357.450151690811
 10
-59.34169856529456
 20
-1357.206517533334
 10
-53.37469625444704
 20
-1356.745970396009
 10
-48.07811631289431
 20
-1356.412984050001
 10
-42.6811476254663
 20
-1356.363281630922
 10
-41.91490786529289
 20
-1356.385597307896
  0
LWPOLYLINE
  5
189
330
A
100
AcDbEntity
  8
0
  6
Continuous
 62
     7
100
AcDbPolyline
 90
       16
 70
   128
 43
0.0
 10
-28.14411023607692
 20
-1177.462823111662
 10
-30.747246868776
 20
-1180.668222172977
 10
-33.75584411980004
 20
-1184.002033459965
 10
-36.60870598593821
 20
-1186.793391491185
 10
-39.84726622485132
 20
-1189.533145947694
 10
-43.25687745324152
 20
-1192.010163232291
 10
-46.80977732182572
 20
-1194.200002640519
 10
-50.46412606206195
 20
-1196.078151385972
 10
-54.20575565472816
 20
-1197.641869313649
 10
-58.0820955032815
 20
-1198.914116443762
 10
-62.17233893563928
 20
-1199.973449423085
 10
-66.99163847104253
 20
-1200.955119859382
 10
-72.63649054161361
 20
-1201.863842938952
 10
-79.78266273777993
 20
-1202.83738211867
 10
-87.38286998978955
 20
-1203.85936196485
 10
-87.45295946926814
 20
-1203.870789870677
  0
LWPOLYLINE
  5
19B
330
A
100
AcDbEntity
  8
0
  6
Continuous
 62
     7
100
AcDbPolyline
 90
        8
 70
   128
 43
0.0
 10
157.6192765818766
 20
-1203.771254234805
 10
158.0630396175983
 20
-1202.895869190168
 10
160.3910773768721
 20
-1198.070786473686
 10
161.9899904236733
 20
-1194.275084889977
 10
163.2428002591518
 20
-1190.681373064074
 10
164.2035973903025
 20
-1187.086459510551
 10
164.8842967847414
 20
-1183.655933294204
 10
165.0386072783907
 20
-1182.658535988962
  0
LWPOLYLINE
  5
1A5
330
A
100
AcDbEntity
  8
0
  6
Continuous
 62
     7
100
AcDbPolyline
 90
       41
 70
   128
 43
0.0
 10
-41.91467099038804
 20
-1356.266968169104
 10
-40.57491354313047
 20
-1356.354375375661
 10
-37.80341556879726
 20
-1356.749212145096
 10
-35.60310009711078
 20
-1357.293478773254
 10
-33.47646641815151
 20
-1358.121507760411
 10
-31.49072239907568
 20
-1359.224513653659
 10
-29.73795211181016
 20
-1360.552295861784
 10
-28.17436986809549
 20
-1362.145673689319
 10
-26.70485639619408
 20
-1364.066077226444
 10
-25.27435156033349
 20
-1366.418711197459
 10
-23.92925402300143
 20
-1369.186527410528
 10
-22.6533737515347
 20
-1372.445779683848
 10
-21.43943128121128
 20
-1376.224254015125
 10
-20.26981524419884
 20
-1380.730563967249
 10
-19.20455196088568
 20
-1385.855126319814
 10
-18.16222101087919
 20
-1391.966028070225
 10
-16.94004512855709
 20
-1399.963055166537
 10
-15.54805023646924
 20
-1409.320352721907
 10
-14.15476122326035
 20
-1417.496441964064
 10
-12.92093606742403
 20
-1423.335869624058
 10
-11.57668163596107
 20
-1428.52962826666
 10
-10.36353295132478
 20
-1432.417526622855
 10
-9.062472492826433
 20
-1435.826059732528
 10
-7.607139953426337
 20
-1438.927446392461
 10
-6.277421381759184
 20
-1441.276233721872
 10
-4.849476356983489
 20
-1443.339030739768
 10
-3.285630663208805
 20
-1445.157769261675
 10
-1.582992226285162
 20
-1446.732652385725
 10
0.2993119855661808
 20
-1448.090694408112
 10
2.261946144749671
 20
-1449.179883119537
 10
4.419155324536975
 20
-1450.083345455959
 10
6.697339525918014
 20
-1450.771454129309
 10
9.1149041842732
 20
-1451.265193201511
 10
11.69784239101605
 20
-1451.590665985459
 10
14.92985386393618
 20
-1451.782053614157
 10
18.5423007342829
 20
-1451.753152591425
 10
22.42533784130911
 20
-1451.505605095012
 10
27.20392140138801
 20
-1450.991488591932
 10
32.16202023759838
 20
-1450.201469249479
 10
36.83864968782971
 20
-1449.183199186065
 10
40.37707428230394
 20
-1448.192932752127
  0
LWPOLYLINE
  5
1D0
330
A
100
AcDbEntity
  8
0
  6
Continuous
 62
     7
100
AcDbPolyline
 90
        3
 70
   128
 43
0.0
 10
28.68104190815332
 20
-1098.812914065327
 10
21.93760421430614
 20
-1100.64666596048
 10
13.41471341985392
 20
-1102.964416145131
  0
LWPOLYLINE
  5
1D5
330
A
100
AcDbEntity
  8
0
  6
Continuous
 62
     7
100
AcDbPolyline
 90
        3
 70
   128
 43
0.0
 10
52.60511817652161
 20
-1441.815681583544
 10
60.70590504891647
 20
-1434.963486374914
 10
70.76330648621683
 20
-1426.462300571751
  0
LWPOLYLINE
  5
1DA
330
A
100
AcDbEntity
  8
0
  6
Continuous
 62
     7
100
AcDbPolyline
 90
        3
 70
   128
 43
0.0
 10
202.3820953784262
 20
-1304.352741703445
 10
200.543211188426
 20
-1297.769404204131
 10
199.0000862685412
 20
-1289.006447557056
  0
LWPOLYLINE
  5
1DF
330
A
100
AcDbEntity
  8
0
  6
Continuous
 62
     7
100
AcDbPolyline
 90
       40
 70
   128
 43
0.0
 10
164.2038409941116
 20
-1257.85667386442
 10
164.2051151165201
 20
-1257.857375147856
 10
164.1659030128114
 20
-1257.821422452501
 10
164.046800030089
 20
-1257.726572356799
 10
163.8484941170765
 20
-1257.572488993224
 10
163.6001291266936
 20
-1257.380562131822
 10
163.2876291547331
 20
-1257.138638212659
 10
162.9118579955461
 20
-1256.845878966365
 10
162.473928578174
 20
-1256.5011478779
 10
161.9754111149862
 20
-1256.10304015562
 10
161.6400122310896
 20
-1255.831345710801
 10
161.4673593309519
 20
-1255.690161616834
 10
161.2914520918849
 20
-1255.54531912139
 10
161.202290935366
 20
-1255.47150131742
 10
161.112332165573
 20
-1255.396738940218
 10
161.0215816909642
 20
-1255.321021599556
 10
160.9300456984391
 20
-1255.244338716416
 10
160.744643291872
 20
-1255.088033072391
 10
160.5561799617287
 20
-1254.927733661721
 10
160.039111923487
 20
-1254.480040374219
 10
159.5019908583759
 20
-1254.001458856703
 10
158.9578316830344
 20
-1253.500734754652
 10
157.1823856473858
 20
-1251.72955086855
 10
155.5135098526589
 20
-1249.801494455301
 10
155.0154429088329
 20
-1249.157450126427
 10
154.4597217043483
 20
-1248.39166878139
 10
153.8161305985252
 20
-1247.43150102581
 10
153.1064643661408
 20
-1246.260603625354
 10
152.3579700542411
 20
-1244.85963974273
 10
151.9993509425382
 20
-1244.109804462975
 10
151.6684816811342
 20
-1243.36039370805
 10
151.3926295923987
 20
-1242.684632713974
 10
151.218161499623
 20
-1242.22905085689
 10
151.0688262382586
 20
-1241.819331770257
 10
150.9424608385433
 20
-1241.45700962156
 10
150.8371293346175
 20
-1241.143418833368
 10
150.7122889850582
 20
-1240.758055481475
 10
150.5942093228113
 20
-1240.3757554315
 10
150.475838533693
 20
-1239.97062801854
 10
150.3501886480149
 20
-1239.509963063736
  0
LWPOLYLINE
  5
209
330
A
100
AcDbEntity
  8
0
  6
Continuous
 62
     7
100
AcDbPolyline
 90
        7
 70
   128
 43
0.0
 10
149.9103033944937
 20
-1237.546796560712
 10
149.7820408780625
 20
-1236.799896027624
 10
149.6658765616774
 20
-1235.992946257471
 10
149.5660898537243
 20
-1235.133012126233
 10
149.4854879556033
 20
-1234.218348299737
 10
149.4269211584294
 20
-1233.247254860093
 10
149.4045050625161
 20
-1232.561517728142
  0
LWPOLYLINE
  5
212
330
A
100
AcDbEntity
  8
0
  6
Continuous
 62
     7
100
AcDbPolyline
 90
       26
 70
   128
 43
0.0
 10
-124.8476497170183
 20
-1320.794616650614
 10
-124.053452220501
 20
-1321.679603784333
 10
-123.2313272807282
 20
-1322.672582069965
 10
-122.497505016925
 20
-1323.626797311945
 10
-121.8440919364754
 20
-1324.535250860841
 10
-121.2640651032594
 20
-1325.391558288927
 10
-120.7512956545062
 20
-1326.189977499444
 10
-120.3005317554028
 20
-1326.925413180151
 10
-119.9869509571722
 20
-1327.456142462326
 10
-119.707092300397
 20
-1327.943322337528
 10
-119.4594101694727
 20
-1328.385273797024
 10
-119.2425992145189
 20
-1328.780527374256
 10
-119.055568127559
 20
-1329.127811103407
 10
-118.8936326465785
 20
-1329.433224551604
 10
-118.727438953506
 20
-1329.751247406038
 10
-118.4621494516836
 20
-1330.26853333593
 10
-118.1755152943779
 20
-1330.84075775586
 10
-117.8684049885619
 20
-1331.469173807471
 10
-117.54165243773
 20
-1332.155076129615
 10
-117.196032329816
 20
-1332.899788151362
 10
-116.8322325111634
 20
-1333.704647774611
 10
-116.4730841954414
 20
-1334.51980654095
 10
-116.0986373324973
 20
-1335.390727974323
 10
-115.7090980221943
 20
-1336.318486305963
 10
-115.3044923089445
 20
-1337.304108962418
 10
-114.8846316920959
 20
-1338.348558417096
  0
LWPOLYLINE
  5
22E
330
A
100
AcDbEntity
  8
0
  6
Continuous
 62
     7
100
AcDbPolyline
 90
        3
 70
   128
 43
0.0
 10
-103.8220945299114
 20
-1207.508100022595
 10
-104.825347719
 20
-1207.679221781368
 10
-106.0152197007253
 20
-1207.583050639797
  0
LWPOLYLINE
  5
233
330
A
100
AcDbEntity
  8
0
  6
Continuous
 62
     7
100
AcDbPolyline
 90
        9
 70
   128
 43
0.0
 10
11.41262738156027
 20
-1301.454358500313
 10
11.04353116510878
 20
-1301.582749312309
 10
10.6537850604334
 20
-1301.554272361236
 10
10.30220674888731
 20
-1301.384406683758
 10
10.04656906050651
 20
-1301.088352101322
 10
9.918089290689463
 20
-1300.719636291339
 10
9.946678279246848
 20
-1300.329527489844
 10
10.11655875782616
 20
-1299.977950268183
 10
10.41262738156029
 20
-1299.722307692744
  0
LINE
  5
23E
330
A
100
AcDbEntity
  8
0
  6
Continuous
 62
     7
100
AcDbLine
 10
10.4126273815603
 20
-1299.722307692744
 30
0.0
 11
11.41262738156028
 21
-1301.454358500313
 31
0.0
  0
LINE
  5
23F
330
A
100
AcDbEntity
  8
0
  6
Continuous
 62
     7
100
AcDbLine
 10
53.2138975707824
 20
-1225.588333096529
 30
0.0
 11
55.21389757078241
 21
-1225.588333096529
 31
0.0
  0
LWPOLYLINE
  5
240
330
A
100
AcDbEntity
  8
0
  6
Continuous
 62
     7
100
AcDbPolyline
 90
        9
 70
   128
 43
0.0
 10
55.21389757078241
 20
-1225.588333096529
 10
55.14053904307161
 20
-1225.204520219818
 10
54.92100435196895
 20
-1224.881253191158
 10
54.5981075043215
 20
-1224.661727093939
 10
54.21389757078241
 20
-1224.588371104673
 10
53.83034072802807
 20
-1224.66145658516
 10
53.50679078959586
 20
-1224.881253191158
 10
53.2872563482798
 20
-1225.204137766097
 10
53.2138975707824
 20
-1225.588333096529
  0
CIRCLE
  5
24B
330
A
100
AcDbEntity
  8
0
  6
Continuous
 62
     7
100
AcDbCircle
 10
54.21389757078241
 20
-1275.588333096529
 30
0.0
 40
66.0
  0
LWPOLYLINE
  5
24C
330
A
100
AcDbEntity
  8
0
  6
Continuous
 62
     7
100
AcDbPolyline
 90
        9
 70
   128
 43
0.0
 10
98.01516776000418
 20
-1299.722307692744
 10
98.31090557303141
 20
-1299.977758986634
 10
98.48111686231762
 20
-1300.329527489845
 10
98.50979802616361
 20
-1300.718936077803
 10
98.38122608105797
 20
-1301.088352101323
 10
98.1261487077441
 20
-1301.383976750849
 10
97.77401008113104
 20
-1301.554272361237
 10
97.38459503648904
 20
-1301.582940162011
 10
97.01516776000419
 20
-1301.454358500313
  0
LINE
  5
257
330
A
100
AcDbEntity
  8
0
  6
Continuous
 62
     7
100
AcDbLine
 10
97.01516776000419
 20
-1301.454358500313
 30
0.0
 11
98.01516776000418
 21
-1299.722307692744
 31
0.0
  0
CIRCLE
  5
258
330
A
100
AcDbEntity
  8
0
  6
Continuous
 62
     7
100
AcDbCircle
 10
54.21389757078241
 20
-1275.588333096528
 30
0.0
 40
91.0
  0
LINE
  5
259
330
A
100
AcDbEntity
  8
0
  6
Continuous
 62
     7
100
AcDbLine
 10
-28.09896493451655
 20
-1177.491683489352
 30
0.0
 11
-28.09896411882737
 21
-1177.491684461453
 31
0.0
  0
LWPOLYLINE
  5
25A
330
A
100
AcDbEntity
  8
0
  6
Continuous
 62
     7
100
AcDbPolyline
 90
        8
 70
   128
 43
0.0
 10
-28.09896411882737
 20
-1177.491684461453
 10
-28.09892763439126
 20
-1177.491636840923
 10
-23.73792311958731
 20
-1171.099699474282
 10
-20.00537202624177
 20
-1164.288271961249
 10
-16.80440312713374
 20
-1157.17074024499
 10
-14.03814519504232
 20
-1149.860490268673
 10
-11.60972700274652
 20
-1142.470907975465
 10
-10.82750190100112
 20
-1139.752618999078
  0
LWPOLYLINE
  5
264
330
A
100
AcDbEntity
  8
0
  6
Continuous
 62
     7
100
AcDbPolyline
 90
        9
 70
   128
 43
0.0
 10
2.678020258239349
 20
-1109.298861812666
 10
4.225566923154428
 20
-1107.828895424007
 10
7.363717386149888
 20
-1105.6008244271
 10
10.79498202239129
 20
-1103.861313798918
 10
13.41965535005213
 20
-1102.963042651317
 10
16.1377542264161
 20
-1102.420487874003
 10
19.14552320122202
 20
-1102.326199705991
 10
22.12247993444885
 20
-1102.769492405597
 10
23.18862731952906
 20
-1103.123730034619
  0
LWPOLYLINE
  5
26F
330
A
100
AcDbEntity
  8
0
  6
Continuous
 62
     7
100
AcDbPolyline
 90
        7
 70
   128
 43
0.0
 10
72.93299216106984
 20
-1110.040541917431
 10
76.07804528778244
 20
-1108.182021512087
 10
84.90296445989745
 20
-1102.113348498379
 10
91.43895749389457
 20
-1097.820380305777
 10
96.04342112935526
 20
-1095.406579737773
 10
100.9499348337326
 20
-1093.763691560745
 10
103.6796017529995
 20
-1093.407888049186
  0
LWPOLYLINE
  5
278
330
A
100
AcDbEntity
  8
0
  6
Continuous
 62
     7
100
AcDbPolyline
 90
        5
 70
   128
 43
0.0
 10
145.9393189444941
 20
-1133.215674460885
 10
146.8790651963522
 20
-1134.223573868849
 10
152.2788600213527
 20
-1139.104431280389
 10
156.8788674294046
 20
-1142.778253108557
 10
158.2504904946228
 20
-1143.927975894122
  0
LINE
  5
27F
330
A
100
AcDbEntity
  8
0
  6
Continuous
 62
     7
100
AcDbLine
 10
164.9060905030257
 20
-1182.638036935946
 30
0.0
 11
155.1127009376518
 21
-1181.200576083839
 31
0.0
  0
LWPOLYLINE
  5
280
330
A
100
AcDbEntity
  8
0
  6
Continuous
 62
     7
100
AcDbPolyline
 90
        7
 70
   128
 43
0.0
 10
-28.09896501825189
 20
-1177.491683598879
 10
-27.71333750262442
 20
-1177.787083281446
 10
-26.47642493071437
 20
-1178.734587176527
 10
-24.5276797143162
 20
-1180.227371430477
 10
-22.08680782310427
 20
-1182.097136095393
 10
-20.6947617930381
 20
-1183.163475704007
 10
-20.16262748173935
 20
-1183.571102945357
  0
LWPOLYLINE
  5
289
330
A
100
AcDbEntity
  8
0
  6
Continuous
 62
     7
100
AcDbPolyline
 90
        5
 70
   128
 43
0.0
 10
-85.73043268570451
 20
-1354.663811589514
 10
-87.70861523535426
 20
-1354.075994011413
 10
-93.74299907029239
 20
-1351.028856172868
 10
-99.13042070547497
 20
-1346.941930189599
 10
-106.2144528996802
 20
-1340.245680741271
  0
LWPOLYLINE
  5
290
330
A
100
AcDbEntity
  8
0
  6
Continuous
 62
     7
100
AcDbPolyline
 90
       10
 70
   128
 43
0.0
 10
-119.7458267731878
 20
-1326.465747128288
 10
-127.0250541007005
 20
-1318.344160959017
 10
-131.4476145416683
 20
-1312.670257967658
 10
-135.3489893858356
 20
-1306.606510070649
 10
-138.6679976511515
 20
-1300.222944451914
 10
-141.057069628649
 20
-1294.30397101563
 10
-142.8086580646478
 20
-1288.151480587665
 10
-143.7845837937411
 20
-1281.860014059668
 10
-143.8467102126465
 20
-1274.830895687977
 10
-143.1312694141613
 20
-1269.117977288903
  0
LWPOLYLINE
  5
29C
330
A
100
AcDbEntity
  8
0
  6
Continuous
 62
     7
100
AcDbPolyline
 90
       11
 70
   128
 43
0.0
 10
-129.8767377322797
 20
-1230.906995087398
 10
-128.3173918955238
 20
-1227.669743393198
 10
-124.7475312616832
 20
-1221.989581727367
 10
-121.6600943852921
 20
-1218.340948255177
 10
-118.1148109324405
 20
-1215.103168016561
 10
-114.2170531620663
 20
-1212.328568347059
 10
-109.3931160594111
 20
-1209.725260651308
 10
-104.2856490771598
 20
-1207.676740304781
 10
-99.01764556794539
 20
-1206.118522105454
 10
-91.54768654115855
 20
-1204.559107309679
 10
-87.44887055443973
 20
-1203.936195676986
  0
LWPOLYLINE
  5
2A9
330
A
100
AcDbEntity
  8
0
  6
Continuous
 62
     7
100
AcDbPolyline
 90
        7
 70
   128
 43
0.0
 10
-41.41465888406599
 20
-1346.295204176122
 10
-41.43813688382644
 20
-1346.76476117036
 10
-41.56458156925369
 20
-1349.293638641913
 10
-41.71380259781748
 20
-1352.278039923823
 10
-41.82929743434205
 20
-1354.587921627153
 10
-41.89804495599065
 20
-1355.962863074646
 10
-41.9088683900683
 20
-1356.17822353864
  0
LWPOLYLINE
  5
2B2
330
A
100
AcDbEntity
  8
0
  6
Continuous
 62
     7
100
AcDbPolyline
 90
       39
 70
   128
 43
0.0
 10
157.4731969461171
 20
-1203.70801050092
 10
155.9289745426332
 20
-1206.908315823595
 10
153.3714952856322
 20
-1212.599082286675
 10
151.2856804844394
 20
-1218.48438311109
 10
149.9099651180903
 20
-1224.543896182155
 10
149.3808126798165
 20
-1231.235996292253
 10
149.9412358018336
 20
-1237.915468265679
 10
151.1270279178965
 20
-1242.538835918684
 10
153.0782993619362
 20
-1246.884990098104
 10
155.8395589254167
 20
-1250.76645324905
 10
159.2205133648658
 20
-1254.136846915727
 10
163.9385004565966
 20
-1257.688058661365
 10
169.0259743888558
 20
-1260.733735902533
 10
174.3282438834299
 20
-1263.450087369176
 10
179.690617662105
 20
-1266.013321791237
 10
186.1395968261469
 20
-1269.274018474546
 10
189.9475159494272
 20
-1271.667659509133
 10
193.3447618754086
 20
-1274.589190119592
 10
195.4047399050988
 20
-1277.242449125514
 10
196.9341641464773
 20
-1280.235664901975
 10
197.9034969828228
 20
-1283.189827822516
 10
198.5695858421246
 20
-1286.230994251597
 10
199.4983839991952
 20
-1293.801446198666
 10
200.4388820449061
 20
-1305.992452334858
 10
200.9188779318133
 20
-1318.226459716836
 10
200.7478009897326
 20
-1330.450075348836
 10
199.7350805484792
 20
-1342.609906235092
 10
198.7679347065806
 20
-1349.66058406488
 10
197.4662663374125
 20
-1356.657695824026
 10
195.6159836996713
 20
-1363.512102564396
 10
194.3013000758778
 20
-1367.003862842723
 10
192.5555061654608
 20
-1370.291071992165
 10
189.9795261061532
 20
-1373.366012278496
 10
186.9816444479898
 20
-1375.27221337447
 10
185.7100129622197
 20
-1375.742401876074
 10
181.66165361554
 20
-1376.449232142914
 10
177.5286173039054
 20
-1376.358512050949
 10
172.4007036418637
 20
-1375.567333041263
 10
171.5085768478404
 20
-1375.344691034363
  0
LINE
  5
2DB
330
A
100
AcDbEntity
  8
0
  6
Continuous
 62
     7
100
AcDbLine
 10
124.3703066735161
 20
-1359.197485687228
 30
0.0
 11
124.3702629239407
 21
-1359.197433548515
 31
0.0
  0
LWPOLYLINE
  5
2DC
330
A
100
AcDbEntity
  8
0
  6
Continuous
 62
     7
100
AcDbPolyline
 90
       11
 70
   128
 43
0.0
 10
127.0251825922409
 20
-1349.649650968063
 10
126.7438669766648
 20
-1350.661331872152
 10
126.3811981778252
 20
-1351.965596162792
 10
126.1117652351752
 20
-1352.934544910542
 10
125.7767441679216
 20
-1354.139377557749
 10
125.4840163373673
 20
-1355.192105307992
 10
125.2720586873435
 20
-1355.954358284121
 10
125.0442142071062
 20
-1356.773748847995
 10
124.8412093931805
 20
-1357.503811118582
 10
124.6700690731592
 20
-1358.119278777542
 10
124.3702629239407
 20
-1359.197433548515
  0
LWPOLYLINE
  5
2E9
330
A
100
AcDbEntity
  8
0
  6
Continuous
 62
     7
100
AcDbPolyline
 90
        8
 70
   128
 43
0.0
 10
61.57167053694544
 20
-1428.77107098893
 10
61.23876855679029
 20
-1429.630321118471
 10
58.35272420495186
 20
-1435.068875384369
 10
54.92587607923728
 20
-1439.558757323561
 10
50.69695806174908
 20
-1443.286869241066
 10
46.39187966755907
 20
-1445.817473591784
 10
41.76962260485375
 20
-1447.730058920416
 10
40.36329593453307
 20
-1448.114336853933
  0
LWPOLYLINE
  5
2F3
330
A
100
AcDbEntity
  8
0
  6
Continuous
 62
     7
100
AcDbPolyline
 90
       32
 70
   128
 43
0.0
 10
28.70339505327121
 20
-1098.907016364333
 10
30.36257232208436
 20
-1098.441774971625
 10
34.44981339687983
 20
-1097.98105929211
 10
38.7573729050862
 20
-1097.876870079712
 10
47.82711136455293
 20
-1097.967137558338
 10
56.35566688888409
 20
-1097.798183412127
 10
64.63232091121593
 20
-1097.001873440769
 10
72.8905763999377
 20
-1095.285349945357
 10
81.06192802295105
 20
-1092.604525354102
 10
89.00277863890559
 20
-1088.979246449385
 10
96.68217708919513
 20
-1084.667594623213
 10
102.0097405883892
 20
-1081.641756288586
 10
107.3893075838604
 20
-1078.930028681069
 10
112.9009804787402
 20
-1076.812794286277
 10
118.6248616761596
 20
-1075.570435589829
 10
124.6124820523017
 20
-1075.459824121803
 10
130.6475366591962
 20
-1076.517434505756
 10
136.3672486316549
 20
-1078.659212464573
 10
141.4128611730285
 20
-1081.798706329768
 10
145.6583491309218
 20
-1085.800030591283
 10
149.2911700749628
 20
-1090.460713799427
 10
153.7468586535474
 20
-1097.698945210915
 10
157.9875336078276
 20
-1105.255001297174
 10
162.5576146044556
 20
-1112.579959393406
 10
165.3313750625938
 20
-1116.7536984326
 10
167.843828165042
 20
-1120.975616124261
 10
169.8159353290732
 20
-1125.382480860818
 10
171.0164447282398
 20
-1130.07848720551
 10
171.4501932512658
 20
-1136.503097993851
 10
170.7837253993665
 20
-1143.071065793311
 10
169.2026840336704
 20
-1149.538795024789
 10
167.1004525368896
 20
-1155.11551401157
  0
LWPOLYLINE
  5
315
330
A
100
AcDbEntity
  8
0
  6
Continuous
 62
     7
100
AcDbPolyline
 90
       23
 70
   128
 43
0.0
 10
170.5959822373652
 20
-1414.287100611526
 10
167.5699244401527
 20
-1413.94222793652
 10
159.8412619595902
 20
-1412.414492096844
 10
152.5915574677197
 20
-1410.188374689873
 10
145.6638801447227
 20
-1407.492975382486
 10
138.9001579347877
 20
-1404.557353788433
 10
133.501003426739
 20
-1402.189824527227
 10
128.0246811827551
 20
-1399.932429677594
 10
122.3915205040697
 20
-1397.903752895061
 10
116.5758293905178
 20
-1396.278192874086
 10
110.6250172879644
 20
-1395.30573664603
 10
105.6007429802371
 20
-1395.178485671909
 10
100.5509910693239
 20
-1395.828318463262
 10
95.57996697744355
 20
-1397.318938593608
 10
90.89844919146486
 20
-1399.592575737423
 10
86.72575718123146
 20
-1402.581724402915
 10
83.28121041658709
 20
-1406.218879098295
 10
80.95702733952579
 20
-1409.982619882433
 10
79.12690417209517
 20
-1414.043991480527
 10
77.27419485242404
 20
-1418.161157080873
 10
74.88278916785993
 20
-1422.091106119983
 10
71.72072087487861
 20
-1425.613567404885
 10
70.71724045291382
 20
-1426.415769437486
  0
LINE
  5
32E
330
A
100
AcDbEntity
  8
0
  6
Continuous
 62
     7
100
AcDbLine
 10
124.3703066735156
 20
-1359.197485687228
 30
0.0
 11
170.595982237365
 21
-1414.287100611526
 31
0.0
  0
LWPOLYLINE
  5
32F
330
A
100
AcDbEntity
  8
0
  6
Continuous
 62
     7
100
AcDbPolyline
 90
       20
 70
   128
 43
0.0
 10
202.2654668797833
 20
-1304.380583246486
 10
204.1371701359504
 20
-1310.325774331601
 10
206.2252487093271
 20
-1320.04752835022
 10
207.7687206135148
 20
-1332.451498342436
 10
208.2865307429463
 20
-1344.698084527485
 10
207.9881238580171
 20
-1357.005288668605
 10
207.0776892709446
 20
-1369.666129406041
 10
206.340656989907
 20
-1377.376000582604
 10
205.4697319000652
 20
-1385.325149687469
 10
204.1731049367701
 20
-1393.165927377614
 10
203.0304541313073
 20
-1397.520270820837
 10
201.494891573502
 20
-1401.542463931526
 10
199.4753886867431
 20
-1405.123114351478
 10
196.8809168944194
 20
-1408.152829722487
 10
193.5131017441539
 20
-1410.632427360934
 10
189.5596959937042
 20
-1412.453790843956
 10
185.1559904054355
 20
-1413.673430041038
 10
180.4372757417128
 20
-1414.347854821668
 10
175.5388427649013
 20
-1414.533575055336
 10
170.5959822373653
 20
-1414.287100611526
  0
LWPOLYLINE
  5
345
330
A
100
AcDbEntity
  8
0
  6
Continuous
 62
     7
100
AcDbPolyline
 90
        9
 70
   128
 43
0.0
 10
-88.78046840845895
 20
-1353.534748301748
 10
-93.75062525781691
 20
-1352.504317558535
 10
-98.03880273266916
 20
-1351.182082932187
 10
-102.2614306462551
 20
-1349.532930473863
 10
-106.229686704454
 20
-1347.519463415932
 10
-109.7474890128899
 20
-1345.102377717702
 10
-112.6187556771873
 20
-1342.24236933848
 10
-114.6526317256961
 20
-1338.902002187894
 10
-114.824046511701
 20
-1338.323055983047
  0
LWPOLYLINE
  5
350
330
A
100
AcDbEntity
  8
0
  6
Continuous
 62
     7
100
AcDbPolyline
 90
       23
 70
   128
 43
0.0
 10
-143.7960318740524
 20
-1280.56475331465
 10
-144.534371135762
 20
-1279.884333267575
 10
-150.4273507758698
 20
-1275.174455454062
 10
-153.639081928107
 20
-1272.634211828609
 10
-156.4862826681876
 20
-1269.852593065162
 10
-158.6290985985468
 20
-1266.623419722113
 10
-159.8557938074824
 20
-1262.86726336762
 10
-160.2281593514145
 20
-1258.775303040542
 10
-159.6399332747632
 20
-1253.532388962096
 10
-158.0577049846479
 20
-1248.559228869216
 10
-155.6670530248462
 20
-1244.203529108153
 10
-152.6369253550422
 20
-1240.403514097754
 10
-147.2523504815584
 20
-1235.365519692654
 10
-141.3537270636023
 20
-1230.600972770598
 10
-135.4959180364929
 20
-1225.523763800831
 10
-130.1766271253767
 20
-1219.64013013501
 10
-126.8459306242339
 20
-1215.558137043186
 10
-123.4356941203967
 20
-1211.862795522628
 10
-119.7254106615102
 20
-1209.002308468623
 10
-116.616331902039
 20
-1207.668212028979
 10
-113.2056871169549
 20
-1207.080349126678
 10
-109.5620512303511
 20
-1207.112219565342
 10
-106.0158198418758
 20
-1207.594938045406
  0
LWPOLYLINE
  5
369
330
A
100
AcDbEntity
  8
0
  6
PHANTOM
 62
     7
100
AcDbPolyline
 90
       12
 70
   128
 43
0.0
 10
23.18862731952906
 20
-1103.123730034619
 10
25.73049830756863
 20
-1103.968290894292
 10
29.18832607612336
 20
-1105.609117652561
 10
32.55068041147537
 20
-1107.44221282278
 10
38.78880834319054
 20
-1110.587877092609
 10
45.32778141502386
 20
-1113.074759366496
 10
52.10916626239319
 20
-1114.56075840154
 10
57.13523806886268
 20
-1114.842254232505
 10
62.1359037329216
 20
-1114.338617256961
 10
67.01806388528358
 20
-1112.928699719243
 10
71.67167627243975
 20
-1110.785896994804
 10
72.93299216106984
 20
-1110.040541917431
  0
LWPOLYLINE
  5
377
330
A
100
AcDbEntity
  8
0
  6
PHANTOM
 62
     7
100
AcDbPolyline
 90
       13
 70
   128
 43
0.0
 10
103.6796017529995
 20
-1093.407888049186
 10
104.0549841892792
 20
-1093.358958127348
 10
107.1799889439407
 20
-1093.505359909905
 10
110.5367559964174
 20
-1094.286497766291
 10
113.742348477086
 20
-1095.570307673242
 10
118.0058454076845
 20
-1098.087058115176
 10
121.8315271292932
 20
-1101.238385424289
 10
126.3109702035063
 20
-1106.221453257449
 10
130.2122048898718
 20
-1111.71068992992
 10
133.8402183208262
 20
-1117.431150018929
 10
137.4999976288062
 20
-1123.107888101702
 10
141.9075535916323
 20
-1128.891513652406
 10
145.9393189444941
 20
-1133.215674460885
  0
LWPOLYLINE
  5
386
330
A
100
AcDbEntity
  8
0
  6
PHANTOM
 62
     7
100
AcDbPolyline
 90
       54
 70
   128
 43
0.0
 10
155.1127009376253
 20
-1181.200576083859
 10
155.8779606537739
 20
-1175.042480938234
 10
156.6220815979337
 20
-1168.881339350667
 10
157.3280620279228
 20
-1164.22749474048
 10
157.7008784552237
 20
-1159.550785477244
 10
157.4688941620776
 20
-1157.447333149199
 10
156.615480874304
 20
-1155.995322018057
 10
154.6355758102149
 20
-1153.918262192642
 10
150.294299208172
 20
-1150.298884625079
 10
145.8668095340984
 20
-1146.777957702832
 10
139.784726680553
 20
-1141.262762096282
 10
134.1976662061344
 20
-1135.22863178115
 10
129.2455210393594
 20
-1128.692492437665
 10
125.9032338132298
 20
-1123.446926363172
 10
122.6118078308967
 20
-1118.146431771699
 10
119.0661901723364
 20
-1113.061180978876
 10
114.961327917525
 20
-1108.461346300334
 10
112.3481946518101
 20
-1106.297900237131
 10
109.4352448713016
 20
-1104.569531388286
 10
107.6575008127494
 20
-1103.842946029237
 10
105.7953066728128
 20
-1103.396556218891
 10
103.0853924821337
 20
-1103.530525379559
 10
99.71181163076174
 20
-1104.708023766408
 10
96.54775450037284
 20
-1106.416661952626
 10
90.61906749320963
 20
-1110.317789041667
 10
81.47191794431007
 20
-1116.598333093185
 10
75.95085106964525
 20
-1119.814112702981
 10
70.10739269387251
 20
-1122.423570160943
 10
63.99133993684881
 20
-1124.143123265687
 10
57.43884860074092
 20
-1124.809182984767
 10
50.85515906253614
 20
-1124.451241433504
 10
44.82202861250776
 20
-1123.280907235558
 10
38.93174790465972
 20
-1121.413443390991
 10
33.22065008798804
 20
-1118.996788197657
 10
27.7250683114887
 20
-1116.17887995341
 10
25.16171437742136
 20
-1114.746482835454
 10
22.53714142681863
 20
-1113.434637392861
 10
19.78519184335215
 20
-1112.48801161826
 10
17.37746097183268
 20
-1112.343069595774
 10
14.6019600788604
 20
-1113.108062497393
 10
12.49749155632766
 20
-1114.180096633125
 10
10.57224364876701
 20
-1115.551637728767
 10
8.864217992740341
 20
-1117.175864615433
 10
7.388459162408975
 20
-1119.015523920602
 10
4.606310940354379
 20
-1123.841502187708
 10
2.535374590163313
 20
-1129.042961016169
 10
0.9107051557867146
 20
-1134.472265992305
 10
-0.5326423188244667
 20
-1139.981782702434
 10
-2.059612789719222
 20
-1145.423876732879
 10
-4.716788277570368
 20
-1153.482466390922
 10
-7.761611372082935
 20
-1161.443859417893
 10
-11.28814819188062
 20
-1169.19068023709
 10
-15.39046485558705
 20
-1176.60555327181
 10
-20.16262748182583
 20
-1183.571102945352
  0
LWPOLYLINE
  5
3BE
330
A
100
AcDbEntity
  8
0
  6
PHANTOM
 62
     7
100
AcDbPolyline
 90
        4
 70
   128
 43
0.0
 10
-106.2144528996802
 20
-1340.245680741271
 10
-108.813592564901
 20
-1337.788819017294
 10
-118.1362884563533
 20
-1328.261542690752
 10
-119.7458267731878
 20
-1326.465747128288
  0
LWPOLYLINE
  5
3C4
330
A
100
AcDbEntity
  8
0
  6
PHANTOM
 62
     7
100
AcDbPolyline
 90
        7
 70
   128
 43
0.0
 10
-143.1312694141613
 20
-1269.117977288903
 10
-142.9682821962715
 20
-1267.816496191002
 10
-141.348575376666
 20
-1260.948336609664
 10
-137.8195748904273
 20
-1250.383418057353
 10
-133.7893633030587
 20
-1239.987483636606
 10
-131.2432980214389
 20
-1233.744017835675
 10
-129.8767377322797
 20
-1230.906995087398
  0
LWPOLYLINE
  5
3CD
330
A
100
AcDbEntity
  8
0
  6
PHANTOM
 62
     7
100
AcDbPolyline
 90
       41
 70
   128
 43
0.0
 10
-20.16262748182583
 20
-1183.571102945352
 10
-25.72655758077268
 20
-1190.115395732602
 10
-31.96504275416466
 20
-1196.015732120156
 10
-37.95450767695728
 20
-1200.502755660507
 10
-44.44080118846833
 20
-1204.282838088374
 10
-51.31038660422493
 20
-1207.235139057023
 10
-58.95044342052432
 20
-1209.483852883174
 10
-66.77867738532187
 20
-1211.064796750997
 10
-74.70356108222524
 20
-1212.249637489921
 10
-82.63356709484224
 20
-1213.310041929374
 10
-89.64204851856342
 20
-1214.372059939857
 10
-96.57651558757482
 20
-1215.815289323313
 10
-100.852228980404
 20
-1217.068045518662
 10
-105.0016396750872
 20
-1218.707780239138
 10
-108.9170385750015
 20
-1220.806463026724
 10
-113.1423779242387
 20
-1223.998829521507
 10
-116.6955185632169
 20
-1227.916388893227
 10
-119.7833889089157
 20
-1232.873863401251
 10
-122.292955524831
 20
-1238.183946069375
 10
-124.4924782326675
 20
-1243.63139169617
 10
-128.3630239144799
 20
-1253.570894906906
 10
-131.7444652662682
 20
-1263.675254766316
 10
-133.0993477558157
 20
-1269.368658607005
 10
-133.8560954968542
 20
-1275.182031214809
 10
-133.8211508689779
 20
-1281.008871308658
 10
-133.0124903654607
 20
-1286.16029357113
 10
-131.5597757826781
 20
-1291.19472641075
 10
-129.5938705214927
 20
-1296.040057030039
 10
-125.053267298226
 20
-1304.290595379222
 10
-119.4258059157436
 20
-1311.844896168374
 10
-110.8077215898247
 20
-1321.455103511987
 10
-101.7736992326896
 20
-1330.685305225157
 10
-92.39180453404047
 20
-1339.55580052298
 10
-88.46151358060906
 20
-1342.543032266529
 10
-84.05887077593312
 20
-1344.771291509141
 10
-78.40056192853881
 20
-1346.436060822378
 10
-72.55003221473699
 20
-1347.281354918065
 10
-64.09650483012277
 20
-1347.462776540939
 10
-55.64315564227931
 20
-1346.907495628984
 10
-48.53357316896577
 20
-1346.35852569413
 10
-41.41465888406599
 20
-1346.295204176122
  0
LWPOLYLINE
  5
3F8
330
A
100
AcDbEntity
  8
0
  6
PHANTOM
 62
     7
100
AcDbPolyline
 90
        8
 70
   128
 43
0.0
 10
171.5085768478404
 20
-1375.344691034363
 10
167.3593814063888
 20
-1374.309204591972
 10
156.529304763419
 20
-1370.790196355348
 10
145.8632883827357
 20
-1366.75431352429
 10
135.1980642632999
 20
-1362.717950569166
 10
124.3703644040725
 20
-1359.19750196034
 10
124.3703066735157
 20
-1359.197485687228
 10
124.3703066735157
 20
-1359.197485687228
  0
LWPOLYLINE
  5
402
330
A
100
AcDbEntity
  8
0
  6
PHANTOM
 62
     7
100
AcDbPolyline
 90
       45
 70
   128
 43
0.0
 10
127.0251825922431
 20
-1349.649650968063
 10
137.8689577178676
 20
-1353.139555894684
 10
148.5478075212256
 20
-1357.155241801049
 10
159.2246323826181
 20
-1361.178170865283
 10
170.062332682346
 20
-1364.689805265508
 10
174.2142573479972
 20
-1365.739056333939
 10
178.4370172793233
 20
-1366.404415603964
 10
180.6088972064861
 20
-1366.511270301056
 10
182.7365050775162
 20
-1366.200187599415
 10
183.0193959863289
 20
-1366.096962160359
 10
183.3445728251252
 20
-1365.894252578541
 10
184.1522682747226
 20
-1364.884998880671
 10
185.2736260509695
 20
-1362.721228018533
 10
186.1123988051629
 20
-1360.423400275768
 10
187.7843210126007
 20
-1354.180620782775
 10
188.9468055094639
 20
-1347.806047908864
 10
189.814825656096
 20
-1341.384716674944
 10
190.7750157021652
 20
-1329.756225043227
 10
190.9221032243977
 20
-1318.066869157939
 10
190.44679113735
 20
-1306.36756057565
 10
189.5397823555785
 20
-1294.709210852928
 10
188.7263717831202
 20
-1287.994469215937
 10
187.6501961069974
 20
-1283.948980989719
 10
186.0952386453131
 20
-1281.472786964279
 10
183.8097794453662
 20
-1279.557431629555
 10
181.250429015709
 20
-1277.99414942896
 10
175.3905136737746
 20
-1275.039897902251
 10
169.4366585149289
 20
-1272.170922581086
 10
163.562972560551
 20
-1269.108767390104
 10
157.9283750792775
 20
-1265.680068661527
 10
152.6917853397452
 20
-1261.711462727578
 10
148.1252426265385
 20
-1257.127692190163
 10
144.3988686734103
 20
-1251.851115832553
 10
141.7260704380375
 20
-1245.944090412765
 10
140.0946353204295
 20
-1239.659859624957
 10
139.4602196361736
 20
-1234.139512851793
 10
139.4552134316577
 20
-1228.562530424606
 10
140.0257212871978
 20
-1223.028218026187
 10
141.6029844177642
 20
-1215.989465105465
 10
143.9879433863427
 20
-1209.147301963997
 10
146.9382166730346
 20
-1202.536824599898
 10
149.4658182875014
 20
-1197.373220327293
 10
151.8619316017569
 20
-1192.126291437465
 10
153.8398085177989
 20
-1186.750566999843
 10
155.1127009376252
 20
-1181.200576083859
  0
LWPOLYLINE
  5
431
330
A
100
AcDbEntity
  8
0
  6
PHANTOM
 62
     7
100
AcDbPolyline
 90
       42
 70
   128
 43
0.0
 10
-41.41465888406599
 20
-1346.295204176122
 10
-37.88816600950536
 20
-1346.612977463521
 10
-34.40794090059647
 20
-1347.252356715622
 10
-30.23835013020502
 20
-1348.591458619521
 10
-26.34943143504287
 20
-1350.593210566082
 10
-22.87633420173774
 20
-1353.269137561904
 10
-19.8841298397146
 20
-1356.480523414723
 10
-16.43274374637767
 20
-1361.750315245864
 10
-13.81974227988806
 20
-1367.499560226604
 10
-11.1629512407008
 20
-1375.779364559253
 10
-9.242596116193171
 20
-1384.277167893964
 10
-7.790902428845559
 20
-1392.908359488949
 10
-6.540095701138365
 20
-1401.588328602422
 10
-5.222401455551917
 20
-1410.232464492596
 10
-2.98284553278802
 20
-1421.786628028637
 10
-1.811875509688254
 20
-1426.310127857162
 10
-0.3309872569713518
 20
-1430.738354005447
 10
1.018507115190941
 20
-1433.838574065926
 10
2.737192243645964
 20
-1436.740741668534
 10
3.881414466088112
 20
-1438.160516939455
 10
5.238945893492163
 20
-1439.367649673138
 10
6.832480922455156
 20
-1440.269135704243
 10
8.559763694952538
 20
-1440.894917338823
 10
12.95049439264158
 20
-1441.676031197621
 10
17.42935922610056
 20
-1441.781302751909
 10
25.94297671942487
 20
-1441.035742788359
 10
32.28964256469173
 20
-1439.970439996721
 10
38.48833902693593
 20
-1438.288783543152
 10
41.82786503524193
 20
-1436.922458110816
 10
44.93910013615098
 20
-1435.111166652928
 10
47.67475119217695
 20
-1432.676076841364
 10
49.88985433968461
 20
-1429.746933190162
 10
52.29633843225831
 20
-1425.16771235747
 10
54.13789533673329
 20
-1420.301924773897
 10
55.61295626964142
 20
-1415.314071957866
 10
58.04975630972738
 20
-1405.065649536534
 10
60.29362081651949
 20
-1394.767693834974
 10
63.03330235874333
 20
-1384.608995065507
 10
65.3241653580898
 20
-1378.265069630608
 10
68.13753030111979
 20
-1372.125685471176
 10
71.54783394698412
 20
-1366.321942179989
 10
72.98307990398742
 20
-1364.475335374291
  0
LWPOLYLINE
  5
45D
330
A
100
AcDbEntity
  8
0
  6
PHANTOM
 62
     7
100
AcDbPolyline
 90
        4
 70
   128
 43
0.0
 10
110.4317544343867
 20
-1346.936630008996
 10
114.3372797388122
 20
-1347.136344160646
 10
120.736412633595
 20
-1348.133237224159
 10
127.0251825922431
 20
-1349.649650968063
  0
LWPOLYLINE
  5
463
330
A
100
AcDbEntity
  8
0
  6
PHANTOM
 62
     7
100
AcDbPolyline
 90
       19
 70
   128
 43
0.0
 10
124.3702629239403
 20
-1359.197433548514
 10
124.3702051912475
 20
-1359.197417283424
 10
118.9819001681036
 20
-1357.86474525225
 10
113.4993928206848
 20
-1356.9650526104
 10
107.9729349207563
 20
-1356.645638765028
 10
102.5735657519817
 20
-1357.042658099575
 10
97.29257161972913
 20
-1358.223133446495
 10
92.10638026529004
 20
-1360.315842461789
 10
87.38733794869524
 20
-1363.304250617053
 10
83.2220505510523
 20
-1367.233646647587
 10
79.73334905084614
 20
-1371.786909957106
 10
76.81795036068
 20
-1376.820578046562
 10
74.425978880954
 20
-1382.144529535082
 10
72.47632186258512
 20
-1387.639058328188
 10
69.81292130083676
 20
-1397.664652995854
 10
67.63455031368312
 20
-1407.825215748375
 10
65.25103433144716
 20
-1417.934808308052
 10
63.47457431693306
 20
-1423.859504170685
 10
61.57167053694544
 20
-1428.77107098893
  0
LINE
  5
478
330
A
100
AcDbEntity
  8
0
  6
Continuous
 62
     7
100
AcDbLine
 10
636.2838102122784
 20
1046.17127187604
 30
0.0
 11
636.2838102122784
 21
1039.486283394437
 31
0.0
  0
LINE
  5
479
330
A
100
AcDbEntity
  8
0
  6
Continuous
 62
     7
100
AcDbLine
 10
818.2838102122783
 20
1039.486283394437
 30
0.0
 11
818.2838102122783
 21
1046.17127187604
 31
0.0
  0
ARC
  5
47A
330
A
100
AcDbEntity
  8
0
  6
Continuous
 62
     7
100
AcDbCircle
 10
727.2838102122783
 20
1273.409347669852
 30
0.0
 40
250.9999999999999
100
AcDbArc
 50
258.6461412486722
 51
275.5364405716954
  0
ARC
  5
47B
330
A
100
AcDbEntity
  8
0
  6
Continuous
 62
     7
100
AcDbCircle
 10
727.2838102122783
 20
1273.409347669852
 30
0.0
 40
250.9999999999999
100
AcDbArc
 50
275.9951057597848
 51
291.256870832157
  0
ARC
  5
47C
330
A
100
AcDbEntity
  8
0
  6
Continuous
 62
     7
100
AcDbCircle
 10
727.2838102122783
 20
1273.409347669852
 30
0.0
 40
251.0
100
AcDbArc
 50
248.7431291678446
 51
258.1859091911024
  0
LINE
  5
47D
330
A
100
AcDbEntity
  8
0
  6
Continuous
 62
     7
100
AcDbLine
 10
661.2838102122784
 20
1073.17127187604
 30
0.0
 11
661.2838102122784
 21
1046.17127187604
 31
0.0
  0
LINE
  5
47E
330
A
100
AcDbEntity
  8
0
  6
Continuous
 62
     7
100
AcDbLine
 10
793.2838102122783
 20
1046.17127187604
 30
0.0
 11
793.2838102122783
 21
1073.17127187604
 31
0.0
  0
LINE
  5
47F
330
A
100
AcDbEntity
  8
0
  6
Continuous
 62
     7
100
AcDbLine
 10
766.2838102122787
 20
-427.8287281239595
 30
0.0
 11
766.2838102122787
 21
-417.8287281239595
 31
0.0
  0
LINE
  5
480
330
A
100
AcDbEntity
  8
0
  6
Continuous
 62
     7
100
AcDbLine
 10
751.4832439613883
 20
1027.422058306904
 30
0.0
 11
757.7838007097454
 21
-417.8287281239595
 31
0.0
  0
LINE
  5
481
330
A
100
AcDbEntity
  8
0
  6
Continuous
 62
     7
100
AcDbLine
 10
759.7838197148107
 20
-417.8287281239595
 30
0.0
 11
753.4823817820377
 21
1027.624188455196
 31
0.0
  0
LINE
  5
482
330
A
100
AcDbEntity
  8
0
  6
Continuous
 62
     7
100
AcDbLine
 10
711.2838102122784
 20
-427.8287281239595
 30
0.0
 11
711.2838102122784
 21
-437.8287281239602
 31
0.0
  0
LINE
  5
483
330
A
100
AcDbEntity
  8
0
  6
Continuous
 62
     7
100
AcDbLine
 10
743.2838102122783
 20
-437.8287281239602
 30
0.0
 11
743.2838102122783
 21
-427.8287281239595
 31
0.0
  0
LINE
  5
484
330
A
100
AcDbEntity
  8
0
  6
Continuous
 62
     7
100
AcDbLine
 10
654.2838102122783
 20
-417.8287281239595
 30
0.0
 11
654.2838102122783
 21
-427.8287281239595
 31
0.0
  0
LINE
  5
485
330
A
100
AcDbEntity
  8
0
  6
Continuous
 62
     7
100
AcDbLine
 10
675.8875379175634
 20
1027.726247328091
 30
0.0
 11
663.2838482204221
 21
-417.8200094748017
 31
0.0
  0
LINE
  5
486
330
A
100
AcDbEntity
  8
0
  6
Continuous
 62
     7
100
AcDbLine
 10
665.2838482218669
 20
-417.8287281239595
 30
0.0
 11
677.8840595162861
 21
1027.318582643666
 31
0.0
  0
LWPOLYLINE
  5
487
330
A
100
AcDbEntity
  8
0
  6
Continuous
 62
     7
100
AcDbPolyline
 90
       26
 70
   128
 43
0.0
 10
660.596933074396
 20
-623.0511773789296
 10
660.3036179507179
 20
-623.3047366363678
 10
659.9862462472392
 20
-624.6863982225339
 10
659.7402148731792
 20
-627.1300349469251
 10
659.5677024626712
 20
-630.6356468095416
 10
659.4569927141476
 20
-635.2032338103834
 10
659.3974787871351
 20
-639.9635539007126
 10
659.3577412055298
 20
-645.5041006232072
 10
659.3273047267826
 20
-651.8248189096219
 10
659.2989771771073
 20
-658.182674058709
 10
659.271880520861
 20
-663.8598354877843
 10
659.2469959227932
 20
-668.8563031968485
 10
659.2249140512187
 20
-673.1720771859012
 10
659.2031157241091
 20
-677.346825610337
 10
659.1858245470921
 20
-680.5950742492018
 10
659.1732111242488
 20
-682.9168289916955
 10
659.1649729025021
 20
-684.4058523157533
 10
659.1503057295471
 20
-687.006468215182
 10
659.128776245143
 20
-690.7186766899814
 10
659.0997919726219
 20
-695.5424777401516
 10
659.062620473887
 20
-701.4778713656927
 10
659.0164145242316
 20
-708.5248575666043
 10
658.960243840423
 20
-716.6834363428872
 10
658.8931340107507
 20
-725.9536076945404
 10
658.8141133465415
 20
-736.3353716215645
 10
658.7222688456124
 20
-747.8287281239596
  0
LWPOLYLINE
  5
4A3
330
A
100
AcDbEntity
  8
0
  6
Continuous
 62
     7
100
AcDbPolyline
 90
       31
 70
   128
 43
0.0
 10
806.2700247229727
 20
-747.8287281239594
 10
805.877864770936
 20
-726.4580040515341
 10
805.5647929904756
 20
-706.3566697250259
 10
805.3235721462126
 20
-687.524725144435
 10
805.1469036806564
 20
-669.962170309761
 10
805.0276261017383
 20
-653.6690052210042
 10
804.959605673903
 20
-638.6452298781643
 10
804.9362110360174
 20
-625.6426133670943
 10
804.945612836498
 20
-613.7684584342312
 10
804.9808191194964
 20
-603.0227650795752
 10
805.0347953268751
 20
-593.4055333031266
 10
805.1008965791764
 20
-584.8941765262789
 10
805.1527647622933
 20
-579.4137985190278
 10
805.2070853800866
 20
-574.3787396637777
 10
805.2623759888104
 20
-569.7889999605282
 10
805.3172155252195
 20
-565.6445794092795
 10
805.3702499608867
 20
-561.9454780100318
 10
805.4201971698299
 20
-558.6916957627846
 10
805.4735041234645
 20
-555.4263418766193
 10
805.5450307980082
 20
-551.3251160086159
 10
805.6330516295965
 20
-546.6371440269527
 10
805.7290371719885
 20
-541.8752046849719
 10
805.7798518306171
 20
-539.4713218268314
 10
805.8299976726527
 20
-537.112454356663
 10
805.8629237752807
 20
-535.0545924375565
 10
805.8548841936032
 20
-533.326592570125
 10
805.7699754310716
 20
-531.9284547543686
 10
805.5641040699486
 20
-530.8601789902875
 10
805.1917844371571
 20
-530.1217652778811
 10
804.6148649155677
 20
-529.7132136171499
 10
804.1150386278459
 20
-529.6642722881032
  0
ARC
  5
4C4
330
A
100
AcDbEntity
  8
0
  6
Continuous
 62
     7
100
AcDbCircle
 10
893.4911660727969
 20
-447.8287281239609
 30
0.0
 40
10.0
100
AcDbArc
 50
354.2349910769503
 51
89.98486867434712
  0
LWPOLYLINE
  5
4C5
330
A
100
AcDbEntity
  8
0
  6
Continuous
 62
     7
100
AcDbPolyline
 90
       36
 70
   128
 43
0.0
 10
883.7105312463766
 20
-747.8287281239605
 10
884.5038465548237
 20
-733.4377319848953
 10
885.237790323195
 20
-720.1815185898431
 10
885.9119531352654
 20
-708.0600879391371
 10
886.5258170064636
 20
-697.0734400327768
 10
887.0787984634503
 20
-687.2215748707623
 10
887.5702833647771
 20
-678.5044924530938
 10
887.9996209974654
 20
-670.9221927797714
 10
888.3661550195872
 20
-664.474675850795
 10
888.6692559197882
 20
-659.1619416661643
 10
888.908349005606
 20
-654.9839902258796
 10
889.084735746451
 20
-651.9095045592083
 10
889.2531301587661
 20
-648.9802424543433
 10
889.4395101715881
 20
-645.7448448395563
 10
889.6440165140107
 20
-642.2033117148474
 10
889.8645815030617
 20
-638.3941150925943
 10
890.0472072510915
 20
-635.2485332837745
 10
890.2087195064359
 20
-632.4729406989217
 10
890.3981622433224
 20
-629.2250003415087
 10
890.6188399574649
 20
-625.4522874081303
 10
890.8710832425105
 20
-621.1548018987867
 10
891.1553151009762
 20
-616.3325438134782
 10
891.5993743560965
 20
-608.8450837244855
 10
892.1067809671518
 20
-600.3654754840584
 10
892.6542053570123
 20
-591.3141979342534
 10
893.1952684335788
 20
-582.4710488335974
 10
894.2756226788645
 20
-565.1603548949453
 10
895.33056685064
 20
-548.784791638173
 10
896.3661584095653
 20
-533.3443590632803
 10
897.4000459719706
 20
-518.7235252138743
 10
898.4941599649248
 20
-504.2403330946838
 10
899.4081014891371
 20
-492.8788057288312
 10
900.3727567611518
 20
-481.5332271177265
 10
901.4025269957413
 20
-470.0528522487744
 10
902.5804908133803
 20
-457.5779870176447
 10
903.4483012016913
 20
-448.8240496941301
  0
LWPOLYLINE
  5
4EB
330
A
100
AcDbEntity
  8
0
  6
Continuous
 62
     7
100
AcDbPolyline
 90
       30
 70
   128
 43
0.0
 10
553.9833128355618
 20
-447.6788028103894
 10
553.686942421792
 20
-468.3122379016983
 10
553.3719469779065
 20
-490.2159159936222
 10
553.0764842100856
 20
-510.7309767047355
 10
552.8005483995338
 20
-529.8574200350381
 10
552.5441592520908
 20
-547.59524598453
 10
552.3073579266865
 20
-563.944454553211
 10
552.1020809140959
 20
-578.0875624679514
 10
551.9143336039995
 20
-590.9962178702813
 10
551.7441944874828
 20
-602.6704207602006
 10
551.591752268157
 20
-613.1101711377095
 10
551.4571027704035
 20
-622.3154690028077
 10
551.3609605339802
 20
-628.8796542877622
 10
551.2766609840509
 20
-634.6305354528645
 10
551.2025580346938
 20
-639.6780941267381
 10
551.1283285996369
 20
-644.6931939473317
 10
551.0523283457615
 20
-649.7894946641244
 10
550.9748038829011
 20
-654.9669962771157
 10
550.8961293881584
 20
-660.2256987863058
 10
550.8035546991434
 20
-666.4634806241679
 10
550.7118214301183
 20
-672.7557902362052
 10
550.6326675707445
 20
-678.2289743441182
 10
550.5831946999737
 20
-681.5997114300041
 10
550.5605103171617
 20
-683.0367221097056
 10
550.5485390788749
 20
-683.6631615979914
 10
550.5399679120846
 20
-684.2233681635479
 10
550.5567913325866
 20
-685.1450825264727
 10
550.6601985827093
 20
-685.8018651984797
 10
550.8703338512763
 20
-686.1937161795694
 10
551.1596241856368
 20
-686.3131048365706
  0
LWPOLYLINE
  5
50B
330
A
100
AcDbEntity
  8
0
  6
Continuous
 62
     7
100
AcDbPolyline
 90
       49
 70
   128
 43
0.0
 10
545.0277508074541
 20
-447.4349275324208
 10
544.5465886842811
 20
-459.6493310751411
 10
544.0015560654685
 20
-472.9895020865156
 10
543.4916500011017
 20
-485.0404554630872
 10
543.0212249444439
 20
-495.8021912048558
 10
542.5947583779819
 20
-505.2747093118213
 10
542.2166051786335
 20
-513.4580097839837
 10
541.8908073692943
 20
-520.3520926213431
 10
541.6515148223608
 20
-525.326853762983
 10
541.4571158873469
 20
-529.3145576529771
 10
541.3092988011848
 20
-532.3152042913249
 10
541.2093581345266
 20
-534.3287936780265
 10
541.1564069880742
 20
-535.390754475842
 10
541.1035342449492
 20
-536.4478500823287
 10
541.0163883599625
 20
-538.182942256116
 10
540.8944364852154
 20
-540.5960309972039
 10
540.736926459443
 20
-543.6871163055922
 10
540.5428760401024
 20
-547.4561981812808
 10
540.2658791180823
 20
-552.7631085800664
 10
539.9708617992161
 20
-558.322852594545
 10
539.6827093277996
 20
-563.6639433675375
 10
539.401926026621
 20
-568.7863808990441
 10
538.9204465920575
 20
-577.3897466174266
 10
538.4669296917395
 20
-585.2958762341321
 10
538.0441081589567
 20
-592.5047697491609
 10
537.6295956691457
 20
-599.4292492460614
 10
536.983352894923
 20
-609.9637351096897
 10
536.230569289341
 20
-621.8709429666053
 10
535.3637803424337
 20
-635.1508728168083
 10
534.7965139408636
 20
-643.6193526032615
 10
534.1863234590148
 20
-652.5519350710259
 10
533.6102889277436
 20
-660.8310497290815
 10
533.1226187356215
 20
-667.7333618422686
 10
532.8146174464793
 20
-672.0457820886865
 10
532.5612126071142
 20
-675.5680264025584
 10
532.3635413479815
 20
-678.3000947838838
 10
532.2523875098858
 20
-679.8305931141445
 10
532.173333572392
 20
-680.9166174823478
 10
532.1341305932649
 20
-681.4544231235853
 10
532.073471171937
 20
-682.2856054215788
 10
531.8868588122122
 20
-684.8353707428206
 10
531.6122276342902
 20
-688.5683370310701
 10
531.2480261097221
 20
-693.4845042863267
 10
530.7922945402379
 20
-699.5838725085908
 10
530.2427369679669
 20
-706.8664416978623
 10
529.5968179744643
 20
-715.332211854141
 10
528.8518893848395
 20
-724.9811829774274
 10
528.0053528478324
 20
-735.813355067721
 10
527.054865217317
 20
-747.8287281239589
  0
LWPOLYLINE
  5
53E
330
A
100
AcDbEntity
  8
0
  6
Continuous
 62
     7
100
AcDbPolyline
 90
        9
 70
   128
 43
0.0
 10
545.0362771742539
 20
-447.4133077957297
 10
545.2998163572501
 20
-445.5111190548687
 10
545.9219605334189
 20
-443.6943997486497
 10
546.8797660960437
 20
-442.0301473591229
 10
548.1379108240365
 20
-440.5797366507954
 10
549.649996504673
 20
-439.3966562749213
 10
551.3602600198423
 20
-438.524536200079
 10
553.2056297938934
 20
-437.9955387140034
 10
555.0285932332298
 20
-437.8287292579305
  0
LWPOLYLINE
  5
549
330
A
100
AcDbEntity
  8
0
  6
Continuous
 62
     7
100
AcDbPolyline
 90
        9
 70
   128
 43
0.0
 10
553.9848584917065
 20
-447.6851645101281
 10
554.2011456505547
 20
-445.7551871827759
 10
554.7863571032726
 20
-443.9034155762068
 10
555.7184210004159
 20
-442.1996911535625
 10
556.9621835972749
 20
-440.7082716267801
 10
558.4707351133681
 20
-439.485407411159
 10
560.1871789828691
 20
-438.5772200833234
 10
562.0467777668721
 20
-438.0179628587122
 10
563.9793947922202
 20
-437.828728696468
  0
LINE
  5
554
330
A
100
AcDbEntity
  8
0
  6
Continuous
 62
     7
100
AcDbLine
 10
636.2838102122784
 20
1039.486283394437
 30
0.0
 11
818.2838102122783
 21
1039.486283394437
 31
0.0
  0
LINE
  5
555
330
A
100
AcDbEntity
  8
0
  6
Continuous
 62
     7
100
AcDbLine
 10
636.2838102122784
 20
1046.17127187604
 30
0.0
 11
818.2838102122783
 21
1046.17127187604
 31
0.0
  0
LWPOLYLINE
  5
556
330
A
100
AcDbEntity
  8
0
  6
Continuous
 62
     7
100
AcDbPolyline
 90
        9
 70
   128
 43
0.0
 10
751.6855592097405
 20
1027.548550199487
 10
751.9334703067581
 20
1027.615077042932
 10
752.2466283021195
 20
1027.671263462808
 10
752.5856534951227
 20
1027.710019777361
 10
752.9084678481869
 20
1027.727092432915
 10
753.1802620078003
 20
1027.721460623748
 10
753.3747460904686
 20
1027.694354586921
 10
753.4729869544165
 20
1027.648591699952
 10
753.4688943840824
 20
1027.624132811591
  0
LWPOLYLINE
  5
561
330
A
100
AcDbEntity
  8
0
  6
Continuous
 62
     7
100
AcDbPolyline
 90
        4
 70
   128
 43
0.0
 10
751.4944157590932
 20
1027.422113177397
 10
751.4875644270173
 20
1027.437851588382
 10
751.5746344206944
 20
1027.504334276652
 10
751.6855592097405
 20
1027.548550199487
  0
LWPOLYLINE
  5
567
330
A
100
AcDbEntity
  8
0
  6
Continuous
 62
     7
100
AcDbPolyline
 90
        4
 70
   128
 43
0.0
 10
676.1396694326663
 20
1027.67608673115
 10
675.9637439699352
 20
1027.712168250323
 10
675.8892437147514
 20
1027.727449380823
 10
675.8955164368467
 20
1027.726162731336
  0
LWPOLYLINE
  5
56D
330
A
100
AcDbEntity
  8
0
  6
Continuous
 62
     7
100
AcDbPolyline
 90
        9
 70
   128
 43
0.0
 10
677.8702399114183
 20
1027.321413032172
 10
677.8695210295539
 20
1027.321560266895
 10
677.7612116661562
 20
1027.343744115593
 10
677.5580155146207
 20
1027.385367557043
 10
677.2791952326415
 20
1027.442492629368
 10
676.9523661426069
 20
1027.509469296996
 10
676.6138477839176
 20
1027.578859066238
 10
676.305244482912
 20
1027.642132470684
 10
676.1396694326663
 20
1027.67608673115
  0
LINE
  5
578
330
A
100
AcDbEntity
  8
0
  6
Continuous
 62
     7
100
AcDbLine
 10
661.2838102122784
 20
1073.17127187604
 30
0.0
 11
793.2838102122783
 21
1073.17127187604
 31
0.0
  0
LINE
  5
579
330
A
100
AcDbEntity
  8
0
  6
Continuous
 62
     7
100
AcDbLine
 10
757.0435697314963
 20
-417.8287281239595
 30
0.0
 11
766.2838102122787
 21
-417.8287281239595
 31
0.0
  0
LINE
  5
57A
330
A
100
AcDbEntity
  8
0
  6
Continuous
 62
     7
100
AcDbLine
 10
757.0435697314963
 20
-427.8287281239595
 30
0.0
 11
766.2838102122787
 21
-427.8287281239595
 31
0.0
  0
LINE
  5
57B
330
A
100
AcDbEntity
  8
0
  6
Continuous
 62
     7
100
AcDbLine
 10
737.8043279891341
 20
-417.8287281239595
 30
0.0
 11
737.8043279891341
 21
-427.8287281239595
 31
0.0
  0
LINE
  5
57C
330
A
100
AcDbEntity
  8
0
  6
Continuous
 62
     7
100
AcDbLine
 10
737.8043279891341
 20
-417.8287281239595
 30
0.0
 11
757.0435697314963
 21
-417.8287281239595
 31
0.0
  0
LINE
  5
57D
330
A
100
AcDbEntity
  8
0
  6
Continuous
 62
     7
100
AcDbLine
 10
737.8043279891341
 20
-427.8287281239595
 30
0.0
 11
757.0435697314963
 21
-427.8287281239595
 31
0.0
  0
LINE
  5
57E
330
A
100
AcDbEntity
  8
0
  6
Continuous
 62
     7
100
AcDbLine
 10
695.3931827706339
 20
-417.8287281239595
 30
0.0
 11
695.3931827706339
 21
-427.8287281239595
 31
0.0
  0
LINE
  5
57F
330
A
100
AcDbEntity
  8
0
  6
Continuous
 62
     7
100
AcDbLine
 10
695.3931827706339
 20
-417.8287281239595
 30
0.0
 11
737.8043279891341
 21
-417.8287281239595
 31
0.0
  0
LINE
  5
580
330
A
100
AcDbEntity
  8
0
  6
Continuous
 62
     7
100
AcDbLine
 10
695.3931827706339
 20
-427.8287281239595
 30
0.0
 11
737.8043279891341
 21
-427.8287281239595
 31
0.0
  0
LINE
  5
581
330
A
100
AcDbEntity
  8
0
  6
Continuous
 62
     7
100
AcDbLine
 10
659.109312728766
 20
-417.8287281239595
 30
0.0
 11
695.3931827706339
 21
-417.8287281239595
 31
0.0
  0
LINE
  5
582
330
A
100
AcDbEntity
  8
0
  6
Continuous
 62
     7
100
AcDbLine
 10
659.109312728766
 20
-427.8287281239595
 30
0.0
 11
695.3931827706339
 21
-427.8287281239595
 31
0.0
  0
LINE
  5
583
330
A
100
AcDbEntity
  8
0
  6
Continuous
 62
     7
100
AcDbLine
 10
654.2838102122783
 20
-417.8287281239595
 30
0.0
 11
659.109312728766
 21
-417.8287281239595
 31
0.0
  0
LINE
  5
584
330
A
100
AcDbEntity
  8
0
  6
Continuous
 62
     7
100
AcDbLine
 10
654.2838102122783
 20
-427.8287281239595
 30
0.0
 11
659.109312728766
 21
-427.8287281239595
 31
0.0
  0
LINE
  5
585
330
A
100
AcDbEntity
  8
0
  6
Continuous
 62
     7
100
AcDbLine
 10
664.2838102122783
 20
-417.8287281239595
 30
0.0
 11
663.2838482204221
 21
-417.8200094748017
 31
0.0
  0
LINE
  5
586
330
A
100
AcDbEntity
  8
0
  6
Continuous
 62
     7
100
AcDbLine
 10
629.1871615772085
 20
-448.063790030171
 30
0.0
 11
634.7179381522995
 21
-747.8287281239598
 31
0.0
  0
LINE
  5
587
330
A
100
AcDbEntity
  8
0
  6
Continuous
 62
     7
100
AcDbLine
 10
629.187160605108
 20
-448.0637373428765
 30
0.0
 11
629.1871615772085
 21
-448.063790030171
 31
0.0
  0
LINE
  5
588
330
A
100
AcDbEntity
  8
0
  6
Continuous
 62
     7
100
AcDbLine
 10
807.9431954665809
 20
-448.665377722146
 30
0.0
 11
807.9433237441245
 21
-448.6637592710078
 31
0.0
  0
LINE
  5
589
330
A
100
AcDbEntity
  8
0
  6
Continuous
 62
     7
100
AcDbLine
 10
807.9431954665809
 20
-448.665377722146
 30
0.0
 11
801.3874682210268
 21
-531.3776274909757
 31
0.0
  0
LINE
  5
58A
330
A
100
AcDbEntity
  8
0
  6
Continuous
 62
     7
100
AcDbLine
 10
658.7758262424347
 20
-747.8287281239592
 30
0.0
 11
806.2711112795364
 21
-747.8287281239598
 31
0.0
  0
LINE
  5
58B
330
A
100
AcDbEntity
  8
0
  6
Continuous
 62
     7
100
AcDbLine
 10
658.7222688456123
 20
-747.8287281239594
 30
0.0
 11
634.7179381522995
 21
-747.8287281239594
 31
0.0
  0
LWPOLYLINE
  5
58C
330
A
100
AcDbEntity
  8
0
  6
Continuous
 62
     7
100
AcDbPolyline
 90
        7
 70
   128
 43
0.0
 10
629.1871607146348
 20
-448.0637373454939
 10
629.4825603972017
 20
-444.7413481876662
 10
630.4300642922823
 20
-441.7670376990917
 10
631.9228485462327
 20
-439.4761366120475
 10
633.7926132111483
 20
-438.1269265934545
 10
634.8589528197623
 20
-437.8512197578065
 10
635.2665800611129
 20
-437.8287281239602
  0
LINE
  5
595
330
A
100
AcDbEntity
  8
0
  6
Continuous
 62
     7
100
AcDbLine
 10
635.266580061107
 20
-437.8287281239602
 30
0.0
 11
799.1582536566942
 21
-437.8287281239604
 31
0.0
  0
LWPOLYLINE
  5
596
330
A
100
AcDbEntity
  8
0
  6
Continuous
 62
     7
100
AcDbPolyline
 90
        7
 70
   128
 43
0.0
 10
797.990681291878
 20
-437.8287281239606
 10
798.4602382861154
 20
-437.8397859780846
 10
800.989115757668
 20
-438.2900216434149
 10
803.9735170395788
 20
-439.8214677414704
 10
806.2833987429085
 20
-442.2556707411255
 10
807.6583401904011
 20
-445.318193113782
 10
807.9433237441245
 20
-448.6637592710078
  0
LWPOLYLINE
  5
59F
330
A
100
AcDbEntity
  8
0
  6
Continuous
 62
     7
100
AcDbPolyline
 90
        9
 70
   128
 43
0.0
 10
801.3451280838177
 20
-437.8287281239608
 10
802.3568089879068
 20
-437.8840127796451
 10
803.6610732785474
 20
-438.1219427671819
 10
804.6300220262965
 20
-438.4279228080897
 10
805.8348546735043
 20
-438.9809172773701
 10
806.8875824237471
 20
-439.6491189243824
 10
807.6498353998765
 20
-440.2671659517559
 10
808.4692259637503
 20
-441.0964926872794
 10
809.0375307437383
 20
-441.8287281239608
  0
LINE
  5
5AA
330
A
100
AcDbEntity
  8
0
  6
Continuous
 62
     7
100
AcDbLine
 10
903.3875766842443
 20
-448.8176377514131
 30
0.0
 11
903.3793018055483
 21
-448.8269733277678
 31
0.0
  0
LINE
  5
5AB
330
A
100
AcDbEntity
  8
0
  6
Continuous
 62
     7
100
AcDbLine
 10
797.990681291878
 20
-437.8287281239606
 30
0.0
 11
893.4491438976078
 21
-437.8287281239608
 31
0.0
  0
LINE
  5
5AC
330
A
100
AcDbEntity
  8
0
  6
Continuous
 62
     7
100
AcDbLine
 10
883.6547010139421
 20
-747.8287281239606
 30
0.0
 11
806.2700247229727
 21
-747.8287281239601
 31
0.0
  0
LINE
  5
5AD
330
A
100
AcDbEntity
  8
0
  6
Continuous
 62
     7
100
AcDbLine
 10
554.0573733817304
 20
-447.6893817777882
 30
0.0
 11
554.0485940357617
 21
-447.6796137275242
 31
0.0
  0
LINE
  5
5AE
330
A
100
AcDbEntity
  8
0
  6
Continuous
 62
     7
100
AcDbLine
 10
545.0915583558666
 20
-447.4376497916962
 30
0.0
 11
545.1118426406757
 21
-447.4180107484108
 31
0.0
  0
LINE
  5
5AF
330
A
100
AcDbEntity
  8
0
  6
Continuous
 62
     7
100
AcDbLine
 10
634.7179381522995
 20
-747.8287281239594
 30
0.0
 11
527.2013892142665
 21
-747.8287281239596
 31
0.0
  0
LINE
  5
5B0
330
A
100
AcDbEntity
  8
0
  6
Continuous
 62
     7
100
AcDbLine
 10
555.1311821859528
 20
-437.8287281239599
 30
0.0
 11
563.2621883907789
 21
-437.8287281239602
 31
0.0
  0
LINE
  5
5B1
330
A
100
AcDbEntity
  8
0
  6
Continuous
 62
     7
100
AcDbLine
 10
635.266580061107
 20
-437.8287281239602
 30
0.0
 11
564.038546711529
 21
-437.8287281239602
 31
0.0
  0
LINE
  5
5B2
330
A
100
AcDbEntity
  8
0
  6
PHANTOM
 62
     7
100
AcDbLine
 10
757.0435697314963
 20
-417.8287281239595
 30
0.0
 11
757.0435697314963
 21
-427.8287281239595
 31
0.0
  0
LINE
  5
5B3
330
A
100
AcDbEntity
  8
0
  6
PHANTOM
 62
     7
100
AcDbLine
 10
659.109312728766
 20
-417.8287281239595
 30
0.0
 11
659.109312728766
 21
-427.8287281239595
 31
0.0
  0
LWPOLYLINE
  5
5B4
330
A
100
AcDbEntity
  8
0
  6
PHANTOM
 62
     7
100
AcDbPolyline
 90
       45
 70
   128
 43
0.0
 10
807.9433237441245
 20
-448.6637592710078
 10
807.9433209472529
 20
-448.6637575514115
 10
808.0281610465435
 20
-448.521116442912
 10
808.5461509805353
 20
-448.4392492811267
 10
809.1437859127076
 20
-448.3660771838579
 10
808.9282588134656
 20
-448.2932886117109
 10
807.859264586019
 20
-448.2197091349476
 10
805.7714711271684
 20
-448.1479094597896
 10
802.7243332886239
 20
-448.0926351649064
 10
798.6374073053545
 20
-448.0188350464383
 10
789.4842961330494
 20
-447.8146066035123
 10
779.9570198065079
 20
-447.722030531687
 10
770.0396380747723
 20
-447.9335336798832
 10
764.3657350834139
 20
-448.1229908673377
 10
758.3019871864048
 20
-448.2253176878638
 10
751.9184215676698
 20
-448.2332891832609
 10
745.9994481313852
 20
-448.1709067504805
 10
739.846957703421
 20
-448.059746686423
 10
733.5554911754243
 20
-447.9032960201402
 10
726.5263728037331
 20
-447.6751424354723
 10
719.5119733067578
 20
-447.4347863382427
 10
712.6438137254199
 20
-447.2586523796293
 10
702.0788951731093
 20
-447.1793987066839
 10
691.6829607523619
 20
-447.2903397498454
 10
685.4394949514311
 20
-447.4229459944471
 10
679.3652205089539
 20
-447.5545916264901
 10
673.6850588431227
 20
-447.6336683319683
 10
670.0364253709328
 20
-447.6404358196297
 10
666.7986451323165
 20
-447.6320567994419
 10
664.0240454628147
 20
-447.6412523191004
 10
661.4207377670634
 20
-447.7066099870594
 10
659.3722174205363
 20
-447.8174026701396
 10
657.81399922121
 20
-447.945304028836
 10
656.2545844254345
 20
-448.1027958509701
 10
655.1071347562364
 20
-448.2312851909261
 10
654.1358758127145
 20
-448.3612933788289
 10
653.0677917523477
 20
-448.4960491995607
 10
651.6277013322709
 20
-448.6022424686072
 10
649.5404233096183
 20
-448.6465630014541
 10
647.0499534635337
 20
-448.6039731540134
 10
643.8563096669589
 20
-448.4982839076898
 10
640.0716027845642
 20
-448.3683614134585
 10
634.909698142173
 20
-448.2130504527938
 10
629.1872082623266
 20
-448.0637384817821
 10
629.187160605108
 20
-448.0637373428765
  0
LWPOLYLINE
  5
5E3
330
A
100
AcDbEntity
  8
0
  6
PHANTOM
 62
     7
100
AcDbPolyline
 90
       26
 70
   128
 43
0.0
 10
903.3793018055483
 20
-448.8269733277678
 10
903.2174920830241
 20
-449.0095242841044
 10
902.0892964028208
 20
-449.2878220879098
 10
900.8422413668668
 20
-449.4558361866666
 10
899.0734576570524
 20
-449.5931619432135
 10
896.7958810403942
 20
-449.6662867555013
 10
894.1213977143487
 20
-449.6868035257588
 10
890.1796464982831
 20
-449.6741240623753
 10
885.9693966291814
 20
-449.6432526687365
 10
880.8971226387509
 20
-449.6040791653105
 10
875.7150556049843
 20
-449.5663347767082
 10
863.5570722909791
 20
-449.4954285315519
 10
855.3009773091524
 20
-449.4449394598699
 10
847.0068837063132
 20
-449.3953227766663
 10
838.7581066818972
 20
-449.3489284925104
 10
830.6379614353398
 20
-449.3081066179716
 10
822.7297631660761
 20
-449.2752071636197
 10
818.359114156399
 20
-449.2557992137756
 10
814.3545614409232
 20
-449.2124481905404
 10
812.3376751667102
 20
-449.1625380983631
 10
810.6609560769712
 20
-449.0782870643622
 10
809.4351093100566
 20
-448.962568152888
 10
808.6229715746405
 20
-448.8437287800898
 10
807.9431983795535
 20
-448.6653793493045
 10
807.9431954665809
 20
-448.665377722146
 10
807.9431954665809
 20
-448.665377722146
  0
LWPOLYLINE
  5
5FF
330
A
100
AcDbEntity
  8
0
  6
PHANTOM
 62
     7
100
AcDbPolyline
 90
       19
 70
   128
 43
0.0
 10
629.1871615772085
 20
-448.063790030171
 10
629.1871139566782
 20
-448.0637889480411
 10
622.7951765900376
 20
-447.9434675956016
 10
615.9837490770041
 20
-447.8719487378591
 10
608.8662173607453
 20
-447.8645242326501
 10
601.5559673844283
 20
-447.9364859378106
 10
594.1663850912204
 20
-448.1031257111768
 10
588.1394920970774
 20
-448.2662570285648
 10
582.0539025250048
 20
-448.3903304606874
 10
576.0618554938104
 20
-448.4561386592106
 10
570.3155901223019
 20
-448.4444742758007
 10
564.9673455292874
 20
-448.3361299621239
 10
562.0763427714369
 20
-448.2274680339538
 10
559.5243725397621
 20
-448.1097011383866
 10
557.2963015428557
 20
-447.996347304321
 10
555.5567909146738
 20
-447.8962306040966
 10
554.6585197670727
 20
-447.8292403572935
 10
554.1159649897584
 20
-447.7545718015447
 10
554.0573733817304
 20
-447.6893817777882
  0
LWPOLYLINE
  5
614
330
A
100
AcDbEntity
  8
0
  6
PHANTOM
 62
     7
100
AcDbPolyline
 90
        7
 70
   128
 43
0.0
 10
554.0535534674721
 20
-447.7071553454654
 10
553.808825614134
 20
-447.7133093897688
 10
549.515857421532
 20
-447.7644241999291
 10
547.1020568535284
 20
-447.7325208730547
 10
545.4591686765
 20
-447.6078711848784
 10
545.0544352431027
 20
-447.4735920211273
 10
545.0915583558666
 20
-447.4376497916962
  0
ENDSEC
  0
SECTION
  2
OBJECTS
  0
DICTIONARY
  5
19
330
0
100
AcDbDictionary
281
     1
  3
ACAD_COLOR
350
621
  3
ACAD_GROUP
350
1A
  3
ACAD_LAYOUT
350
622
  3
ACAD_MATERIAL
350
620
  3
ACAD_MLINESTYLE
350
1B
  3
ACAD_PLOTSETTINGS
350
623
  3
ACAD_PLOTSTYLENAME
350
61E
  3
ACDBHEADERROUNDTRIPXREC
350
63B
  3
AcDbVariableDictionary
350
634
  3
ASE_INDEX_DICTIONARY
350
629
  0
DICTIONARY
  5
621
102
{ACAD_REACTORS
330
19
102
}
330
19
100
AcDbDictionary
281
     1
  0
DICTIONARY
  5
1A
102
{ACAD_REACTORS
330
19
102
}
330
19
100
AcDbDictionary
281
     1
  0
DICTIONARY
  5
622
102
{ACAD_REACTORS
330
19
102
}
330
19
100
AcDbDictionary
281
     1
  3
Layout1
350
625
  3
Model
350
624
  0
DICTIONARY
  5
620
102
{ACAD_REACTORS
330
19
102
}
330
19
100
AcDbDictionary
281
     1
  0
DICTIONARY
  5
1B
102
{ACAD_REACTORS
330
19
102
}
330
19
100
AcDbDictionary
281
     1
  3
STANDARD
350
1C
  0
DICTIONARY
  5
623
102
{ACAD_REACTORS
330
19
102
}
330
19
100
AcDbDictionary
281
     1
  0
ACDBDICTIONARYWDFLT
  5
61E
102
{ACAD_REACTORS
330
19
102
}
330
19
100
AcDbDictionary
281
     1
  3
Normal
350
61F
100
AcDbDictionaryWithDefault
340
61F
  0
DICTIONARY
  5
63B
102
{ACAD_REACTORS
330
19
102
}
330
19
100
AcDbDictionary
281
     1
  3
COLORDICT
350
63D
  3
MATERIALDICT
350
63C
  0
DICTIONARY
  5
634
102
{ACAD_REACTORS
330
19
102
}
330
19
100
AcDbDictionary
281
     1
  3
DIMASSOC
350
635
  3
PROJECTNAME
350
636
  0
DICTIONARY
  5
629
102
{ACAD_REACTORS
330
19
102
}
330
19
100
AcDbDictionary
281
     1
  3
ASEBlockHierarchyIndexRecord
350
62B
1001
DCO15
1040
1521898662.812
  0
LAYOUT
  5
625
102
{ACAD_XDICTIONARY
360
640
102
}
102
{ACAD_REACTORS
330
622
102
}
330
622
100
AcDbPlotSettings
  1

  2
ProgeSOFT PDF Wizard
  4

  6

 40
0.0
 41
0.0
 42
0.0
 43
0.0
 44
0.0
 45
0.0
 46
0.0
 47
0.0
 48
0.0
 49
0.0
140
0.0
141
0.0
142
1.0
143
1.0
 70
   688
 72
     0
 73
     0
 74
     5
  7

 75
    16
147
1.0
148
0.0
149
0.0
100
AcDbLayout
  1
Layout1
 70
     1
 71
     1
 10
0.0
 20
0.0
 11
12.0
 21
9.0
 12
0.0
 22
0.0
 32
0.0
 14
1.000000000000000E+20
 24
1.000000000000000E+20
 34
1.000000000000000E+20
 15
-1.000000000000000E+20
 25
-1.000000000000000E+20
 35
-1.000000000000000E+20
146
0.0
 13
0.0
 23
0.0
 33
0.0
 16
1.0
 26
0.0
 36
0.0
 17
0.0
 27
1.0
 37
0.0
 76
     0
330
B
  0
LAYOUT
  5
624
102
{ACAD_XDICTIONARY
360
63E
102
}
102
{ACAD_REACTORS
330
622
102
}
330
622
100
AcDbPlotSettings
  1

  2
ProgeSOFT PDF Wizard
  4

  6

 40
0.0
 41
0.0
 42
0.0
 43
0.0
 44
0.0
 45
0.0
 46
0.0
 47
0.0
 48
0.0
 49
0.0
140
0.0
141
0.0
142
1.0
143
1.0
 70
  1712
 72
     0
 73
     0
 74
     0
  7

 75
     0
147
1.0
148
0.0
149
0.0
100
AcDbLayout
  1
Model
 70
     1
 71
     0
 10
0.0
 20
0.0
 11
12.0
 21
9.0
 12
0.0
 22
0.0
 32
0.0
 14
0.0
 24
0.0
 34
0.0
 15
0.0
 25
0.0
 35
0.0
146
0.0
 13
0.0
 23
0.0
 33
0.0
 16
1.0
 26
0.0
 36
0.0
 17
0.0
 27
1.0
 37
0.0
 76
     0
330
A
  0
MLINESTYLE
  5
1C
102
{ACAD_REACTORS
330
1B
102
}
330
1B
100
AcDbMlineStyle
  2
STANDARD
 70
     0
  3

 62
     0
 51
90.0
 52
90.0
 71
     2
 49
0.5
 62
   256
  6
BYLAYER
 49
-0.5
 62
   256
  6
BYLAYER
  0
ACDBPLACEHOLDER
  5
61F
102
{ACAD_REACTORS
330
61E
102
}
330
61E
  0
XRECORD
  5
63D
102
{ACAD_REACTORS
330
63B
102
}
330
63B
100
AcDbXrecord
280
     1
340
621
  0
XRECORD
  5
63C
102
{ACAD_REACTORS
330
63B
102
}
330
63B
100
AcDbXrecord
280
     1
340
620
  0
DICTIONARYVAR
  5
635
102
{ACAD_REACTORS
330
634
102
}
330
634
100
DictionaryVariables
280
     0
  1
1
  0
DICTIONARYVAR
  5
636
102
{ACAD_REACTORS
330
634
102
}
330
634
100
DictionaryVariables
280
     0
  1

  0
XRECORD
  5
62B
102
{ACAD_REACTORS
330
629
102
}
330
629
100
AcDbXrecord
280
     1
  0
DICTIONARY
  5
640
330
625
100
AcDbDictionary
280
     1
281
     1
  3
ACAD_XREC_ROUNDTRIP
360
641
  0
DICTIONARY
  5
63E
330
624
100
AcDbDictionary
280
     1
281
     1
  3
ACAD_XREC_ROUNDTRIP
360
63F
  0
XRECORD
  5
641
102
{ACAD_REACTORS
330
640
102
}
330
640
100
AcDbXrecord
280
     1
102
SHADEPLOT
 70
     0
102
SHADEPLOTRESLEVEL
 70
     2
102
SHADEPLOTCUSTOMDPI
 70
   300
  0
XRECORD
  5
63F
102
{ACAD_REACTORS
330
63E
102
}
330
63E
100
AcDbXrecord
280
     1
102
SHADEPLOT
 70
     0
102
SHADEPLOTRESLEVEL
 70
     2
102
SHADEPLOTCUSTOMDPI
 70
   300
  0
ENDSEC
  0
EOF
