  0
SECTION
  2
HEADER
  9
$ACADVER
  1
AC1015
  9
$ACADMAINTVER
 70
    20
  9
$DWGCODEPAGE
  3
ANSI_1252
  9
$INSBASE
 10
0.0
 20
0.0
 30
0.0
  9
$EXTMIN
 10
60.66436959900186
 20
51.26194021512461
 30
0.0
  9
$EXTMAX
 10
169.4753690142523
 20
188.3646690089458
 30
0.0
  9
$LIMMIN
 10
0.0
 20
0.0
  9
$LIMMAX
 10
0.0
 20
0.0
  9
$ORTHOMODE
 70
     0
  9
$REGENMODE
 70
     1
  9
$FILLMODE
 70
     1
  9
$QTEXTMODE
 70
     0
  9
$MIRRTEXT
 70
     1
  9
$LTSCALE
 40
1.0
  9
$ATTMODE
 70
     1
  9
$TEXTSIZE
 40
0.0
  9
$TRACEWID
 40
0.05
  9
$TEXTSTYLE
  7
STANDARD
  9
$CLAYER
  8
0
  9
$CELTYPE
  6
CONTINUOUS
  9
$CECOLOR
 62
   256
  9
$CELTSCALE
 40
1.0
  9
$DISPSILH
 70
     0
  9
$DIMSCALE
 40
1.0
  9
$DIMASZ
 40
6.0
  9
$DIMEXO
 40
1.0
  9
$DIMDLI
 40
0.38
  9
$DIMRND
 40
0.0
  9
$DIMDLE
 40
1.0
  9
$DIMEXE
 40
0.18
  9
$DIMTP
 40
0.0
  9
$DIMTM
 40
0.0
  9
$DIMTXT
 40
3.5
  9
$DIMCEN
 40
0.09
  9
$DIMTSZ
 40
0.0
  9
$DIMTOL
 70
     0
  9
$DIMLIM
 70
     0
  9
$DIMTIH
 70
     1
  9
$DIMTOH
 70
     1
  9
$DIMSE1
 70
     0
  9
$DIMSE2
 70
     0
  9
$DIMTAD
 70
     1
  9
$DIMZIN
 70
     0
  9
$DIMBLK
  1

  9
$DIMASO
 70
     1
  9
$DIMSHO
 70
     1
  9
$DIMPOST
  1

  9
$DIMAPOST
  1

  9
$DIMALT
 70
     0
  9
$DIMALTD
 70
     2
  9
$DIMALTF
 40
0.0394
  9
$DIMLFAC
 40
5.0
  9
$DIMTOFL
 70
     0
  9
$DIMTVP
 40
0.0
  9
$DIMTIX
 70
     0
  9
$DIMSOXD
 70
     0
  9
$DIMSAH
 70
     0
  9
$DIMBLK1
  1

  9
$DIMBLK2
  1

  9
$DIMSTYLE
  2
STANDARD
  9
$DIMCLRD
 70
     0
  9
$DIMCLRE
 70
     0
  9
$DIMCLRT
 70
     0
  9
$DIMTFAC
 40
1.0
  9
$DIMGAP
 40
1.0
  9
$DIMJUST
 70
     0
  9
$DIMSD1
 70
     0
  9
$DIMSD2
 70
     0
  9
$DIMTOLJ
 70
     1
  9
$DIMTZIN
 70
     0
  9
$DIMALTZ
 70
     0
  9
$DIMALTTZ
 70
     0
  9
$DIMUPT
 70
     0
  9
$DIMDEC
 70
     4
  9
$DIMTDEC
 70
     4
  9
$DIMALTU
 70
     2
  9
$DIMALTTD
 70
     2
  9
$DIMTXSTY
  7
STANDARD
  9
$DIMAUNIT
 70
     0
  9
$DIMADEC
 70
     0
  9
$DIMALTRND
 40
0.0
  9
$DIMAZIN
 70
     0
  9
$DIMDSEP
 70
    46
  9
$DIMATFIT
 70
     3
  9
$DIMFRAC
 70
     0
  9
$DIMLDRBLK
  1

  9
$DIMLUNIT
 70
     2
  9
$DIMLWD
 70
    -2
  9
$DIMLWE
 70
    -2
  9
$DIMTMOVE
 70
     0
  9
$LUNITS
 70
     2
  9
$LUPREC
 70
     2
  9
$SKETCHINC
 40
0.1
  9
$FILLETRAD
 40
0.0
  9
$AUNITS
 70
     0
  9
$AUPREC
 70
     2
  9
$MENU
  1
acad
  9
$ELEVATION
 40
0.0
  9
$PELEVATION
 40
0.0
  9
$THICKNESS
 40
0.0
  9
$LIMCHECK
 70
     0
  9
$CHAMFERA
 40
0.0
  9
$CHAMFERB
 40
0.0
  9
$CHAMFERC
 40
0.0
  9
$CHAMFERD
 40
0.0
  9
$SKPOLY
 70
     0
  9
$TDCREATE
 40
2444972.041666667
  9
$TDUCREATE
 40
2444972.000000000
  9
$TDUPDATE
 40
2454148.703191366
  9
$TDUUPDATE
 40
2454148.661524699
  9
$TDINDWG
 40
0.0004452315
  9
$TDUSRTIMER
 40
0.0004452315
  9
$USRTIMER
 70
     1
  9
$ANGBASE
 50
0.0
  9
$ANGDIR
 70
     0
  9
$PDMODE
 70
     0
  9
$PDSIZE
 40
-1.0
  9
$PLINEWID
 40
0.0
  9
$SPLFRAME
 70
     0
  9
$SPLINETYPE
 70
     6
  9
$SPLINESEGS
 70
     8
  9
$HANDSEED
  5
409
  9
$SURFTAB1
 70
     6
  9
$SURFTAB2
 70
     6
  9
$SURFTYPE
 70
     6
  9
$SURFU
 70
     6
  9
$SURFV
 70
     6
  9
$UCSBASE
  2

  9
$UCSNAME
  2

  9
$UCSORG
 10
0.0
 20
0.0
 30
0.0
  9
$UCSXDIR
 10
1.0
 20
0.0
 30
0.0
  9
$UCSYDIR
 10
0.0
 20
1.0
 30
0.0
  9
$UCSORTHOREF
  2

  9
$UCSORTHOVIEW
 70
     1
  9
$UCSORGTOP
 10
0.0
 20
0.0
 30
0.0
  9
$UCSORGBOTTOM
 10
0.0
 20
0.0
 30
0.0
  9
$UCSORGLEFT
 10
0.0
 20
0.0
 30
0.0
  9
$UCSORGRIGHT
 10
0.0
 20
0.0
 30
0.0
  9
$UCSORGFRONT
 10
0.0
 20
0.0
 30
0.0
  9
$UCSORGBACK
 10
0.0
 20
0.0
 30
0.0
  9
$PUCSBASE
  2

  9
$PUCSNAME
  2

  9
$PUCSORG
 10
0.0
 20
0.0
 30
0.0
  9
$PUCSXDIR
 10
1.0
 20
0.0
 30
0.0
  9
$PUCSYDIR
 10
0.0
 20
1.0
 30
0.0
  9
$PUCSORTHOREF
  2

  9
$PUCSORTHOVIEW
 70
     0
  9
$PUCSORGTOP
 10
0.0
 20
0.0
 30
0.0
  9
$PUCSORGBOTTOM
 10
0.0
 20
0.0
 30
0.0
  9
$PUCSORGLEFT
 10
0.0
 20
0.0
 30
0.0
  9
$PUCSORGRIGHT
 10
0.0
 20
0.0
 30
0.0
  9
$PUCSORGFRONT
 10
0.0
 20
0.0
 30
0.0
  9
$PUCSORGBACK
 10
0.0
 20
0.0
 30
0.0
  9
$USERI1
 70
     0
  9
$USERI2
 70
     0
  9
$USERI3
 70
     0
  9
$USERI4
 70
     0
  9
$USERI5
 70
     0
  9
$USERR1
 40
0.0
  9
$USERR2
 40
0.0
  9
$USERR3
 40
0.0
  9
$USERR4
 40
0.0
  9
$USERR5
 40
0.0
  9
$WORLDVIEW
 70
     1
  9
$SHADEDGE
 70
     3
  9
$SHADEDIF
 70
    70
  9
$TILEMODE
 70
     1
  9
$MAXACTVP
 70
    16
  9
$PINSBASE
 10
0.0
 20
0.0
 30
0.0
  9
$PLIMCHECK
 70
     0
  9
$PEXTMIN
 10
1.000000000000000E+20
 20
1.000000000000000E+20
 30
1.000000000000000E+20
  9
$PEXTMAX
 10
-1.000000000000000E+20
 20
-1.000000000000000E+20
 30
-1.000000000000000E+20
  9
$PLIMMIN
 10
0.0
 20
0.0
  9
$PLIMMAX
 10
12.0
 20
9.0
  9
$UNITMODE
 70
     0
  9
$VISRETAIN
 70
     0
  9
$PLINEGEN
 70
     1
  9
$PSLTSCALE
 70
     1
  9
$TREEDEPTH
 70
  3020
  9
$CMLSTYLE
  2
STANDARD
  9
$CMLJUST
 70
     0
  9
$CMLSCALE
 40
1.0
  9
$PROXYGRAPHICS
 70
     1
  9
$MEASUREMENT
 70
     0
  9
$CELWEIGHT
370
    -1
  9
$ENDCAPS
280
     0
  9
$JOINSTYLE
280
     0
  9
$LWDISPLAY
290
     0
  9
$INSUNITS
 70
     0
  9
$HYPERLINKBASE
  1

  9
$STYLESHEET
  1

  9
$XEDIT
290
     1
  9
$CEPSNTYPE
380
     0
  9
$PSTYLEMODE
290
     1
  9
$FINGERPRINTGUID
  2
{E77C4E29-5851-453A-B098-8DFBF37A3F85}
  9
$VERSIONGUID
  2
{68F59E24-DFE1-422F-B43C-1F1E2FFD7890}
  9
$EXTNAMES
290
     1
  9
$PSVPSCALE
 40
0.0
  9
$OLESTARTUP
290
     0
  0
ENDSEC
  0
SECTION
  2
CLASSES
  0
CLASS
  1
IMAGE
  2
AcDbRasterImage
  3
ISM
 90
    32895
280
     0
281
     1
  0
CLASS
  1
DICTIONARYVAR
  2
AcDbDictionaryVar
  3
ObjectDBX Classes
 90
        0
280
     0
281
     0
  0
CLASS
  1
RASTERVARIABLES
  2
AcDbRasterVariables
  3
ISM
 90
    32768
280
     0
281
     0
  0
CLASS
  1
IMAGEDEF
  2
AcDbRasterImageDef
  3
ISM
 90
    32768
280
     0
281
     0
  0
CLASS
  1
IMAGEDEF_REACTOR
  2
AcDbRasterImageDefReactor
  3
ISM
 90
    32769
280
     0
281
     0
  0
CLASS
  1
IDBUFFER
  2
AcDbIdBuffer
  3
ObjectDBX Classes
 90
    32768
280
     0
281
     0
  0
CLASS
  1
SPATIAL_FILTER
  2
AcDbSpatialFilter
  3
ObjectDBX Classes
 90
    32768
280
     0
281
     0
  0
CLASS
  1
SORTENTSTABLE
  2
AcDbSortentsTable
  3
ObjectDBX Classes
 90
    32768
280
     0
281
     0
  0
CLASS
  1
LAYER_INDEX
  2
AcDbLayerIndex
  3
ObjectDBX Classes
 90
    32768
280
     0
281
     0
  0
CLASS
  1
SPATIAL_INDEX
  2
AcDbSpatialIndex
  3
ObjectDBX Classes
 90
    32768
280
     0
281
     0
  0
CLASS
  1
OBJECT_PTR
  2
CAseDLPNTableRecord
  3
ASE-LPNTableRecord
 90
    32769
280
     0
281
     0
  0
CLASS
  1
LAYOUT
  2
AcDbLayout
  3
ObjectDBX Classes
 90
        0
280
     0
281
     0
  0
CLASS
  1
PLOTSETTINGS
  2
AcDbPlotSettings
  3
ObjectDBX Classes
 90
    32768
280
     0
281
     0
  0
CLASS
  1
ACDBDICTIONARYWDFLT
  2
AcDbDictionaryWithDefault
  3
ObjectDBX Classes
 90
        0
280
     0
281
     0
  0
CLASS
  1
ACDBPLACEHOLDER
  2
AcDbPlaceHolder
  3
ObjectDBX Classes
 90
        0
280
     0
281
     0
  0
CLASS
  1
VBA_PROJECT
  2
AcDbVbaProject
  3
acad
 90
    32768
280
     0
281
     0
  0
CLASS
  1
WIPEOUT
  2
AcDbWipeout
  3
"WipeOut|Product Desc: Object Enabler for WipeOut entity^I^I^I^I^I^I|Company: Autodesk, Inc.^I^I^I^I^I^I|WEB Address: www.autodesk.com"
 90
    32895
280
     0
281
     1
  0
CLASS
  1
WIPEOUTVARIABLES
  2
AcDbWipeoutVariables
  3
"WipeOut|Product Desc:     WipeOut Dbx Application|Company:          Autodesk, Inc.|WEB Address:      www.autodesk.com"
 90
    32768
280
     0
281
     0
  0
CLASS
  1
RTEXT
  2
RText
  3
RText|AutoCAD Express Tool|expresstools@autodesk.com
 90
    32768
280
     0
281
     1
  0
CLASS
  1
ARCALIGNEDTEXT
  2
AcDbArcAlignedText
  3
ATEXT|AutoCAD Express Tool|expresstools@autodesk.com
 90
    32768
280
     0
281
     1
  0
CLASS
  1
TABLESTYLE
  2
AcDbTableStyle
  3
ObjectDBX Classes
 90
     2047
280
     0
281
     0
  0
ENDSEC
  0
SECTION
  2
TABLES
  0
TABLE
  2
VPORT
  5
7
330
0
100
AcDbSymbolTable
 70
     3
  0
VPORT
  5
403
330
7
100
AcDbSymbolTableRecord
100
AcDbViewportTableRecord
  2
*Active
 70
     0
 10
0.0
 20
0.0
 11
1.0
 21
1.0
 12
115.0698693066271
 22
119.8133046120352
 13
0.0
 23
0.0
 14
1.0
 24
1.0
 15
0.0
 25
0.0
 16
0.0
 26
0.0
 36
1.0
 17
0.0
 27
0.0
 37
0.0
 40
138.1133140183456
 41
1.975399753997539
 42
50.0
 43
0.0
 44
0.0
 50
0.0
 51
0.0
 71
     0
 72
  2000
 73
     1
 74
     1
 75
     0
 76
     0
 77
     0
 78
     0
281
     0
 65
     1
110
0.0
120
0.0
130
0.0
111
1.0
121
0.0
131
0.0
112
0.0
122
1.0
132
0.0
 79
     1
146
0.0
  0
ENDTAB
  0
TABLE
  2
LTYPE
  5
4
330
0
100
AcDbSymbolTable
 70
     6
  0
LTYPE
  5
11
330
4
100
AcDbSymbolTableRecord
100
AcDbLinetypeTableRecord
  2
BYBLOCK
 70
     0
  3

 72
    65
 73
     0
 40
0.0
  0
LTYPE
  5
12
330
4
100
AcDbSymbolTableRecord
100
AcDbLinetypeTableRecord
  2
BYLAYER
 70
     0
  3

 72
    65
 73
     0
 40
0.0
  0
LTYPE
  5
13
330
4
100
AcDbSymbolTableRecord
100
AcDbLinetypeTableRecord
  2
CONTINUOUS
 70
     0
  3
Solid line
 72
    65
 73
     0
 40
0.0
  0
LTYPE
  5
1E
330
4
100
AcDbSymbolTableRecord
100
AcDbLinetypeTableRecord
  2
HIDDEN
 70
     0
  3
Hidden __ __ __ __ __ __ __ __ __ __ __ __ __ __
 72
    65
 73
     2
 40
1.905
 49
1.27
 74
     0
 49
-0.635
 74
     0
  0
LTYPE
  5
1F
330
4
100
AcDbSymbolTableRecord
100
AcDbLinetypeTableRecord
  2
PHANTOM
 70
     0
  3
Phantom ______  __  __  ______  __  __  ______
 72
    65
 73
     6
 40
12.7
 49
6.349999999999999
 74
     0
 49
-1.27
 74
     0
 49
1.27
 74
     0
 49
-1.27
 74
     0
 49
1.27
 74
     0
 49
-1.27
 74
     0
  0
LTYPE
  5
20
330
4
100
AcDbSymbolTableRecord
100
AcDbLinetypeTableRecord
  2
CENTER
 70
     0
  3
Center ____ _ ____ _ ____ _ ____ _ ____ _ ____
 72
    65
 73
     4
 40
10.16
 49
6.349999999999999
 74
     0
 49
-1.27
 74
     0
 49
1.27
 74
     0
 49
-1.27
 74
     0
  0
LTYPE
  5
21
330
4
100
AcDbSymbolTableRecord
100
AcDbLinetypeTableRecord
  2
CENTERX2
 70
     0
  3
Center (2x) ________  __  ________  __  _____
 72
    65
 73
     4
 40
20.32
 49
12.7
 74
     0
 49
-2.54
 74
     0
 49
2.54
 74
     0
 49
-2.54
 74
     0
  0
LTYPE
  5
22
330
4
100
AcDbSymbolTableRecord
100
AcDbLinetypeTableRecord
  2
DOT2
 70
     0
  3
Dot (.5x) ........................................
 72
    65
 73
     2
 40
0.635
 49
0.0
 74
     0
 49
-0.635
 74
     0
  0
ENDTAB
  0
TABLE
  2
LAYER
  5
2
330
0
100
AcDbSymbolTable
 70
     2
  0
LAYER
  5
14
330
2
100
AcDbSymbolTableRecord
100
AcDbLayerTableRecord
  2
0
 70
     0
 62
     7
  6
CONTINUOUS
370
    -3
390
3E6
  0
LAYER
  5
26
330
2
100
AcDbSymbolTableRecord
100
AcDbLayerTableRecord
  2
DEFPOINTS
 70
     0
 62
     7
  6
CONTINUOUS
290
     0
370
    -3
390
3E6
  0
ENDTAB
  0
TABLE
  2
STYLE
  5
3
330
0
100
AcDbSymbolTable
 70
     1
  0
STYLE
  5
17
330
3
100
AcDbSymbolTableRecord
100
AcDbTextStyleTableRecord
  2
STANDARD
 70
     0
 40
0.0
 41
1.0
 50
0.0
 71
     0
 42
0.0
  3
txt
  4

  0
ENDTAB
  0
TABLE
  2
VIEW
  5
5
330
0
100
AcDbSymbolTable
 70
     0
  0
ENDTAB
  0
TABLE
  2
UCS
  5
6
330
0
100
AcDbSymbolTable
 70
     0
  0
ENDTAB
  0
TABLE
  2
APPID
  5
8
330
0
100
AcDbSymbolTable
 70
     2
  0
APPID
  5
16
330
8
100
AcDbSymbolTableRecord
100
AcDbRegAppTableRecord
  2
ACAD
 70
     0
  0
APPID
  5
3F3
330
8
100
AcDbSymbolTableRecord
100
AcDbRegAppTableRecord
  2
DCO15
 70
     0
  0
ENDTAB
  0
TABLE
  2
DIMSTYLE
  5
9
330
0
100
AcDbSymbolTable
 70
     1
100
AcDbDimStyleTable
 71
     0
  0
DIMSTYLE
105
18
330
9
100
AcDbSymbolTableRecord
100
AcDbDimStyleTableRecord
  2
STANDARD
 70
     0
289
     0
340
17
  0
ENDTAB
  0
TABLE
  2
BLOCK_RECORD
  5
1
330
0
100
AcDbSymbolTable
 70
     0
  0
BLOCK_RECORD
  5
A
330
1
100
AcDbSymbolTableRecord
100
AcDbBlockTableRecord
  2
*MODEL_SPACE
340
3ED
  0
BLOCK_RECORD
  5
B
330
1
100
AcDbSymbolTableRecord
100
AcDbBlockTableRecord
  2
*PAPER_SPACE
340
3EE
  0
ENDTAB
  0
ENDSEC
  0
SECTION
  2
BLOCKS
  0
BLOCK
  5
D
330
A
100
AcDbEntity
  8
0
100
AcDbBlockBegin
  2
*MODEL_SPACE
 70
     0
 10
0.0
 20
0.0
 30
0.0
  3
*MODEL_SPACE
  1

  0
ENDBLK
  5
E
330
A
100
AcDbEntity
  8
0
100
AcDbBlockEnd
  0
BLOCK
  5
F
330
B
100
AcDbEntity
 67
     1
  8
0
100
AcDbBlockBegin
  2
*PAPER_SPACE
 70
     0
 10
0.0
 20
0.0
 30
0.0
  3
*PAPER_SPACE
  1

  0
ENDBLK
  5
10
330
B
100
AcDbEntity
 67
     1
  8
0
100
AcDbBlockEnd
  0
ENDSEC
  0
SECTION
  2
ENTITIES
  0
LWPOLYLINE
  5
27
330
A
100
AcDbEntity
  8
0
  6
Continuous
 62
     7
100
AcDbPolyline
 90
       21
 70
   128
 43
0.0
 10
79.94418328199485
 20
126.3321825912198
 10
79.96587853694562
 20
128.0242390597104
 10
79.99120058967621
 20
129.6027392438604
 10
80.01783075665093
 20
131.0672149356825
 10
80.04404635905286
 20
132.4106687557832
 10
80.06864764924847
 20
133.6307594784574
 10
80.09051721546624
 20
134.7274871037054
 10
80.11306626196809
 20
135.8512547209593
 10
80.13300346559683
 20
136.7648344334078
 10
80.15670583764915
 20
137.7832563968932
 10
80.18379544048604
 20
138.9042149399403
 10
80.20803374518788
 20
139.9203368505026
 10
80.22608685472141
 20
140.6970211153075
 10
80.23445827366963
 20
141.0608593513245
 10
80.24269884410934
 20
141.4191959177318
 10
80.25551783933723
 20
141.9753562481929
 10
80.27314036357209
 20
142.7374912631071
 10
80.29560955048966
 20
143.7056009624744
 10
80.32296765087576
 20
144.8796853462948
 10
80.35524769515289
 20
146.2597444145684
 10
80.3868406950321
 20
147.6061624650909
  0
LWPOLYLINE
  5
3E
330
A
100
AcDbEntity
  8
0
  6
Continuous
 62
     7
100
AcDbPolyline
 90
       20
 70
   128
 43
0.0
 10
61.92378110866259
 20
147.4910104693365
 10
62.23200228323233
 20
145.8480001021717
 10
62.56721566751244
 20
144.034127732163
 10
62.85463770478249
 20
142.4537054881629
 10
63.09560431849575
 20
141.1067333701713
 10
63.29555851405216
 20
139.971011468491
 10
63.46100533920135
 20
139.0162224556308
 10
63.60079746748406
 20
138.1965532111823
 10
63.74769201366629
 20
137.3199343437478
 10
63.90549994774586
 20
136.3576248466314
 10
64.10067585131462
 20
135.1324316140427
 10
64.29023139474931
 20
133.8977481397425
 10
64.48759354663678
 20
132.5563195310105
 10
64.68670259651485
 20
131.13635182676
 10
64.78040685369338
 20
130.4426820767137
 10
64.86574086762775
 20
129.7961038505434
 10
64.94337511656701
 20
129.1953015665847
 10
65.03445980809541
 20
128.475081319889
 10
65.15205161666718
 20
127.5207083280969
 10
65.29396501356355
 20
126.3321825912198
  0
LWPOLYLINE
  5
54
330
A
100
AcDbEntity
  8
0
  6
Continuous
 62
     7
100
AcDbPolyline
 90
        7
 70
   128
 43
0.0
 10
80.38294934820177
 20
147.6048978866617
 10
80.36497258662855
 20
147.7760802600408
 10
80.3069517998507
 20
147.9302334113197
 10
80.21610019699473
 20
148.0612723309608
 10
80.10032065950646
 20
148.1659772452127
 10
79.82483074491009
 20
148.2952330484297
 10
79.52858306262188
 20
148.3321826112197
  0
LWPOLYLINE
  5
5D
330
A
100
AcDbEntity
  8
0
  6
Continuous
 62
     7
100
AcDbPolyline
 90
        9
 70
   128
 43
0.0
 10
62.62954395861033
 20
148.3321826112197
 10
62.47286954352293
 20
148.3163404499858
 10
62.32352295244395
 20
148.2663895435937
 10
62.18885496105967
 20
148.1847517509037
 10
62.07549363071284
 20
148.0754483512966
 10
61.98901756020893
 20
147.9438614808786
 10
61.93368108208541
 20
147.7964688150706
 10
61.91220481168237
 20
147.6405243925861
 10
61.92560292738606
 20
147.4836938405808
  0
LWPOLYLINE
  5
68
330
A
100
AcDbEntity
  8
0
  6
Continuous
 62
     7
100
AcDbPolyline
 90
        7
 70
   128
 43
0.0
 10
60.9932633182675
 20
147.6295060287808
 10
60.97656331998384
 20
144.7432701429392
 10
60.93117481609896
 20
141.4791427882573
 10
60.87454944165703
 20
138.0059703557357
 10
60.81137268470798
 20
134.3237528453745
 10
60.74076892074184
 20
130.4324902571737
 10
60.66436959900186
 20
126.3321825912198
  0
LWPOLYLINE
  5
71
330
A
100
AcDbEntity
  8
0
  6
Continuous
 62
     7
100
AcDbPolyline
 90
       18
 70
   128
 43
0.0
 10
86.40509268225319
 20
126.3321825912198
 10
86.18540828181837
 20
128.3978596264933
 10
85.99188477804259
 20
130.2659103463566
 10
85.82375211722938
 20
131.9363347507594
 10
85.67954661918532
 20
133.4091328397017
 10
85.55774063740798
 20
134.6843046131834
 10
85.45703917420174
 20
135.7618500712046
 10
85.37637534137397
 20
136.6417692137652
 10
85.31221834085663
 20
137.3524255185319
 10
85.2513194444216
 20
138.0306232447797
 10
85.19200603987007
 20
138.6943794931072
 10
85.11005899110823
 20
139.6175511616727
 10
85.02409645893292
 20
140.5951751306169
 10
84.92247681991711
 20
141.7640461342774
 10
84.80544147816713
 20
143.1260964512264
 10
84.67756390557363
 20
144.6315648707027
 10
84.54618013323893
 20
146.1947244105416
 10
84.42921064254617
 20
147.5990521881608
  0
LWPOLYLINE
  5
85
330
A
100
AcDbEntity
  8
0
  6
Continuous
 62
     7
100
AcDbPolyline
 90
        5
 70
   128
 43
0.0
 10
61.80256159059424
 20
148.3321826112198
 10
61.51128455966599
 20
148.2791045236836
 10
61.25805708297305
 20
148.127746558131
 10
61.07799537736706
 20
147.8989690045976
 10
60.99891088625192
 20
147.6244261499365
  0
LWPOLYLINE
  5
8C
330
A
100
AcDbEntity
  8
0
  6
Continuous
 62
     7
100
AcDbPolyline
 90
        7
 70
   128
 43
0.0
 10
84.50608090284097
 20
147.5811521406798
 10
84.49406663767344
 20
147.7577313648107
 10
84.43931504601691
 20
147.9175052490773
 10
84.35119644163455
 20
148.0533873182044
 10
84.23959256052073
 20
148.1616935257291
 10
83.98140918758937
 20
148.2945677376457
 10
83.72036415440076
 20
148.3321826112198
  0
ARC
  5
95
330
A
100
AcDbEntity
  8
0
  6
Continuous
 62
     7
100
AcDbCircle
 10
77.23137125887316
 20
148.7646690089456
 30
0.0
 40
0.2000000000000028
100
AcDbArc
 50
0.0
 51
90.0
  0
ARC
  5
96
330
A
100
AcDbEntity
  8
0
  6
Continuous
 62
     7
100
AcDbCircle
 10
68.43137125887317
 20
148.7646690089456
 30
0.0
 40
0.200000000000017
100
AcDbArc
 50
90.0
 51
180.0000000000004
  0
LINE
  5
97
330
A
100
AcDbEntity
  8
0
  6
Continuous
 62
     7
100
AcDbLine
 10
77.43137125887317
 20
148.3646690089456
 30
0.0
 11
77.43137125887317
 21
148.7646690089456
 31
0.0
  0
LINE
  5
98
330
A
100
AcDbEntity
  8
0
  6
Continuous
 62
     7
100
AcDbLine
 10
68.23137125887315
 20
148.7646690089456
 30
0.0
 11
68.23137125887315
 21
148.3646690089456
 31
0.0
  0
LINE
  5
99
330
A
100
AcDbEntity
  8
0
  6
Continuous
 62
     7
100
AcDbLine
 10
75.83137125887316
 20
148.9646690089456
 30
0.0
 11
74.87060845364791
 21
152.6155676688015
 31
0.0
  0
LINE
  5
9A
330
A
100
AcDbEntity
  8
0
  6
Continuous
 62
     7
100
AcDbLine
 10
70.79213406409841
 20
152.6155676688015
 30
0.0
 11
69.83137125887316
 21
148.9646690089456
 31
0.0
  0
ARC
  5
9B
330
A
100
AcDbEntity
  8
0
  6
Continuous
 62
     7
100
AcDbCircle
 10
74.67719354619539
 20
152.5646690089456
 30
0.0
 40
0.200000000000017
100
AcDbArc
 50
14.74356283649876
 51
90.0
  0
ARC
  5
9C
330
A
100
AcDbEntity
  8
0
  6
Continuous
 62
     7
100
AcDbCircle
 10
70.98554897155093
 20
152.5646690089456
 30
0.0
 40
0.200000000000017
100
AcDbArc
 50
90.0
 51
165.2564371634852
  0
LINE
  5
9D
330
A
100
AcDbEntity
  8
0
  6
Continuous
 62
     7
100
AcDbLine
 10
73.03137125887317
 20
152.8146690089456
 30
0.0
 11
73.03137125887317
 21
179.9146690089456
 31
0.0
  0
LINE
  5
9E
330
A
100
AcDbEntity
  8
0
  6
Continuous
 62
     7
100
AcDbLine
 10
72.63137125887316
 20
179.9146690089456
 30
0.0
 11
72.63137125887316
 21
152.8146690089456
 31
0.0
  0
LINE
  5
9F
330
A
100
AcDbEntity
  8
0
  6
Continuous
 62
     7
100
AcDbLine
 10
83.83137125887316
 20
187.3646690089456
 30
0.0
 11
83.83137125887316
 21
188.3646690089456
 31
0.0
  0
LINE
  5
A0
330
A
100
AcDbEntity
  8
0
  6
Continuous
 62
     7
100
AcDbLine
 10
61.83137125887316
 20
188.3646690089456
 30
0.0
 11
61.83137125887316
 21
187.3646690089456
 31
0.0
  0
ARC
  5
A1
330
A
100
AcDbEntity
  8
0
  6
Continuous
 62
     7
100
AcDbCircle
 10
82.23137125887317
 20
187.3646690089456
 30
0.0
 40
1.599999999999997
100
AcDbArc
 50
287.7927570151248
 51
0.0
  0
ARC
  5
A2
330
A
100
AcDbEntity
  8
0
  6
Continuous
 62
     7
100
AcDbCircle
 10
63.43137125887316
 20
187.3646690089456
 30
0.0
 40
1.599999999999997
100
AcDbArc
 50
180.0000000000004
 51
252.2072429848769
  0
ARC
  5
A3
330
A
100
AcDbEntity
  8
0
  6
Continuous
 62
     7
100
AcDbCircle
 10
87.60949020461325
 20
170.6065116936119
 30
0.0
 40
16.0
100
AcDbArc
 50
107.7927570151243
 51
142.1318578236219
  0
ARC
  5
A4
330
A
100
AcDbEntity
  8
0
  6
Continuous
 62
     7
100
AcDbCircle
 10
58.05325231313307
 20
170.6065116936119
 30
0.0
 40
16.00000000000001
100
AcDbArc
 50
37.86814217637803
 51
72.20724298487566
  0
ARC
  5
A5
330
A
100
AcDbEntity
  8
0
  6
Continuous
 62
     7
100
AcDbCircle
 10
74.03137125887316
 20
181.1646690089456
 30
0.0
 40
1.200000000000018
100
AcDbArc
 50
270.0000000000008
 51
322.1318578236226
  0
ARC
  5
A6
330
A
100
AcDbEntity
  8
0
  6
Continuous
 62
     7
100
AcDbCircle
 10
71.63137125887316
 20
181.1646690089456
 30
0.0
 40
1.200000000000017
100
AcDbArc
 50
217.8681421763801
 51
270.0000000000008
  0
LINE
  5
A7
330
A
100
AcDbEntity
  8
0
  6
Continuous
 62
     7
100
AcDbLine
 10
83.03614540072684
 20
147.5662237909969
 30
0.0
 11
80.49660740145611
 21
126.3321825912198
 31
0.0
  0
LINE
  5
A8
330
A
100
AcDbEntity
  8
0
  6
Continuous
 62
     7
100
AcDbLine
 10
80.49660740145611
 20
126.3321825912198
 30
0.0
 11
79.94418328199485
 21
126.3321825912198
 31
0.0
  0
LINE
  5
A9
330
A
100
AcDbEntity
  8
0
  6
Continuous
 62
     7
100
AcDbLine
 10
72.77498827112933
 20
126.3321825912197
 30
0.0
 11
79.94418582705435
 21
126.3321825912198
 31
0.0
  0
LINE
  5
AA
330
A
100
AcDbEntity
  8
0
  6
Continuous
 62
     7
100
AcDbLine
 10
72.77498827112935
 20
126.3321825912197
 30
0.0
 11
72.77498827117435
 21
147.7174664640579
 31
0.0
  0
LINE
  5
AB
330
A
100
AcDbEntity
  8
0
  6
Continuous
 62
     7
100
AcDbLine
 10
72.77498827112935
 20
126.3321825912197
 30
0.0
 11
65.29994706678578
 21
126.3321825912197
 31
0.0
  0
LINE
  5
AC
330
A
100
AcDbEntity
  8
0
  6
Continuous
 62
     7
100
AcDbLine
 10
82.56599945328217
 20
148.3321826112198
 30
0.0
 11
79.74574094340171
 21
148.3321826112198
 31
0.0
  0
LINE
  5
AD
330
A
100
AcDbEntity
  8
0
  6
Continuous
 62
     7
100
AcDbLine
 10
73.35486447051943
 20
148.3321826112197
 30
0.0
 11
79.67573894340171
 21
148.3321826112197
 31
0.0
  0
LINE
  5
AE
330
A
100
AcDbEntity
  8
0
  6
Continuous
 62
     7
100
AcDbLine
 10
73.35486447051943
 20
148.3321826112197
 30
0.0
 11
62.62158757434611
 21
148.3321826112197
 31
0.0
  0
LWPOLYLINE
  5
AF
330
A
100
AcDbEntity
  8
0
  6
Continuous
 62
     7
100
AcDbPolyline
 90
        3
 70
   128
 43
0.0
 10
61.00009830519461
 20
147.6306756221006
 10
60.99683594699077
 20
147.6304170312097
 10
60.99655735620244
 20
147.6294836067006
  0
LINE
  5
B4
330
A
100
AcDbEntity
  8
0
  6
Continuous
 62
     7
100
AcDbLine
 10
60.6760532866254
 20
126.3321825912198
 30
0.0
 11
65.29396501356355
 21
126.3321825912198
 31
0.0
  0
LINE
  5
B5
330
A
100
AcDbEntity
  8
0
  6
Continuous
 62
     7
100
AcDbLine
 10
86.39442300127454
 20
126.3321825912198
 30
0.0
 11
80.49660740145606
 21
126.3321825912198
 31
0.0
  0
LINE
  5
B6
330
A
100
AcDbEntity
  8
0
  6
Continuous
 62
     7
100
AcDbLine
 10
62.62954395861065
 20
148.3321826112198
 30
0.0
 11
61.79644267833458
 21
148.3321826112198
 31
0.0
  0
LINE
  5
B7
330
A
100
AcDbEntity
  8
0
  6
Continuous
 62
     7
100
AcDbLine
 10
82.56599945328217
 20
148.3321826112198
 30
0.0
 11
83.79780592770719
 21
148.3321826112198
 31
0.0
  0
LINE
  5
B8
330
A
100
AcDbEntity
  8
0
  6
Continuous
 62
     7
100
AcDbLine
 10
72.83137125887316
 20
148.9646690089455
 30
0.0
 11
68.43137125887317
 21
148.9646690089456
 31
0.0
  0
LINE
  5
B9
330
A
100
AcDbEntity
  8
0
  6
Continuous
 62
     7
100
AcDbLine
 10
77.23137125887316
 20
148.9646690089456
 30
0.0
 11
72.83137125887316
 21
148.9646690089455
 31
0.0
  0
LINE
  5
BA
330
A
100
AcDbEntity
  8
0
  6
Continuous
 62
     7
100
AcDbLine
 10
72.83137125887316
 20
152.7646690089456
 30
0.0
 11
70.98554897155093
 21
152.7646690089456
 31
0.0
  0
LINE
  5
BB
330
A
100
AcDbEntity
  8
0
  6
Continuous
 62
     7
100
AcDbLine
 10
74.67719354619539
 20
152.7646690089456
 30
0.0
 11
72.83137125887316
 21
152.7646690089456
 31
0.0
  0
LINE
  5
BC
330
A
100
AcDbEntity
  8
0
  6
Continuous
 62
     7
100
AcDbLine
 10
72.63137125887316
 20
152.8146690089456
 30
0.0
 11
73.03137125887317
 21
152.8146690089456
 31
0.0
  0
LINE
  5
BD
330
A
100
AcDbEntity
  8
0
  6
Continuous
 62
     7
100
AcDbLine
 10
73.03137125887317
 20
179.9146690089456
 30
0.0
 11
72.63137125887316
 21
179.9146690089456
 31
0.0
  0
LINE
  5
BE
330
A
100
AcDbEntity
  8
0
  6
Continuous
 62
     7
100
AcDbLine
 10
83.83137125887316
 20
188.3646690089456
 30
0.0
 11
61.83137125887316
 21
188.3646690089456
 31
0.0
  0
LINE
  5
BF
330
A
100
AcDbEntity
  8
0
  6
Continuous
 62
     7
100
AcDbLine
 10
72.83137125887316
 20
179.9646690089456
 30
0.0
 11
74.03137125887316
 21
179.9646690089456
 31
0.0
  0
LINE
  5
C0
330
A
100
AcDbEntity
  8
0
  6
Continuous
 62
     7
100
AcDbLine
 10
71.63137125887316
 20
179.9646690089456
 30
0.0
 11
72.83137125887316
 21
179.9646690089456
 31
0.0
  0
LWPOLYLINE
  5
C1
330
A
100
AcDbEntity
  8
0
  6
PHANTOM
 62
     7
100
AcDbPolyline
 90
        9
 70
   128
 43
0.0
 10
83.03614547391786
 20
147.5662250488097
 10
82.91706613457909
 20
147.5676554208062
 10
82.81643899290219
 20
147.569658372032
 10
82.61822354600957
 20
147.5755850170874
 10
82.26396265573487
 20
147.5866167218186
 10
81.68451991159686
 20
147.6010157783942
 10
80.81452433864772
 20
147.6135839847191
 10
80.40615400218078
 20
147.616819503886
 10
80.37707511729129
 20
147.6171295502601
  0
LWPOLYLINE
  5
CC
330
A
100
AcDbEntity
  8
0
  6
PHANTOM
 62
     7
100
AcDbPolyline
 90
       28
 70
   128
 43
0.0
 10
80.37964261927411
 20
147.6063369266608
 10
80.38355716749057
 20
147.6070296774143
 10
80.31301369667897
 20
147.6131830927613
 10
80.22046350749601
 20
147.6173058941558
 10
80.03029411775445
 20
147.6225846280216
 10
79.45647949028452
 20
147.6304133444241
 10
78.85203565259072
 20
147.6358137885531
 10
78.18559785042459
 20
147.6403344659971
 10
77.44901539646736
 20
147.6444362159738
 10
76.63518265953232
 20
147.6483794818547
 10
76.39936210865449
 20
147.6494687010909
 10
76.10281728150046
 20
147.6506312523986
 10
76.01644972121696
 20
147.6508366600641
 10
75.9104026345224
 20
147.6509148230253
 10
75.75299389276105
 20
147.6504440924623
 10
75.68380912966816
 20
147.6499053888112
 10
75.54092286868537
 20
147.648002647617
 10
75.44548009079251
 20
147.6466120427215
 10
75.30315413961708
 20
147.6448686435289
 10
75.1474755653465
 20
147.6437058748426
 10
74.94993261900583
 20
147.6435770423861
 10
74.67845897515063
 20
147.6459365661965
 10
74.28631676970219
 20
147.6550955076444
 10
73.9574676229371
 20
147.6673406698321
 10
73.2927011848098
 20
147.694630841349
 10
73.00671235239254
 20
147.7069344219716
 10
72.87824930198341
 20
147.7127586552519
 10
72.77498827367441
 20
147.7174664636485
  0
LWPOLYLINE
  5
EA
330
A
100
AcDbEntity
  8
0
  6
PHANTOM
 62
     7
100
AcDbPolyline
 90
       86
 70
   128
 43
0.0
 10
72.77498827117435
 20
147.7174867038289
 10
72.65099881330326
 20
147.7231165276489
 10
72.48736783880701
 20
147.7303121263548
 10
72.27407703894941
 20
147.7391383312502
 10
72.07613838824714
 20
147.7465816126299
 10
71.92859519196942
 20
147.7515726292885
 10
71.64972116591087
 20
147.7590452315909
 10
71.38397375343176
 20
147.7636291017375
 10
71.08151749308652
 20
147.7660882398781
 10
70.77437677880339
 20
147.7661377475381
 10
70.57840499551872
 20
147.7646768882495
 10
70.36612220259623
 20
147.7617054900569
 10
70.138288561432
 20
147.7572235529602
 10
69.86285694962937
 20
147.7504617191925
 10
69.70093492198886
 20
147.7460513689479
 10
69.61423515828421
 20
147.7435888354854
 10
69.56950263620156
 20
147.7422932291691
 10
69.54679817206027
 20
147.7416293411147
 10
69.53536238538426
 20
147.7412933758635
 10
69.52962373203705
 20
147.7411243879318
 10
69.52674923170357
 20
147.7410396426395
 10
69.52531069018118
 20
147.7409972071617
 10
69.52459109683953
 20
147.7409759737149
 10
69.52423121955596
 20
147.7409653530645
 10
69.52405126076505
 20
147.7409600417576
 10
69.52396127633281
 20
147.7409573858587
 10
69.52391628285756
 20
147.7409560578479
 10
69.52389378580516
 20
147.7409553938271
 10
69.52388253720027
 20
147.7409550618129
 10
69.52387691287815
 20
147.7409548958048
 10
69.52387410071217
 20
147.7409548128006
 10
69.41130919000375
 20
147.7375621197439
 10
69.14038849060097
 20
147.7292148864144
 10
68.83757237269062
 20
147.7195567841231
 10
68.61938482408554
 20
147.7123870831069
 10
68.40993412491423
 20
147.705328384629
 10
67.97551856780207
 20
147.6902941776775
 10
67.64117401148074
 20
147.6787701253432
 10
67.39546584127474
 20
147.6707562276262
 10
67.04434470440422
 20
147.6609254316766
 10
66.74396476920207
 20
147.6546401869885
 10
66.34602619715264
 20
147.6489015761068
 10
66.11503927668187
 20
147.6458521822182
 10
65.92164459866362
 20
147.6429821110666
 10
65.76846284547349
 20
147.6402913626521
 10
65.66773030093987
 20
147.6381849807184
 10
65.56499276240557
 20
147.6357808370341
 10
65.46035168875533
 20
147.6330789315993
 10
65.39890349926425
 20
147.6313210149186
 10
65.29418576387472
 20
147.6281996923022
 10
65.14621640840179
 20
147.6237149637504
 10
64.84097323278472
 20
147.6149991374082
 10
64.51373648172095
 20
147.6067676933782
 10
64.36378183241003
 20
147.6032324166133
 10
64.21430533655743
 20
147.599727730914
 10
64.06538540124315
 20
147.5962536362805
 10
63.9170972356779
 20
147.5928101327125
 10
63.7190335883006
 20
147.5878256900663
 10
63.449120751195
 20
147.580544153146
 10
63.252334226527
 20
147.5747779910077
 10
63.04243223962491
 20
147.5676236389317
 10
62.83103124789892
 20
147.5591709979397
 10
62.58575127143537
 20
147.5474028709976
 10
62.46954975969233
 20
147.5408389275398
 10
62.41372249255339
 20
147.5373869858142
 10
62.38646724687189
 20
147.5356185224523
 10
62.3730159314726
 20
147.5347236676465
 10
62.36633584355398
 20
147.5342735844624
 10
62.36300738048876
 20
147.5340478789251
 10
62.36134606785082
 20
147.5339348601701
 10
62.36051614422162
 20
147.533878309296
 10
62.36010136595069
 20
147.5338500234848
 10
62.35989402274756
 20
147.5338358779857
 10
62.35979036263488
 20
147.5338288045877
 10
62.3597385354515
 20
147.5338252677266
 10
62.35971262257812
 20
147.5338234992556
 10
62.35969966632104
 20
147.5338226150099
 10
62.35969318823741
 20
147.5338221728845
 10
62.3596899492068
 20
147.5338219518213
 10
62.3596883296943
 20
147.5338218412894
 10
62.25674450221026
 20
147.5262711462489
 10
62.09872409616846
 20
147.5123927774563
 10
62.01657760354212
 20
147.5035599711623
 10
61.93643836472314
 20
147.4934873196713
 10
61.92716741184869
 20
147.4920275017286
 10
61.92420855380108
 20
147.4910895938312
  0
LWPOLYLINE
  5
142
330
A
100
AcDbEntity
  8
0
  6
PHANTOM
 62
     7
100
AcDbPolyline
 90
        9
 70
   128
 43
0.0
 10
82.56599945328218
 20
148.3321826112198
 10
82.66255210288127
 20
148.317140796843
 10
82.75501407072917
 20
148.2726530307485
 10
82.8394681704753
 20
148.2006052381833
 10
82.91233668761393
 20
148.1040516172048
 10
82.97053307404835
 20
147.9870851614586
 10
83.01159347191861
 20
147.8546640931627
 10
83.03378002157383
 20
147.7124017345844
 10
83.03615443256962
 20
147.5663285926843
  0
LWPOLYLINE
  5
14D
330
A
100
AcDbEntity
  8
0
  6
PHANTOM
 62
     7
100
AcDbPolyline
 90
        5
 70
   128
 43
0.0
 10
72.77498827394665
 20
147.7174867033748
 10
72.83951531286809
 20
147.9586117248417
 10
72.96979676328198
 20
148.156849583986
 10
73.14921036274667
 20
148.2869049657663
 10
73.35486447051943
 20
148.3321826112197
  0
LWPOLYLINE
  5
154
330
A
100
AcDbEntity
  8
0
  6
PHANTOM
 62
     7
100
AcDbPolyline
 90
        9
 70
   128
 43
0.0
 10
61.91630497979414
 20
147.5925302087393
 10
61.81290093697565
 20
147.5940020720752
 10
61.57517565760066
 20
147.5980609985073
 10
61.37209230941635
 20
147.6020170398965
 10
61.23058201749799
 20
147.6058084722166
 10
61.16645944389517
 20
147.6114295558416
 10
61.13114288174135
 20
147.6259730066049
 10
61.09046787730044
 20
147.6378387681158
 10
61.00009830519461
 20
147.6306756221006
  0
LWPOLYLINE
  5
15F
330
A
100
AcDbEntity
  8
0
  6
PHANTOM
 62
     7
100
AcDbPolyline
 90
       14
 70
   128
 43
0.0
 10
84.50599341490855
 20
147.5824379913758
 10
84.5051781248132
 20
147.5805992754621
 10
84.49472189724877
 20
147.5787653325538
 10
84.45389497328781
 20
147.578058837108
 10
84.36809271606879
 20
147.5800235692054
 10
84.30296835738731
 20
147.5810723058748
 10
84.24540796528848
 20
147.5816692097336
 10
84.0938152986831
 20
147.5820417351866
 10
83.9591531593844
 20
147.5811770694312
 10
83.69406801019056
 20
147.5763893867026
 10
83.45280850882497
 20
147.570230993284
 10
83.22862233266155
 20
147.5667558516137
 10
83.12324052581997
 20
147.5661835765686
 10
83.03615793677066
 20
147.5663286221104
  0
LINE
  5
16F
330
A
100
AcDbEntity
  8
0
  6
PHANTOM
 62
     7
100
AcDbLine
 10
77.43137125887317
 20
148.7646690089456
 30
0.0
 11
68.23137125887315
 21
148.7646690089456
 31
0.0
  0
LINE
  5
170
330
A
100
AcDbEntity
  8
0
  6
PHANTOM
 62
     7
100
AcDbLine
 10
74.87060845364791
 20
152.6155676688015
 30
0.0
 11
70.79213406409841
 21
152.6155676688015
 31
0.0
  0
LINE
  5
171
330
A
100
AcDbEntity
  8
0
  6
PHANTOM
 62
     7
100
AcDbLine
 10
61.83137125887316
 20
187.3646690089456
 30
0.0
 11
83.83137125887316
 21
187.3646690089456
 31
0.0
  0
LINE
  5
172
330
A
100
AcDbEntity
  8
0
  6
PHANTOM
 62
     7
100
AcDbLine
 10
62.94245135471498
 20
185.8412001620971
 30
0.0
 11
82.72029116303135
 21
185.8412001620971
 31
0.0
  0
LINE
  5
173
330
A
100
AcDbEntity
  8
0
  6
PHANTOM
 62
     7
100
AcDbLine
 10
74.97868188299456
 20
180.4280533822944
 30
0.0
 11
70.68406063475177
 21
180.4280533822944
 31
0.0
  0
LWPOLYLINE
  5
174
330
A
100
AcDbEntity
  8
0
  6
Continuous
 62
     7
100
AcDbPolyline
 90
        9
 70
   128
 43
0.0
 10
144.6081571794215
 20
147.6362539870147
 10
144.5476026529097
 20
144.5281156099484
 10
144.4880043135424
 20
141.4255832519016
 10
144.4354712844313
 20
138.4907553456411
 10
144.3950885568468
 20
135.7236318911669
 10
144.3728440010278
 20
133.1242128884791
 10
144.3717226844947
 20
130.6924983375775
 10
144.3843551472863
 20
128.4284882384622
 10
144.3848667500732
 20
126.3321825912198
  0
LWPOLYLINE
  5
17F
330
A
100
AcDbEntity
  8
0
  6
Continuous
 62
     7
100
AcDbPolyline
 90
        6
 70
   128
 43
0.0
 10
145.3629201179913
 20
148.3321826112198
 10
145.0953776257821
 20
148.2893829166084
 10
144.8532767634245
 20
148.1534417390019
 10
144.6769103775723
 20
147.9257216615492
 10
144.6266344443306
 20
147.7837936998634
 10
144.6080090839057
 20
147.6297472963108
  0
LWPOLYLINE
  5
187
330
A
100
AcDbEntity
  8
0
  6
Continuous
 62
     7
100
AcDbPolyline
 90
        4
 70
   128
 43
0.0
 10
164.7159679467286
 20
126.3321825912198
 10
164.7191022360742
 20
137.3313984708092
 10
164.7199941771748
 20
140.2793557414117
 10
164.722314961918
 20
147.6222111503145
  0
LWPOLYLINE
  5
18D
330
A
100
AcDbEntity
  8
0
  6
Continuous
 62
     7
100
AcDbPolyline
 90
        7
 70
   128
 43
0.0
 10
164.7221576107777
 20
147.614862782871
 10
164.7030519869521
 20
147.7850388517606
 10
164.6468124040521
 20
147.937451889718
 10
164.5602597181015
 20
148.0665433417513
 10
164.4497746768038
 20
148.1695414301899
 10
164.1807856849809
 20
148.2967247734751
 10
163.8794891569805
 20
148.3321826112197
  0
LINE
  5
196
330
A
100
AcDbEntity
  8
0
  6
Continuous
 62
     7
100
AcDbLine
 10
144.3578971773481
 20
147.6012864752066
 30
0.0
 11
144.5035409875016
 21
142.2343815205569
 31
0.0
  0
LWPOLYLINE
  5
197
330
A
100
AcDbEntity
  8
0
  6
Continuous
 62
     7
100
AcDbPolyline
 90
       23
 70
   128
 43
0.0
 10
169.4753690142523
 20
126.3321825912197
 10
169.2282331263456
 20
127.5972851674085
 10
169.0246274456766
 20
128.6615214276278
 10
168.8629746775175
 20
129.5251014042733
 10
168.7219116568328
 20
130.2960179024809
 10
168.5849837098513
 20
131.0646282153647
 10
168.4531417676637
 20
131.8309323429246
 10
168.3286314199686
 20
132.5904507187467
 10
168.0439104563421
 20
134.6117581142697
 10
167.8457946168161
 20
136.552488396448
 10
167.7768130616833
 20
137.4123245823879
 10
167.7134531040266
 20
138.3083913964919
 10
167.6499501614653
 20
139.319492027473
 10
167.5904441891201
 20
140.3732880324057
 10
167.543466258321
 20
141.2751782898241
 10
167.519253577292
 20
141.7614965520198
 10
167.4958366547188
 20
142.2463921429598
 10
167.4725088725437
 20
142.7457377194658
 10
167.4477633439677
 20
143.2922235364864
 10
167.4139845165325
 20
144.0600707163566
 10
167.3709393972347
 20
145.0749455481147
 10
167.3195136649258
 20
146.3368480317609
 10
167.2681312555528
 20
147.6498838604968
  0
LWPOLYLINE
  5
1B0
330
A
100
AcDbEntity
  8
0
  6
Continuous
 62
     7
100
AcDbPolyline
 90
       13
 70
   128
 43
0.0
 10
167.2662388449063
 20
147.6502661938481
 10
167.2287691639163
 20
147.8332180047437
 10
167.1588218263419
 20
147.980769617566
 10
166.9938913285814
 20
148.1702394425139
 10
166.8684971406285
 20
148.2540735958138
 10
166.8343458472638
 20
148.2714380620722
 10
166.822011565662
 20
148.2776894625328
 10
166.8105353787585
 20
148.2836343834808
 10
166.7869557992903
 20
148.2945394084791
 10
166.7609952991809
 20
148.2993719054275
 10
166.7288419423802
 20
148.3040041249653
 10
166.5780348179618
 20
148.3193629813659
 10
166.1305872031191
 20
148.3321826112197
  0
LWPOLYLINE
  5
1BF
330
A
100
AcDbEntity
  8
0
  6
Continuous
 62
     7
100
AcDbPolyline
 90
        7
 70
   128
 43
0.0
 10
145.1558883444874
 20
148.3321826112198
 10
144.8734685957649
 20
148.2941861831355
 10
144.6165653581411
 20
148.16365015085
 10
144.5105104560629
 20
148.058772904366
 10
144.427459839051
 20
147.9277364728205
 10
144.3742602465894
 20
147.7735426631517
 10
144.3582851164347
 20
147.6021044593659
  0
ARC
  5
1C8
330
A
100
AcDbEntity
  8
0
  6
Continuous
 62
     7
100
AcDbCircle
 10
160.0291049554171
 20
148.7646690089455
 30
0.0
 40
0.200000000000017
100
AcDbArc
 50
0.0
 51
90.0
  0
ARC
  5
1C9
330
A
100
AcDbEntity
  8
0
  6
Continuous
 62
     7
100
AcDbCircle
 10
151.2291049554171
 20
148.7646690089456
 30
0.0
 40
0.200000000000017
100
AcDbArc
 50
90.0
 51
180.0000000000004
  0
LINE
  5
1CA
330
A
100
AcDbEntity
  8
0
  6
Continuous
 62
     7
100
AcDbLine
 10
160.2291049554171
 20
148.3646690089455
 30
0.0
 11
160.2291049554172
 21
148.7646690089455
 31
0.0
  0
LINE
  5
1CB
330
A
100
AcDbEntity
  8
0
  6
Continuous
 62
     7
100
AcDbLine
 10
151.0291049554171
 20
148.7646690089456
 30
0.0
 11
151.0291049554171
 21
148.3646690089456
 31
0.0
  0
LINE
  5
1CC
330
A
100
AcDbEntity
  8
0
  6
Continuous
 62
     7
100
AcDbLine
 10
158.6291049554171
 20
148.9646690089455
 30
0.0
 11
157.668342150192
 21
152.6155676688015
 31
0.0
  0
LINE
  5
1CD
330
A
100
AcDbEntity
  8
0
  6
Continuous
 62
     7
100
AcDbLine
 10
153.5898677606424
 20
152.6155676688016
 30
0.0
 11
152.6291049554171
 21
148.9646690089456
 31
0.0
  0
ARC
  5
1CE
330
A
100
AcDbEntity
  8
0
  6
Continuous
 62
     7
100
AcDbCircle
 10
157.4749272427394
 20
152.5646690089456
 30
0.0
 40
0.200000000000017
100
AcDbArc
 50
14.74356283648276
 51
90.0
  0
ARC
  5
1CF
330
A
100
AcDbEntity
  8
0
  6
Continuous
 62
     7
100
AcDbCircle
 10
153.783282668095
 20
152.5646690089456
 30
0.0
 40
0.200000000000017
100
AcDbArc
 50
90.0
 51
165.2564371635172
  0
LINE
  5
1D0
330
A
100
AcDbEntity
  8
0
  6
Continuous
 62
     7
100
AcDbLine
 10
155.8291049554172
 20
152.8146690089456
 30
0.0
 11
155.8291049554176
 21
179.9146690089456
 31
0.0
  0
LINE
  5
1D1
330
A
100
AcDbEntity
  8
0
  6
Continuous
 62
     7
100
AcDbLine
 10
155.4291049554176
 20
179.9146690089456
 30
0.0
 11
155.4291049554172
 21
152.8146690089456
 31
0.0
  0
ARC
  5
1D2
330
A
100
AcDbEntity
  8
0
  6
Continuous
 62
     7
100
AcDbCircle
 10
165.0291049554177
 20
187.3646690089455
 30
0.0
 40
1.600000000000022
100
AcDbArc
 50
287.792757015124
 51
360.0000000000008
  0
ARC
  5
1D3
330
A
100
AcDbEntity
  8
0
  6
Continuous
 62
     7
100
AcDbCircle
 10
146.2291049554177
 20
187.3646690089457
 30
0.0
 40
1.600000000000001
100
AcDbArc
 50
180.0000000000004
 51
252.2072429848763
  0
LINE
  5
1D4
330
A
100
AcDbEntity
  8
0
  6
Continuous
 62
     7
100
AcDbLine
 10
166.6291049554177
 20
187.3646690089455
 30
0.0
 11
166.6291049554177
 21
188.3646690089454
 31
0.0
  0
LINE
  5
1D5
330
A
100
AcDbEntity
  8
0
  6
Continuous
 62
     7
100
AcDbLine
 10
144.6291049554177
 20
188.3646690089458
 30
0.0
 11
144.6291049554177
 21
187.3646690089458
 31
0.0
  0
ARC
  5
1D6
330
A
100
AcDbEntity
  8
0
  6
Continuous
 62
     7
100
AcDbCircle
 10
170.4072239011575
 20
170.6065116936117
 30
0.0
 40
16.0
100
AcDbArc
 50
107.7927570151235
 51
142.1318578236212
  0
ARC
  5
1D7
330
A
100
AcDbEntity
  8
0
  6
Continuous
 62
     7
100
AcDbCircle
 10
140.8509860096773
 20
170.6065116936121
 30
0.0
 40
16.0
100
AcDbArc
 50
37.86814217637717
 51
72.20724298487486
  0
ARC
  5
1D8
330
A
100
AcDbEntity
  8
0
  6
Continuous
 62
     7
100
AcDbCircle
 10
156.8291049554176
 20
181.1646690089456
 30
0.0
 40
1.200000000000017
100
AcDbArc
 50
269.9999999999994
 51
322.1318578236193
  0
ARC
  5
1D9
330
A
100
AcDbEntity
  8
0
  6
Continuous
 62
     7
100
AcDbCircle
 10
154.4291049554176
 20
181.1646690089456
 30
0.0
 40
1.199999999999989
100
AcDbArc
 50
217.8681421763784
 51
269.9999999999994
  0
LINE
  5
1DA
330
A
100
AcDbEntity
  8
0
  6
Continuous
 62
     7
100
AcDbLine
 10
155.7588417502037
 20
126.3321825912198
 30
0.0
 11
155.7588417506116
 21
147.5631300583914
 31
0.0
  0
LINE
  5
1DB
330
A
100
AcDbEntity
  8
0
  6
Continuous
 62
     7
100
AcDbLine
 10
144.3800831526953
 20
126.3321825912198
 30
0.0
 11
155.7588417502037
 21
126.3321825912198
 31
0.0
  0
LINE
  5
1DC
330
A
100
AcDbEntity
  8
0
  6
Continuous
 62
     7
100
AcDbLine
 10
155.2404759376066
 20
148.3321826112198
 30
0.0
 11
145.3654823566892
 21
148.3321826112198
 31
0.0
  0
LINE
  5
1DD
330
A
100
AcDbEntity
  8
0
  6
Continuous
 62
     7
100
AcDbLine
 10
168.6081463009603
 20
126.3321825912197
 30
0.0
 11
164.7207343877228
 21
142.6213476222719
 31
0.0
  0
LINE
  5
1DE
330
A
100
AcDbEntity
  8
0
  6
Continuous
 62
     7
100
AcDbLine
 10
168.6081463009603
 20
126.3321825912197
 30
0.0
 11
164.7159679467286
 21
126.3321825912197
 31
0.0
  0
LINE
  5
1DF
330
A
100
AcDbEntity
  8
0
  6
Continuous
 62
     7
100
AcDbLine
 10
155.7588417502037
 20
126.3321825912198
 30
0.0
 11
164.6967371838643
 21
126.3321825912198
 31
0.0
  0
LINE
  5
1E0
330
A
100
AcDbEntity
  8
0
  6
Continuous
 62
     7
100
AcDbLine
 10
163.885707467832
 20
148.3321826112197
 30
0.0
 11
155.2404759376066
 21
148.3321826112198
 31
0.0
  0
LWPOLYLINE
  5
1E1
330
A
100
AcDbEntity
  8
0
  6
Continuous
 62
     7
100
AcDbPolyline
 90
        3
 70
   128
 43
0.0
 10
167.2655939933085
 20
147.6502419353474
 10
167.2679664134224
 20
147.6499053888112
 10
167.267759173959
 20
147.6498693976973
  0
LINE
  5
1E6
330
A
100
AcDbEntity
  8
0
  6
Continuous
 62
     7
100
AcDbLine
 10
168.6081463009603
 20
126.3321825912197
 30
0.0
 11
169.4743609271026
 21
126.3321825912197
 31
0.0
  0
LINE
  5
1E7
330
A
100
AcDbEntity
  8
0
  6
Continuous
 62
     7
100
AcDbLine
 10
166.1823135209757
 20
148.3321826112197
 30
0.0
 11
163.8794891569806
 21
148.3321826112197
 31
0.0
  0
LINE
  5
1E8
330
A
100
AcDbEntity
  8
0
  6
Continuous
 62
     7
100
AcDbLine
 10
145.3631728644613
 20
148.3321826112198
 30
0.0
 11
145.157217314163
 21
148.3321826112198
 31
0.0
  0
LINE
  5
1E9
330
A
100
AcDbEntity
  8
0
  6
Continuous
 62
     7
100
AcDbLine
 10
160.0291049554171
 20
148.9646690089455
 30
0.0
 11
151.2291049554171
 21
148.9646690089456
 31
0.0
  0
LINE
  5
1EA
330
A
100
AcDbEntity
  8
0
  6
Continuous
 62
     7
100
AcDbLine
 10
157.4749272427394
 20
152.7646690089456
 30
0.0
 11
153.783282668095
 21
152.7646690089456
 31
0.0
  0
LINE
  5
1EB
330
A
100
AcDbEntity
  8
0
  6
Continuous
 62
     7
100
AcDbLine
 10
155.8291049554176
 20
179.9146690089456
 30
0.0
 11
155.4291049554176
 21
179.9146690089456
 31
0.0
  0
LINE
  5
1EC
330
A
100
AcDbEntity
  8
0
  6
Continuous
 62
     7
100
AcDbLine
 10
155.4291049554172
 20
152.8146690089456
 30
0.0
 11
155.8291049554172
 21
152.8146690089456
 31
0.0
  0
LINE
  5
1ED
330
A
100
AcDbEntity
  8
0
  6
Continuous
 62
     7
100
AcDbLine
 10
166.6291049554177
 20
188.3646690089454
 30
0.0
 11
144.6291049554177
 21
188.3646690089458
 31
0.0
  0
LINE
  5
1EE
330
A
100
AcDbEntity
  8
0
  6
Continuous
 62
     7
100
AcDbLine
 10
154.4291049554176
 20
179.9646690089456
 30
0.0
 11
156.8291049554176
 21
179.9646690089456
 31
0.0
  0
LWPOLYLINE
  5
1EF
330
A
100
AcDbEntity
  8
0
  6
PHANTOM
 62
     7
100
AcDbPolyline
 90
       29
 70
   128
 43
0.0
 10
155.7588417442066
 20
147.5632449169458
 10
155.7158581140334
 20
147.5650121187749
 10
155.6821387259081
 20
147.5663317939755
 10
155.6219653003367
 20
147.5685389082379
 10
155.5143351564664
 20
147.5720288213784
 10
155.3192888135475
 20
147.5769877466833
 10
154.938927216099
 20
147.5825859559425
 10
154.5336391427955
 20
147.5873814169508
 10
154.0450627194481
 20
147.5940020720752
 10
153.7151545113415
 20
147.5980609985073
 10
153.3330838704068
 20
147.6020170398965
 10
152.9054260163061
 20
147.6058084722166
 10
152.492705267292
 20
147.6114295558416
 10
151.8016931273208
 20
147.6259730066049
 10
151.1972116782915
 20
147.6378387681158
 10
150.3213029962087
 20
147.6304170312097
 10
149.341718314769
 20
147.6015742061216
 10
148.3678483074962
 20
147.5934354337622
 10
147.6403699408495
 20
147.6022847028084
 10
146.9410922518039
 20
147.6218309568405
 10
146.3747974323621
 20
147.6490520772232
 10
145.9388146697999
 20
147.6656772714809
 10
145.652681872958
 20
147.6688127517524
 10
145.3947886947226
 20
147.6652376636183
 10
145.1416696735488
 20
147.6565815842913
 10
144.8898184424289
 20
147.6449013015277
 10
144.6802358111792
 20
147.6363246563615
 10
144.6132002640676
 20
147.6359751181309
 10
144.6157831565957
 20
147.6361054709223
  0
LWPOLYLINE
  5
20E
330
A
100
AcDbEntity
  8
0
  6
PHANTOM
 62
     7
100
AcDbPolyline
 90
        9
 70
   128
 43
0.0
 10
155.7588417442066
 20
147.5632449169458
 10
155.7567649389409
 20
147.7097147328264
 10
155.7326714045089
 20
147.852468636752
 10
155.687590392361
 20
147.98542330154
 10
155.6234453776873
 20
148.1029129239103
 10
155.5429721207898
 20
148.1999306852826
 10
155.4496021175965
 20
148.2723421310485
 10
155.3473164034294
 20
148.3170613738875
 10
155.2404759376066
 20
148.3321826112198
  0
LWPOLYLINE
  5
219
330
A
100
AcDbEntity
  8
0
  6
PHANTOM
 62
     7
100
AcDbPolyline
 90
       62
 70
   128
 43
0.0
 10
164.7188947739792
 20
147.6222269198713
 10
164.7052319932194
 20
147.6149991374082
 10
164.6380232266743
 20
147.6067676933782
 10
164.5919431551343
 20
147.6032324166133
 10
164.5373481814413
 20
147.599727730914
 10
164.4749855995397
 20
147.5962536362805
 10
164.4056067407084
 20
147.5928101327125
 10
164.3027816746348
 20
147.5878256900663
 10
164.1468926088164
 20
147.580544153146
 10
164.0239896068694
 20
147.5747779910077
 10
163.8836993172721
 20
147.5676236389317
 10
163.7292426144447
 20
147.5591709979397
 10
163.5256426275757
 20
147.5474028709976
 10
163.4156667325552
 20
147.5408389275398
 10
163.3585008619201
 20
147.5373869858142
 10
163.3293556579481
 20
147.5356185224523
 10
163.3146402111738
 20
147.5347236676465
 10
163.3072464884528
 20
147.5342735844624
 10
163.3035405910257
 20
147.5340478789251
 10
163.3016853787528
 20
147.5339348601701
 10
163.3007572061578
 20
147.533878309296
 10
163.3002929781745
 20
147.5338500234848
 10
163.3000608287525
 20
147.5338358779857
 10
163.2999447451829
 20
147.5338288045877
 10
163.2998867011832
 20
147.5338252677266
 10
163.2998576786296
 20
147.5338234992556
 10
163.2998431672144
 20
147.5338226150099
 10
163.2998359114722
 20
147.5338221728845
 10
163.2998322835925
 20
147.5338219518213
 10
163.2998304696504
 20
147.5338218412894
 10
163.1763442186453
 20
147.5262711462489
 10
162.9377131436253
 20
147.5123927774563
 10
162.7633978095985
 20
147.5035599711623
 10
162.4527222924506
 20
147.4934873196713
 10
162.356057703667
 20
147.4920275017286
 10
162.2495189175632
 20
147.4910853242066
 10
162.132916989506
 20
147.4906607871053
 10
161.9720467706695
 20
147.4908541678963
 10
161.7634478488097
 20
147.4918087227079
 10
161.5065971010169
 20
147.4935244515399
 10
161.2085129685124
 20
147.4958050390749
 10
160.9129330693575
 20
147.4981956990572
 10
160.6437464638232
 20
147.5002190826775
 10
160.3439925576717
 20
147.5020920264432
 10
160.0980398000708
 20
147.5036417563284
 10
159.788231481158
 20
147.5058426480186
 10
159.4424676776113
 20
147.5084140083538
 10
159.238104236542
 20
147.5099079146016
 10
158.7778820096386
 20
147.5131050794164
 10
158.4265176614126
 20
147.515395577189
 10
158.2032151101702
 20
147.5167794079195
 10
158.1240260481659
 20
147.5172565716078
 10
157.9442142951286
 20
147.5180121747273
 10
157.6914507133043
 20
147.5189326767197
 10
157.3747406507
 20
147.5200441598682
 10
157.1056483967844
 20
147.5212915627722
 10
156.9123181718545
 20
147.5226304493485
 10
156.5869760029598
 20
147.5273055961431
 10
156.2730195856957
 20
147.538298216398
 10
156.1315045703801
 20
147.545242601993
 10
155.9967745144587
 20
147.5522793387362
 10
155.7588417506116
 20
147.5631300583914
  0
LWPOLYLINE
  5
259
330
A
100
AcDbEntity
  8
0
  6
PHANTOM
 62
     7
100
AcDbPolyline
 90
        4
 70
   128
 43
0.0
 10
144.6019100536896
 20
147.5793035116797
 10
144.5052127587773
 20
147.5807800787301
 10
144.3822892265813
 20
147.5924480574914
 10
144.3744357403173
 20
147.6017656709498
  0
LWPOLYLINE
  5
25F
330
A
100
AcDbEntity
  8
0
  6
PHANTOM
 62
     7
100
AcDbPolyline
 90
       10
 70
   128
 43
0.0
 10
167.267759173959
 20
147.6498693976973
 10
167.2570102906019
 20
147.648002647617
 10
167.2345752700194
 20
147.6466120427215
 10
167.17876073771
 20
147.6448686435289
 10
167.0876063983405
 20
147.6437058748426
 10
166.9281118732216
 20
147.6435770423861
 10
166.6338994783061
 20
147.6459365661965
 10
166.0804742223677
 20
147.6550955076444
 10
165.5431285870681
 20
147.6673406698321
 10
164.7141245772374
 20
147.686413970187
  0
LINE
  5
26B
330
A
100
AcDbEntity
  8
0
  6
PHANTOM
 62
     7
100
AcDbLine
 10
160.2291049554172
 20
148.7646690089455
 30
0.0
 11
151.0291049554171
 21
148.7646690089456
 31
0.0
  0
LINE
  5
26C
330
A
100
AcDbEntity
  8
0
  6
PHANTOM
 62
     7
100
AcDbLine
 10
157.668342150192
 20
152.6155676688015
 30
0.0
 11
153.5898677606424
 21
152.6155676688016
 31
0.0
  0
LINE
  5
26D
330
A
100
AcDbEntity
  8
0
  6
PHANTOM
 62
     7
100
AcDbLine
 10
144.6291049554177
 20
187.3646690089458
 30
0.0
 11
166.6291049554177
 21
187.3646690089455
 31
0.0
  0
LINE
  5
26E
330
A
100
AcDbEntity
  8
0
  6
PHANTOM
 62
     7
100
AcDbLine
 10
145.7401850512595
 20
185.8412001620972
 30
0.0
 11
165.5180248595759
 21
185.8412001620969
 31
0.0
  0
LINE
  5
26F
330
A
100
AcDbEntity
  8
0
  6
PHANTOM
 62
     7
100
AcDbLine
 10
157.776415579539
 20
180.4280533822944
 30
0.0
 11
153.4817943312962
 21
180.4280533822944
 31
0.0
  0
LWPOLYLINE
  5
270
330
A
100
AcDbEntity
  8
0
  6
Continuous
 62
     7
100
AcDbPolyline
 90
        8
 70
   128
 43
0.0
 10
78.4425210186664
 20
76.21812263088637
 10
78.06104127528654
 20
76.34157856803672
 10
77.79035599686749
 20
76.37489075888031
 10
77.45802343011188
 20
76.36286132610796
 10
77.09409286634812
 20
76.2823371816037
 10
76.74592333164709
 20
76.14396948046553
 10
76.09312361756973
 20
75.76294259049477
 10
75.91398902727125
 20
75.64169560318842
  0
LWPOLYLINE
  5
27A
330
A
100
AcDbEntity
  8
0
  6
Continuous
 62
     7
100
AcDbPolyline
 90
       14
 70
   128
 43
0.0
 10
83.78150683037125
 20
65.67864676123143
 10
83.80846162900914
 20
65.703036649376
 10
84.14496960344676
 20
66.01992158262672
 10
84.30461431734046
 20
66.21096842706581
 10
84.3900140816288
 20
66.3486394915944
 10
84.44215954193763
 20
66.46806181413819
 10
84.47278166200202
 20
66.57723279220933
 10
84.49628338184856
 20
66.76487576692654
 10
84.49721063826009
 20
66.87514711904561
 10
84.49124720913415
 20
66.98854540669599
 10
84.47870404079287
 20
67.11083328330407
 10
84.46010053045297
 20
67.24099488067139
 10
84.39396388354245
 20
67.59706295387309
 10
84.31870651477394
 20
68.00203229934439
  0
LWPOLYLINE
  5
28A
330
A
100
AcDbEntity
  8
0
  6
Continuous
 62
     7
100
AcDbPolyline
 90
       16
 70
   128
 43
0.0
 10
62.77068135709552
 20
60.68153478151157
 10
62.64610984118259
 20
60.47153186440375
 10
62.27837125961082
 20
59.77713129376525
 10
61.98853470130069
 20
59.0090402870658
 10
61.91955635295926
 20
58.60250665342656
 10
61.95813321473566
 20
58.1296053583672
 10
62.03595687457905
 20
57.91295647140948
 10
62.1207201289201
 20
57.75359897447617
 10
62.27552753226156
 20
57.53562265223158
 10
62.39892877852396
 20
57.39559062990222
 10
62.54859336006751
 20
57.24880461657612
 10
62.99903168682718
 20
56.89095755703507
 10
63.64921211481348
 20
56.48240346752164
 10
64.37980899589553
 20
56.14399970709832
 10
64.74182278742611
 20
56.04770544786598
 10
65.09513591874953
 20
56.01398977155874
  0
LWPOLYLINE
  5
29C
330
A
100
AcDbEntity
  8
0
  6
Continuous
 62
     7
100
AcDbPolyline
 90
        6
 70
   128
 43
0.0
 10
61.13669176865244
 20
68.77783431701361
 10
61.14854634972695
 20
68.49781571176527
 10
61.18561819504733
 20
68.0884004240785
 10
61.33093769688001
 20
67.51193819547347
 10
61.65804901920177
 20
66.90444403135362
 10
61.95735791117973
 20
66.54102322485593
  0
LWPOLYLINE
  5
2A4
330
A
100
AcDbEntity
  8
0
  6
Continuous
 62
     7
100
AcDbPolyline
 90
        4
 70
   128
 43
0.0
 10
68.53537362989893
 20
75.2145322199072
 10
68.06401142803977
 20
75.50248689317729
 10
67.62518505017006
 20
75.73827752717789
 10
67.30056650750907
 20
75.88299847690831
  0
LWPOLYLINE
  5
2AA
330
A
100
AcDbEntity
  8
0
  6
Continuous
 62
     7
100
AcDbPolyline
 90
        3
 70
   128
 43
0.0
 10
60.97899482018606
 20
70.65094761497508
 10
60.9165023445459
 20
69.98254920217935
 10
60.71911489739369
 20
69.27939113621128
  0
LWPOLYLINE
  5
2AF
330
A
100
AcDbEntity
  8
0
  6
Continuous
 62
     7
100
AcDbPolyline
 90
        3
 70
   128
 43
0.0
 10
67.29087627041406
 20
75.88704527067656
 10
67.22868251777871
 20
75.92269345021671
 10
67.16853503782598
 20
75.98120343247599
  0
LWPOLYLINE
  5
2B4
330
A
100
AcDbEntity
  8
0
  6
Continuous
 62
     7
100
AcDbPolyline
 90
        3
 70
   128
 43
0.0
 10
65.10338304933991
 20
56.01398566627184
 10
65.93601964782992
 20
56.01726880059594
 10
66.69300488907326
 20
56.01998707798653
  0
LWPOLYLINE
  5
2B9
330
A
100
AcDbEntity
  8
0
  6
Continuous
 62
     7
100
AcDbPolyline
 90
        3
 70
   128
 43
0.0
 10
79.4461898034601
 20
75.75469908461091
 10
78.92571587230624
 20
75.99500561995018
 10
78.41529198582597
 20
76.2305888896791
  0
LINE
  5
2BE
330
A
100
AcDbEntity
  8
0
  6
Continuous
 62
     7
100
AcDbLine
 10
65.10353980875691
 20
56.01689698816137
 30
0.0
 11
65.05452617637146
 21
56.01954252321952
 31
0.0
  0
LINE
  5
2BF
330
A
100
AcDbEntity
  8
0
  6
Continuous
 62
     7
100
AcDbLine
 10
61.14195920284609
 20
68.72297333878332
 30
0.0
 11
61.13964109206825
 21
68.76833003806559
 31
0.0
  0
LWPOLYLINE
  5
2C0
330
A
100
AcDbEntity
  8
0
  6
Continuous
 62
     7
100
AcDbPolyline
 90
        6
 70
   128
 43
0.0
 10
60.9948629456533
 20
70.63951245040707
 10
60.98822748931635
 20
71.39458282745817
 10
61.14717360990401
 20
72.3684528347309
 10
61.4001945769276
 20
73.09593120137773
 10
61.81856103045385
 20
73.79520889042324
 10
61.8360006668942
 20
73.81316533966959
  0
LINE
  5
2C8
330
A
100
AcDbEntity
  8
0
  6
Continuous
 62
     7
100
AcDbLine
 10
67.28737833950482
 20
75.87939772357879
 30
0.0
 11
67.35009761647498
 21
75.85071146806225
 31
0.0
  0
LWPOLYLINE
  5
2C9
330
A
100
AcDbEntity
  8
0
  6
Continuous
 62
     7
100
AcDbPolyline
 90
       16
 70
   128
 43
0.0
 10
67.16747541114462
 20
75.9802083050668
 10
67.15085288352392
 20
76.00227242025455
 10
66.81197500498831
 20
76.32917228502435
 10
66.4922131439209
 20
76.49875865118769
 10
66.13242180253571
 20
76.54941209218309
 10
65.4624774323465
 20
76.46594747531533
 10
64.79359214684208
 20
76.35675449314085
 10
63.99513065315263
 20
76.35064390215465
 10
63.19768324377113
 20
76.33365122936739
 10
62.58264797062901
 20
76.18297340844525
 10
62.04580437733645
 20
75.8403507020732
 10
61.72774405080513
 20
75.45254590123801
 10
61.59980354376453
 20
75.1156392574266
 10
61.59102077814043
 20
74.75493948002834
 10
61.7273338880177
 20
73.95176481584307
 10
61.77638910183055
 20
73.64011677904405
  0
LWPOLYLINE
  5
2DB
330
A
100
AcDbEntity
  8
0
  6
Continuous
 62
     7
100
AcDbPolyline
 90
        7
 70
   128
 43
0.0
 10
60.73422756008006
 20
69.27515071547276
 10
60.66915126182257
 20
69.04322229802364
 10
60.69520458842008
 20
68.65305694211137
 10
60.80184453079635
 20
68.30405630039718
 10
60.9582356936397
 20
67.97318744330619
 10
61.37223674918726
 20
67.34006400174355
 10
61.49070797511489
 20
67.21522113004574
  0
LINE
  5
2E4
330
A
100
AcDbEntity
  8
0
  6
Continuous
 62
     7
100
AcDbLine
 10
72.77498827112935
 20
52.12815484126691
 30
0.0
 11
72.77498827114678
 21
54.10734068963591
 31
0.0
  0
LWPOLYLINE
  5
2E5
330
A
100
AcDbEntity
  8
0
  6
Continuous
 62
     7
100
AcDbPolyline
 90
        5
 70
   128
 43
0.0
 10
72.77498827112935
 20
52.1281548412669
 10
72.28275463983806
 20
52.71851568261929
 10
71.87235434889835
 20
53.37504335577779
 10
71.5157493812097
 20
54.06214348670304
 10
71.43092216546588
 20
54.23197712363327
  0
LWPOLYLINE
  5
2EC
330
A
100
AcDbEntity
  8
0
  6
Continuous
 62
     7
100
AcDbPolyline
 90
       14
 70
   128
 43
0.0
 10
79.33763201842426
 20
56.27361708610713
 10
79.19862043326734
 20
55.96361330541092
 10
78.7248871096374
 20
55.16567339129444
 10
78.18003123649726
 20
54.41626477813166
 10
77.03230437789279
 20
53.13027470253999
 10
76.16108978165908
 20
52.27121337948386
 10
75.74226641273229
 20
51.88850352702393
 10
75.28836200323095
 20
51.55075137171498
 10
74.80573420760951
 20
51.32140918186655
 10
74.36815903200183
 20
51.26194021512461
 10
73.93550067534082
 20
51.34648810908026
 10
73.57722961540263
 20
51.50653603494722
 10
73.24652265094346
 20
51.7194777265728
 10
72.77498827112933
 20
52.12815484126691
  0
LWPOLYLINE
  5
2FC
330
A
100
AcDbEntity
  8
0
  6
Continuous
 62
     7
100
AcDbPolyline
 90
       24
 70
   128
 43
0.0
 10
79.44395294609383
 20
75.75107309400903
 10
79.4786834881629
 20
75.73905673405771
 10
80.01510702735087
 20
75.37396628682618
 10
80.50853162350618
 20
74.94353325782215
 10
81.36869476169492
 20
74.29575610996666
 10
82.3181479727142
 20
73.79709341689343
 10
82.99425204479947
 20
73.58837668565491
 10
83.69068089652897
 20
73.44424296841777
 10
84.38831206328918
 20
73.3053001932723
 10
84.80831101262735
 20
73.19066600451542
 10
85.2094409051096
 20
73.02423508830447
 10
85.79597505629799
 20
72.57973852770158
 10
86.20796780838267
 20
71.9721947863263
 10
86.33934937939768
 20
71.59911508623483
 10
86.39992660644031
 20
71.20793375982767
 10
86.38584880866067
 20
70.67259613863928
 10
86.30690670862525
 20
70.14101881826689
 10
86.05473843918828
 20
68.49234288313205
 10
85.97359155490043
 20
68.07122285869252
 10
85.82402330656435
 20
67.67147238248324
 10
85.59130229635611
 20
67.30926146965622
 10
85.2999567400735
 20
66.99098032528848
 10
84.81799556400513
 20
66.61164280147525
 10
84.40482486064455
 20
66.38255879383604
  0
CIRCLE
  5
316
330
A
100
AcDbEntity
  8
0
  6
Continuous
 62
     7
100
AcDbCircle
 10
72.83137125887316
 20
65.10719618680929
 30
0.0
 40
11.0
  0
LWPOLYLINE
  5
317
330
A
100
AcDbEntity
  8
0
  6
PHANTOM
 62
     7
100
AcDbPolyline
 90
       21
 70
   128
 43
0.0
 10
65.61079288674715
 20
56.83661676430209
 10
65.44030998762238
 20
56.77374744289421
 10
65.12534515823507
 20
56.72397124376047
 10
64.93069000044323
 20
56.73512908863048
 10
64.72083619793315
 20
56.77733656550873
 10
64.49578375070483
 20
56.85059367439522
 10
64.12383359919139
 20
57.02097145855961
 10
63.73501159094964
 20
57.2449847971097
 10
63.37419774950626
 20
57.48434678976863
 10
63.18415827752055
 20
57.62834818641191
 10
63.02154881166575
 20
57.76818023429958
 10
62.88636935194184
 20
57.90384293343168
 10
62.77727503809494
 20
58.03722024748999
 10
62.69731744927723
 20
58.16536124682226
 10
62.63917691562924
 20
58.31646401325824
 10
62.62612252341217
 20
58.39256503265445
 10
62.62158757434611
 20
58.47714118199203
 10
62.63653375680022
 20
58.66087301947316
 10
62.68242987850406
 20
58.87079773359571
 10
62.75927593945759
 20
59.10691532435971
 10
63.1588653810131
 20
59.94192593754768
  0
LWPOLYLINE
  5
32E
330
A
100
AcDbEntity
  8
0
  6
PHANTOM
 62
     7
100
AcDbPolyline
 90
       29
 70
   128
 43
0.0
 10
62.11033011324071
 20
67.51990364306944
 10
62.0226417135078
 20
67.68607319083827
 10
61.90982410538058
 20
68.04713061414377
 10
61.86353797834548
 20
68.42605081488331
 10
61.84437922690619
 20
68.84687565373468
 10
61.82773118608456
 20
69.22959741783943
 10
61.79644267833458
 20
69.60987465110898
 10
61.73544941962653
 20
70.156429589705
 10
61.69129015791092
 20
70.64926925831702
 10
61.68492993196393
 20
71.16045780080703
 10
61.73324121425491
 20
71.68442955096043
 10
61.83318586775867
 20
72.18903093452164
 10
61.92855861194154
 20
72.50703044114075
 10
62.04495727574912
 20
72.80008044535545
 10
62.37613805744583
 20
73.35615757412035
 10
62.65785080998637
 20
73.66781276397644
 10
62.98911603412832
 20
73.95043705963423
 10
63.34632422774131
 20
74.19857982874678
 10
63.90417066184351
 20
74.52961733290919
 10
64.47262794628324
 20
74.84235721121542
 10
65.04781863076086
 20
75.14038811155479
 10
65.65520320470018
 20
75.36478200678331
 10
65.97527529418218
 20
75.41449631533204
 10
66.29765985973837
 20
75.40971380119142
 10
66.60807146903943
 20
75.35970684180341
 10
66.92764161548486
 20
75.26553636897684
 10
67.22667416982523
 20
75.14226322723221
 10
67.51690439221232
 20
74.99644948053689
 10
67.78535570732943
 20
74.84456571727685
  0
LWPOLYLINE
  5
34D
330
A
100
AcDbEntity
  8
0
  6
PHANTOM
 62
     7
100
AcDbPolyline
 90
       13
 70
   128
 43
0.0
 10
76.76550114892539
 20
75.34821971953078
 10
76.86092905209408
 20
75.40678687421447
 10
77.24516838820882
 20
75.58598711821493
 10
77.54993882282407
 20
75.66022485729371
 10
77.8641302621154
 20
75.65609853706121
 10
78.01776080901929
 20
75.62241747552196
 10
78.16445683713606
 20
75.56411875644866
 10
78.29323986153794
 20
75.47381212890747
 10
78.34043932328795
 20
75.41889239876955
 10
78.38773973328972
 20
75.34802747499949
 10
78.55884607599221
 20
74.97559559473038
 10
78.71608558635685
 20
74.57615212365503
 10
78.85872936245796
 20
74.27056108185144
  0
LWPOLYLINE
  5
35C
330
A
100
AcDbEntity
  8
0
  6
PHANTOM
 62
     7
100
AcDbPolyline
 90
       31
 70
   128
 43
0.0
 10
80.95657815874966
 20
72.48606842393832
 10
81.15034887909555
 20
72.43506692411665
 10
81.64523670897365
 20
72.36120577422056
 10
82.18028380230951
 20
72.31153863491432
 10
82.66026415404722
 20
72.26267489997304
 10
83.13730045108901
 20
72.1621940591946
 10
83.28158938515707
 20
72.10141463224871
 10
83.40953377702261
 20
72.01111206897056
 10
83.50753416046389
 20
71.88779323715798
 10
83.58154077723837
 20
71.7489256883995
 10
83.67628294622305
 20
71.45087260864189
 10
83.71289935216507
 20
71.13940921301488
 10
83.70217600589485
 20
70.73340571480371
 10
83.65754795791273
 20
70.32770602687486
 10
83.59955100308575
 20
69.90556399687758
 10
83.54529175934141
 20
69.43995910076809
 10
83.52311743596303
 20
68.99027208413047
 10
83.5387217195052
 20
68.53428262177569
 10
83.5543874544783
 20
68.35676317217291
 10
83.57545294048014
 20
68.17505055483441
 10
83.60110455507202
 20
67.99437553732383
 10
83.63074467817153
 20
67.81539360211714
 10
83.66227501799833
 20
67.64633755611829
 10
83.70055729495422
 20
67.45809944890275
 10
83.73221124169166
 20
67.30682942796381
 10
83.76174454601473
 20
67.15515316661502
 10
83.78785073087916
 20
66.98395173364732
 10
83.79780592770719
 20
66.84842372823101
 10
83.79414327244791
 20
66.75994924797572
 10
83.77994215815608
 20
66.69570633259796
 10
83.72547300911703
 20
66.61239183737546
  0
LWPOLYLINE
  5
37D
330
A
100
AcDbEntity
  8
0
  6
PHANTOM
 62
     7
100
AcDbPolyline
 90
       12
 70
   128
 43
0.0
 10
76.73957319360389
 20
54.86091133986449
 10
76.22136867917774
 20
54.44575241295409
 10
76.08696228806272
 20
54.35573295594056
 10
75.96450473221458
 20
54.28345036454881
 10
75.82774659080289
 20
54.2178645405825
 10
75.74533673742678
 20
54.18957633745542
 10
75.68079552697698
 20
54.17768870019164
 10
75.6544201031508
 20
54.18028848729179
 10
75.6049475310368
 20
54.19954149877992
 10
75.54358363527313
 20
54.23721850727353
 10
75.37958061684451
 20
54.37960607318924
 10
75.34077745008386
 20
54.42351196107487
  0
LWPOLYLINE
  5
38B
330
A
100
AcDbEntity
  8
0
  6
PHANTOM
 62
     7
100
AcDbPolyline
 90
       32
 70
   128
 43
0.0
 10
78.42863503242345
 20
76.22211606078838
 10
78.70400677010424
 20
76.05691214327015
 10
78.85536730319492
 20
75.91022008652342
 10
78.95528469686354
 20
75.77733725843457
 10
79.12956638932681
 20
75.44996172831201
 10
79.23668352570878
 20
75.18722574265026
 10
79.32542948814347
 20
74.95788100335818
 10
79.41027631707791
 20
74.75387485359843
 10
79.50063807946946
 20
74.56410199184556
 10
79.76710954143563
 20
74.12276081482662
 10
80.09290928515754
 20
73.73822258288814
 10
80.46627028583383
 20
73.43907676841332
 10
80.88523398962022
 20
73.23775553724373
 10
81.20204221047963
 20
73.14868552043624
 10
81.5538014804882
 20
73.08716843716765
 10
81.93880890556709
 20
73.0447409972769
 10
82.35440114204644
 20
73.00859910713771
 10
82.80613595802808
 20
72.9590687578634
 10
83.33186366596052
 20
72.84525187929658
 10
83.57210473927322
 20
72.74955370885985
 10
83.860866572544
 20
72.55925177622242
 10
84.08291967616854
 20
72.30218635361167
 10
84.21348684803525
 20
72.06949503265795
 10
84.36299010606765
 20
71.62348312367339
 10
84.41846296821054
 20
71.19437260229064
 10
84.40801472460881
 20
70.68984829440667
 10
84.35899134651002
 20
70.24026127414574
 10
84.3021383672988
 20
69.82611720998466
 10
84.23203362273861
 20
69.04353461515407
 10
84.27649268981785
 20
68.28683561199534
 10
84.31191935705006
 20
68.043029965398
 10
84.31927234547586
 20
68.00183585651469
  0
LWPOLYLINE
  5
3AD
330
A
100
AcDbEntity
  8
0
  6
PHANTOM
 62
     7
100
AcDbPolyline
 90
       17
 70
   128
 43
0.0
 10
78.67010424193837
 20
55.80829537662758
 10
78.18559785042459
 20
55.24971598707007
 10
77.44901539646736
 20
54.53159284778877
 10
76.63518265953232
 20
53.86975477364057
 10
76.39936210865449
 20
53.71535506500314
 10
76.10281728150046
 20
53.5642239711009
 10
76.01644972121696
 20
53.53155544173085
 10
75.9104026345224
 20
53.49981547418561
 10
75.75299389276105
 20
53.47213221663961
 10
75.68380912966816
 20
53.46833472880467
 10
75.54092286868537
 20
53.47929085162523
 10
75.44548009079251
 20
53.50172587220768
 10
75.30315413961708
 20
53.55754040451708
 10
75.1474755653465
 20
53.64869474388656
 10
74.94993261900583
 20
53.80818926900556
 10
74.67845897515063
 20
54.10240166392106
 10
74.55725820418547
 20
54.27345075468294
  0
LWPOLYLINE
  5
3C0
330
A
100
AcDbEntity
  8
0
  6
PHANTOM
 62
     7
100
AcDbPolyline
 90
       11
 70
   128
 43
0.0
 10
66.23534014624268
 20
56.33897631319997
 10
66.11503927668187
 20
56.27631544671896
 10
65.92164459866362
 20
56.19039716040486
 10
65.76846284547349
 20
56.13303638401827
 10
65.66773030093987
 20
56.10089360561127
 10
65.56499276240557
 20
56.07294897041634
 10
65.46035168875533
 20
56.04974464968996
 10
65.39890349926425
 20
56.03869330202561
 10
65.29418576387472
 20
56.02444286948333
 10
65.14621640840179
 20
56.01459349758073
 10
65.10353980875691
 20
56.01689698816137
  0
LWPOLYLINE
  5
3CD
330
A
100
AcDbEntity
  8
0
  6
PHANTOM
 62
     7
100
AcDbPolyline
 90
        5
 70
   128
 43
0.0
 10
61.13964109206825
 20
68.76833003806559
 10
61.13114288174135
 20
68.9346080149064
 10
61.09046787730044
 20
69.53908946393569
 10
60.99683594699077
 20
70.41499814601845
 10
60.9948629456533
 20
70.63951245040707
  0
LWPOLYLINE
  5
3D4
330
A
100
AcDbEntity
  8
0
  6
PHANTOM
 62
     7
100
AcDbPolyline
 90
       12
 70
   128
 43
0.0
 10
61.8360006668942
 20
73.81316533966959
 10
62.36855705882362
 20
74.36150370986505
 10
62.96802356362626
 20
74.79748647242731
 10
63.44500218593459
 20
75.08361926926915
 10
63.90942725480892
 20
75.34151244750454
 10
64.3738606853813
 20
75.59463146867838
 10
64.88778929293513
 20
75.84648269979824
 10
65.49510252123052
 20
76.05606533104794
 10
65.93784476735549
 20
76.12310087815959
 10
66.3711394866703
 20
76.11548539009413
 10
67.17552645489006
 20
75.93055602605081
 10
67.28737833950482
 20
75.87939772357879
  0
ENDSEC
  0
SECTION
  2
OBJECTS
  0
DICTIONARY
  5
19
330
0
100
AcDbDictionary
281
     1
  3
ACAD_COLOR
350
3E8
  3
ACAD_GROUP
350
1A
  3
ACAD_LAYOUT
350
3EB
  3
ACAD_MATERIAL
350
3E7
  3
ACAD_MLINESTYLE
350
1B
  3
ACAD_PLOTSETTINGS
350
3EC
  3
ACAD_PLOTSTYLENAME
350
3E5
  3
ACAD_TABLESTYLE
350
3E9
  3
ACDBHEADERROUNDTRIPXREC
350
404
  3
AcDbVariableDictionary
350
3FF
  3
ASE_INDEX_DICTIONARY
350
3F2
  0
DICTIONARY
  5
3E8
102
{ACAD_REACTORS
330
19
102
}
330
19
100
AcDbDictionary
281
     1
  0
DICTIONARY
  5
1A
102
{ACAD_REACTORS
330
19
102
}
330
19
100
AcDbDictionary
281
     1
  0
DICTIONARY
  5
3EB
102
{ACAD_REACTORS
330
19
102
}
330
19
100
AcDbDictionary
281
     1
  3
Layout1
350
3EE
  3
Model
350
3ED
  0
DICTIONARY
  5
3E7
102
{ACAD_REACTORS
330
19
102
}
330
19
100
AcDbDictionary
281
     1
  0
DICTIONARY
  5
1B
102
{ACAD_REACTORS
330
19
102
}
330
19
100
AcDbDictionary
281
     1
  3
STANDARD
350
1C
  0
DICTIONARY
  5
3EC
102
{ACAD_REACTORS
330
19
102
}
330
19
100
AcDbDictionary
281
     1
  0
ACDBDICTIONARYWDFLT
  5
3E5
102
{ACAD_REACTORS
330
19
102
}
330
19
100
AcDbDictionary
281
     1
  3
Normal
350
3E6
100
AcDbDictionaryWithDefault
340
3E6
  0
DICTIONARY
  5
3E9
102
{ACAD_REACTORS
330
19
102
}
330
19
100
AcDbDictionary
281
     1
  3
Standard
350
3EA
  0
DICTIONARY
  5
404
102
{ACAD_REACTORS
330
19
102
}
330
19
100
AcDbDictionary
281
     1
  0
DICTIONARY
  5
3FF
102
{ACAD_REACTORS
330
19
102
}
330
19
100
AcDbDictionary
281
     1
  3
CTABLESTYLE
350
400
  3
DIMASSOC
350
401
  3
PROJECTNAME
350
402
  0
DICTIONARY
  5
3F2
102
{ACAD_REACTORS
330
19
102
}
330
19
100
AcDbDictionary
281
     1
  3
ASEBlockHierarchyIndexRecord
350
3F4
1001
DCO15
1040
1585050451.734
  0
LAYOUT
  5
3EE
102
{ACAD_XDICTIONARY
360
407
102
}
102
{ACAD_REACTORS
330
3EB
102
}
330
3EB
100
AcDbPlotSettings
  1

  2
C:\Dokumente und Einstellungen\Administrator\Anwendungsdaten\Autodesk\AutoCAD 2005\R16.1\ita\plotters\Default Windows System Printer.pc3
  4

  6

 40
0.0
 41
0.0
 42
0.0
 43
0.0
 44
0.0
 45
0.0
 46
0.0
 47
0.0
 48
0.0
 49
0.0
140
0.0
141
0.0
142
1.0
143
1.0
 70
   688
 72
     0
 73
     0
 74
     5
  7

 75
    16
147
1.0
148
0.0
149
0.0
100
AcDbLayout
  1
Layout1
 70
     1
 71
     1
 10
0.0
 20
0.0
 11
12.0
 21
9.0
 12
0.0
 22
0.0
 32
0.0
 14
1.000000000000000E+20
 24
1.000000000000000E+20
 34
1.000000000000000E+20
 15
-1.000000000000000E+20
 25
-1.000000000000000E+20
 35
-1.000000000000000E+20
146
0.0
 13
0.0
 23
0.0
 33
0.0
 16
1.0
 26
0.0
 36
0.0
 17
0.0
 27
1.0
 37
0.0
 76
     0
330
B
  0
LAYOUT
  5
3ED
102
{ACAD_XDICTIONARY
360
405
102
}
102
{ACAD_REACTORS
330
3EB
102
}
330
3EB
100
AcDbPlotSettings
  1

  2
C:\Dokumente und Einstellungen\Administrator\Anwendungsdaten\Autodesk\AutoCAD 2005\R16.1\ita\plotters\Default Windows System Printer.pc3
  4

  6

 40
0.0
 41
0.0
 42
0.0
 43
0.0
 44
0.0
 45
0.0
 46
0.0
 47
0.0
 48
0.0
 49
0.0
140
0.0
141
0.0
142
1.0
143
1.0
 70
  1712
 72
     0
 73
     0
 74
     0
  7

 75
     0
147
1.0
148
0.0
149
0.0
100
AcDbLayout
  1
Model
 70
     1
 71
     0
 10
0.0
 20
0.0
 11
12.0
 21
9.0
 12
0.0
 22
0.0
 32
0.0
 14
0.0
 24
0.0
 34
0.0
 15
0.0
 25
0.0
 35
0.0
146
0.0
 13
0.0
 23
0.0
 33
0.0
 16
1.0
 26
0.0
 36
0.0
 17
0.0
 27
1.0
 37
0.0
 76
     0
330
A
  0
MLINESTYLE
  5
1C
102
{ACAD_REACTORS
330
1B
102
}
330
1B
100
AcDbMlineStyle
  2
STANDARD
 70
     0
  3

 62
     0
 51
90.0
 52
90.0
 71
     2
 49
0.5
 62
   256
  6
BYLAYER
 49
-0.5
 62
   256
  6
BYLAYER
  0
ACDBPLACEHOLDER
  5
3E6
102
{ACAD_REACTORS
330
3E5
102
}
330
3E5
  0
TABLESTYLE
  5
3EA
102
{ACAD_REACTORS
330
3E9
102
}
330
3E9
100
AcDbTableStyle
  3
Standard
 70
     0
 71
     0
 40
0.06
 41
0.06
280
     0
281
     0
  7
STANDARD
140
0.18
170
     2
 62
     0
 63
     7
283
     0
274
    -2
284
     1
 64
     0
275
    -2
285
     1
 65
     0
276
    -2
286
     1
 66
     0
277
    -2
287
     1
 67
     0
278
    -2
288
     1
 68
     0
279
    -2
289
     1
 69
     0
  7
STANDARD
140
0.25
170
     5
 62
     0
 63
     7
283
     0
274
    -2
284
     1
 64
     0
275
    -2
285
     1
 65
     0
276
    -2
286
     1
 66
     0
277
    -2
287
     1
 67
     0
278
    -2
288
     1
 68
     0
279
    -2
289
     1
 69
     0
  7
STANDARD
140
0.18
170
     5
 62
     0
 63
     7
283
     0
274
    -2
284
     1
 64
     0
275
    -2
285
     1
 65
     0
276
    -2
286
     1
 66
     0
277
    -2
287
     1
 67
     0
278
    -2
288
     1
 68
     0
279
    -2
289
     1
 69
     0
  0
DICTIONARYVAR
  5
400
102
{ACAD_REACTORS
330
3FF
102
}
330
3FF
100
DictionaryVariables
280
     0
  1
STANDARD
  0
DICTIONARYVAR
  5
401
102
{ACAD_REACTORS
330
3FF
102
}
330
3FF
100
DictionaryVariables
280
     0
  1
1
  0
DICTIONARYVAR
  5
402
102
{ACAD_REACTORS
330
3FF
102
}
330
3FF
100
DictionaryVariables
280
     0
  1

  0
XRECORD
  5
3F4
102
{ACAD_REACTORS
330
3F2
102
}
330
3F2
100
AcDbXrecord
280
     1
  0
DICTIONARY
  5
407
330
3EE
100
AcDbDictionary
280
     1
281
     1
  3
ACAD_XREC_ROUNDTRIP
360
408
  0
DICTIONARY
  5
405
330
3ED
100
AcDbDictionary
280
     1
281
     1
  3
ACAD_XREC_ROUNDTRIP
360
406
  0
XRECORD
  5
408
102
{ACAD_REACTORS
330
407
102
}
330
407
100
AcDbXrecord
280
     1
102
SHADEPLOT
 70
     0
102
SHADEPLOTRESLEVEL
 70
     2
102
SHADEPLOTCUSTOMDPI
 70
   300
  0
XRECORD
  5
406
102
{ACAD_REACTORS
330
405
102
}
330
405
100
AcDbXrecord
280
     1
102
SHADEPLOT
 70
     0
102
SHADEPLOTRESLEVEL
 70
     2
102
SHADEPLOTCUSTOMDPI
 70
   300
  0
ENDSEC
  0
EOF
