  0
SECTION
  2
HEADER
  9
$ACADVER
  1
AC1015
  9
$ACADMAINTVER
 70
     6
  9
$DWGCODEPAGE
  3
ANSI_1252
  9
$INSBASE
 10
0.0
 20
0.0
 30
0.0
  9
$EXTMIN
 10
0.0
 20
0.0
 30
0.0
  9
$EXTMAX
 10
100.0
 20
14.0
 30
0.0
  9
$LIMMIN
 10
0.0
 20
0.0
  9
$LIMMAX
 10
100.0
 20
14.0
  9
$ORTHOMODE
 70
     0
  9
$REGENMODE
 70
     1
  9
$FILLMODE
 70
     1
  9
$QTEXTMODE
 70
     0
  9
$MIRRTEXT
 70
     1
  9
$LTSCALE
 40
1.0
  9
$ATTMODE
 70
     1
  9
$TEXTSIZE
 40
0.125
  9
$TRACEWID
 40
0.05
  9
$TEXTSTYLE
  7
Standard
  9
$CLAYER
  8
0
  9
$CELTYPE
  6
ByLayer
  9
$CECOLOR
 62
   256
  9
$CELTSCALE
 40
1.0
  9
$DISPSILH
 70
     0
  9
$DIMSCALE
 40
1.0
  9
$DIMASZ
 40
0.09
  9
$DIMEXO
 40
0.0393700787
  9
$DIMDLI
 40
0.38
  9
$DIMRND
 40
0.0
  9
$DIMDLE
 40
0.0
  9
$DIMEXE
 40
0.0393700787
  9
$DIMTP
 40
0.0
  9
$DIMTM
 40
0.0
  9
$DIMTXT
 40
0.125
  9
$DIMCEN
 40
0.09
  9
$DIMTSZ
 40
0.0
  9
$DIMTOL
 70
     0
  9
$DIMLIM
 70
     0
  9
$DIMTIH
 70
     1
  9
$DIMTOH
 70
     1
  9
$DIMSE1
 70
     0
  9
$DIMSE2
 70
     0
  9
$DIMTAD
 70
     1
  9
$DIMZIN
 70
     0
  9
$DIMBLK
  1

  9
$DIMASO
 70
     1
  9
$DIMSHO
 70
     1
  9
$DIMPOST
  1

  9
$DIMAPOST
  1

  9
$DIMALT
 70
     0
  9
$DIMALTD
 70
     2
  9
$DIMALTF
 40
25.4
  9
$DIMLFAC
 40
1.0
  9
$DIMTOFL
 70
     0
  9
$DIMTVP
 40
0.0
  9
$DIMTIX
 70
     0
  9
$DIMSOXD
 70
     0
  9
$DIMSAH
 70
     0
  9
$DIMBLK1
  1

  9
$DIMBLK2
  1

  9
$DIMSTYLE
  2
Standard
  9
$DIMCLRD
 70
     0
  9
$DIMCLRE
 70
     0
  9
$DIMCLRT
 70
     0
  9
$DIMTFAC
 40
1.0
  9
$DIMGAP
 40
0.06
  9
$DIMJUST
 70
     0
  9
$DIMSD1
 70
     0
  9
$DIMSD2
 70
     0
  9
$DIMTOLJ
 70
     1
  9
$DIMTZIN
 70
     0
  9
$DIMALTZ
 70
     0
  9
$DIMALTTZ
 70
     0
  9
$DIMUPT
 70
     0
  9
$DIMDEC
 70
     2
  9
$DIMTDEC
 70
     2
  9
$DIMALTU
 70
     2
  9
$DIMALTTD
 70
     2
  9
$DIMTXSTY
  7
Standard
  9
$DIMAUNIT
 70
     0
  9
$DIMADEC
 70
     1
  9
$DIMALTRND
 40
0.0
  9
$DIMAZIN
 70
     0
  9
$DIMDSEP
 70
    46
  9
$DIMATFIT
 70
     3
  9
$DIMFRAC
 70
     0
  9
$DIMLDRBLK
  1

  9
$DIMLUNIT
 70
     2
  9
$DIMLWD
 70
    -2
  9
$DIMLWE
 70
    -2
  9
$DIMTMOVE
 70
     0
  9
$LUNITS
 70
     2
  9
$LUPREC
 70
     3
  9
$SKETCHINC
 40
0.1
  9
$FILLETRAD
 40
0.5
  9
$AUNITS
 70
     0
  9
$AUPREC
 70
     1
  9
$MENU
  1
.
  9
$ELEVATION
 40
0.0
  9
$PELEVATION
 40
0.0
  9
$THICKNESS
 40
0.0
  9
$LIMCHECK
 70
     0
  9
$CHAMFERA
 40
0.5
  9
$CHAMFERB
 40
0.5
  9
$CHAMFERC
 40
1.0
  9
$CHAMFERD
 40
0.0
  9
$SKPOLY
 70
     0
  9
$TDCREATE
 40
2457711.627830671
  9
$TDUCREATE
 40
2457711.836164005
  9
$TDUPDATE
 40
2457711.627831111
  9
$TDUUPDATE
 40
2457711.836164444
  9
$TDINDWG
 40
0.0000000116
  9
$TDUSRTIMER
 40
0.0000000116
  9
$USRTIMER
 70
     1
  9
$ANGBASE
 50
0.0
  9
$ANGDIR
 70
     0
  9
$PDMODE
 70
     0
  9
$PDSIZE
 40
-1.0
  9
$PLINEWID
 40
0.0
  9
$SPLFRAME
 70
     0
  9
$SPLINETYPE
 70
     6
  9
$SPLINESEGS
 70
     8
  9
$HANDSEED
  5
165
  9
$SURFTAB1
 70
     6
  9
$SURFTAB2
 70
     6
  9
$SURFTYPE
 70
     6
  9
$SURFU
 70
     6
  9
$SURFV
 70
     6
  9
$UCSBASE
  2

  9
$UCSNAME
  2

  9
$UCSORG
 10
0.0
 20
0.0
 30
0.0
  9
$UCSXDIR
 10
1.0
 20
0.0
 30
0.0
  9
$UCSYDIR
 10
0.0
 20
1.0
 30
0.0
  9
$UCSORTHOREF
  2

  9
$UCSORTHOVIEW
 70
     0
  9
$UCSORGTOP
 10
0.0
 20
0.0
 30
0.0
  9
$UCSORGBOTTOM
 10
0.0
 20
0.0
 30
0.0
  9
$UCSORGLEFT
 10
0.0
 20
0.0
 30
0.0
  9
$UCSORGRIGHT
 10
0.0
 20
0.0
 30
0.0
  9
$UCSORGFRONT
 10
0.0
 20
0.0
 30
0.0
  9
$UCSORGBACK
 10
0.0
 20
0.0
 30
0.0
  9
$PUCSBASE
  2

  9
$PUCSNAME
  2

  9
$PUCSORG
 10
0.0
 20
0.0
 30
0.0
  9
$PUCSXDIR
 10
1.0
 20
0.0
 30
0.0
  9
$PUCSYDIR
 10
0.0
 20
1.0
 30
0.0
  9
$PUCSORTHOREF
  2

  9
$PUCSORTHOVIEW
 70
     0
  9
$PUCSORGTOP
 10
0.0
 20
0.0
 30
0.0
  9
$PUCSORGBOTTOM
 10
0.0
 20
0.0
 30
0.0
  9
$PUCSORGLEFT
 10
0.0
 20
0.0
 30
0.0
  9
$PUCSORGRIGHT
 10
0.0
 20
0.0
 30
0.0
  9
$PUCSORGFRONT
 10
0.0
 20
0.0
 30
0.0
  9
$PUCSORGBACK
 10
0.0
 20
0.0
 30
0.0
  9
$USERI1
 70
     0
  9
$USERI2
 70
     0
  9
$USERI3
 70
     0
  9
$USERI4
 70
     0
  9
$USERI5
 70
     0
  9
$USERR1
 40
0.0
  9
$USERR2
 40
0.0
  9
$USERR3
 40
0.0
  9
$USERR4
 40
0.0
  9
$USERR5
 40
0.0
  9
$WORLDVIEW
 70
     1
  9
$SHADEDGE
 70
     3
  9
$SHADEDIF
 70
    70
  9
$TILEMODE
 70
     1
  9
$MAXACTVP
 70
    64
  9
$PINSBASE
 10
0.0
 20
0.0
 30
0.0
  9
$PLIMCHECK
 70
     0
  9
$PEXTMIN
 10
1.0000000000E+20
 20
1.0000000000E+20
 30
1.0000000000E+20
  9
$PEXTMAX
 10
-1.0000000000E+20
 20
-1.0000000000E+20
 30
-1.0000000000E+20
  9
$PLIMMIN
 10
0.0
 20
0.0
  9
$PLIMMAX
 10
12.0
 20
9.0
  9
$UNITMODE
 70
     0
  9
$VISRETAIN
 70
     1
  9
$PLINEGEN
 70
     0
  9
$PSLTSCALE
 70
     1
  9
$TREEDEPTH
 70
  3020
  9
$CMLSTYLE
  2
Standard
  9
$CMLJUST
 70
     0
  9
$CMLSCALE
 40
1.0
  9
$PROXYGRAPHICS
 70
     1
  9
$MEASUREMENT
 70
     0
  9
$CELWEIGHT
370
    -1
  9
$ENDCAPS
280
     0
  9
$JOINSTYLE
280
     0
  9
$LWDISPLAY
290
     1
  9
$INSUNITS
 70
     1
  9
$HYPERLINKBASE
  1

  9
$STYLESHEET
  1

  9
$XEDIT
290
     1
  9
$CEPSNTYPE
380
     0
  9
$PSTYLEMODE
290
     1
  9
$FINGERPRINTGUID
  2
{E1EF4A2A-B5FE-44FE-8886-3CEE9E791EAD}
  9
$VERSIONGUID
  2
{FAEB1C32-E019-11D5-929B-00C0DF256EC4}
  9
$EXTNAMES
290
     1
  9
$PSVPSCALE
 40
0.0
  9
$OLESTARTUP
290
     0
  0
ENDSEC
  0
SECTION
  2
CLASSES
  0
CLASS
  1
ACDBDICTIONARYWDFLT
  2
AcDbDictionaryWithDefault
  3
ObjectDBX Classes
 90
        0
280
     0
281
     0
  0
CLASS
  1
VISUALSTYLE
  2
AcDbVisualStyle
  3
ObjectDBX Classes
 90
     4095
280
     0
281
     0
  0
CLASS
  1
MATERIAL
  2
AcDbMaterial
  3
ObjectDBX Classes
 90
     1153
280
     0
281
     0
  0
CLASS
  1
ACDBPLACEHOLDER
  2
AcDbPlaceHolder
  3
ObjectDBX Classes
 90
        0
280
     0
281
     0
  0
CLASS
  1
LAYOUT
  2
AcDbLayout
  3
ObjectDBX Classes
 90
        0
280
     0
281
     0
  0
ENDSEC
  0
SECTION
  2
TABLES
  0
TABLE
  2
VPORT
  5
8
330
0
100
AcDbSymbolTable
 70
     1
  0
VPORT
  5
29
330
8
100
AcDbSymbolTableRecord
100
AcDbViewportTableRecord
  2
*Active
 70
     0
 10
0.0
 20
0.0
 11
1.0
 21
1.0
 12
50.0
 22
7.0
 13
0.0
 23
0.0
 14
0.5
 24
0.5
 15
0.5
 25
0.5
 16
0.0
 26
0.0
 36
1.0
 17
0.0
 27
0.0
 37
0.0
 40
14.0
 41
7.1428571429
 42
50.0
 43
0.0
 44
0.0
 50
0.0
 51
0.0
 71
     0
 72
  2000
 73
     1
 74
     3
 75
     0
 76
     0
 77
     0
 78
     0
281
     0
 65
     1
110
0.0
120
0.0
130
0.0
111
1.0
121
0.0
131
0.0
112
0.0
122
1.0
132
0.0
 79
     0
146
0.0
  0
ENDTAB
  0
TABLE
  2
LTYPE
  5
5
330
0
100
AcDbSymbolTable
 70
     6
  0
LTYPE
  5
14
330
5
100
AcDbSymbolTableRecord
100
AcDbLinetypeTableRecord
  2
ByBlock
 70
     0
  3

 72
    65
 73
     0
 40
0.0
  0
LTYPE
  5
15
330
5
100
AcDbSymbolTableRecord
100
AcDbLinetypeTableRecord
  2
ByLayer
 70
     0
  3

 72
    65
 73
     0
 40
0.0
  0
LTYPE
  5
16
330
5
100
AcDbSymbolTableRecord
100
AcDbLinetypeTableRecord
  2
Continuous
 70
     0
  3
Solid line
 72
    65
 73
     0
 40
0.0
  0
LTYPE
  5
3F
330
5
100
AcDbSymbolTableRecord
100
AcDbLinetypeTableRecord
  2
HIDDEN
 70
     0
  3
Hidden __ __ __ __ __ __ __ __ __ __ __ __ __ __
 72
    65
 73
     2
 40
0.075
 49
0.05
 74
     0
 49
-0.025
 74
     0
  0
LTYPE
  5
40
330
5
100
AcDbSymbolTableRecord
100
AcDbLinetypeTableRecord
  2
PHANTOM
 70
     0
  3
Phantom ______  __  __  ______  __  __  ______
 72
    65
 73
     6
 40
0.5
 49
0.25
 74
     0
 49
-0.05
 74
     0
 49
0.05
 74
     0
 49
-0.05
 74
     0
 49
0.05
 74
     0
 49
-0.05
 74
     0
  0
LTYPE
  5
41
330
5
100
AcDbSymbolTableRecord
100
AcDbLinetypeTableRecord
  2
CENTER
 70
     0
  3
Center ____ _ ____ _ ____ _ ____ _ ____ _ ____
 72
    65
 73
     4
 40
0.4
 49
0.25
 74
     0
 49
-0.05
 74
     0
 49
0.05
 74
     0
 49
-0.05
 74
     0
  0
LTYPE
  5
42
330
5
100
AcDbSymbolTableRecord
100
AcDbLinetypeTableRecord
  2
CENTERX2
 70
     0
  3
Center (2x) ________  __  ________  __  _____
 72
    65
 73
     4
 40
0.8
 49
0.5
 74
     0
 49
-0.1
 74
     0
 49
0.1
 74
     0
 49
-0.1
 74
     0
  0
LTYPE
  5
43
330
5
100
AcDbSymbolTableRecord
100
AcDbLinetypeTableRecord
  2
DOT2
 70
     0
  3
Dot (.5x) ........................................
 72
    65
 73
     2
 40
0.025
 49
0.0
 74
     0
 49
-0.025
 74
     0
  0
ENDTAB
  0
TABLE
  2
LAYER
  5
2
330
0
100
AcDbSymbolTable
 70
    12
  0
LAYER
  5
10
330
2
100
AcDbSymbolTableRecord
100
AcDbLayerTableRecord
  2
0
 70
     0
 62
     7
  6
Continuous
370
    -3
390
F
  0
LAYER
  5
44
330
2
100
AcDbSymbolTableRecord
100
AcDbLayerTableRecord
  2
SLD-0_0
 70
     0
 62
     7
  6
Continuous
370
    -3
390
F
  0
LAYER
  5
45
330
2
100
AcDbSymbolTableRecord
100
AcDbLayerTableRecord
  2
SLD-0
 70
     0
 62
   179
  6
Continuous
370
    -3
390
F
  0
LAYER
  5
46
330
2
100
AcDbSymbolTableRecord
100
AcDbLayerTableRecord
  2
TITLE_TEXT_FIX
 70
     0
 62
     7
  6
Continuous
370
    -3
390
F
  0
LAYER
  5
47
330
2
100
AcDbSymbolTableRecord
100
AcDbLayerTableRecord
  2
DRAFTING_HIDDEN_ENTITIES
 70
     0
 62
   179
  6
Continuous
370
    -3
390
F
  0
LAYER
  5
48
330
2
100
AcDbSymbolTableRecord
100
AcDbLayerTableRecord
  2
SLD-DEFPOINTS
 70
     0
 62
   179
  6
Continuous
370
    -3
390
F
  0
LAYER
  5
49
330
2
100
AcDbSymbolTableRecord
100
AcDbLayerTableRecord
  2
TITLE_LINES
 70
     0
 62
     7
  6
Continuous
370
    15
390
F
  0
LAYER
  5
4A
330
2
100
AcDbSymbolTableRecord
100
AcDbLayerTableRecord
  2
FORMAT
 70
     0
 62
     7
  6
Continuous
370
    -3
390
F
  0
LAYER
  5
4B
330
2
100
AcDbSymbolTableRecord
100
AcDbLayerTableRecord
  2
CART_VISIBLE
 70
     0
 62
     7
  6
Continuous
370
    -3
390
F
  0
LAYER
  5
4C
330
2
100
AcDbSymbolTableRecord
100
AcDbLayerTableRecord
  2
COTE-TEXTE
 70
     0
 62
     5
  6
Continuous
370
    -3
390
F
  0
LAYER
  5
4D
330
2
100
AcDbSymbolTableRecord
100
AcDbLayerTableRecord
  2
TITLE_TEX_VARIABLE
 70
     0
 62
     5
  6
Continuous
370
    -3
390
F
  0
LAYER
  5
4E
330
2
100
AcDbSymbolTableRecord
100
AcDbLayerTableRecord
  2
DETAIL
 70
     0
 62
     5
  6
CENTERX2
370
    30
390
F
  0
ENDTAB
  0
TABLE
  2
STYLE
  5
3
330
0
100
AcDbSymbolTable
 70
     3
  0
STYLE
  5
11
330
3
100
AcDbSymbolTableRecord
100
AcDbTextStyleTableRecord
  2
Standard
 70
     0
 40
0.0
 41
1.0
 50
0.0
 71
     0
 42
0.125
  3
txt
  4

  0
STYLE
  5
52
330
3
100
AcDbSymbolTableRecord
100
AcDbTextStyleTableRecord
  2
SLDTEXTSTYLE0
 70
     0
 40
0.0
 41
0.96
 50
0.0
 71
     0
 42
0.2
  3
ISOCP
  4

  0
STYLE
  5
54
330
3
100
AcDbSymbolTableRecord
100
AcDbTextStyleTableRecord
  2
SLDTEXTSTYLE1
 70
     0
 40
0.0
 41
0.7
 50
0.0
 71
     0
 42
0.2
  3
TXT
  4

  0
ENDTAB
  0
TABLE
  2
VIEW
  5
6
330
0
100
AcDbSymbolTable
 70
     0
  0
ENDTAB
  0
TABLE
  2
UCS
  5
7
330
0
100
AcDbSymbolTable
 70
     0
  0
ENDTAB
  0
TABLE
  2
APPID
  5
9
330
0
100
AcDbSymbolTable
 70
     1
  0
APPID
  5
12
330
9
100
AcDbSymbolTableRecord
100
AcDbRegAppTableRecord
  2
ACAD
 70
     0
  0
ENDTAB
  0
TABLE
  2
DIMSTYLE
  5
A
330
0
100
AcDbSymbolTable
 70
     1
100
AcDbDimStyleTable
  0
DIMSTYLE
105
27
330
A
100
AcDbSymbolTableRecord
100
AcDbDimStyleTableRecord
  2
Standard
 70
     0
178
     0
340
11
  0
ENDTAB
  0
TABLE
  2
BLOCK_RECORD
  5
1
330
0
100
AcDbSymbolTable
 70
    11
  0
BLOCK_RECORD
  5
1F
330
1
100
AcDbSymbolTableRecord
100
AcDbBlockTableRecord
  2
*Model_Space
340
22
  0
BLOCK_RECORD
  5
1B
330
1
100
AcDbSymbolTableRecord
100
AcDbBlockTableRecord
  2
*Paper_Space
340
1E
  0
BLOCK_RECORD
  5
23
330
1
100
AcDbSymbolTableRecord
100
AcDbBlockTableRecord
  2
*Paper_Space0
340
26
  0
BLOCK_RECORD
  5
4F
330
1
100
AcDbSymbolTableRecord
100
AcDbBlockTableRecord
  2
Block8
340
0
102
{BLKREFS
331
97
102
}
  0
BLOCK_RECORD
  5
56
330
1
100
AcDbSymbolTableRecord
100
AcDbBlockTableRecord
  2
CRITICAL DIMENSION
340
0
  0
BLOCK_RECORD
  5
5D
330
1
100
AcDbSymbolTableRecord
100
AcDbBlockTableRecord
  2
ADDRESS
340
0
  0
BLOCK_RECORD
  5
60
330
1
100
AcDbSymbolTableRecord
100
AcDbBlockTableRecord
  2
SW_NOTE_0
340
0
102
{BLKREFS
331
67
102
}
  0
BLOCK_RECORD
  5
68
330
1
100
AcDbSymbolTableRecord
100
AcDbBlockTableRecord
  2
TOLERANCES
340
0
  0
BLOCK_RECORD
  5
6C
330
1
100
AcDbSymbolTableRecord
100
AcDbBlockTableRecord
  2
SW_NOTE_1
340
0
102
{BLKREFS
331
73
102
}
  0
BLOCK_RECORD
  5
74
330
1
100
AcDbSymbolTableRecord
100
AcDbBlockTableRecord
  2
SW_NOTE_2
340
0
102
{BLKREFS
331
7D
102
}
  0
BLOCK_RECORD
  5
7E
330
1
100
AcDbSymbolTableRecord
100
AcDbBlockTableRecord
  2
SW_NOTE_3
340
0
102
{BLKREFS
331
8A
102
}
  0
BLOCK_RECORD
  5
8D
330
1
100
AcDbSymbolTableRecord
100
AcDbBlockTableRecord
  2
PROPERTY NOTE
340
0
  0
BLOCK_RECORD
  5
90
330
1
100
AcDbSymbolTableRecord
100
AcDbBlockTableRecord
  2
SW_NOTE_4
340
0
102
{BLKREFS
331
96
102
}
  0
ENDTAB
  0
ENDSEC
  0
SECTION
  2
BLOCKS
  0
BLOCK
  5
20
330
1F
100
AcDbEntity
  8
0
100
AcDbBlockBegin
  2
*Model_Space
 70
     0
 10
0.0
 20
0.0
 30
0.0
  3
*Model_Space
  1

  0
ENDBLK
  5
21
330
1F
100
AcDbEntity
  8
0
100
AcDbBlockEnd
  0
BLOCK
  5
1C
330
1B
100
AcDbEntity
 67
     1
  8
0
100
AcDbBlockBegin
  2
*Paper_Space
 70
     0
 10
0.0
 20
0.0
 30
0.0
  3
*Paper_Space
  1

  0
ENDBLK
  5
1D
330
1B
100
AcDbEntity
 67
     1
  8
0
100
AcDbBlockEnd
  0
BLOCK
  5
24
330
23
100
AcDbEntity
  8
0
100
AcDbBlockBegin
  2
*Paper_Space0
 70
     0
 10
0.0
 20
0.0
 30
0.0
  3
*Paper_Space0
  1

  0
ENDBLK
  5
25
330
23
100
AcDbEntity
  8
0
100
AcDbBlockEnd
  0
BLOCK
  5
50
330
4F
100
AcDbEntity
  8
0
100
AcDbBlockBegin
  2
Block8
 70
     0
 10
0.0
 20
0.0
 30
0.0
  3
Block8
  1

  0
MTEXT
  5
53
330
4F
100
AcDbEntity
  8
TITLE_TEXT_FIX
100
AcDbMText
 10
0.0900592003
 20
0.2237648167
 30
0.0
 40
0.09
 41
0.0
 71
     2
 72
     1
  1
xx
  7
SLDTEXTSTYLE0
 73
     1
 44
1.0
  0
MTEXT
  5
55
330
4F
100
AcDbEntity
  8
TITLE_TEXT_FIX
100
AcDbMText
 10
0.2820818422
 20
0.233716876
 30
0.0
 40
0.09375
 41
0.0
 71
     1
 72
     1
  1
CRITICAL DIMENSIONS
  7
SLDTEXTSTYLE1
 73
     1
 44
1.0
  0
ENDBLK
  5
51
330
4F
100
AcDbEntity
  8
0
100
AcDbBlockEnd
  0
BLOCK
  5
57
330
56
100
AcDbEntity
  8
0
100
AcDbBlockBegin
  2
CRITICAL DIMENSION
 70
     0
 10
0.0
 20
0.0
 30
0.0
  3
CRITICAL DIMENSION
  1

  0
ARC
  5
59
330
56
100
AcDbEntity
  8
CART_VISIBLE
100
AcDbCircle
 10
3.8507922476
 20
1.0138861008
 30
0.0
 40
0.0526977445064676
100
AcDbArc
 50
90.0
 51
270.0
  0
ARC
  5
5A
330
56
100
AcDbEntity
  8
CART_VISIBLE
100
AcDbCircle
 10
4.0063289815
 20
1.0138861008
 30
0.0
 40
0.0526977445064676
100
AcDbArc
 50
270.0
 51
90.0
  0
LINE
  5
5B
330
56
100
AcDbEntity
  8
CART_VISIBLE
100
AcDbLine
 10
4.0063289815
 20
0.9611883563
 30
0.0
 11
3.8507922476
 21
0.9611883563
 31
0.0
  0
LINE
  5
5C
330
56
100
AcDbEntity
  8
CART_VISIBLE
100
AcDbLine
 10
4.0063289815
 20
1.0665838453
 30
0.0
 11
3.8507922476
 21
1.0665838453
 31
0.0
  0
INSERT
  5
97
330
56
100
AcDbEntity
  8
0
  6
Continuous
 62
     7
100
AcDbBlockReference
  2
Block8
 10
3.8446938806
 20
0.833857393
 30
0.0
  0
ENDBLK
  5
58
330
56
100
AcDbEntity
  8
0
100
AcDbBlockEnd
  0
BLOCK
  5
5E
330
5D
100
AcDbEntity
  8
0
100
AcDbBlockBegin
  2
ADDRESS
 70
     0
 10
0.0
 20
0.0
 30
0.0
  3
ADDRESS
  1

  0
INSERT
  5
67
330
5D
100
AcDbEntity
  8
TITLE_TEXT_FIX
 62
     7
100
AcDbBlockReference
  2
SW_NOTE_0
 10
0.0045684687
 20
0.3121876789
 30
0.0
  0
ENDBLK
  5
5F
330
5D
100
AcDbEntity
  8
0
100
AcDbBlockEnd
  0
BLOCK
  5
61
330
60
100
AcDbEntity
  8
0
100
AcDbBlockBegin
  2
SW_NOTE_0
 70
     0
 10
0.0
 20
0.0
 30
0.0
  3
SW_NOTE_0
  1

  0
MTEXT
  5
63
330
60
100
AcDbEntity
  8
TITLE_TEXT_FIX
 62
     0
100
AcDbMText
 10
0.0
 20
0.0902347418
 30
0.0
 40
0.07
 41
0.0
 71
     1
 72
     1
  1
11105 rue Renaude Lapointe
  7
SLDTEXTSTYLE1
 73
     1
 44
1.0
  0
MTEXT
  5
64
330
60
100
AcDbEntity
  8
TITLE_TEXT_FIX
 62
     0
100
AcDbMText
 10
0.0
 20
-0.0048485906
 30
0.0
 40
0.07
 41
0.0
 71
     1
 72
     1
  1
Montréal, QC
  7
SLDTEXTSTYLE1
 73
     1
 44
1.0
  0
MTEXT
  5
65
330
60
100
AcDbEntity
  8
TITLE_TEXT_FIX
 62
     0
100
AcDbMText
 10
0.0
 20
-0.0999319231
 30
0.0
 40
0.07
 41
0.0
 71
     1
 72
     1
  1
H1J 2T4
  7
SLDTEXTSTYLE1
 73
     1
 44
1.0
  0
MTEXT
  5
66
330
60
100
AcDbEntity
  8
TITLE_TEXT_FIX
 62
     0
100
AcDbMText
 10
0.0
 20
-0.1950152555
 30
0.0
 40
0.07
 41
0.0
 71
     1
 72
     1
  1
T (514) 323-6537
  7
SLDTEXTSTYLE1
 73
     1
 44
1.0
  0
ENDBLK
  5
62
330
60
100
AcDbEntity
  8
0
100
AcDbBlockEnd
  0
BLOCK
  5
69
330
68
100
AcDbEntity
  8
0
100
AcDbBlockBegin
  2
TOLERANCES
 70
     0
 10
0.0
 20
0.0
 30
0.0
  3
TOLERANCES
  1

  0
MTEXT
  5
6B
330
68
100
AcDbEntity
  8
TITLE_TEXT_FIX
100
AcDbMText
 10
0.7184036547
 20
0.4010809825
 30
0.0
 40
0.0625
 41
0.0
 71
     1
 72
     1
  1
METRIC (mm)
  7
SLDTEXTSTYLE1
 73
     1
 44
1.0
  0
INSERT
  5
73
330
68
100
AcDbEntity
  8
TITLE_TEXT_FIX
 62
     7
100
AcDbBlockReference
  2
SW_NOTE_1
 10
0.7389958751
 20
0.0442175378
 30
0.0
  0
INSERT
  5
7D
330
68
100
AcDbEntity
  8
TITLE_TEXT_FIX
 62
     7
100
AcDbBlockReference
  2
SW_NOTE_2
 10
0.853961157
 20
0.2108842025
 30
0.0
  0
INSERT
  5
8A
330
68
100
AcDbEntity
  8
TITLE_TEXT_FIX
 62
     7
100
AcDbBlockReference
  2
SW_NOTE_3
 10
0.1214223066
 20
0.2108842025
 30
0.0
  0
MTEXT
  5
8B
330
68
100
AcDbEntity
  8
TITLE_TEXT_FIX
100
AcDbMText
 10
0.0181287051
 20
0.4010809825
 30
0.0
 40
0.0625
 41
0.0
 71
     1
 72
     1
  1
IMPERIAL (in)
  7
SLDTEXTSTYLE1
 73
     1
 44
1.0
  0
MTEXT
  5
8C
330
68
100
AcDbEntity
  8
TITLE_TEXT_FIX
100
AcDbMText
 10
-0.0036948159
 20
0.5378165573
 30
0.0
 40
0.0729166667
 41
0.0
 71
     1
 72
     1
  1
TOLERANCES:
  7
SLDTEXTSTYLE1
 73
     1
 44
1.0
  0
ENDBLK
  5
6A
330
68
100
AcDbEntity
  8
0
100
AcDbBlockEnd
  0
BLOCK
  5
6D
330
6C
100
AcDbEntity
  8
0
100
AcDbBlockBegin
  2
SW_NOTE_1
 70
     0
 10
0.0
 20
0.0
 30
0.0
  3
SW_NOTE_1
  1

  0
MTEXT
  5
6F
330
6C
100
AcDbEntity
  8
TITLE_TEXT_FIX
 62
     0
100
AcDbMText
 10
0.0
 20
0.0805667337
 30
0.0
 40
0.0625
 41
0.0
 71
     1
 72
     1
  1
ANGLES
  7
SLDTEXTSTYLE1
 73
     1
 44
1.0
  0
MTEXT
  5
70
330
6C
100
AcDbEntity
  8
TITLE_TEXT_FIX
 62
     0
100
AcDbMText
 10
0.2924768496
 20
0.080566736
 30
0.0
 40
0.0625
 41
0.0
 71
     1
 72
     1
  1
%%p
  7
SLDTEXTSTYLE1
 73
     1
 44
1.0
  0
MTEXT
  5
71
330
6C
100
AcDbEntity
  8
TITLE_TEXT_FIX
 62
     0
100
AcDbMText
 10
0.3730497861
 20
0.0805667337
 30
0.0
 40
0.0625
 41
0.0
 71
     1
 72
     1
  1
1
  7
SLDTEXTSTYLE1
 73
     1
 44
1.0
  0
MTEXT
  5
72
330
6C
100
AcDbEntity
  8
TITLE_TEXT_FIX
 62
     0
100
AcDbMText
 10
0.4146296502
 20
0.080566736
 30
0.0
 40
0.0625
 41
0.0
 71
     1
 72
     1
  1
%%d
  7
SLDTEXTSTYLE1
 73
     1
 44
1.0
  0
ENDBLK
  5
6E
330
6C
100
AcDbEntity
  8
0
100
AcDbBlockEnd
  0
BLOCK
  5
75
330
74
100
AcDbEntity
  8
0
100
AcDbBlockBegin
  2
SW_NOTE_2
 70
     0
 10
0.0
 20
0.0
 30
0.0
  3
SW_NOTE_2
  1

  0
MTEXT
  5
77
330
74
100
AcDbEntity
  8
TITLE_TEXT_FIX
 62
     0
100
AcDbMText
 10
0.03125
 20
0.0805667337
 30
0.0
 40
0.0625
 41
0.0
 71
     2
 72
     1
  1
.0
  7
SLDTEXTSTYLE1
 73
     1
 44
1.0
  0
MTEXT
  5
78
330
74
100
AcDbEntity
  8
TITLE_TEXT_FIX
 62
     0
100
AcDbMText
 10
0.1056134257
 20
0.080566736
 30
0.0
 40
0.0625
 41
0.0
 71
     2
 72
     1
  1
%%p
  7
SLDTEXTSTYLE1
 73
     1
 44
1.0
  0
MTEXT
  5
79
330
74
100
AcDbEntity
  8
TITLE_TEXT_FIX
 62
     0
100
AcDbMText
 10
0.1939988439
 20
0.0805667337
 30
0.0
 40
0.0625
 41
0.0
 71
     2
 72
     1
  1
.3
  7
SLDTEXTSTYLE1
 73
     1
 44
1.0
  0
MTEXT
  5
7A
330
74
100
AcDbEntity
  8
TITLE_TEXT_FIX
 62
     0
100
AcDbMText
 10
0.0095124522
 20
-0.0027665986
 30
0.0
 40
0.0625
 41
0.0
 71
     2
 72
     1
  1
.01
  7
SLDTEXTSTYLE1
 73
     1
 44
1.0
  0
MTEXT
  5
7B
330
74
100
AcDbEntity
  8
TITLE_TEXT_FIX
 62
     0
100
AcDbMText
 10
0.1056134349
 20
-0.0027665963
 30
0.0
 40
0.0625
 41
0.0
 71
     2
 72
     1
  1
%%p
  7
SLDTEXTSTYLE1
 73
     1
 44
1.0
  0
MTEXT
  5
7C
330
74
100
AcDbEntity
  8
TITLE_TEXT_FIX
 62
     0
100
AcDbMText
 10
0.2145066747
 20
-0.0027665986
 30
0.0
 40
0.0625
 41
0.0
 71
     2
 72
     1
  1
.13
  7
SLDTEXTSTYLE1
 73
     1
 44
1.0
  0
ENDBLK
  5
76
330
74
100
AcDbEntity
  8
0
100
AcDbBlockEnd
  0
BLOCK
  5
7F
330
7E
100
AcDbEntity
  8
0
100
AcDbBlockBegin
  2
SW_NOTE_3
 70
     0
 10
0.0
 20
0.0
 30
0.0
  3
SW_NOTE_3
  1

  0
MTEXT
  5
81
330
7E
100
AcDbEntity
  8
TITLE_TEXT_FIX
 62
     0
100
AcDbMText
 10
0.03125
 20
0.0805667337
 30
0.0
 40
0.0625
 41
0.0
 71
     2
 72
     1
  1
.0
  7
SLDTEXTSTYLE1
 73
     1
 44
1.0
  0
MTEXT
  5
82
330
7E
100
AcDbEntity
  8
TITLE_TEXT_FIX
 62
     0
100
AcDbMText
 10
0.1056134257
 20
0.080566736
 30
0.0
 40
0.0625
 41
0.0
 71
     2
 72
     1
  1
%%p
  7
SLDTEXTSTYLE1
 73
     1
 44
1.0
  0
MTEXT
  5
83
330
7E
100
AcDbEntity
  8
TITLE_TEXT_FIX
 62
     0
100
AcDbMText
 10
0.2145066564
 20
0.0805667337
 30
0.0
 40
0.0625
 41
0.0
 71
     2
 72
     1
  1
.03
  7
SLDTEXTSTYLE1
 73
     1
 44
1.0
  0
MTEXT
  5
84
330
7E
100
AcDbEntity
  8
TITLE_TEXT_FIX
 62
     0
100
AcDbMText
 10
0.0306351415
 20
-0.0027665986
 30
0.0
 40
0.0625
 41
0.0
 71
     2
 72
     1
  1
.01
  7
SLDTEXTSTYLE1
 73
     1
 44
1.0
  0
MTEXT
  5
85
330
7E
100
AcDbEntity
  8
TITLE_TEXT_FIX
 62
     0
100
AcDbMText
 10
0.1267361242
 20
-0.0027665963
 30
0.0
 40
0.0625
 41
0.0
 71
     2
 72
     1
  1
%%p
  7
SLDTEXTSTYLE1
 73
     1
 44
1.0
  0
MTEXT
  5
86
330
7E
100
AcDbEntity
  8
TITLE_TEXT_FIX
 62
     0
100
AcDbMText
 10
0.235629364
 20
-0.0027665986
 30
0.0
 40
0.0625
 41
0.0
 71
     2
 72
     1
  1
.01
  7
SLDTEXTSTYLE1
 73
     1
 44
1.0
  0
MTEXT
  5
87
330
7E
100
AcDbEntity
  8
TITLE_TEXT_FIX
 62
     0
100
AcDbMText
 10
0.0088975754
 20
-0.0860999309
 30
0.0
 40
0.0625
 41
0.0
 71
     2
 72
     1
  1
.001
  7
SLDTEXTSTYLE1
 73
     1
 44
1.0
  0
MTEXT
  5
88
330
7E
100
AcDbEntity
  8
TITLE_TEXT_FIX
 62
     0
100
AcDbMText
 10
0.126736115
 20
-0.0860999286
 30
0.0
 40
0.0625
 41
0.0
 71
     2
 72
     1
  1
%%p
  7
SLDTEXTSTYLE1
 73
     1
 44
1.0
  0
MTEXT
  5
89
330
7E
100
AcDbEntity
  8
TITLE_TEXT_FIX
 62
     0
100
AcDbMText
 10
0.2561371582
 20
-0.0860999309
 30
0.0
 40
0.0625
 41
0.0
 71
     2
 72
     1
  1
.005
  7
SLDTEXTSTYLE1
 73
     1
 44
1.0
  0
ENDBLK
  5
80
330
7E
100
AcDbEntity
  8
0
100
AcDbBlockEnd
  0
BLOCK
  5
8E
330
8D
100
AcDbEntity
  8
0
100
AcDbBlockBegin
  2
PROPERTY NOTE
 70
     0
 10
0.0
 20
0.0
 30
0.0
  3
PROPERTY NOTE
  1

  0
INSERT
  5
96
330
8D
100
AcDbEntity
  8
TITLE_TEXT_FIX
 62
     7
100
AcDbBlockReference
  2
SW_NOTE_4
 10
0.719883174
 20
0.2103919601
 30
0.0
  0
ENDBLK
  5
8F
330
8D
100
AcDbEntity
  8
0
100
AcDbBlockEnd
  0
BLOCK
  5
91
330
90
100
AcDbEntity
  8
0
100
AcDbBlockBegin
  2
SW_NOTE_4
 70
     0
 10
0.0
 20
0.0
 30
0.0
  3
SW_NOTE_4
  1

  0
MTEXT
  5
93
330
90
100
AcDbEntity
  8
TITLE_TEXT_FIX
 62
     0
100
AcDbMText
 10
1.47
 20
0.0773440644
 30
0.0
 40
0.06
 41
0.0
 71
     2
 72
     1
  1
THE INFORMATION CONTAINED IN THIS DRAWING IS THE SOLE PROPERTY OF Artemide Inc.
  7
SLDTEXTSTYLE1
 73
     1
 44
1.0
  0
MTEXT
  5
94
330
90
100
AcDbEntity
  8
TITLE_TEXT_FIX
 62
     0
100
AcDbMText
 10
1.4626874579
 20
-0.0026559398
 30
0.0
 40
0.06
 41
0.0
 71
     2
 72
     1
  1
ANY DISTRIBUTION OR REPRODUCTION IN PART OR AS A WHOLE WITHOUT THE WRITTEN
  7
SLDTEXTSTYLE1
 73
     1
 44
1.0
  0
MTEXT
  5
95
330
90
100
AcDbEntity
  8
TITLE_TEXT_FIX
 62
     0
100
AcDbMText
 10
1.4652762246
 20
-0.0826559439
 30
0.0
 40
0.06
 41
0.0
 71
     2
 72
     1
  1
PERMISSION OF Artemide Inc. IS PROHIBITED.
  7
SLDTEXTSTYLE1
 73
     1
 44
1.0
  0
ENDBLK
  5
92
330
90
100
AcDbEntity
  8
0
100
AcDbBlockEnd
  0
ENDSEC
  0
SECTION
  2
ENTITIES
  0
LINE
  5
98
330
1F
100
AcDbEntity
  8
0
  6
Continuous
 62
     7
370
    15
100
AcDbLine
 10
18.7042747287
 20
8.7007747972
 30
0.0
 11
18.7042747287
 21
8.8307747972
 31
0.0
  0
LINE
  5
99
330
1F
100
AcDbEntity
  8
0
  6
Continuous
 62
     7
370
    15
100
AcDbLine
 10
18.5042747287
 20
8.8307747972
 30
0.0
 11
18.5042747287
 21
8.7007747972
 31
0.0
  0
LINE
  5
9A
330
1F
100
AcDbEntity
  8
0
  6
Continuous
 62
     7
370
    15
100
AcDbLine
 10
75.8924135993
 20
8.7007747972
 30
0.0
 11
75.8924135993
 21
8.8307747972
 31
0.0
  0
LINE
  5
9B
330
1F
100
AcDbEntity
  8
0
  6
Continuous
 62
     7
370
    15
100
AcDbLine
 10
75.6924135993
 20
8.8307747972
 30
0.0
 11
75.6924135993
 21
8.7007747972
 31
0.0
  0
LINE
  5
9C
330
1F
100
AcDbEntity
  8
0
  6
Continuous
 62
     7
370
    15
100
AcDbLine
 10
75.8809135993
 20
8.9132747972
 30
0.0
 11
75.8709135993
 21
8.9232747972
 31
0.0
  0
LINE
  5
9D
330
1F
100
AcDbEntity
  8
0
  6
Continuous
 62
     7
370
    15
100
AcDbLine
 10
75.7139135993
 20
8.9232747972
 30
0.0
 11
75.7039135993
 21
8.9132747972
 31
0.0
  0
LINE
  5
9E
330
1F
100
AcDbEntity
  8
0
  6
Continuous
 62
     7
370
    15
100
AcDbLine
 10
75.8809135993
 20
8.6818858159
 30
0.0
 11
75.8809135993
 21
8.7007747972
 31
0.0
  0
LINE
  5
9F
330
1F
100
AcDbEntity
  8
0
  6
Continuous
 62
     7
370
    15
100
AcDbLine
 10
75.8809135993
 20
8.8307747972
 30
0.0
 11
75.8809135993
 21
8.9132747972
 31
0.0
  0
LINE
  5
A0
330
1F
100
AcDbEntity
  8
0
  6
Continuous
 62
     7
370
    15
100
AcDbLine
 10
75.7039135993
 20
8.9132747972
 30
0.0
 11
75.7039135993
 21
8.8307747972
 31
0.0
  0
LINE
  5
A1
330
1F
100
AcDbEntity
  8
0
  6
Continuous
 62
     7
370
    15
100
AcDbLine
 10
75.7039135993
 20
8.7007747972
 30
0.0
 11
75.7039135993
 21
8.6818858159
 31
0.0
  0
LINE
  5
A2
330
1F
100
AcDbEntity
  8
0
  6
Continuous
 62
     7
370
    15
100
AcDbLine
 10
18.6927747287
 20
8.9132747972
 30
0.0
 11
18.6827747287
 21
8.9232747972
 31
0.0
  0
LINE
  5
A3
330
1F
100
AcDbEntity
  8
0
  6
Continuous
 62
     7
370
    15
100
AcDbLine
 10
18.5257747287
 20
8.9232747972
 30
0.0
 11
18.5157747287
 21
8.9132747972
 31
0.0
  0
LINE
  5
A4
330
1F
100
AcDbEntity
  8
0
  6
Continuous
 62
     7
370
    15
100
AcDbLine
 10
18.6927747287
 20
8.6818858159
 30
0.0
 11
18.6927747287
 21
8.7007747972
 31
0.0
  0
LINE
  5
A5
330
1F
100
AcDbEntity
  8
0
  6
Continuous
 62
     7
370
    15
100
AcDbLine
 10
18.6927747287
 20
8.8307747972
 30
0.0
 11
18.6927747287
 21
8.9132747972
 31
0.0
  0
LINE
  5
A6
330
1F
100
AcDbEntity
  8
0
  6
Continuous
 62
     7
370
    15
100
AcDbLine
 10
18.5157747287
 20
8.9132747972
 30
0.0
 11
18.5157747287
 21
8.8307747972
 31
0.0
  0
LINE
  5
A7
330
1F
100
AcDbEntity
  8
0
  6
Continuous
 62
     7
370
    15
100
AcDbLine
 10
18.5157747287
 20
8.7007747972
 30
0.0
 11
18.5157747287
 21
8.6818858159
 31
0.0
  0
LINE
  5
A8
330
1F
100
AcDbEntity
  8
0
  6
Continuous
 62
     7
370
    15
100
AcDbLine
 10
18.3707170426
 20
5.9255756496
 30
0.0
 11
76.0259926331
 21
5.9255756496
 31
0.0
  0
LINE
  5
A9
330
1F
100
AcDbEntity
  8
0
  6
Continuous
 62
     7
370
    15
100
AcDbLine
 10
18.3707170426
 20
6.7065986446
 30
0.0
 11
76.0259926331
 21
6.7065986446
 31
0.0
  0
LINE
  5
AA
330
1F
100
AcDbEntity
  8
0
  6
Continuous
 62
     7
370
    15
100
AcDbLine
 10
18.5042747287
 20
8.7007747972
 30
0.0
 11
18.7042747287
 21
8.7007747972
 31
0.0
  0
LINE
  5
AB
330
1F
100
AcDbEntity
  8
0
  6
Continuous
 62
     7
370
    15
100
AcDbLine
 10
18.5042747287
 20
8.8307747972
 30
0.0
 11
18.7042747287
 21
8.8307747972
 31
0.0
  0
LINE
  5
AC
330
1F
100
AcDbEntity
  8
0
  6
Continuous
 62
     7
370
    15
100
AcDbLine
 10
75.6924135993
 20
8.7007747972
 30
0.0
 11
75.8924135993
 21
8.7007747972
 31
0.0
  0
LINE
  5
AD
330
1F
100
AcDbEntity
  8
0
  6
Continuous
 62
     7
370
    15
100
AcDbLine
 10
75.6924135993
 20
8.8307747972
 30
0.0
 11
75.8924135993
 21
8.8307747972
 31
0.0
  0
LINE
  5
AE
330
1F
100
AcDbEntity
  8
0
  6
Continuous
 62
     7
370
    15
100
AcDbLine
 10
75.7139135993
 20
8.9232747972
 30
0.0
 11
75.8709135993
 21
8.9232747972
 31
0.0
  0
LINE
  5
AF
330
1F
100
AcDbEntity
  8
0
  6
Continuous
 62
     7
370
    15
100
AcDbLine
 10
75.8809135993
 20
8.9132747972
 30
0.0
 11
75.7039135993
 21
8.9132747972
 31
0.0
  0
LINE
  5
B0
330
1F
100
AcDbEntity
  8
0
  6
Continuous
 62
     7
370
    15
100
AcDbLine
 10
18.5257747287
 20
8.9232747972
 30
0.0
 11
18.6827747287
 21
8.9232747972
 31
0.0
  0
LINE
  5
B1
330
1F
100
AcDbEntity
  8
0
  6
Continuous
 62
     7
370
    15
100
AcDbLine
 10
18.6927747287
 20
8.9132747972
 30
0.0
 11
18.5157747287
 21
8.9132747972
 31
0.0
  0
LINE
  5
B2
330
1F
100
AcDbEntity
  8
0
  6
Continuous
 62
     7
370
    15
100
AcDbLine
 10
18.3707170426
 20
8.6818858159
 30
0.0
 11
76.0259926331
 21
8.6818858159
 31
0.0
  0
LINE
  5
B3
330
1F
100
AcDbEntity
  8
0
  6
Continuous
 62
     7
370
    15
100
AcDbLine
 10
18.3707170426
 20
6.697111548
 30
0.0
 11
18.3707170426
 21
8.6818858159
 31
0.0
  0
LINE
  5
B4
330
1F
100
AcDbEntity
  8
0
  6
Continuous
 62
     7
370
    15
100
AcDbLine
 10
18.1935516832
 20
6.697111548
 30
0.0
 11
18.1935516832
 21
8.6818858159
 31
0.0
  0
LINE
  5
B5
330
1F
100
AcDbEntity
  8
0
  6
Continuous
 62
     7
370
    15
100
AcDbLine
 10
18.1935516832
 20
8.6818858159
 30
0.0
 11
18.3707170426
 21
8.6818858159
 31
0.0
  0
LINE
  5
B6
330
1F
100
AcDbEntity
  8
0
  6
Continuous
 62
     7
370
    15
100
AcDbLine
 10
18.1935516832
 20
5.859611548
 30
0.0
 11
18.3707170426
 21
5.859611548
 31
0.0
  0
LINE
  5
B7
330
1F
100
AcDbEntity
  8
0
  6
Continuous
 62
     7
370
    15
100
AcDbLine
 10
18.3707170426
 20
6.697111548
 30
0.0
 11
18.3707170426
 21
5.859611548
 31
0.0
  0
LINE
  5
B8
330
1F
100
AcDbEntity
  8
0
  6
Continuous
 62
     7
370
    15
100
AcDbLine
 10
18.1935516832
 20
5.859611548
 30
0.0
 11
18.1935516832
 21
6.697111548
 31
0.0
  0
LINE
  5
B9
330
1F
100
AcDbEntity
  8
0
  6
Continuous
 62
     7
370
    15
100
AcDbLine
 10
76.2031579925
 20
8.6818858159
 30
0.0
 11
76.0259926331
 21
8.6818858159
 31
0.0
  0
LINE
  5
BA
330
1F
100
AcDbEntity
  8
0
  6
Continuous
 62
     7
370
    15
100
AcDbLine
 10
76.0259926331
 20
8.6818858159
 30
0.0
 11
76.0259926331
 21
6.697111548
 31
0.0
  0
LINE
  5
BB
330
1F
100
AcDbEntity
  8
0
  6
Continuous
 62
     7
370
    15
100
AcDbLine
 10
76.2031579925
 20
8.6818858159
 30
0.0
 11
76.2031579925
 21
6.697111548
 31
0.0
  0
LINE
  5
BC
330
1F
100
AcDbEntity
  8
0
  6
Continuous
 62
     7
370
    15
100
AcDbLine
 10
76.2031579925
 20
5.859611548
 30
0.0
 11
76.0259926331
 21
5.859611548
 31
0.0
  0
LINE
  5
BD
330
1F
100
AcDbEntity
  8
0
  6
Continuous
 62
     7
370
    15
100
AcDbLine
 10
76.0259926331
 20
5.859611548
 30
0.0
 11
76.0259926331
 21
6.697111548
 31
0.0
  0
LINE
  5
BE
330
1F
100
AcDbEntity
  8
0
  6
Continuous
 62
     7
370
    15
100
AcDbLine
 10
76.2031579925
 20
6.697111548
 30
0.0
 11
76.2031579925
 21
5.859611548
 31
0.0
  0
LINE
  5
BF
330
1F
100
AcDbEntity
  8
0
  6
Continuous
 62
   252
370
     0
100
AcDbLine
 10
18.3707170426
 20
6.6934312153
 30
0.0
 11
76.0259926331
 21
6.6934312153
 31
0.0
  0
LINE
  5
C0
330
1F
100
AcDbEntity
  8
0
  6
Continuous
 62
   252
370
     0
100
AcDbLine
 10
18.3707170426
 20
6.7021836556
 30
0.0
 11
76.0259926331
 21
6.7021836556
 31
0.0
  0
LINE
  5
C1
330
1F
100
AcDbEntity
  8
0
  6
Continuous
 62
   252
370
     0
100
AcDbLine
 10
18.3707170426
 20
6.7165986446
 30
0.0
 11
76.0259926331
 21
6.7165986446
 31
0.0
  0
LINE
  5
C2
330
1F
100
AcDbEntity
  8
0
  6
Continuous
 62
   252
370
     0
100
AcDbLine
 10
76.0259926331
 20
8.6718858159
 30
0.0
 11
18.3707170426
 21
8.6718858159
 31
0.0
  0
LINE
  5
C3
330
1F
100
AcDbEntity
  8
0
  6
Continuous
 62
   252
370
     0
100
AcDbLine
 10
18.1935516832
 20
6.697111548
 30
0.0
 11
18.3707170426
 21
6.697111548
 31
0.0
  0
LINE
  5
C4
330
1F
100
AcDbEntity
  8
0
  6
Continuous
 62
   252
370
     0
100
AcDbLine
 10
76.0259926331
 20
6.697111548
 30
0.0
 11
76.2031579925
 21
6.697111548
 31
0.0
  0
LINE
  5
C5
330
1F
100
AcDbEntity
  8
0
  6
Continuous
 62
     7
370
    15
100
AcDbLine
 10
79.581530168
 20
8.7007748513
 30
0.0
 11
79.581530168
 21
8.8307748695
 31
0.0
  0
LINE
  5
C6
330
1F
100
AcDbEntity
  8
0
  6
Continuous
 62
     7
370
    15
100
AcDbLine
 10
79.3815301668
 20
8.8307748695
 30
0.0
 11
79.3815301668
 21
8.7007748513
 31
0.0
  0
LINE
  5
C7
330
1F
100
AcDbEntity
  8
0
  6
Continuous
 62
     7
370
    15
100
AcDbLine
 10
79.5700301675
 20
8.9132747965
 30
0.0
 11
79.5600301647
 21
8.9232748543
 31
0.0
  0
LINE
  5
C8
330
1F
100
AcDbEntity
  8
0
  6
Continuous
 62
     7
370
    15
100
AcDbLine
 10
79.4030301701
 20
8.9232748543
 30
0.0
 11
79.3930301672
 21
8.9132747965
 31
0.0
  0
LINE
  5
C9
330
1F
100
AcDbEntity
  8
0
  6
Continuous
 62
     7
370
    15
100
AcDbLine
 10
79.5700301675
 20
8.6818858695
 30
0.0
 11
79.5700301675
 21
8.7007748513
 31
0.0
  0
LINE
  5
CA
330
1F
100
AcDbEntity
  8
0
  6
Continuous
 62
     7
370
    15
100
AcDbLine
 10
79.5700301675
 20
8.8307748695
 30
0.0
 11
79.5700301675
 21
8.9132747965
 31
0.0
  0
LINE
  5
CB
330
1F
100
AcDbEntity
  8
0
  6
Continuous
 62
     7
370
    15
100
AcDbLine
 10
79.3930301672
 20
8.9132747965
 30
0.0
 11
79.3930301672
 21
8.8307748695
 31
0.0
  0
LINE
  5
CC
330
1F
100
AcDbEntity
  8
0
  6
Continuous
 62
     7
370
    15
100
AcDbLine
 10
79.3930301672
 20
8.7007748513
 30
0.0
 11
79.3930301672
 21
8.6818858695
 31
0.0
  0
LINE
  5
CD
330
1F
100
AcDbEntity
  8
0
  6
Continuous
 62
     7
370
    15
100
AcDbLine
 10
79.3815301668
 20
8.7007748513
 30
0.0
 11
79.581530168
 21
8.7007748513
 31
0.0
  0
LINE
  5
CE
330
1F
100
AcDbEntity
  8
0
  6
Continuous
 62
     7
370
    15
100
AcDbLine
 10
79.3815301668
 20
8.8307748695
 30
0.0
 11
79.581530168
 21
8.8307748695
 31
0.0
  0
LINE
  5
CF
330
1F
100
AcDbEntity
  8
0
  6
Continuous
 62
     7
370
    15
100
AcDbLine
 10
79.4030301701
 20
8.9232748543
 30
0.0
 11
79.5600301647
 21
8.9232748543
 31
0.0
  0
LINE
  5
D0
330
1F
100
AcDbEntity
  8
0
  6
Continuous
 62
     7
370
    15
100
AcDbLine
 10
79.5700301675
 20
8.9132747965
 30
0.0
 11
79.3930301672
 21
8.9132747965
 31
0.0
  0
LINE
  5
D1
330
1F
100
AcDbEntity
  8
0
  6
Continuous
 62
     7
370
    15
100
AcDbLine
 10
78.6440302023
 20
8.6818858695
 30
0.0
 11
78.6440302023
 21
6.6971115511
 31
0.0
  0
LINE
  5
D2
330
1F
100
AcDbEntity
  8
0
  6
Continuous
 62
     7
370
    15
100
AcDbLine
 10
80.3190301325
 20
8.6818858695
 30
0.0
 11
78.6440302023
 21
8.6818858695
 31
0.0
  0
LINE
  5
D3
330
1F
100
AcDbEntity
  8
0
  6
Continuous
 62
     7
370
    15
100
AcDbLine
 10
80.3190301325
 20
6.6971115511
 30
0.0
 11
80.3190301325
 21
8.6818858695
 31
0.0
  0
ARC
  5
D4
330
1F
100
AcDbEntity
  8
0
  6
Continuous
 62
     7
370
    15
100
AcDbCircle
 10
79.4815301674
 20
6.697111548
 30
0.0
 40
0.8374999999999995
100
AcDbArc
 50
270.0
 51
0.0
  0
ARC
  5
D5
330
1F
100
AcDbEntity
  8
0
  6
Continuous
 62
     7
370
    15
100
AcDbCircle
 10
79.4815301674
 20
6.697111548
 30
0.0
 40
0.8374999999999995
100
AcDbArc
 50
180.0
 51
270.0
  0
CIRCLE
  5
D6
330
1F
100
AcDbEntity
  8
0
  6
Continuous
 62
     7
370
    15
100
AcDbCircle
 10
79.4815301674
 20
7.5900747972
 30
0.0
 40
0.1634049999999974
  0
LINE
  5
D7
330
1F
100
AcDbEntity
  8
0
  6
Continuous
 62
     7
370
    15
100
AcDbLine
 10
79.4998773378
 20
7.5489483839
 30
0.0
 11
79.4550872383
 21
7.5536224866
 31
0.0
  0
LINE
  5
D8
330
1F
100
AcDbEntity
  8
0
  6
Continuous
 62
     7
370
    15
100
AcDbLine
 10
79.5263202658
 20
7.5854007162
 30
0.0
 11
79.4998773378
 21
7.5489483839
 31
0.0
  0
LINE
  5
D9
330
1F
100
AcDbEntity
  8
0
  6
Continuous
 62
     7
370
    15
100
AcDbLine
 10
79.5079730965
 20
7.6265271144
 30
0.0
 11
79.5263202658
 21
7.5854007162
 31
0.0
  0
LINE
  5
DA
330
1F
100
AcDbEntity
  8
0
  6
Continuous
 62
     7
370
    15
100
AcDbLine
 10
79.4631829969
 20
7.6312012171
 30
0.0
 11
79.5079730965
 21
7.6265271144
 31
0.0
  0
LINE
  5
DB
330
1F
100
AcDbEntity
  8
0
  6
Continuous
 62
     7
370
    15
100
AcDbLine
 10
79.436740069
 20
7.5947488848
 30
0.0
 11
79.4631829969
 21
7.6312012171
 31
0.0
  0
LINE
  5
DC
330
1F
100
AcDbEntity
  8
0
  6
Continuous
 62
     7
370
    15
100
AcDbLine
 10
79.4550872383
 20
7.5536224866
 30
0.0
 11
79.436740069
 21
7.5947488848
 31
0.0
  0
CIRCLE
  5
DD
330
1F
100
AcDbEntity
  8
0
  6
Continuous
 62
     7
370
    15
100
AcDbCircle
 10
79.4815301674
 20
7.5900747972
 30
0.0
 40
0.14895
  0
ARC
  5
DE
330
1F
100
AcDbEntity
  8
0
  6
Continuous
 62
     7
370
    15
100
AcDbCircle
 10
79.4815301674
 20
7.5900747972
 30
0.0
 40
0.0390000000000006
100
AcDbArc
 50
144.0424401633
 51
204.0424401633
  0
ARC
  5
DF
330
1F
100
AcDbEntity
  8
0
  6
Continuous
 62
     7
370
    15
100
AcDbCircle
 10
79.4815301674
 20
7.5900747972
 30
0.0
 40
0.0390000000000006
100
AcDbArc
 50
204.0424401633
 51
264.0424401634
  0
ARC
  5
E0
330
1F
100
AcDbEntity
  8
0
  6
Continuous
 62
     7
370
    15
100
AcDbCircle
 10
79.4815301674
 20
7.5900747972
 30
0.0
 40
0.0389999999999987
100
AcDbArc
 50
84.0424401634
 51
144.0424401633
  0
ARC
  5
E1
330
1F
100
AcDbEntity
  8
0
  6
Continuous
 62
     7
370
    15
100
AcDbCircle
 10
79.4815301674
 20
7.5900747972
 30
0.0
 40
0.0390000000000135
100
AcDbArc
 50
24.0424401633
 51
84.0424401634
  0
ARC
  5
E2
330
1F
100
AcDbEntity
  8
0
  6
Continuous
 62
     7
370
    15
100
AcDbCircle
 10
79.4815301674
 20
7.5900747972
 30
0.0
 40
0.0390000000000135
100
AcDbArc
 50
324.0424401633
 51
24.0424401633
  0
ARC
  5
E3
330
1F
100
AcDbEntity
  8
0
  6
Continuous
 62
     7
370
    15
100
AcDbCircle
 10
79.4815301674
 20
7.5900747972
 30
0.0
 40
0.0389999999999996
100
AcDbArc
 50
264.0424401634
 51
324.0424401633
  0
LINE
  5
E4
330
1F
100
AcDbEntity
  8
0
  6
Continuous
 62
     7
370
    15
100
AcDbLine
 10
41.1353627447
 20
11.5461566764
 30
0.0
 11
41.1353627447
 21
12.8059992559
 31
0.0
  0
LINE
  5
E5
330
1F
100
AcDbEntity
  8
0
  6
Continuous
 62
     7
370
    15
100
AcDbLine
 10
53.261346931
 20
12.8059992559
 30
0.0
 11
41.1353627447
 21
12.8059992559
 31
0.0
  0
LINE
  5
E6
330
1F
100
AcDbEntity
  8
0
  6
Continuous
 62
     7
370
    15
100
AcDbLine
 10
53.261346931
 20
11.5461566764
 30
0.0
 11
41.1353627447
 21
11.5461566764
 31
0.0
  0
LINE
  5
E7
330
1F
100
AcDbEntity
  8
0
  6
Continuous
 62
     7
370
    15
100
AcDbLine
 10
53.261346931
 20
12.8059992559
 30
0.0
 11
53.261346931
 21
11.5461566764
 31
0.0
  0
LINE
  5
E8
330
1F
100
AcDbEntity
  8
0
  6
Continuous
 62
     7
370
    15
100
AcDbLine
 10
53.261346931
 20
12.8355268015
 30
0.0
 11
41.1353627447
 21
12.8355268015
 31
0.0
  0
LINE
  5
E9
330
1F
100
AcDbEntity
  8
0
  6
Continuous
 62
     7
370
    15
100
AcDbLine
 10
53.261346931
 20
11.5166291309
 30
0.0
 11
41.1353627447
 21
11.5166291309
 31
0.0
  0
CIRCLE
  5
EA
330
1F
100
AcDbEntity
  8
0
  6
Continuous
 62
     7
370
    15
100
AcDbCircle
 10
75.7924135993
 20
12.1760779662
 30
0.0
 40
0.0999999999999923
  0
CIRCLE
  5
EB
330
1F
100
AcDbEntity
  8
0
  6
Continuous
 62
     7
370
    15
100
AcDbCircle
 10
18.6042747287
 20
12.1760779662
 30
0.0
 40
0.0999999999999991
  0
CIRCLE
  5
EC
330
1F
100
AcDbEntity
  8
0
  6
Continuous
 62
     7
370
    15
100
AcDbCircle
 10
18.6042747287
 20
12.1760779662
 30
0.0
 40
0.0784999999999994
  0
CIRCLE
  5
ED
330
1F
100
AcDbEntity
  8
0
  6
Continuous
 62
     7
370
    15
100
AcDbCircle
 10
18.6042747287
 20
12.1760779662
 30
0.0
 40
0.0884999999999982
  0
CIRCLE
  5
EE
330
1F
100
AcDbEntity
  8
0
  6
Continuous
 62
     7
370
    15
100
AcDbCircle
 10
18.6042747287
 20
12.1760779662
 30
0.0
 40
0.0349999999999995
  0
LINE
  5
EF
330
1F
100
AcDbEntity
  8
0
  6
Continuous
 62
     7
370
    15
100
AcDbLine
 10
18.5052162234
 20
12.1897696169
 30
0.0
 11
18.4947173581
 21
12.1883323437
 31
0.0
  0
LINE
  5
F0
330
1F
100
AcDbEntity
  8
0
  6
Continuous
 62
     7
370
    15
100
AcDbLine
 10
18.7133654989
 20
12.2182633909
 30
0.0
 11
18.6960097527
 21
12.2158873634
 31
0.0
  0
LINE
  5
F1
330
1F
100
AcDbEntity
  8
0
  6
Continuous
 62
     7
370
    15
100
AcDbLine
 10
18.5125400855
 20
12.136268569
 30
0.0
 11
18.4960502493
 21
12.1340110834
 31
0.0
  0
LINE
  5
F2
330
1F
100
AcDbEntity
  8
0
  6
Continuous
 62
     7
370
    15
100
AcDbLine
 10
18.7147171633
 20
12.163944687
 30
0.0
 11
18.7033336148
 21
12.1623863155
 31
0.0
  0
CIRCLE
  5
F3
330
1F
100
AcDbEntity
  8
0
  6
Continuous
 62
     7
370
    15
100
AcDbCircle
 10
75.7924135993
 20
12.1760779662
 30
0.0
 40
0.0784999999999818
  0
CIRCLE
  5
F4
330
1F
100
AcDbEntity
  8
0
  6
Continuous
 62
     7
370
    15
100
AcDbCircle
 10
75.7924135993
 20
12.1760779662
 30
0.0
 40
0.0884999999999976
  0
CIRCLE
  5
F5
330
1F
100
AcDbEntity
  8
0
  6
Continuous
 62
     7
370
    15
100
AcDbCircle
 10
75.7924135993
 20
12.1760779662
 30
0.0
 40
0.034999999999986
  0
LINE
  5
F6
330
1F
100
AcDbEntity
  8
0
  6
Continuous
 62
     7
370
    15
100
AcDbLine
 10
75.7416323568
 20
12.0899310864
 30
0.0
 11
75.733193841
 21
12.0581119923
 31
0.0
  0
LINE
  5
F7
330
1F
100
AcDbEntity
  8
0
  6
Continuous
 62
     7
370
    15
100
AcDbLine
 10
75.8002021335
 20
12.310771126
 30
0.0
 11
75.7909986132
 21
12.2760679661
 31
0.0
  0
LINE
  5
F8
330
1F
100
AcDbEntity
  8
0
  6
Continuous
 62
     7
370
    15
100
AcDbLine
 10
75.7938286605
 20
12.0760879663
 30
0.0
 11
75.7846087137
 21
12.0413260853
 31
0.0
  0
LINE
  5
F9
330
1F
100
AcDbEntity
  8
0
  6
Continuous
 62
     7
370
    15
100
AcDbLine
 10
75.8515114075
 20
12.2935845671
 30
0.0
 11
75.8431949169
 21
12.262224846
 31
0.0
  0
LINE
  5
FA
330
1F
100
AcDbEntity
  8
0
  6
Continuous
 62
     7
370
    15
100
AcDbLine
 10
18.3007159725
 20
12.8547173998
 30
0.0
 11
18.3007159725
 21
12.9410779888
 31
0.0
  0
LINE
  5
FB
330
1F
100
AcDbEntity
  8
0
  6
Continuous
 62
     7
370
    15
100
AcDbLine
 10
76.0959937032
 20
12.8547173998
 30
0.0
 11
76.0959937032
 21
12.9410779888
 31
0.0
  0
LINE
  5
FC
330
1F
100
AcDbEntity
  8
0
  6
Continuous
 62
     7
370
    15
100
AcDbLine
 10
18.3007159725
 20
12.9510779733
 30
0.0
 11
76.0959937032
 21
12.9510779733
 31
0.0
  0
LINE
  5
FD
330
1F
100
AcDbEntity
  8
0
  6
Continuous
 62
     7
370
    15
100
AcDbLine
 10
76.0959937032
 20
11.4110779435
 30
0.0
 11
76.0959937032
 21
11.4974385325
 31
0.0
  0
LINE
  5
FE
330
1F
100
AcDbEntity
  8
0
  6
Continuous
 62
     7
370
    15
100
AcDbLine
 10
18.3007159725
 20
11.4110779435
 30
0.0
 11
18.3007159725
 21
11.4974385325
 31
0.0
  0
LINE
  5
FF
330
1F
100
AcDbEntity
  8
0
  6
Continuous
 62
     7
370
    15
100
AcDbLine
 10
76.0959937032
 20
11.401077959
 30
0.0
 11
18.3007159725
 21
11.401077959
 31
0.0
  0
ARC
  5
100
330
1F
100
AcDbEntity
  8
0
  6
Continuous
 62
     7
370
    15
100
AcDbCircle
 10
18.6047170426
 20
12.1510779662
 30
0.0
 40
0.1099999999999994
100
AcDbArc
 50
180.0
 51
0.0
  0
LINE
  5
101
330
1F
100
AcDbEntity
  8
0
  6
Continuous
 62
     7
370
    15
100
AcDbLine
 10
18.7147171633
 20
12.151077966
 30
0.0
 11
18.7147171633
 21
12.2010779663
 31
0.0
  0
ARC
  5
102
330
1F
100
AcDbEntity
  8
0
  6
Continuous
 62
     7
370
    15
100
AcDbCircle
 10
18.6047170426
 20
12.2010779662
 30
0.0
 40
0.1099999999999994
100
AcDbArc
 50
0.0
 51
180.0
  0
LINE
  5
103
330
1F
100
AcDbEntity
  8
0
  6
Continuous
 62
     7
370
    15
100
AcDbLine
 10
18.4947173581
 20
12.2010779663
 30
0.0
 11
18.4947173581
 21
12.151077966
 31
0.0
  0
LINE
  5
104
330
1F
100
AcDbEntity
  8
0
  6
Continuous
 62
     7
370
    15
100
AcDbLine
 10
18.3007159725
 20
12.8276527991
 30
0.0
 11
18.3007159725
 21
11.5245031332
 31
0.0
  0
LINE
  5
105
330
1F
100
AcDbEntity
  8
0
  6
Continuous
 62
     7
370
    15
100
AcDbLine
 10
41.1353627447
 20
12.8276527991
 30
0.0
 11
41.1353627447
 21
11.5245031332
 31
0.0
  0
LINE
  5
106
330
1F
100
AcDbEntity
  8
0
  6
Continuous
 62
     7
370
    15
100
AcDbLine
 10
41.1353627447
 20
12.8355268015
 30
0.0
 11
18.3007159725
 21
12.8355268015
 31
0.0
  0
LINE
  5
107
330
1F
100
AcDbEntity
  8
0
  6
Continuous
 62
     7
370
    15
100
AcDbLine
 10
41.1353627447
 20
12.8355268015
 30
0.0
 11
41.1353627447
 21
12.8276527991
 31
0.0
  0
LINE
  5
108
330
1F
100
AcDbEntity
  8
0
  6
Continuous
 62
     7
370
    15
100
AcDbLine
 10
41.1353627447
 20
11.5166291309
 30
0.0
 11
18.3007159725
 21
11.5166291309
 31
0.0
  0
LINE
  5
109
330
1F
100
AcDbEntity
  8
0
  6
Continuous
 62
     7
370
    15
100
AcDbLine
 10
41.1353627447
 20
11.5245031332
 30
0.0
 11
41.1353627447
 21
11.5166291309
 31
0.0
  0
LINE
  5
10A
330
1F
100
AcDbEntity
  8
0
  6
Continuous
 62
     7
370
    15
100
AcDbLine
 10
53.261346931
 20
11.5245031332
 30
0.0
 11
53.261346931
 21
12.8276527991
 31
0.0
  0
ARC
  5
10B
330
1F
100
AcDbEntity
  8
0
  6
Continuous
 62
     7
370
    15
100
AcDbCircle
 10
75.7919926331
 20
12.2010779662
 30
0.0
 40
0.1099999999999994
100
AcDbArc
 50
0.0
 51
180.0
  0
LINE
  5
10C
330
1F
100
AcDbEntity
  8
0
  6
Continuous
 62
     7
370
    15
100
AcDbLine
 10
75.6819925124
 20
12.2010779663
 30
0.0
 11
75.6819925124
 21
12.151077966
 31
0.0
  0
ARC
  5
10D
330
1F
100
AcDbEntity
  8
0
  6
Continuous
 62
     7
370
    15
100
AcDbCircle
 10
75.7919926331
 20
12.1510779662
 30
0.0
 40
0.1099999999999994
100
AcDbArc
 50
180.0
 51
360.0
  0
LINE
  5
10E
330
1F
100
AcDbEntity
  8
0
  6
Continuous
 62
     7
370
    15
100
AcDbLine
 10
75.9019923176
 20
12.151077966
 30
0.0
 11
75.9019923176
 21
12.2010779663
 31
0.0
  0
CIRCLE
  5
10F
330
1F
100
AcDbEntity
  8
0
  6
Continuous
 62
     7
370
    15
100
AcDbCircle
 10
75.3210634993
 20
12.1760779662
 30
0.0
 40
0.1749999999999989
  0
CIRCLE
  5
110
330
1F
100
AcDbEntity
  8
0
  6
Continuous
 62
     7
370
    15
100
AcDbCircle
 10
74.8206697985
 20
12.1760779662
 30
0.0
 40
0.1394999999999982
  0
LINE
  5
111
330
1F
100
AcDbEntity
  8
0
  6
Continuous
 62
     7
370
    15
100
AcDbLine
 10
76.0959937032
 20
11.5245031332
 30
0.0
 11
76.0959937032
 21
12.8276527991
 31
0.0
  0
LINE
  5
112
330
1F
100
AcDbEntity
  8
0
  6
Continuous
 62
     7
370
    15
100
AcDbLine
 10
53.261346931
 20
12.8276527991
 30
0.0
 11
53.261346931
 21
12.8355268015
 31
0.0
  0
LINE
  5
113
330
1F
100
AcDbEntity
  8
0
  6
Continuous
 62
     7
370
    15
100
AcDbLine
 10
53.261346931
 20
12.8355268015
 30
0.0
 11
76.0959937032
 21
12.8355268015
 31
0.0
  0
LINE
  5
114
330
1F
100
AcDbEntity
  8
0
  6
Continuous
 62
     7
370
    15
100
AcDbLine
 10
53.261346931
 20
11.5166291309
 30
0.0
 11
76.0959937032
 21
11.5166291309
 31
0.0
  0
LINE
  5
115
330
1F
100
AcDbEntity
  8
0
  6
Continuous
 62
     7
370
    15
100
AcDbLine
 10
53.261346931
 20
11.5166291309
 30
0.0
 11
53.261346931
 21
11.5245031332
 31
0.0
  0
LINE
  5
116
330
1F
100
AcDbEntity
  8
0
  6
Continuous
 62
     7
370
    15
100
AcDbLine
 10
18.1935519838
 20
11.3385780011
 30
0.0
 11
18.3707162305
 21
11.3385780011
 31
0.0
  0
LINE
  5
117
330
1F
100
AcDbEntity
  8
0
  6
Continuous
 62
     7
370
    15
100
AcDbLine
 10
18.1935519838
 20
13.0135779313
 30
0.0
 11
18.3707162305
 21
13.0135779313
 31
0.0
  0
LINE
  5
118
330
1F
100
AcDbEntity
  8
0
  6
Continuous
 62
     7
370
    15
100
AcDbLine
 10
18.3007159725
 20
12.9635779356
 30
0.0
 11
18.3707162305
 21
12.9635779356
 31
0.0
  0
LINE
  5
119
330
1F
100
AcDbEntity
  8
0
  6
Continuous
 62
     7
370
    15
100
AcDbLine
 10
18.3007159725
 20
12.9635779356
 30
0.0
 11
18.3007159725
 21
11.3885779968
 31
0.0
  0
LINE
  5
11A
330
1F
100
AcDbEntity
  8
0
  6
Continuous
 62
     7
370
    15
100
AcDbLine
 10
18.3007159725
 20
11.3885779968
 30
0.0
 11
18.3707162305
 21
11.3885779968
 31
0.0
  0
LINE
  5
11B
330
1F
100
AcDbEntity
  8
0
  6
Continuous
 62
     7
370
    15
100
AcDbLine
 10
18.1935519838
 20
11.3385780011
 30
0.0
 11
18.1935519838
 21
13.0135779313
 31
0.0
  0
LINE
  5
11C
330
1F
100
AcDbEntity
  8
0
  6
Continuous
 62
     7
370
    15
100
AcDbLine
 10
18.3707162305
 20
12.9635779356
 30
0.0
 11
18.3707162305
 21
13.0135779313
 31
0.0
  0
LINE
  5
11D
330
1F
100
AcDbEntity
  8
0
  6
Continuous
 62
     7
370
    15
100
AcDbLine
 10
18.3707162305
 20
11.3385780011
 30
0.0
 11
18.3707162305
 21
11.3885779968
 31
0.0
  0
LINE
  5
11E
330
1F
100
AcDbEntity
  8
0
  6
Continuous
 62
     7
370
    15
100
AcDbLine
 10
18.3707162305
 20
11.3885779968
 30
0.0
 11
18.3707162305
 21
11.4011108853
 31
0.0
  0
LINE
  5
11F
330
1F
100
AcDbEntity
  8
0
  6
Continuous
 62
     7
370
    15
100
AcDbLine
 10
18.3707162305
 20
12.951045047
 30
0.0
 11
18.3707162305
 21
12.9635779356
 31
0.0
  0
LINE
  5
120
330
1F
100
AcDbEntity
  8
0
  6
Continuous
 62
     7
370
    15
100
AcDbLine
 10
76.2031576919
 20
13.0135779313
 30
0.0
 11
76.2031576919
 21
11.3385780011
 31
0.0
  0
LINE
  5
121
330
1F
100
AcDbEntity
  8
0
  6
Continuous
 62
     7
370
    15
100
AcDbLine
 10
76.2031576919
 20
11.3385780011
 30
0.0
 11
76.0259934452
 21
11.3385780011
 31
0.0
  0
LINE
  5
122
330
1F
100
AcDbEntity
  8
0
  6
Continuous
 62
     7
370
    15
100
AcDbLine
 10
76.0259934452
 20
11.3885779968
 30
0.0
 11
76.0259934452
 21
11.3385780011
 31
0.0
  0
LINE
  5
123
330
1F
100
AcDbEntity
  8
0
  6
Continuous
 62
     7
370
    15
100
AcDbLine
 10
76.0959937032
 20
11.3885779968
 30
0.0
 11
76.0259934452
 21
11.3885779968
 31
0.0
  0
LINE
  5
124
330
1F
100
AcDbEntity
  8
0
  6
Continuous
 62
     7
370
    15
100
AcDbLine
 10
76.0959937032
 20
11.3885779968
 30
0.0
 11
76.0959937032
 21
12.9635779356
 31
0.0
  0
LINE
  5
125
330
1F
100
AcDbEntity
  8
0
  6
Continuous
 62
     7
370
    15
100
AcDbLine
 10
76.0959937032
 20
12.9635779356
 30
0.0
 11
76.0259934452
 21
12.9635779356
 31
0.0
  0
LINE
  5
126
330
1F
100
AcDbEntity
  8
0
  6
Continuous
 62
     7
370
    15
100
AcDbLine
 10
76.0259934452
 20
13.0135779313
 30
0.0
 11
76.0259934452
 21
12.9635779356
 31
0.0
  0
LINE
  5
127
330
1F
100
AcDbEntity
  8
0
  6
Continuous
 62
     7
370
    15
100
AcDbLine
 10
76.2031576919
 20
13.0135779313
 30
0.0
 11
76.0259934452
 21
13.0135779313
 31
0.0
  0
LINE
  5
128
330
1F
100
AcDbEntity
  8
0
  6
Continuous
 62
     7
370
    15
100
AcDbLine
 10
76.0259934452
 20
12.9635779356
 30
0.0
 11
76.0259934452
 21
12.951045047
 31
0.0
  0
LINE
  5
129
330
1F
100
AcDbEntity
  8
0
  6
Continuous
 62
     7
370
    15
100
AcDbLine
 10
76.0259934452
 20
11.4011108853
 30
0.0
 11
76.0259934452
 21
11.3885779968
 31
0.0
  0
LINE
  5
12A
330
1F
100
AcDbEntity
  8
0
  6
Continuous
 62
     7
370
    15
100
AcDbLine
 10
74.7659301349
 20
12.0931882129
 30
0.0
 11
74.7388100215
 21
12.1198076304
 31
0.0
  0
LINE
  5
12B
330
1F
100
AcDbEntity
  8
0
  6
Continuous
 62
     7
370
    15
100
AcDbLine
 10
74.8209189396
 20
12.149209067
 30
0.0
 11
74.7659301349
 21
12.0931882129
 31
0.0
  0
LINE
  5
12C
330
1F
100
AcDbEntity
  8
0
  6
Continuous
 62
     7
370
    15
100
AcDbLine
 10
74.8769402658
 20
12.0942189468
 30
0.0
 11
74.8209189396
 21
12.149209067
 31
0.0
  0
LINE
  5
12D
330
1F
100
AcDbEntity
  8
0
  6
Continuous
 62
     7
370
    15
100
AcDbLine
 10
74.9035605449
 20
12.1213373231
 30
0.0
 11
74.8769402658
 21
12.0942189468
 31
0.0
  0
LINE
  5
12E
330
1F
100
AcDbEntity
  8
0
  6
Continuous
 62
     7
370
    15
100
AcDbLine
 10
74.8475392188
 20
12.1763274434
 30
0.0
 11
74.9035605449
 21
12.1213373231
 31
0.0
  0
LINE
  5
12F
330
1F
100
AcDbEntity
  8
0
  6
Continuous
 62
     7
370
    15
100
AcDbLine
 10
74.9025280235
 20
12.232348302
 30
0.0
 11
74.8475392188
 21
12.1763274434
 31
0.0
  0
LINE
  5
130
330
1F
100
AcDbEntity
  8
0
  6
Continuous
 62
     7
370
    15
100
AcDbLine
 10
74.8754102568
 20
12.2589677195
 30
0.0
 11
74.9025280235
 21
12.232348302
 31
0.0
  0
LINE
  5
131
330
1F
100
AcDbEntity
  8
0
  6
Continuous
 62
     7
370
    15
100
AcDbLine
 10
74.820421452
 20
12.2029468654
 30
0.0
 11
74.8754102568
 21
12.2589677195
 31
0.0
  0
LINE
  5
132
330
1F
100
AcDbEntity
  8
0
  6
Continuous
 62
     7
370
    15
100
AcDbLine
 10
74.7644001259
 20
12.2579369855
 30
0.0
 11
74.820421452
 21
12.2029468654
 31
0.0
  0
LINE
  5
133
330
1F
100
AcDbEntity
  8
0
  6
Continuous
 62
     7
370
    15
100
AcDbLine
 10
74.7377798467
 20
12.2308186092
 30
0.0
 11
74.7644001259
 21
12.2579369855
 31
0.0
  0
LINE
  5
134
330
1F
100
AcDbEntity
  8
0
  6
Continuous
 62
     7
370
    15
100
AcDbLine
 10
74.7938011729
 20
12.175828489
 30
0.0
 11
74.7377798467
 21
12.2308186092
 31
0.0
  0
LINE
  5
135
330
1F
100
AcDbEntity
  8
0
  6
Continuous
 62
     7
370
    15
100
AcDbLine
 10
74.7388100215
 20
12.1198076304
 30
0.0
 11
74.7938011729
 21
12.175828489
 31
0.0
  0
CIRCLE
  5
136
330
1F
100
AcDbEntity
  8
0
  6
Continuous
 62
     7
370
    15
100
AcDbCircle
 10
74.8206697985
 20
12.1760779662
 30
0.0
 40
0.1324999999999975
  0
LINE
  5
137
330
1F
100
AcDbEntity
  8
0
  6
Continuous
 62
     7
370
    15
100
AcDbLine
 10
74.8341422535
 20
12.1762030546
 30
0.0
 11
74.8475392188
 21
12.1763274434
 31
0.0
  0
LINE
  5
138
330
1F
100
AcDbEntity
  8
0
  6
Continuous
 62
     7
370
    15
100
AcDbLine
 10
74.9025280235
 20
12.232348302
 30
0.0
 11
74.8342971318
 21
12.1763601649
 31
0.0
  0
LINE
  5
139
330
1F
100
AcDbEntity
  8
0
  6
Continuous
 62
     7
370
    15
100
AcDbLine
 10
74.8754102568
 20
12.2589677195
 30
0.0
 11
74.8206983555
 21
12.1897072029
 31
0.0
  0
LINE
  5
13A
330
1F
100
AcDbEntity
  8
0
  6
Continuous
 62
     7
370
    15
100
AcDbLine
 10
74.7377798467
 20
12.2308186092
 30
0.0
 11
74.8070409133
 21
12.1761070973
 31
0.0
  0
LINE
  5
13B
330
1F
100
AcDbEntity
  8
0
  6
Continuous
 62
     7
370
    15
100
AcDbLine
 10
74.7644001259
 20
12.2579369855
 30
0.0
 11
74.8203885991
 21
12.189704312
 31
0.0
  0
LINE
  5
13C
330
1F
100
AcDbEntity
  8
0
  6
Continuous
 62
     7
370
    15
100
AcDbLine
 10
74.820421452
 20
12.2029468654
 30
0.0
 11
74.8205458239
 21
12.1895500926
 31
0.0
  0
LINE
  5
13D
330
1F
100
AcDbEntity
  8
0
  6
Continuous
 62
     7
370
    15
100
AcDbLine
 10
74.8071981381
 20
12.1759528777
 30
0.0
 11
74.7938011729
 21
12.175828489
 31
0.0
  0
LINE
  5
13E
330
1F
100
AcDbEntity
  8
0
  6
Continuous
 62
     7
370
    15
100
AcDbLine
 10
74.7659301349
 20
12.0931882129
 30
0.0
 11
74.8206396895
 21
12.1624487295
 31
0.0
  0
LINE
  5
13F
330
1F
100
AcDbEntity
  8
0
  6
Continuous
 62
     7
370
    15
100
AcDbLine
 10
74.8209189396
 20
12.149209067
 30
0.0
 11
74.8207945677
 21
12.1626058397
 31
0.0
  0
LINE
  5
140
330
1F
100
AcDbEntity
  8
0
  6
Continuous
 62
     7
370
    15
100
AcDbLine
 10
74.7388100215
 20
12.1198076304
 30
0.0
 11
74.8070432599
 21
12.1757957675
 31
0.0
  0
LINE
  5
141
330
1F
100
AcDbEntity
  8
0
  6
Continuous
 62
     7
370
    15
100
AcDbLine
 10
74.8769402658
 20
12.0942189468
 30
0.0
 11
74.8209517926
 21
12.1624516204
 31
0.0
  0
LINE
  5
142
330
1F
100
AcDbEntity
  8
0
  6
Continuous
 62
     7
370
    15
100
AcDbLine
 10
74.9035605449
 20
12.1213373231
 30
0.0
 11
74.8342994784
 21
12.1760488351
 31
0.0
  0
LINE
  5
143
330
1F
100
AcDbEntity
  8
0
  6
Continuous
 62
   252
370
     0
100
AcDbLine
 10
53.261346931
 20
12.8332205681
 30
0.0
 11
41.1353627447
 21
12.8332205681
 31
0.0
  0
LINE
  5
144
330
1F
100
AcDbEntity
  8
0
  6
Continuous
 62
   252
370
     0
100
AcDbLine
 10
53.261346931
 20
11.5189353642
 30
0.0
 11
41.1353627447
 21
11.5189353642
 31
0.0
  0
LINE
  5
145
330
1F
100
AcDbEntity
  8
0
  6
Continuous
 62
   252
370
     0
100
AcDbLine
 10
76.0959937032
 20
12.8547173998
 30
0.0
 11
18.3007159725
 21
12.8547173998
 31
0.0
  0
LINE
  5
146
330
1F
100
AcDbEntity
  8
0
  6
Continuous
 62
   252
370
     0
100
AcDbLine
 10
76.0959937032
 20
12.9410779888
 30
0.0
 11
18.3007159725
 21
12.9410779888
 31
0.0
  0
LINE
  5
147
330
1F
100
AcDbEntity
  8
0
  6
Continuous
 62
   252
370
     0
100
AcDbLine
 10
76.0959937032
 20
12.8447577482
 30
0.0
 11
18.3007159725
 21
12.8447577482
 31
0.0
  0
LINE
  5
148
330
1F
100
AcDbEntity
  8
0
  6
Continuous
 62
   252
370
     0
100
AcDbLine
 10
18.3007159725
 20
11.4110779435
 30
0.0
 11
76.0959937032
 21
11.4110779435
 31
0.0
  0
LINE
  5
149
330
1F
100
AcDbEntity
  8
0
  6
Continuous
 62
   252
370
     0
100
AcDbLine
 10
76.0959937032
 20
11.4974385325
 30
0.0
 11
18.3007159725
 21
11.4974385325
 31
0.0
  0
LINE
  5
14A
330
1F
100
AcDbEntity
  8
0
  6
Continuous
 62
   252
370
     0
100
AcDbLine
 10
76.0959937032
 20
11.5073981842
 30
0.0
 11
18.3007159725
 21
11.5073981842
 31
0.0
  0
LINE
  5
14B
330
1F
100
AcDbEntity
  8
0
  6
Continuous
 62
   252
370
     0
100
AcDbLine
 10
76.0959937032
 20
12.8385376134
 30
0.0
 11
18.3007159725
 21
12.8385376134
 31
0.0
  0
LINE
  5
14C
330
1F
100
AcDbEntity
  8
0
  6
Continuous
 62
   252
370
     0
100
AcDbLine
 10
76.0959937032
 20
11.513618319
 30
0.0
 11
18.3007159725
 21
11.513618319
 31
0.0
  0
LINE
  5
14D
330
1F
100
AcDbEntity
  8
0
  6
Continuous
 62
   252
370
     0
100
AcDbLine
 10
76.0959937032
 20
12.8379748599
 30
0.0
 11
18.3007159725
 21
12.8379748599
 31
0.0
  0
LINE
  5
14E
330
1F
100
AcDbEntity
  8
0
  6
Continuous
 62
   252
370
     0
100
AcDbLine
 10
76.0959937032
 20
11.5141810725
 30
0.0
 11
18.3007159725
 21
11.5141810725
 31
0.0
  0
LINE
  5
14F
330
1F
100
AcDbEntity
  8
0
  6
Continuous
 62
   252
370
     0
100
AcDbLine
 10
41.1353627447
 20
12.8276527991
 30
0.0
 11
18.3007159725
 21
12.8276527991
 31
0.0
  0
LINE
  5
150
330
1F
100
AcDbEntity
  8
0
  6
Continuous
 62
   252
370
     0
100
AcDbLine
 10
41.1353627447
 20
11.5245031332
 30
0.0
 11
18.3007159725
 21
11.5245031332
 31
0.0
  0
LINE
  5
151
330
1F
100
AcDbEntity
  8
0
  6
Continuous
 62
   252
370
     0
100
AcDbLine
 10
53.261346931
 20
11.5245031332
 30
0.0
 11
76.0959937032
 21
11.5245031332
 31
0.0
  0
LINE
  5
152
330
1F
100
AcDbEntity
  8
0
  6
Continuous
 62
   252
370
     0
100
AcDbLine
 10
53.261346931
 20
12.8276527991
 30
0.0
 11
76.0959937032
 21
12.8276527991
 31
0.0
  0
LINE
  5
153
330
1F
100
AcDbEntity
  8
0
  6
Continuous
 62
     7
370
    15
100
AcDbLine
 10
18.3707162305
 20
1.243724862
 30
0.0
 11
76.0259934452
 21
1.243724862
 31
0.0
  0
LINE
  5
154
330
1F
100
AcDbEntity
  8
0
  6
Continuous
 62
     7
370
    15
100
AcDbLine
 10
18.3707162305
 20
2.7936590237
 30
0.0
 11
76.0259934452
 21
2.7936590237
 31
0.0
  0
LINE
  5
155
330
1F
100
AcDbEntity
  8
0
  6
Continuous
 62
     7
370
    15
100
AcDbLine
 10
18.3707162305
 20
1.2436919358
 30
0.0
 11
76.0259934452
 21
1.2436919358
 31
0.0
  0
LINE
  5
156
330
1F
100
AcDbEntity
  8
0
  6
Continuous
 62
     7
370
    15
100
AcDbLine
 10
18.3707162305
 20
2.79369195
 30
0.0
 11
76.0259934452
 21
2.79369195
 31
0.0
  0
LINE
  5
157
330
1F
100
AcDbEntity
  8
0
  6
Continuous
 62
     7
370
    15
100
AcDbLine
 10
18.3707162305
 20
1.1811919778
 30
0.0
 11
18.1935519838
 21
1.1811919778
 31
0.0
  0
LINE
  5
158
330
1F
100
AcDbEntity
  8
0
  6
Continuous
 62
     7
370
    15
100
AcDbLine
 10
18.1935519838
 20
1.1811919778
 30
0.0
 11
18.1935519838
 21
2.0186919429
 31
0.0
  0
LINE
  5
159
330
1F
100
AcDbEntity
  8
0
  6
Continuous
 62
     7
370
    15
100
AcDbLine
 10
18.3707162305
 20
2.0186919429
 30
0.0
 11
18.3707162305
 21
1.1811919778
 31
0.0
  0
LINE
  5
15A
330
1F
100
AcDbEntity
  8
0
  6
Continuous
 62
     7
370
    15
100
AcDbLine
 10
18.1935519838
 20
2.856191908
 30
0.0
 11
18.3707162305
 21
2.856191908
 31
0.0
  0
LINE
  5
15B
330
1F
100
AcDbEntity
  8
0
  6
Continuous
 62
     7
370
    15
100
AcDbLine
 10
18.1935519838
 20
2.0186919429
 30
0.0
 11
18.1935519838
 21
2.856191908
 31
0.0
  0
LINE
  5
15C
330
1F
100
AcDbEntity
  8
0
  6
Continuous
 62
     7
370
    15
100
AcDbLine
 10
18.3707162305
 20
2.856191908
 30
0.0
 11
18.3707162305
 21
2.0186919429
 31
0.0
  0
LINE
  5
15D
330
1F
100
AcDbEntity
  8
0
  6
Continuous
 62
     7
370
    15
100
AcDbLine
 10
76.2031576919
 20
1.1811919778
 30
0.0
 11
76.0259934452
 21
1.1811919778
 31
0.0
  0
LINE
  5
15E
330
1F
100
AcDbEntity
  8
0
  6
Continuous
 62
     7
370
    15
100
AcDbLine
 10
76.2031576919
 20
2.0186919429
 30
0.0
 11
76.2031576919
 21
1.1811919778
 31
0.0
  0
LINE
  5
15F
330
1F
100
AcDbEntity
  8
0
  6
Continuous
 62
     7
370
    15
100
AcDbLine
 10
76.0259934452
 20
1.1811919778
 30
0.0
 11
76.0259934452
 21
2.0186919429
 31
0.0
  0
LINE
  5
160
330
1F
100
AcDbEntity
  8
0
  6
Continuous
 62
     7
370
    15
100
AcDbLine
 10
76.0259934452
 20
2.856191908
 30
0.0
 11
76.2031576919
 21
2.856191908
 31
0.0
  0
LINE
  5
161
330
1F
100
AcDbEntity
  8
0
  6
Continuous
 62
     7
370
    15
100
AcDbLine
 10
76.2031576919
 20
2.856191908
 30
0.0
 11
76.2031576919
 21
2.0186919429
 31
0.0
  0
LINE
  5
162
330
1F
100
AcDbEntity
  8
0
  6
Continuous
 62
     7
370
    15
100
AcDbLine
 10
76.0259934452
 20
2.0186919429
 30
0.0
 11
76.0259934452
 21
2.856191908
 31
0.0
  0
LINE
  5
163
330
1F
100
AcDbEntity
  8
0
  6
Continuous
 62
   252
370
     0
100
AcDbLine
 10
18.1935519838
 20
2.0186919429
 30
0.0
 11
18.3707162305
 21
2.0186919429
 31
0.0
  0
LINE
  5
164
330
1F
100
AcDbEntity
  8
0
  6
Continuous
 62
   252
370
     0
100
AcDbLine
 10
76.2031576919
 20
2.0186919429
 30
0.0
 11
76.0259934452
 21
2.0186919429
 31
0.0
  0
ENDSEC
  0
SECTION
  2
OBJECTS
  0
DICTIONARY
  5
C
330
0
100
AcDbDictionary
281
     1
  3
ACAD_GROUP
350
D
  3
ACAD_LAYOUT
350
1A
  3
ACAD_MLINESTYLE
350
17
  3
ACAD_PLOTSETTINGS
350
19
  3
ACAD_PLOTSTYLENAME
350
E
  0
DICTIONARY
  5
D
102
{ACAD_REACTORS
330
C
102
}
330
C
100
AcDbDictionary
281
     1
  0
DICTIONARY
  5
1A
102
{ACAD_REACTORS
330
C
102
}
330
C
100
AcDbDictionary
281
     1
  3
Layout1
350
1E
  3
Layout2
350
26
  3
Model
350
22
  0
DICTIONARY
  5
17
102
{ACAD_REACTORS
330
C
102
}
330
C
100
AcDbDictionary
281
     1
  3
Standard
350
18
  0
DICTIONARY
  5
19
102
{ACAD_REACTORS
330
C
102
}
330
C
100
AcDbDictionary
281
     1
  0
ACDBDICTIONARYWDFLT
  5
E
102
{ACAD_REACTORS
330
C
102
}
330
C
100
AcDbDictionary
281
     1
  3
Normal
350
F
100
AcDbDictionaryWithDefault
340
F
  0
LAYOUT
  5
1E
102
{ACAD_REACTORS
330
1A
102
}
330
1A
100
AcDbPlotSettings
  1

  2
none_device
  4

  6

 40
0.0
 41
0.0
 42
0.0
 43
0.0
 44
0.0
 45
0.0
 46
0.0
 47
0.0
 48
0.0
 49
0.0
140
0.0
141
0.0
142
1.0
143
1.0
 70
   688
 72
     0
 73
     0
 74
     5
  7

 75
    16
147
1.0
148
0.0
149
0.0
100
AcDbLayout
  1
Layout1
 70
     1
 71
     1
 10
0.0
 20
0.0
 11
12.0
 21
9.0
 12
0.0
 22
0.0
 32
0.0
 14
1.0000000000E+20
 24
1.0000000000E+20
 34
1.0000000000E+20
 15
-1.0000000000E+20
 25
-1.0000000000E+20
 35
-1.0000000000E+20
146
0.0
 13
0.0
 23
0.0
 33
0.0
 16
1.0
 26
0.0
 36
0.0
 17
0.0
 27
1.0
 37
0.0
 76
     0
330
1B
  0
LAYOUT
  5
26
102
{ACAD_REACTORS
330
1A
102
}
330
1A
100
AcDbPlotSettings
  1

  2
none_device
  4

  6

 40
0.0
 41
0.0
 42
0.0
 43
0.0
 44
0.0
 45
0.0
 46
0.0
 47
0.0
 48
0.0
 49
0.0
140
0.0
141
0.0
142
1.0
143
1.0
 70
   688
 72
     0
 73
     0
 74
     5
  7

 75
    16
147
1.0
148
0.0
149
0.0
100
AcDbLayout
  1
Layout2
 70
     1
 71
     2
 10
0.0
 20
0.0
 11
0.0
 21
0.0
 12
0.0
 22
0.0
 32
0.0
 14
0.0
 24
0.0
 34
0.0
 15
0.0
 25
0.0
 35
0.0
146
0.0
 13
0.0
 23
0.0
 33
0.0
 16
1.0
 26
0.0
 36
0.0
 17
0.0
 27
1.0
 37
0.0
 76
     0
330
23
  0
LAYOUT
  5
22
102
{ACAD_REACTORS
330
1A
102
}
330
1A
100
AcDbPlotSettings
  1

  2
none_device
  4

  6

 40
0.0
 41
0.0
 42
0.0
 43
0.0
 44
0.0
 45
0.0
 46
0.0
 47
0.0
 48
0.0
 49
0.0
140
0.0
141
0.0
142
1.0
143
1.0
 70
  1712
 72
     0
 73
     0
 74
     0
  7

 75
     0
147
1.0
148
0.0
149
0.0
100
AcDbLayout
  1
Model
 70
     1
 71
     0
 10
0.0
 20
0.0
 11
100.0
 21
14.0
 12
0.0
 22
0.0
 32
0.0
 14
0.0
 24
0.0
 34
0.0
 15
100.0
 25
14.0
 35
0.0
146
0.0
 13
0.0
 23
0.0
 33
0.0
 16
1.0
 26
0.0
 36
0.0
 17
0.0
 27
1.0
 37
0.0
 76
     0
330
1F
331
29
  0
MLINESTYLE
  5
18
102
{ACAD_REACTORS
330
17
102
}
330
17
100
AcDbMlineStyle
  2
Standard
 70
     0
  3

 62
   256
 51
90.0
 52
90.0
 71
     2
 49
0.5
 62
   256
  6
BYLAYER
 49
-0.5
 62
   256
  6
BYLAYER
  0
ACDBPLACEHOLDER
  5
F
102
{ACAD_REACTORS
330
E
102
}
330
E
  0
ENDSEC
  0
EOF
