  0
SECTION
  2
HEADER
  9
$ACADVER
  1
AC1018
  9
$ACADMAINTVER
 70
     0
  9
$DWGCODEPAGE
  3
ANSI_1252
  9
$INSBASE
 10
0.0
 20
0.0
 30
0.0
  9
$EXTMIN
 10
-0.0113938432341456
 20
0.0317261074373291
 30
0.0
  9
$EXTMAX
 10
1429.651626071383
 20
1509.283391503276
 30
0.0
  9
$LIMMIN
 10
0.0
 20
0.0
  9
$LIMMAX
 10
12.0
 20
9.0
  9
$ORTHOMODE
 70
     0
  9
$REGENMODE
 70
     1
  9
$FILLMODE
 70
     1
  9
$QTEXTMODE
 70
     0
  9
$MIRRTEXT
 70
     1
  9
$LTSCALE
 40
1.0
  9
$ATTMODE
 70
     1
  9
$TEXTSIZE
 40
0.2
  9
$TRACEWID
 40
0.05
  9
$TEXTSTYLE
  7
Standard
  9
$CLAYER
  8
DEFAULT
  9
$CELTYPE
  6
ByLayer
  9
$CECOLOR
 62
   256
  9
$CELTSCALE
 40
1.0
  9
$DISPSILH
 70
     0
  9
$DIMSCALE
 40
1.0
  9
$DIMASZ
 40
0.18
  9
$DIMEXO
 40
0.0625
  9
$DIMDLI
 40
0.38
  9
$DIMRND
 40
0.0
  9
$DIMDLE
 40
0.0
  9
$DIMEXE
 40
0.18
  9
$DIMTP
 40
0.0
  9
$DIMTM
 40
0.0
  9
$DIMTXT
 40
0.18
  9
$DIMCEN
 40
0.09
  9
$DIMTSZ
 40
0.0
  9
$DIMTOL
 70
     0
  9
$DIMLIM
 70
     0
  9
$DIMTIH
 70
     1
  9
$DIMTOH
 70
     1
  9
$DIMSE1
 70
     0
  9
$DIMSE2
 70
     0
  9
$DIMTAD
 70
     0
  9
$DIMZIN
 70
     0
  9
$DIMBLK
  1

  9
$DIMASO
 70
     1
  9
$DIMSHO
 70
     1
  9
$DIMPOST
  1

  9
$DIMAPOST
  1

  9
$DIMALT
 70
     0
  9
$DIMALTD
 70
     2
  9
$DIMALTF
 40
25.4
  9
$DIMLFAC
 40
1.0
  9
$DIMTOFL
 70
     0
  9
$DIMTVP
 40
0.0
  9
$DIMTIX
 70
     0
  9
$DIMSOXD
 70
     0
  9
$DIMSAH
 70
     0
  9
$DIMBLK1
  1

  9
$DIMBLK2
  1

  9
$DIMSTYLE
  2
Standard
  9
$DIMCLRD
 70
     0
  9
$DIMCLRE
 70
     0
  9
$DIMCLRT
 70
     0
  9
$DIMTFAC
 40
1.0
  9
$DIMGAP
 40
0.09
  9
$DIMJUST
 70
     0
  9
$DIMSD1
 70
     0
  9
$DIMSD2
 70
     0
  9
$DIMTOLJ
 70
     1
  9
$DIMTZIN
 70
     0
  9
$DIMALTZ
 70
     0
  9
$DIMALTTZ
 70
     0
  9
$DIMUPT
 70
     0
  9
$DIMDEC
 70
     4
  9
$DIMTDEC
 70
     4
  9
$DIMALTU
 70
     2
  9
$DIMALTTD
 70
     2
  9
$DIMTXSTY
  7
Standard
  9
$DIMAUNIT
 70
     0
  9
$DIMADEC
 70
     0
  9
$DIMALTRND
 40
0.0
  9
$DIMAZIN
 70
     0
  9
$DIMDSEP
 70
    46
  9
$DIMATFIT
 70
     3
  9
$DIMFRAC
 70
     0
  9
$DIMLDRBLK
  1

  9
$DIMLUNIT
 70
     2
  9
$DIMLWD
 70
    -2
  9
$DIMLWE
 70
    -2
  9
$DIMTMOVE
 70
     0
  9
$LUNITS
 70
     2
  9
$LUPREC
 70
     2
  9
$SKETCHINC
 40
0.1
  9
$FILLETRAD
 40
0.5
  9
$AUNITS
 70
     0
  9
$AUPREC
 70
     0
  9
$MENU
  1
.
  9
$ELEVATION
 40
0.0
  9
$PELEVATION
 40
0.0
  9
$THICKNESS
 40
0.0
  9
$LIMCHECK
 70
     0
  9
$CHAMFERA
 40
0.5
  9
$CHAMFERB
 40
0.5
  9
$CHAMFERC
 40
1.0
  9
$CHAMFERD
 40
0.0
  9
$SKPOLY
 70
     0
  9
$TDCREATE
 40
2455849.488817928
  9
$TDUCREATE
 40
2455849.405484595
  9
$TDUPDATE
 40
2455849.48881794
  9
$TDUUPDATE
 40
2455849.405484607
  9
$TDINDWG
 40
0.0000000116
  9
$TDUSRTIMER
 40
0.0000000116
  9
$USRTIMER
 70
     1
  9
$ANGBASE
 50
0.0
  9
$ANGDIR
 70
     0
  9
$PDMODE
 70
     0
  9
$PDSIZE
 40
0.0
  9
$PLINEWID
 40
0.0
  9
$SPLFRAME
 70
     0
  9
$SPLINETYPE
 70
     6
  9
$SPLINESEGS
 70
     8
  9
$HANDSEED
  5
3ED
  9
$SURFTAB1
 70
     6
  9
$SURFTAB2
 70
     6
  9
$SURFTYPE
 70
     6
  9
$SURFU
 70
     6
  9
$SURFV
 70
     6
  9
$UCSBASE
  2

  9
$UCSNAME
  2

  9
$UCSORG
 10
0.0
 20
0.0
 30
0.0
  9
$UCSXDIR
 10
1.0
 20
0.0
 30
0.0
  9
$UCSYDIR
 10
0.0
 20
1.0
 30
0.0
  9
$UCSORTHOREF
  2

  9
$UCSORTHOVIEW
 70
     0
  9
$UCSORGTOP
 10
0.0
 20
0.0
 30
0.0
  9
$UCSORGBOTTOM
 10
0.0
 20
0.0
 30
0.0
  9
$UCSORGLEFT
 10
0.0
 20
0.0
 30
0.0
  9
$UCSORGRIGHT
 10
0.0
 20
0.0
 30
0.0
  9
$UCSORGFRONT
 10
0.0
 20
0.0
 30
0.0
  9
$UCSORGBACK
 10
0.0
 20
0.0
 30
0.0
  9
$PUCSBASE
  2

  9
$PUCSNAME
  2

  9
$PUCSORG
 10
0.0
 20
0.0
 30
0.0
  9
$PUCSXDIR
 10
1.0
 20
0.0
 30
0.0
  9
$PUCSYDIR
 10
0.0
 20
1.0
 30
0.0
  9
$PUCSORTHOREF
  2

  9
$PUCSORTHOVIEW
 70
     0
  9
$PUCSORGTOP
 10
0.0
 20
0.0
 30
0.0
  9
$PUCSORGBOTTOM
 10
0.0
 20
0.0
 30
0.0
  9
$PUCSORGLEFT
 10
0.0
 20
0.0
 30
0.0
  9
$PUCSORGRIGHT
 10
0.0
 20
0.0
 30
0.0
  9
$PUCSORGFRONT
 10
0.0
 20
0.0
 30
0.0
  9
$PUCSORGBACK
 10
0.0
 20
0.0
 30
0.0
  9
$USERI1
 70
     0
  9
$USERI2
 70
     0
  9
$USERI3
 70
     0
  9
$USERI4
 70
     0
  9
$USERI5
 70
     0
  9
$USERR1
 40
0.0
  9
$USERR2
 40
0.0
  9
$USERR3
 40
0.0
  9
$USERR4
 40
0.0
  9
$USERR5
 40
0.0
  9
$WORLDVIEW
 70
     1
  9
$SHADEDGE
 70
     3
  9
$SHADEDIF
 70
    70
  9
$TILEMODE
 70
     1
  9
$MAXACTVP
 70
    64
  9
$PINSBASE
 10
0.0
 20
0.0
 30
0.0
  9
$PLIMCHECK
 70
     0
  9
$PEXTMIN
 10
1.000000000000000E+20
 20
1.000000000000000E+20
 30
1.000000000000000E+20
  9
$PEXTMAX
 10
-1.000000000000000E+20
 20
-1.000000000000000E+20
 30
-1.000000000000000E+20
  9
$PLIMMIN
 10
0.0
 20
0.0
  9
$PLIMMAX
 10
12.0
 20
9.0
  9
$UNITMODE
 70
     0
  9
$VISRETAIN
 70
     1
  9
$PLINEGEN
 70
     0
  9
$PSLTSCALE
 70
     1
  9
$TREEDEPTH
 70
  3020
  9
$CMLSTYLE
  2
Standard
  9
$CMLJUST
 70
     0
  9
$CMLSCALE
 40
1.0
  9
$PROXYGRAPHICS
 70
     1
  9
$MEASUREMENT
 70
     0
  9
$CELWEIGHT
370
    -1
  9
$ENDCAPS
280
     0
  9
$JOINSTYLE
280
     0
  9
$LWDISPLAY
290
     0
  9
$INSUNITS
 70
     4
  9
$HYPERLINKBASE
  1

  9
$STYLESHEET
  1

  9
$XEDIT
290
     1
  9
$CEPSNTYPE
380
     0
  9
$PSTYLEMODE
290
     1
  9
$FINGERPRINTGUID
  2
{66BA2685-4BE4-449C-A402-0A6CABA51946}
  9
$VERSIONGUID
  2
{FAEB1C32-E019-11D5-929B-00C0DF256EC4}
  9
$EXTNAMES
290
     1
  9
$PSVPSCALE
 40
0.0
  9
$OLESTARTUP
290
     0
  9
$SORTENTS
280
   127
  9
$INDEXCTL
280
     0
  9
$HIDETEXT
280
     1
  9
$XCLIPFRAME
290
     0
  9
$HALOGAP
280
     0
  9
$OBSCOLOR
 70
   257
  9
$OBSLTYPE
280
     0
  9
$INTERSECTIONDISPLAY
280
     0
  9
$INTERSECTIONCOLOR
 70
   257
  9
$DIMASSOC
280
     2
  9
$PROJECTNAME
  1

  0
ENDSEC
  0
SECTION
  2
CLASSES
  0
CLASS
  1
ACDBDICTIONARYWDFLT
  2
AcDbDictionaryWithDefault
  3
ObjectDBX Classes
 90
        0
 91
        3
280
     0
281
     0
  0
CLASS
  1
VISUALSTYLE
  2
AcDbVisualStyle
  3
ObjectDBX Classes
 90
     4095
 91
        3
280
     0
281
     0
  0
CLASS
  1
SCALE
  2
AcDbScale
  3
ObjectDBX Classes
 90
     1153
 91
        3
280
     0
281
     0
  0
ENDSEC
  0
SECTION
  2
TABLES
  0
TABLE
  2
VPORT
  5
8
330
0
100
AcDbSymbolTable
 70
     1
  0
VPORT
  5
29
330
8
100
AcDbSymbolTableRecord
100
AcDbViewportTableRecord
  2
*Active
 70
     0
 10
0.0
 20
0.0
 11
1.0
 21
1.0
 12
0.0
 22
0.0
 13
0.0
 23
0.0
 14
0.5
 24
0.5
 15
0.5
 25
0.5
 16
0.0
 26
0.0
 36
1.0
 17
714.8201161140746
 27
754.6575588053568
 37
0.0
 40
1539.436698703756
 41
0.9472661536137201
 42
50.0
 43
0.0
 44
0.0
 50
0.0
 51
0.0
 71
     0
 72
   100
 73
     1
 74
     3
 75
     0
 76
     0
 77
     0
 78
     0
281
     0
 65
     1
110
0.0
120
0.0
130
0.0
111
1.0
121
0.0
131
0.0
112
0.0
122
1.0
132
0.0
 79
     0
146
0.0
  0
ENDTAB
  0
TABLE
  2
LTYPE
  5
5
330
0
100
AcDbSymbolTable
 70
     1
  0
LTYPE
  5
14
330
5
100
AcDbSymbolTableRecord
100
AcDbLinetypeTableRecord
  2
ByBlock
 70
     0
  3

 72
    65
 73
     0
 40
0.0
  0
LTYPE
  5
15
330
5
100
AcDbSymbolTableRecord
100
AcDbLinetypeTableRecord
  2
ByLayer
 70
     0
  3

 72
    65
 73
     0
 40
0.0
  0
LTYPE
  5
16
330
5
100
AcDbSymbolTableRecord
100
AcDbLinetypeTableRecord
  2
Continuous
 70
     0
  3
Solid line
 72
    65
 73
     0
 40
0.0
  0
ENDTAB
  0
TABLE
  2
LAYER
  5
2
330
0
100
AcDbSymbolTable
 70
     3
  0
LAYER
  5
10
330
2
100
AcDbSymbolTableRecord
100
AcDbLayerTableRecord
  2
0
 70
     0
 62
     7
  6
Continuous
370
    -3
390
F
  0
LAYER
  5
5D
330
2
100
AcDbSymbolTableRecord
100
AcDbLayerTableRecord
  2
DEFAULT
 70
     0
 62
     7
  6
Continuous
370
    -3
390
F
  0
LAYER
  5
C7
330
2
100
AcDbSymbolTableRecord
100
AcDbLayerTableRecord
  2
LINEE VISIBILI 2D
 70
     0
 62
     7
  6
Continuous
370
    -3
390
F
  0
ENDTAB
  0
TABLE
  2
STYLE
  5
3
330
0
100
AcDbSymbolTable
 70
     1
  0
STYLE
  5
11
330
3
100
AcDbSymbolTableRecord
100
AcDbTextStyleTableRecord
  2
Standard
 70
     0
 40
0.0
 41
1.0
 50
0.0
 71
     0
 42
0.2
  3
txt
  4

  0
ENDTAB
  0
TABLE
  2
VIEW
  5
6
330
0
100
AcDbSymbolTable
 70
     0
  0
ENDTAB
  0
TABLE
  2
UCS
  5
7
330
0
100
AcDbSymbolTable
 70
     0
  0
ENDTAB
  0
TABLE
  2
APPID
  5
9
330
0
100
AcDbSymbolTable
 70
     1
  0
APPID
  5
12
330
9
100
AcDbSymbolTableRecord
100
AcDbRegAppTableRecord
  2
ACAD
 70
     0
  0
ENDTAB
  0
TABLE
  2
DIMSTYLE
  5
A
330
0
100
AcDbSymbolTable
 70
     1
100
AcDbDimStyleTable
  0
DIMSTYLE
105
27
330
A
100
AcDbSymbolTableRecord
100
AcDbDimStyleTableRecord
  2
Standard
 70
     0
340
11
  0
ENDTAB
  0
TABLE
  2
BLOCK_RECORD
  5
1
330
0
100
AcDbSymbolTable
 70
     1
  0
BLOCK_RECORD
  5
1F
330
1
100
AcDbSymbolTableRecord
100
AcDbBlockTableRecord
  2
*Model_Space
340
22
  0
BLOCK_RECORD
  5
1B
330
1
100
AcDbSymbolTableRecord
100
AcDbBlockTableRecord
  2
*Paper_Space
340
1E
  0
BLOCK_RECORD
  5
23
330
1
100
AcDbSymbolTableRecord
100
AcDbBlockTableRecord
  2
*Paper_Space0
340
26
  0
ENDTAB
  0
ENDSEC
  0
SECTION
  2
BLOCKS
  0
BLOCK
  5
20
330
1F
100
AcDbEntity
  8
0
100
AcDbBlockBegin
  2
*Model_Space
 70
     0
 10
0.0
 20
0.0
 30
0.0
  3
*Model_Space
  1

  0
ENDBLK
  5
21
330
1F
100
AcDbEntity
  8
0
100
AcDbBlockEnd
  0
BLOCK
  5
1C
330
1B
100
AcDbEntity
 67
     1
  8
0
100
AcDbBlockBegin
  2
*Paper_Space
 70
     0
 10
0.0
 20
0.0
 30
0.0
  3
*Paper_Space
  1

  0
ENDBLK
  5
1D
330
1B
100
AcDbEntity
 67
     1
  8
0
100
AcDbBlockEnd
  0
BLOCK
  5
24
330
23
100
AcDbEntity
  8
0
100
AcDbBlockBegin
  2
*Paper_Space0
 70
     0
 10
0.0
 20
0.0
 30
0.0
  3
*Paper_Space0
  1

  0
ENDBLK
  5
25
330
23
100
AcDbEntity
  8
0
100
AcDbBlockEnd
  0
ENDSEC
  0
SECTION
  2
ENTITIES
  0
ARC
  5
5E
330
1F
100
AcDbEntity
  8
DEFAULT
100
AcDbCircle
 10
427.2194765446266
 20
989.9221987324805
 30
0.0
 40
12.04015801741176
100
AcDbArc
 50
255.1692090183597
 51
284.8288294990066
  0
POLYLINE
  5
5F
330
1F
100
AcDbEntity
  8
DEFAULT
100
AcDb2dPolyline
 66
     1
 10
0.0
 20
0.0
 30
0.0
  0
VERTEX
  5
61
330
5F
100
AcDbEntity
  8
DEFAULT
100
AcDbVertex
100
AcDb2dVertex
 10
398.9653542548617
 20
987.8051711638648
 30
0.0
  0
VERTEX
  5
62
330
5F
100
AcDbEntity
  8
DEFAULT
100
AcDbVertex
100
AcDb2dVertex
 10
416.725109768573
 20
978.2832737643578
 30
0.0
  0
VERTEX
  5
63
330
5F
100
AcDbEntity
  8
DEFAULT
100
AcDbVertex
100
AcDb2dVertex
 10
437.7134448637316
 20
978.2829145035596
 30
0.0
  0
VERTEX
  5
64
330
5F
100
AcDbEntity
  8
DEFAULT
100
AcDbVertex
100
AcDb2dVertex
 10
455.4652623981192
 20
987.8051711638648
 30
0.0
  0
VERTEX
  5
65
330
5F
100
AcDbEntity
  8
DEFAULT
100
AcDbVertex
100
AcDb2dVertex
 10
398.9944254407403
 20
987.8058955424442
 30
0.0
  0
SEQEND
  5
60
330
5F
100
AcDbEntity
  8
DEFAULT
  0
POLYLINE
  5
66
330
1F
100
AcDbEntity
  8
DEFAULT
100
AcDb2dPolyline
 66
     1
 10
0.0
 20
0.0
 30
0.0
  0
VERTEX
  5
68
330
66
100
AcDbEntity
  8
DEFAULT
100
AcDbVertex
100
AcDb2dVertex
 10
398.9653542548617
 20
987.8051711638648
 30
0.0
  0
VERTEX
  5
69
330
66
100
AcDbEntity
  8
DEFAULT
100
AcDbVertex
100
AcDb2dVertex
 10
455.4652623981192
 20
987.8051711638648
 30
0.0
  0
VERTEX
  5
6A
330
66
100
AcDbEntity
  8
DEFAULT
100
AcDbVertex
100
AcDb2dVertex
 10
455.4652623981192
 20
988.8833915037276
 30
0.0
  0
VERTEX
  5
6B
330
66
100
AcDbEntity
  8
DEFAULT
100
AcDbVertex
100
AcDb2dVertex
 10
398.9653542548617
 20
988.8833915037276
 30
0.0
  0
VERTEX
  5
6C
330
66
100
AcDbEntity
  8
DEFAULT
100
AcDbVertex
100
AcDb2dVertex
 10
398.9653542548617
 20
987.8051711638648
 30
0.0
  0
SEQEND
  5
67
330
66
100
AcDbEntity
  8
DEFAULT
  0
POLYLINE
  5
6D
330
1F
100
AcDbEntity
  8
DEFAULT
100
AcDb2dPolyline
 66
     1
 10
0.0
 20
0.0
 30
0.0
  0
VERTEX
  5
6F
330
6D
100
AcDbEntity
  8
DEFAULT
100
AcDbVertex
100
AcDb2dVertex
 10
342.350737248843
 20
987.8051654046598
 30
0.0
  0
VERTEX
  5
70
330
6D
100
AcDbEntity
  8
DEFAULT
100
AcDbVertex
100
AcDb2dVertex
 10
398.8506453921004
 20
987.8051654046598
 30
0.0
  0
VERTEX
  5
71
330
6D
100
AcDbEntity
  8
DEFAULT
100
AcDbVertex
100
AcDb2dVertex
 10
398.8506453921004
 20
988.8833857445226
 30
0.0
  0
VERTEX
  5
72
330
6D
100
AcDbEntity
  8
DEFAULT
100
AcDbVertex
100
AcDb2dVertex
 10
342.350737248843
 20
988.8833857445226
 30
0.0
  0
VERTEX
  5
73
330
6D
100
AcDbEntity
  8
DEFAULT
100
AcDbVertex
100
AcDb2dVertex
 10
342.350737248843
 20
987.8051654046598
 30
0.0
  0
SEQEND
  5
6E
330
6D
100
AcDbEntity
  8
DEFAULT
  0
POLYLINE
  5
74
330
1F
100
AcDbEntity
  8
DEFAULT
100
AcDb2dPolyline
 66
     1
 10
0.0
 20
0.0
 30
0.0
  0
VERTEX
  5
76
330
74
100
AcDbEntity
  8
DEFAULT
100
AcDbVertex
100
AcDb2dVertex
 10
342.350737248843
 20
987.8051654046598
 30
0.0
  0
VERTEX
  5
77
330
74
100
AcDbEntity
  8
DEFAULT
100
AcDbVertex
100
AcDb2dVertex
 10
360.1104927625543
 20
978.2832680051528
 30
0.0
  0
VERTEX
  5
78
330
74
100
AcDbEntity
  8
DEFAULT
100
AcDbVertex
100
AcDb2dVertex
 10
381.0988278577129
 20
978.2829087443546
 30
0.0
  0
VERTEX
  5
79
330
74
100
AcDbEntity
  8
DEFAULT
100
AcDbVertex
100
AcDb2dVertex
 10
398.8506453921004
 20
987.8051654046598
 30
0.0
  0
VERTEX
  5
7A
330
74
100
AcDbEntity
  8
DEFAULT
100
AcDbVertex
100
AcDb2dVertex
 10
342.3798084347216
 20
987.8058897832392
 30
0.0
  0
SEQEND
  5
75
330
74
100
AcDbEntity
  8
DEFAULT
  0
ARC
  5
7B
330
1F
100
AcDbEntity
  8
DEFAULT
100
AcDbCircle
 10
370.6048595386078
 20
989.9221929732755
 30
0.0
 40
12.04015801741176
100
AcDbArc
 50
255.1692090183568
 51
284.8288294990035
  0
ARC
  5
7C
330
1F
100
AcDbEntity
  8
DEFAULT
100
AcDbCircle
 10
255.8953247459183
 20
989.9223127619653
 30
0.0
 40
12.04015801741176
100
AcDbArc
 50
255.1692090183583
 51
284.8288294990053
  0
POLYLINE
  5
7D
330
1F
100
AcDbEntity
  8
DEFAULT
100
AcDb2dPolyline
 66
     1
 10
0.0
 20
0.0
 30
0.0
  0
VERTEX
  5
7F
330
7D
100
AcDbEntity
  8
DEFAULT
100
AcDbVertex
100
AcDb2dVertex
 10
227.6412024561535
 20
987.8052851933495
 30
0.0
  0
VERTEX
  5
80
330
7D
100
AcDbEntity
  8
DEFAULT
100
AcDbVertex
100
AcDb2dVertex
 10
245.4009579698647
 20
978.2833877938425
 30
0.0
  0
VERTEX
  5
81
330
7D
100
AcDbEntity
  8
DEFAULT
100
AcDbVertex
100
AcDb2dVertex
 10
266.3892930650234
 20
978.2830285330443
 30
0.0
  0
VERTEX
  5
82
330
7D
100
AcDbEntity
  8
DEFAULT
100
AcDbVertex
100
AcDb2dVertex
 10
284.1411105994109
 20
987.8052851933495
 30
0.0
  0
VERTEX
  5
83
330
7D
100
AcDbEntity
  8
DEFAULT
100
AcDbVertex
100
AcDb2dVertex
 10
227.670273642032
 20
987.8060095719289
 30
0.0
  0
SEQEND
  5
7E
330
7D
100
AcDbEntity
  8
DEFAULT
  0
POLYLINE
  5
84
330
1F
100
AcDbEntity
  8
DEFAULT
100
AcDb2dPolyline
 66
     1
 10
0.0
 20
0.0
 30
0.0
  0
VERTEX
  5
86
330
84
100
AcDbEntity
  8
DEFAULT
100
AcDbVertex
100
AcDb2dVertex
 10
227.6412024561535
 20
987.8052851933495
 30
0.0
  0
VERTEX
  5
87
330
84
100
AcDbEntity
  8
DEFAULT
100
AcDbVertex
100
AcDb2dVertex
 10
284.1411105994109
 20
987.8052851933495
 30
0.0
  0
VERTEX
  5
88
330
84
100
AcDbEntity
  8
DEFAULT
100
AcDbVertex
100
AcDb2dVertex
 10
284.1411105994109
 20
988.8835055332123
 30
0.0
  0
VERTEX
  5
89
330
84
100
AcDbEntity
  8
DEFAULT
100
AcDbVertex
100
AcDb2dVertex
 10
227.6412024561535
 20
988.8835055332123
 30
0.0
  0
VERTEX
  5
8A
330
84
100
AcDbEntity
  8
DEFAULT
100
AcDbVertex
100
AcDb2dVertex
 10
227.6412024561535
 20
987.8052851933495
 30
0.0
  0
SEQEND
  5
85
330
84
100
AcDbEntity
  8
DEFAULT
  0
POLYLINE
  5
8B
330
1F
100
AcDbEntity
  8
DEFAULT
100
AcDb2dPolyline
 66
     1
 10
0.0
 20
0.0
 30
0.0
  0
VERTEX
  5
8D
330
8B
100
AcDbEntity
  8
DEFAULT
100
AcDbVertex
100
AcDb2dVertex
 10
171.0265854501347
 20
987.8052794341445
 30
0.0
  0
VERTEX
  5
8E
330
8B
100
AcDbEntity
  8
DEFAULT
100
AcDbVertex
100
AcDb2dVertex
 10
227.5264935933922
 20
987.8052794341445
 30
0.0
  0
VERTEX
  5
8F
330
8B
100
AcDbEntity
  8
DEFAULT
100
AcDbVertex
100
AcDb2dVertex
 10
227.5264935933922
 20
988.8834997740073
 30
0.0
  0
VERTEX
  5
90
330
8B
100
AcDbEntity
  8
DEFAULT
100
AcDbVertex
100
AcDb2dVertex
 10
171.0265854501347
 20
988.8834997740073
 30
0.0
  0
VERTEX
  5
91
330
8B
100
AcDbEntity
  8
DEFAULT
100
AcDbVertex
100
AcDb2dVertex
 10
171.0265854501347
 20
987.8052794341445
 30
0.0
  0
SEQEND
  5
8C
330
8B
100
AcDbEntity
  8
DEFAULT
  0
POLYLINE
  5
92
330
1F
100
AcDbEntity
  8
DEFAULT
100
AcDb2dPolyline
 66
     1
 10
0.0
 20
0.0
 30
0.0
  0
VERTEX
  5
94
330
92
100
AcDbEntity
  8
DEFAULT
100
AcDbVertex
100
AcDb2dVertex
 10
171.0265854501347
 20
987.8052794341445
 30
0.0
  0
VERTEX
  5
95
330
92
100
AcDbEntity
  8
DEFAULT
100
AcDbVertex
100
AcDb2dVertex
 10
188.786340963846
 20
978.2833820346375
 30
0.0
  0
VERTEX
  5
96
330
92
100
AcDbEntity
  8
DEFAULT
100
AcDbVertex
100
AcDb2dVertex
 10
209.7746760590046
 20
978.2830227738393
 30
0.0
  0
VERTEX
  5
97
330
92
100
AcDbEntity
  8
DEFAULT
100
AcDbVertex
100
AcDb2dVertex
 10
227.5264935933922
 20
987.8052794341445
 30
0.0
  0
VERTEX
  5
98
330
92
100
AcDbEntity
  8
DEFAULT
100
AcDbVertex
100
AcDb2dVertex
 10
171.0556566360133
 20
987.8060038127239
 30
0.0
  0
SEQEND
  5
93
330
92
100
AcDbEntity
  8
DEFAULT
  0
ARC
  5
99
330
1F
100
AcDbEntity
  8
DEFAULT
100
AcDbCircle
 10
199.2807077398995
 20
989.9223070027602
 30
0.0
 40
12.04015801741176
100
AcDbArc
 50
255.1692090183583
 51
284.8288294990052
  0
ARC
  5
9A
330
1F
100
AcDbEntity
  8
DEFAULT
100
AcDbCircle
 10
28.24272844653069
 20
989.9221929732755
 30
0.0
 40
12.04015801741176
100
AcDbArc
 50
255.1692090183583
 51
284.8288294990052
  0
POLYLINE
  5
9B
330
1F
100
AcDbEntity
  8
DEFAULT
100
AcDb2dPolyline
 66
     1
 10
0.0
 20
0.0
 30
0.0
  0
VERTEX
  5
9D
330
9B
100
AcDbEntity
  8
DEFAULT
100
AcDbVertex
100
AcDb2dVertex
 10
-0.0113938432341456
 20
987.8051654046598
 30
0.0
  0
VERTEX
  5
9E
330
9B
100
AcDbEntity
  8
DEFAULT
100
AcDbVertex
100
AcDb2dVertex
 10
17.74836167047715
 20
978.2832680051528
 30
0.0
  0
VERTEX
  5
9F
330
9B
100
AcDbEntity
  8
DEFAULT
100
AcDbVertex
100
AcDb2dVertex
 10
38.73669676563577
 20
978.2829087443546
 30
0.0
  0
VERTEX
  5
A0
330
9B
100
AcDbEntity
  8
DEFAULT
100
AcDbVertex
100
AcDb2dVertex
 10
56.48851430002333
 20
987.8051654046598
 30
0.0
  0
VERTEX
  5
A1
330
9B
100
AcDbEntity
  8
DEFAULT
100
AcDbVertex
100
AcDb2dVertex
 10
0.017677342644447
 20
987.8058897832392
 30
0.0
  0
SEQEND
  5
9C
330
9B
100
AcDbEntity
  8
DEFAULT
  0
POLYLINE
  5
A2
330
1F
100
AcDbEntity
  8
DEFAULT
100
AcDb2dPolyline
 66
     1
 10
0.0
 20
0.0
 30
0.0
  0
VERTEX
  5
A4
330
A2
100
AcDbEntity
  8
DEFAULT
100
AcDbVertex
100
AcDb2dVertex
 10
-0.0113938432341456
 20
987.8051654046598
 30
0.0
  0
VERTEX
  5
A5
330
A2
100
AcDbEntity
  8
DEFAULT
100
AcDbVertex
100
AcDb2dVertex
 10
56.48851430002333
 20
987.8051654046598
 30
0.0
  0
VERTEX
  5
A6
330
A2
100
AcDbEntity
  8
DEFAULT
100
AcDbVertex
100
AcDb2dVertex
 10
56.48851430002333
 20
988.8833857445226
 30
0.0
  0
VERTEX
  5
A7
330
A2
100
AcDbEntity
  8
DEFAULT
100
AcDbVertex
100
AcDb2dVertex
 10
-0.0113938432341456
 20
988.8833857445226
 30
0.0
  0
VERTEX
  5
A8
330
A2
100
AcDbEntity
  8
DEFAULT
100
AcDbVertex
100
AcDb2dVertex
 10
-0.0113938432341456
 20
987.8051654046598
 30
0.0
  0
SEQEND
  5
A3
330
A2
100
AcDbEntity
  8
DEFAULT
  0
POLYLINE
  5
A9
330
1F
100
AcDbEntity
  8
DEFAULT
100
AcDb2dPolyline
 66
     1
 10
0.0
 20
0.0
 30
0.0
  0
VERTEX
  5
AB
330
A9
100
AcDbEntity
  8
DEFAULT
100
AcDbVertex
100
AcDb2dVertex
 10
56.60322316278462
 20
987.8051711638648
 30
0.0
  0
VERTEX
  5
AC
330
A9
100
AcDbEntity
  8
DEFAULT
100
AcDbVertex
100
AcDb2dVertex
 10
113.1031313060421
 20
987.8051711638648
 30
0.0
  0
VERTEX
  5
AD
330
A9
100
AcDbEntity
  8
DEFAULT
100
AcDbVertex
100
AcDb2dVertex
 10
113.1031313060421
 20
988.8833915037276
 30
0.0
  0
VERTEX
  5
AE
330
A9
100
AcDbEntity
  8
DEFAULT
100
AcDbVertex
100
AcDb2dVertex
 10
56.60322316278462
 20
988.8833915037276
 30
0.0
  0
VERTEX
  5
AF
330
A9
100
AcDbEntity
  8
DEFAULT
100
AcDbVertex
100
AcDb2dVertex
 10
56.60322316278462
 20
987.8051711638648
 30
0.0
  0
SEQEND
  5
AA
330
A9
100
AcDbEntity
  8
DEFAULT
  0
POLYLINE
  5
B0
330
1F
100
AcDbEntity
  8
DEFAULT
100
AcDb2dPolyline
 66
     1
 10
0.0
 20
0.0
 30
0.0
  0
VERTEX
  5
B2
330
B0
100
AcDbEntity
  8
DEFAULT
100
AcDbVertex
100
AcDb2dVertex
 10
56.60322316278462
 20
987.8051711638648
 30
0.0
  0
VERTEX
  5
B3
330
B0
100
AcDbEntity
  8
DEFAULT
100
AcDbVertex
100
AcDb2dVertex
 10
74.36297867649591
 20
978.2832737643578
 30
0.0
  0
VERTEX
  5
B4
330
B0
100
AcDbEntity
  8
DEFAULT
100
AcDbVertex
100
AcDb2dVertex
 10
95.35131377165453
 20
978.2829145035596
 30
0.0
  0
VERTEX
  5
B5
330
B0
100
AcDbEntity
  8
DEFAULT
100
AcDbVertex
100
AcDb2dVertex
 10
113.1031313060421
 20
987.8051711638648
 30
0.0
  0
VERTEX
  5
B6
330
B0
100
AcDbEntity
  8
DEFAULT
100
AcDbVertex
100
AcDb2dVertex
 10
56.63229434866321
 20
987.8058955424442
 30
0.0
  0
SEQEND
  5
B1
330
B0
100
AcDbEntity
  8
DEFAULT
  0
ARC
  5
B7
330
1F
100
AcDbEntity
  8
DEFAULT
100
AcDbCircle
 10
84.85734545254945
 20
989.9221987324805
 30
0.0
 40
12.04015801741176
100
AcDbArc
 50
255.169209018359
 51
284.8288294990058
  0
POLYLINE
  5
B8
330
1F
100
AcDbEntity
  8
DEFAULT
100
AcDb2dPolyline
 66
     1
 10
0.0
 20
0.0
 30
0.0
  0
VERTEX
  5
BA
330
B8
100
AcDbEntity
  8
DEFAULT
100
AcDbVertex
100
AcDb2dVertex
 10
513.1057855048848
 20
987.8044516204329
 30
0.0
  0
VERTEX
  5
BB
330
B8
100
AcDbEntity
  8
DEFAULT
100
AcDbVertex
100
AcDb2dVertex
 10
569.6056936481423
 20
987.8044516204329
 30
0.0
  0
VERTEX
  5
BC
330
B8
100
AcDbEntity
  8
DEFAULT
100
AcDbVertex
100
AcDb2dVertex
 10
569.6056936481423
 20
988.8826719602957
 30
0.0
  0
VERTEX
  5
BD
330
B8
100
AcDbEntity
  8
DEFAULT
100
AcDbVertex
100
AcDb2dVertex
 10
513.1057855048848
 20
988.8826719602957
 30
0.0
  0
VERTEX
  5
BE
330
B8
100
AcDbEntity
  8
DEFAULT
100
AcDbVertex
100
AcDb2dVertex
 10
513.1057855048848
 20
987.8044516204329
 30
0.0
  0
SEQEND
  5
B9
330
B8
100
AcDbEntity
  8
DEFAULT
  0
POLYLINE
  5
BF
330
1F
100
AcDbEntity
  8
DEFAULT
100
AcDb2dPolyline
 66
     1
 10
0.0
 20
0.0
 30
0.0
  0
VERTEX
  5
C1
330
BF
100
AcDbEntity
  8
DEFAULT
100
AcDbVertex
100
AcDb2dVertex
 10
513.1057855048848
 20
987.8044516204329
 30
0.0
  0
VERTEX
  5
C2
330
BF
100
AcDbEntity
  8
DEFAULT
100
AcDbVertex
100
AcDb2dVertex
 10
530.8655410185961
 20
978.2825542209259
 30
0.0
  0
VERTEX
  5
C3
330
BF
100
AcDbEntity
  8
DEFAULT
100
AcDbVertex
100
AcDb2dVertex
 10
551.8538761137547
 20
978.2821949601278
 30
0.0
  0
VERTEX
  5
C4
330
BF
100
AcDbEntity
  8
DEFAULT
100
AcDbVertex
100
AcDb2dVertex
 10
569.6056936481423
 20
987.8044516204329
 30
0.0
  0
VERTEX
  5
C5
330
BF
100
AcDbEntity
  8
DEFAULT
100
AcDbVertex
100
AcDb2dVertex
 10
513.1348566907634
 20
987.8051759990124
 30
0.0
  0
SEQEND
  5
C0
330
BF
100
AcDbEntity
  8
DEFAULT
  0
ARC
  5
C6
330
1F
100
AcDbEntity
  8
DEFAULT
100
AcDbCircle
 10
541.3599077946496
 20
989.9214791890487
 30
0.0
 40
12.04015801741176
100
AcDbArc
 50
255.1692090183597
 51
284.8288294990066
  0
SPLINE
  5
C8
330
1F
100
AcDbEntity
  8
LINEE VISIBILI 2D
100
AcDbSpline
210
0.0
220
0.0
230
1.0
 70
    24
 71
     2
 72
     6
 73
     3
 74
     0
 42
0.0000000001
 43
0.0000000001
 40
0.0
 40
0.0
 40
0.0
 40
13.00000000000091
 40
13.00000000000091
 40
13.00000000000091
 10
447.6022268580427
 20
1001.883391503728
 30
0.0
 10
447.6022268580427
 20
995.3833915037271
 30
0.0
 10
447.6022268580427
 20
988.8833915037267
 30
0.0
  0
SPLINE
  5
C9
330
1F
100
AcDbEntity
  8
LINEE VISIBILI 2D
100
AcDbSpline
210
0.0
220
0.0
230
1.0
 70
    24
 71
     2
 72
     6
 73
     3
 74
     0
 42
0.0000000001
 43
0.0000000001
 40
0.0
 40
0.0
 40
0.0
 40
13.0
 40
13.0
 40
13.0
 10
406.8486521336672
 20
988.8833915037276
 30
0.0
 10
406.8486521336672
 20
995.3833915037276
 30
0.0
 10
406.8486521336672
 20
1001.883391503728
 30
0.0
  0
POLYLINE
  5
CA
330
1F
100
AcDbEntity
  8
DEFAULT
100
AcDb2dPolyline
 66
     1
 10
0.0
 20
0.0
 30
0.0
  0
VERTEX
  5
CC
330
CA
100
AcDbEntity
  8
DEFAULT
100
AcDbVertex
100
AcDb2dVertex
 10
7.871904033035207
 20
988.8829174986046
 30
0.0
  0
VERTEX
  5
CD
330
CA
100
AcDbEntity
  8
DEFAULT
100
AcDbVertex
100
AcDb2dVertex
 10
562.3470239603225
 20
988.8829174986046
 30
0.0
  0
VERTEX
  5
CE
330
CA
100
AcDbEntity
  8
DEFAULT
100
AcDbVertex
100
AcDb2dVertex
 10
562.3470239603225
 20
1001.883391503728
 30
0.0
  0
VERTEX
  5
CF
330
CA
100
AcDbEntity
  8
DEFAULT
100
AcDbVertex
100
AcDb2dVertex
 10
7.871904033035207
 20
1001.883391503728
 30
0.0
  0
VERTEX
  5
D0
330
CA
100
AcDbEntity
  8
DEFAULT
100
AcDbVertex
100
AcDb2dVertex
 10
7.871904033035207
 20
988.8829174986046
 30
0.0
  0
SEQEND
  5
CB
330
CA
100
AcDbEntity
  8
DEFAULT
  0
SPLINE
  5
D1
330
1F
100
AcDbEntity
  8
DEFAULT
100
AcDbSpline
210
0.0
220
0.0
230
1.0
 70
    12
 71
     2
 72
     6
 73
     3
 74
     0
 42
0.0000000001
 43
0.0000000001
 40
0.0
 40
0.0
 40
0.0
 40
18.04528267741419
 40
18.04528267741419
 40
18.04528267741419
 10
505.982361108333
 20
1151.131404720689
 30
0.0
 41
1.0
 10
509.0528925717737
 20
1142.647146080043
 30
0.0
 41
0.9999746524005335
 10
512.2439256837915
 20
1134.207470978042
 30
0.0
 41
1.0
  0
SPLINE
  5
D2
330
1F
100
AcDbEntity
  8
DEFAULT
100
AcDbSpline
210
0.0
220
0.0
230
1.0
 70
    12
 71
     2
 72
     6
 73
     3
 74
     0
 42
0.0000000001
 43
0.0000000001
 40
0.0
 40
0.0
 40
0.0
 40
17.64087360702259
 40
17.64087360702259
 40
17.64087360702259
 10
512.2439256837915
 20
1134.207470978042
 30
0.0
 41
1.0
 10
515.3636405335328
 20
1125.957124775578
 30
0.0
 41
0.9999929840114372
 10
518.5450776969702
 20
1117.730382359371
 30
0.0
 41
1.0
  0
SPLINE
  5
D3
330
1F
100
AcDbEntity
  8
DEFAULT
100
AcDbSpline
210
0.0
220
0.0
230
1.0
 70
    12
 71
     2
 72
     6
 73
     3
 74
     0
 42
0.0000000001
 43
0.0000000001
 40
0.0
 40
0.0
 40
0.0
 40
17.59219834627909
 40
17.59219834627909
 40
17.59219834627909
 10
518.5450776969702
 20
1117.730382359371
 30
0.0
 41
1.0
 10
521.7178407356131
 20
1109.526374162175
 30
0.0
 41
0.9999920985769755
 10
524.8252776923846
 20
1101.297400267732
 30
0.0
 41
0.9999999999999998
  0
SPLINE
  5
D4
330
1F
100
AcDbEntity
  8
DEFAULT
100
AcDbSpline
210
0.0
220
0.0
230
1.0
 70
    12
 71
     2
 72
     6
 73
     3
 74
     0
 42
0.0000000001
 43
0.0000000001
 40
0.0
 40
0.0
 40
0.0
 40
13.60357496736987
 40
13.60357496736987
 40
13.60357496736987
 10
524.8252776923846
 20
1101.297400267732
 30
0.0
 41
0.9999999999999996
 10
527.2280722357705
 20
1094.934063231057
 30
0.0
 41
0.9999810838092319
 10
529.552407555694
 20
1088.541650135785
 30
0.0
 41
1.0
  0
SPLINE
  5
D5
330
1F
100
AcDbEntity
  8
DEFAULT
100
AcDbSpline
210
0.0
220
0.0
230
1.0
 70
    12
 71
     2
 72
     6
 73
     3
 74
     0
 42
0.0000000001
 43
0.0000000001
 40
0.0
 40
0.0
 40
0.0
 40
13.74811680675595
 40
13.74811680675595
 40
13.74811680675595
 10
529.552407555694
 20
1088.541650135785
 30
0.0
 41
0.9999999999999998
 10
531.9010376275287
 20
1082.080811370441
 30
0.0
 41
0.9999076062874592
 10
534.0763060521683
 20
1075.54909158488
 30
0.0
 41
1.0
  0
SPLINE
  5
D6
330
1F
100
AcDbEntity
  8
DEFAULT
100
AcDbSpline
210
0.0
220
0.0
230
1.0
 70
    12
 71
     2
 72
     6
 73
     3
 74
     0
 42
0.0000000001
 43
0.0000000001
 40
0.0
 40
0.0
 40
0.0
 40
10.59705478723078
 40
10.59705478723078
 40
10.59705478723078
 10
534.0763060521683
 20
1075.54909158488
 30
0.0
 41
1.0
 10
535.7534420217771
 20
1070.512192450301
 30
0.0
 41
0.9999094755586408
 10
537.2915689108819
 20
1065.441445769716
 30
0.0
 41
1.0
  0
SPLINE
  5
D7
330
1F
100
AcDbEntity
  8
DEFAULT
100
AcDbSpline
210
0.0
220
0.0
230
1.0
 70
    12
 71
     2
 72
     6
 73
     3
 74
     0
 42
0.0000000001
 43
0.0000000001
 40
0.0
 40
0.0
 40
0.0
 40
10.83997710365766
 40
10.83997710365766
 40
10.83997710365766
 10
537.2915689108819
 20
1065.441445769716
 30
0.0
 41
1.0
 10
538.8642846772846
 20
1060.253694132404
 30
0.0
 41
0.9997603603038947
 10
540.208403640786
 20
1055.002122050191
 30
0.0
 41
1.0
  0
SPLINE
  5
D8
330
1F
100
AcDbEntity
  8
DEFAULT
100
AcDbSpline
210
0.0
220
0.0
230
1.0
 70
    12
 71
     2
 72
     6
 73
     3
 74
     0
 42
0.0000000001
 43
0.0000000001
 40
0.0
 40
0.0
 40
0.0
 40
8.48763899149737
 40
8.48763899149737
 40
8.48763899149737
 10
540.208403640786
 20
1055.002122050191
 30
0.0
 41
1.0
 10
541.2609658283687
 20
1050.890303113931
 30
0.0
 41
0.9997944104691826
 10
542.1459501404893
 20
1046.739189421126
 30
0.0
 41
1.0
  0
SPLINE
  5
D9
330
1F
100
AcDbEntity
  8
DEFAULT
100
AcDbSpline
210
0.0
220
0.0
230
1.0
 70
    12
 71
     2
 72
     6
 73
     3
 74
     0
 42
0.0000000001
 43
0.0000000001
 40
0.0
 40
0.0
 40
0.0
 40
8.722342083636644
 40
8.722342083636644
 40
8.722342083636644
 10
542.1459501404893
 20
1046.739189421126
 30
0.0
 41
1.0
 10
543.0546352726785
 20
1042.472379971493
 30
0.0
 41
0.9995444809917869
 10
543.7042380524858
 20
1038.158520008838
 30
0.0
 41
1.0
  0
SPLINE
  5
DA
330
1F
100
AcDbEntity
  8
DEFAULT
100
AcDbSpline
210
0.0
220
0.0
230
1.0
 70
    12
 71
     2
 72
     6
 73
     3
 74
     0
 42
0.0000000001
 43
0.0000000001
 40
0.0
 40
0.0
 40
0.0
 40
7.518987272994245
 40
7.518987272994245
 40
7.518987272994245
 10
543.7042380524858
 20
1038.158520008838
 30
0.0
 41
1.0
 10
544.2644153045638
 20
1034.439857481593
 30
0.0
 41
0.9995514891930743
 10
544.600962413791
 20
1030.694328735401
 30
0.0
 41
1.0
  0
SPLINE
  5
DB
330
1F
100
AcDbEntity
  8
DEFAULT
100
AcDbSpline
210
0.0
220
0.0
230
1.0
 70
    12
 71
     2
 72
     6
 73
     3
 74
     0
 42
0.0000000001
 43
0.0000000001
 40
0.0
 40
0.0
 40
0.0
 40
7.718031635310462
 40
7.718031635310462
 40
7.718031635310462
 10
544.600962413791
 20
1030.694328735401
 30
0.0
 41
1.0
 10
544.9459787641391
 20
1026.848410424073
 30
0.0
 41
0.9990884678187465
 10
544.9616907617437
 20
1022.987079426536
 30
0.0
 41
1.0
  0
SPLINE
  5
DC
330
1F
100
AcDbEntity
  8
DEFAULT
100
AcDbSpline
210
0.0
220
0.0
230
1.0
 70
    12
 71
     2
 72
     6
 73
     3
 74
     0
 42
0.0000000001
 43
0.0000000001
 40
0.0
 40
0.0
 40
0.0
 40
3.39292715704567
 40
3.39292715704567
 40
3.39292715704567
 10
544.9616907617437
 20
1022.987079426536
 30
0.0
 41
1.0
 10
544.9691226975826
 20
1021.290373469901
 30
0.0
 41
0.9997713499985402
 10
544.9040019085869
 20
1019.594901376415
 30
0.0
 41
1.0
  0
SPLINE
  5
DD
330
1F
100
AcDbEntity
  8
DEFAULT
100
AcDbSpline
210
0.0
220
0.0
230
1.0
 70
    12
 71
     2
 72
     6
 73
     3
 74
     0
 42
0.0000000001
 43
0.0000000001
 40
0.0
 40
0.0
 40
0.0
 40
2.183219369837621
 40
2.183219369837621
 40
2.183219369837621
 10
544.9040019085869
 20
1019.594901376415
 30
0.0
 41
1.0
 10
544.8621414216263
 20
1018.504026279693
 30
0.0
 41
0.999906185068266
 10
544.7904149581823
 20
1017.414707184359
 30
0.0
 41
1.0
  0
SPLINE
  5
DE
330
1F
100
AcDbEntity
  8
DEFAULT
100
AcDbSpline
210
0.0
220
0.0
230
1.0
 70
    12
 71
     2
 72
     6
 73
     3
 74
     0
 42
0.0000000001
 43
0.0000000001
 40
0.0
 40
0.0
 40
0.0
 40
5.58935842637982
 40
5.58935842637982
 40
5.58935842637982
 10
544.7904149581823
 20
1017.414707184359
 30
0.0
 41
1.0
 10
544.6071916875936
 20
1014.624304710503
 30
0.0
 41
0.999071109455703
 10
544.1843843617139
 20
1011.860041572131
 30
0.0
 41
1.0
  0
SPLINE
  5
DF
330
1F
100
AcDbEntity
  8
DEFAULT
100
AcDbSpline
210
0.0
220
0.0
230
1.0
 70
    12
 71
     2
 72
     6
 73
     3
 74
     0
 42
0.0000000001
 43
0.0000000001
 40
0.0
 40
0.0
 40
0.0
 40
0.1787530062707767
 40
0.1787530062707767
 40
0.1787530062707767
 10
544.1843843617139
 20
1011.860041572131
 30
0.0
 41
1.0
 10
544.1708475983198
 20
1011.771696072603
 30
0.0
 41
0.9999988792122384
 10
544.1570463561262
 20
1011.683391503276
 30
0.0
 41
1.0
  0
POLYLINE
  5
E0
330
1F
100
AcDbEntity
  8
DEFAULT
100
AcDb2dPolyline
 66
     1
 10
0.0
 20
0.0
 30
0.0
  0
VERTEX
  5
E2
330
E0
100
AcDbEntity
  8
DEFAULT
100
AcDbVertex
100
AcDb2dVertex
 10
544.1570463561262
 20
1011.683391503276
 30
0.0
  0
VERTEX
  5
E3
330
E0
100
AcDbEntity
  8
DEFAULT
100
AcDbVertex
100
AcDb2dVertex
 10
540.1049208751548
 20
1011.683391512217
 30
0.0
  0
SEQEND
  5
E1
330
E0
100
AcDbEntity
  8
DEFAULT
  0
SPLINE
  5
E4
330
1F
100
AcDbEntity
  8
DEFAULT
100
AcDbSpline
210
0.0
220
0.0
230
1.0
 70
    12
 71
     2
 72
     6
 73
     3
 74
     0
 42
0.0000000001
 43
0.0000000001
 40
0.0
 40
0.0
 40
0.0
 40
0.7924997032349846
 40
0.7924997032349846
 40
0.7924997032349846
 10
540.1049208751548
 20
1011.683391512217
 30
0.0
 41
1.0
 10
540.1705194188605
 20
1012.074180607628
 30
0.0
 41
0.9999744882011692
 10
540.2305285706807
 20
1012.465866946075
 30
0.0
 41
1.0
  0
SPLINE
  5
E5
330
1F
100
AcDbEntity
  8
DEFAULT
100
AcDbSpline
210
0.0
220
0.0
230
1.0
 70
    12
 71
     2
 72
     6
 73
     3
 74
     0
 42
0.0000000001
 43
0.0000000001
 40
0.0
 40
0.0
 40
0.0
 40
5.244172748788158
 40
5.244172748788158
 40
5.244172748788158
 10
540.2305285706807
 20
1012.465866946075
 30
0.0
 41
1.0
 10
540.627175037311
 20
1015.059422863993
 30
0.0
 41
0.9990713029067552
 10
540.7990566697472
 20
1017.677498001054
 30
0.0
 41
1.0
  0
SPLINE
  5
E6
330
1F
100
AcDbEntity
  8
DEFAULT
100
AcDbSpline
210
0.0
220
0.0
230
1.0
 70
    12
 71
     2
 72
     6
 73
     3
 74
     0
 42
0.0000000001
 43
0.0000000001
 40
0.0
 40
0.0
 40
0.0
 40
2.073667391579484
 40
2.073667391579484
 40
2.073667391579484
 10
540.7990566697472
 20
1017.677498001054
 30
0.0
 41
1.0
 10
540.8671788694716
 20
1018.712156335052
 30
0.0
 41
0.999906253426388
 10
540.9069440781705
 20
1019.748292055111
 30
0.0
 41
1.0
  0
SPLINE
  5
E7
330
1F
100
AcDbEntity
  8
DEFAULT
100
AcDbSpline
210
0.0
220
0.0
230
1.0
 70
    12
 71
     2
 72
     6
 73
     3
 74
     0
 42
0.0000000001
 43
0.0000000001
 40
0.0
 40
0.0
 40
0.0
 40
3.22180025898845
 40
3.22180025898845
 40
3.22180025898845
 10
540.9069440781705
 20
1019.748292055111
 30
0.0
 41
1.0
 10
540.9687825351209
 20
1021.358250608121
 30
0.0
 41
0.9997713656050643
 10
540.9617299166921
 20
1022.969380893896
 30
0.0
 41
1.0
  0
SPLINE
  5
E8
330
1F
100
AcDbEntity
  8
DEFAULT
100
AcDbSpline
210
0.0
220
0.0
230
1.0
 70
    12
 71
     2
 72
     6
 73
     3
 74
     0
 42
0.0000000001
 43
0.0000000001
 40
0.0
 40
0.0
 40
0.0
 40
7.376087855165904
 40
7.376087855165904
 40
7.376087855165904
 10
540.9617299166921
 20
1022.969380893896
 30
0.0
 41
1.0
 10
540.9467721797666
 20
1026.659637381465
 30
0.0
 41
0.9990885827512704
 10
540.6171193501336
 20
1030.335170769947
 30
0.0
 41
1.0
  0
SPLINE
  5
E9
330
1F
100
AcDbEntity
  8
DEFAULT
100
AcDbSpline
210
0.0
220
0.0
230
1.0
 70
    12
 71
     2
 72
     6
 73
     3
 74
     0
 42
0.0000000001
 43
0.0000000001
 40
0.0
 40
0.0
 40
0.0
 40
7.279259753937622
 40
7.279259753937622
 40
7.279259753937622
 10
540.6171193501336
 20
1030.335170769947
 30
0.0
 41
1.0
 10
540.2913385615865
 20
1033.961284228553
 30
0.0
 41
0.999551498602959
 10
539.7490596237008
 20
1037.561390545094
 30
0.0
 41
1.0
  0
SPLINE
  5
EA
330
1F
100
AcDbEntity
  8
DEFAULT
100
AcDbSpline
210
0.0
220
0.0
230
1.0
 70
    12
 71
     2
 72
     6
 73
     3
 74
     0
 42
0.0000000001
 43
0.0000000001
 40
0.0
 40
0.0
 40
0.0
 40
8.480750428018476
 40
8.480750428018476
 40
8.480750428018476
 10
539.7490596237008
 20
1037.561390545094
 30
0.0
 41
1.0
 10
539.117495381458
 20
1041.755771975541
 30
0.0
 41
0.9995444907412672
 10
538.2340270388199
 20
1045.904409422189
 30
0.0
 41
1.0
  0
SPLINE
  5
EB
330
1F
100
AcDbEntity
  8
DEFAULT
100
AcDbSpline
210
0.0
220
0.0
230
1.0
 70
    12
 71
     2
 72
     6
 73
     3
 74
     0
 42
0.0000000001
 43
0.0000000001
 40
0.0
 40
0.0
 40
0.0
 40
8.325383068398933
 40
8.325383068398933
 40
8.325383068398933
 10
538.2340270388199
 20
1045.904409422189
 30
0.0
 41
1.0
 10
537.3659769781677
 20
1049.976170856943
 30
0.0
 41
0.9997944074461544
 10
536.3335512267226
 20
1054.009389070367
 30
0.0
 41
1.0
  0
SPLINE
  5
EC
330
1F
100
AcDbEntity
  8
DEFAULT
100
AcDbSpline
210
0.0
220
0.0
230
1.0
 70
    12
 71
     2
 72
     6
 73
     3
 74
     0
 42
0.0000000001
 43
0.0000000001
 40
0.0
 40
0.0
 40
0.0
 40
10.66479620298503
 40
10.66479620298503
 40
10.66479620298503
 10
536.3335512267226
 20
1054.009389070367
 30
0.0
 41
1.0
 10
535.0111754367147
 20
1059.176097898606
 30
0.0
 41
0.9997603568348352
 10
533.4627886343355
 20
1064.283664956067
 30
0.0
 41
1.0
  0
SPLINE
  5
ED
330
1F
100
AcDbEntity
  8
DEFAULT
100
AcDbSpline
210
0.0
220
0.0
230
1.0
 70
    12
 71
     2
 72
     6
 73
     3
 74
     0
 42
0.0000000001
 43
0.0000000001
 40
0.0
 40
0.0
 40
0.0
 40
10.41224642857679
 40
10.41224642857679
 40
10.41224642857679
 10
533.4627886343355
 20
1064.283664956067
 30
0.0
 41
1.0
 10
531.9502829732079
 20
1069.269592622284
 30
0.0
 41
0.9999108244668585
 10
530.3063783551379
 20
1074.209685693687
 30
0.0
 41
1.0
  0
POLYLINE
  5
EE
330
1F
100
AcDbEntity
  8
DEFAULT
100
AcDb2dPolyline
 66
     1
 10
0.0
 20
0.0
 30
0.0
  0
VERTEX
  5
F0
330
EE
100
AcDbEntity
  8
DEFAULT
100
AcDbVertex
100
AcDb2dVertex
 10
530.3063783551379
 20
1074.209685693687
 30
0.0
  0
VERTEX
  5
F1
330
EE
100
AcDbEntity
  8
DEFAULT
100
AcDbVertex
100
AcDb2dVertex
 10
530.278165288151
 20
1074.294410138527
 30
0.0
  0
SEQEND
  5
EF
330
EE
100
AcDbEntity
  8
DEFAULT
  0
SPLINE
  5
F2
330
1F
100
AcDbEntity
  8
DEFAULT
100
AcDbSpline
210
0.0
220
0.0
230
1.0
 70
    12
 71
     2
 72
     6
 73
     3
 74
     0
 42
0.0000000001
 43
0.0000000001
 40
0.0
 40
0.0
 40
0.0
 40
13.63925061559452
 40
13.63925061559452
 40
13.63925061559452
 10
530.278165288151
 20
1074.294410138527
 30
0.0
 41
1.0
 10
528.1232389250224
 20
1080.76506015161
 30
0.0
 41
0.9999076081046582
 10
525.7932114094883
 20
1087.17473962871
 30
0.0
 41
0.9999999999999998
  0
SPLINE
  5
F3
330
1F
100
AcDbEntity
  8
DEFAULT
100
AcDbSpline
210
0.0
220
0.0
230
1.0
 70
    12
 71
     2
 72
     6
 73
     3
 74
     0
 42
0.0000000001
 43
0.0000000001
 40
0.0
 40
0.0
 40
0.0
 40
13.55433680757305
 40
13.55433680757305
 40
13.55433680757305
 10
525.7932114094883
 20
1087.17473962871
 30
0.0
 41
1.0
 10
523.4772895163087
 20
1093.544015555015
 30
0.0
 41
0.9999810836067679
 10
521.0831919632897
 20
1099.884320511982
 30
0.0
 41
0.9999999999999996
  0
SPLINE
  5
F4
330
1F
100
AcDbEntity
  8
DEFAULT
100
AcDbSpline
210
0.0
220
0.0
230
1.0
 70
    12
 71
     2
 72
     6
 73
     3
 74
     0
 42
0.0000000001
 43
0.0000000001
 40
0.0
 40
0.0
 40
0.0
 40
17.56037018243852
 40
17.56037018243852
 40
17.56037018243852
 10
521.0831919632897
 20
1099.884320511982
 30
0.0
 41
0.9999999999999998
 10
517.9813770560446
 20
1108.098406383378
 30
0.0
 41
0.9999920985745786
 10
514.8143542462974
 20
1116.287571722246
 30
0.0
 41
1.0
  0
SPLINE
  5
F5
330
1F
100
AcDbEntity
  8
DEFAULT
100
AcDbSpline
210
0.0
220
0.0
230
1.0
 70
    12
 71
     2
 72
     6
 73
     3
 74
     0
 42
0.0000000001
 43
0.0000000001
 40
0.0
 40
0.0
 40
0.0
 40
17.67083183745967
 40
17.67083183745967
 40
17.67083183745967
 10
514.8143542462974
 20
1116.287571722246
 30
0.0
 41
1.0
 10
511.6275140099265
 20
1124.528284922131
 30
0.0
 41
0.9999929840001378
 10
508.5025009549236
 20
1132.792642013744
 30
0.0
 41
1.0
  0
SPLINE
  5
F6
330
1F
100
AcDbEntity
  8
DEFAULT
100
AcDbSpline
210
0.0
220
0.0
230
1.0
 70
    12
 71
     2
 72
     6
 73
     3
 74
     0
 42
0.0000000001
 43
0.0000000001
 40
0.0
 40
0.0
 40
0.0
 40
18.10224413092084
 40
18.10224413092084
 40
18.10224413092084
 10
508.5025009549236
 20
1132.792642013744
 30
0.0
 41
1.0
 10
505.3013937569299
 20
1141.25895716132
 30
0.0
 41
0.9999746523338885
 10
502.2211687334661
 20
1149.769996655764
 30
0.0
 41
1.0
  0
SPLINE
  5
F7
330
1F
100
AcDbEntity
  8
DEFAULT
100
AcDbSpline
210
0.0
220
0.0
230
1.0
 70
    12
 71
     2
 72
     6
 73
     3
 74
     0
 42
0.0000000001
 43
0.0000000001
 40
0.0
 40
0.0
 40
0.0
 40
18.38676832236212
 40
18.38676832236212
 40
18.38676832236212
 10
502.2211687334661
 20
1149.769996655764
 30
0.0
 41
1.0
 10
499.0932355635196
 20
1158.415543175298
 30
0.0
 41
0.9999012630520081
 10
496.2094915001903
 20
1167.145575289458
 30
0.0
 41
1.0
  0
POLYLINE
  5
F8
330
1F
100
AcDbEntity
  8
DEFAULT
100
AcDb2dPolyline
 66
     1
 10
0.0
 20
0.0
 30
0.0
  0
VERTEX
  5
FA
330
F8
100
AcDbEntity
  8
DEFAULT
100
AcDbVertex
100
AcDb2dVertex
 10
496.2094915001903
 20
1167.145575289458
 30
0.0
  0
VERTEX
  5
FB
330
F8
100
AcDbEntity
  8
DEFAULT
100
AcDbVertex
100
AcDb2dVertex
 10
496.1939933269487
 20
1167.192476823348
 30
0.0
  0
SEQEND
  5
F9
330
F8
100
AcDbEntity
  8
DEFAULT
  0
SPLINE
  5
FC
330
1F
100
AcDbEntity
  8
DEFAULT
100
AcDbSpline
210
0.0
220
0.0
230
1.0
 70
    12
 71
     2
 72
     6
 73
     3
 74
     0
 42
0.0000000001
 43
0.0000000001
 40
0.0
 40
0.0
 40
0.0
 40
5.947397965785556
 40
5.947397965785556
 40
5.947397965785556
 10
496.1939933269487
 20
1167.192476823348
 30
0.0
 41
1.0
 10
495.2611329850659
 20
1170.016098688212
 30
0.0
 41
0.9999844613532243
 10
494.3598117092434
 20
1172.849945686718
 30
0.0
 41
1.0
  0
POLYLINE
  5
FD
330
1F
100
AcDbEntity
  8
DEFAULT
100
AcDb2dPolyline
 66
     1
 10
0.0
 20
0.0
 30
0.0
  0
VERTEX
  5
FF
330
FD
100
AcDbEntity
  8
DEFAULT
100
AcDbVertex
100
AcDb2dVertex
 10
494.3598117092434
 20
1172.849945686718
 30
0.0
  0
VERTEX
  5
100
330
FD
100
AcDbEntity
  8
DEFAULT
100
AcDbVertex
100
AcDb2dVertex
 10
493.5598117200892
 20
1175.386621651157
 30
0.0
  0
SEQEND
  5
FE
330
FD
100
AcDbEntity
  8
DEFAULT
  0
SPLINE
  5
101
330
1F
100
AcDbEntity
  8
DEFAULT
100
AcDbSpline
210
0.0
220
0.0
230
1.0
 70
    12
 71
     2
 72
     6
 73
     3
 74
     0
 42
0.0000000001
 43
0.0000000001
 40
0.0
 40
0.0
 40
0.0
 40
9.434735278761158
 40
9.434735278761158
 40
9.434735278761158
 10
493.5598117200892
 20
1175.386621651157
 30
0.0
 41
1.0
 10
492.1521684558821
 20
1179.889195946453
 30
0.0
 41
0.9999636907044188
 10
490.8214649099759
 20
1184.415106121968
 30
0.0
 41
1.0
  0
POLYLINE
  5
102
330
1F
100
AcDbEntity
  8
DEFAULT
100
AcDb2dPolyline
 66
     1
 10
0.0
 20
0.0
 30
0.0
  0
VERTEX
  5
104
330
102
100
AcDbEntity
  8
DEFAULT
100
AcDbVertex
100
AcDb2dVertex
 10
490.8214649099759
 20
1184.415106121968
 30
0.0
  0
VERTEX
  5
105
330
102
100
AcDbEntity
  8
DEFAULT
100
AcDbVertex
100
AcDb2dVertex
 10
490.8105644237715
 20
1184.452178569253
 30
0.0
  0
SEQEND
  5
103
330
102
100
AcDbEntity
  8
DEFAULT
  0
SPLINE
  5
106
330
1F
100
AcDbEntity
  8
DEFAULT
100
AcDbSpline
210
0.0
220
0.0
230
1.0
 70
    12
 71
     2
 72
     6
 73
     3
 74
     0
 42
0.0000000001
 43
0.0000000001
 40
0.0
 40
0.0
 40
0.0
 40
18.53831503595532
 40
18.53831503595532
 40
18.53831503595532
 10
490.8105644237715
 20
1184.452178569253
 30
0.0
 41
1.0
 10
488.1983941290031
 20
1193.34744005808
 30
0.0
 41
0.9997222501338955
 10
486.0082855605155
 20
1202.355910242394
 30
0.0
 41
1.0
  0
SPLINE
  5
107
330
1F
100
AcDbEntity
  8
DEFAULT
100
AcDbSpline
210
0.0
220
0.0
230
1.0
 70
    12
 71
     2
 72
     6
 73
     3
 74
     0
 42
0.0000000001
 43
0.0000000001
 40
0.0
 40
0.0
 40
0.0
 40
17.76040460676917
 40
17.76040460676917
 40
17.76040460676917
 10
486.0082855605155
 20
1202.355910242394
 30
0.0
 41
1.0
 10
483.9099259598503
 20
1210.986506596637
 30
0.0
 41
0.999692796613809
 10
482.2418373198904
 20
1219.710484286476
 30
0.0
 41
1.0
  0
POLYLINE
  5
108
330
1F
100
AcDbEntity
  8
DEFAULT
100
AcDb2dPolyline
 66
     1
 10
0.0
 20
0.0
 30
0.0
  0
VERTEX
  5
10A
330
108
100
AcDbEntity
  8
DEFAULT
100
AcDbVertex
100
AcDb2dVertex
 10
482.2418373198904
 20
1219.710484286476
 30
0.0
  0
VERTEX
  5
10B
330
108
100
AcDbEntity
  8
DEFAULT
100
AcDbVertex
100
AcDb2dVertex
 10
482.2373724196328
 20
1219.733806586662
 30
0.0
  0
SEQEND
  5
109
330
108
100
AcDbEntity
  8
DEFAULT
  0
SPLINE
  5
10C
330
1F
100
AcDbEntity
  8
DEFAULT
100
AcDbSpline
210
0.0
220
0.0
230
1.0
 70
    12
 71
     2
 72
     6
 73
     3
 74
     0
 42
0.0000000001
 43
0.0000000001
 40
0.0
 40
0.0
 40
0.0
 40
18.16493727220689
 40
18.16493727220689
 40
18.16493727220689
 10
482.2373724196328
 20
1219.733806586662
 30
0.0
 41
1.0
 10
480.5320018540411
 20
1228.657526598961
 30
0.0
 41
0.9995472085667694
 10
479.3664966376477
 20
1237.66766895158
 30
0.0
 41
1.0
  0
SPLINE
  5
10D
330
1F
100
AcDbEntity
  8
DEFAULT
100
AcDbSpline
210
0.0
220
0.0
230
1.0
 70
    12
 71
     2
 72
     6
 73
     3
 74
     0
 42
0.0000000001
 43
0.0000000001
 40
0.0
 40
0.0
 40
0.0
 40
17.50615367309734
 40
17.50615367309734
 40
17.50615367309734
 10
479.3664966376477
 20
1237.66766895158
 30
0.0
 41
1.0
 10
478.2424390666541
 20
1246.35089781533
 30
0.0
 41
0.9995537341076828
 10
477.638783952316
 20
1255.0878045711
 30
0.0
 41
1.0
  0
SPLINE
  5
10E
330
1F
100
AcDbEntity
  8
DEFAULT
100
AcDbSpline
210
0.0
220
0.0
230
1.0
 70
    12
 71
     2
 72
     6
 73
     3
 74
     0
 42
0.0000000001
 43
0.0000000001
 40
0.0
 40
0.0
 40
0.0
 40
16.35957319942725
 40
16.35957319942725
 40
16.35957319942725
 10
477.638783952316
 20
1255.0878045711
 30
0.0
 41
1.0
 10
477.0740160047743
 20
1263.252210012745
 30
0.0
 41
0.9996195539220077
 10
476.9603401864633
 20
1271.433282297332
 30
0.0
 41
0.9999999999999838
  0
SPLINE
  5
10F
330
1F
100
AcDbEntity
  8
DEFAULT
100
AcDbSpline
210
0.0
220
0.0
230
1.0
 70
    12
 71
     2
 72
     6
 73
     3
 74
     0
 42
0.0000000001
 43
0.0000000001
 40
0.0
 40
0.0
 40
0.0
 40
1.257813652918435
 40
1.257813652918435
 40
1.257813652918435
 10
476.9603401864633
 20
1271.433282297332
 30
0.0
 41
0.9999999999999987
 10
476.9515913338359
 20
1272.062129204745
 30
0.0
 41
0.9999977639110663
 10
476.9454881746144
 20
1272.692463737784
 30
0.0
 41
1.0
  0
SPLINE
  5
110
330
1F
100
AcDbEntity
  8
DEFAULT
100
AcDbSpline
210
0.0
220
0.0
230
1.0
 70
    12
 71
     2
 72
     6
 73
     3
 74
     0
 42
0.0000000001
 43
0.0000000001
 40
0.0
 40
0.0
 40
0.0
 40
14.5260263689066
 40
14.5260263689066
 40
14.5260263689066
 10
476.9454881746144
 20
1272.692463737784
 30
0.0
 41
1.0
 10
476.8750407599132
 20
1279.957871704171
 30
0.0
 41
0.999735714943739
 10
477.138577528583
 20
1287.217382969128
 30
0.0
 41
1.0
  0
SPLINE
  5
111
330
1F
100
AcDbEntity
  8
DEFAULT
100
AcDbSpline
210
0.0
220
0.0
230
1.0
 70
    12
 71
     2
 72
     6
 73
     3
 74
     0
 42
0.0000000001
 43
0.0000000001
 40
0.0
 40
0.0
 40
0.0
 40
14.46164070892113
 40
14.46164070892113
 40
14.46164070892113
 10
477.138577528583
 20
1287.217382969128
 30
0.0
 41
1.0
 10
477.4009815788831
 20
1294.444223273498
 30
0.0
 41
0.9998377450001202
 10
477.9235334617356
 20
1301.656921534219
 30
0.0
 41
1.0
  0
SPLINE
  5
112
330
1F
100
AcDbEntity
  8
DEFAULT
100
AcDbSpline
210
0.0
220
0.0
230
1.0
 70
    12
 71
     2
 72
     6
 73
     3
 74
     0
 42
0.0000000001
 43
0.0000000001
 40
0.0
 40
0.0
 40
0.0
 40
13.67883279337691
 40
13.67883279337691
 40
13.67883279337691
 10
477.9235334617356
 20
1301.656921534219
 30
0.0
 41
1.0
 10
478.4178972925029
 20
1308.478888374122
 30
0.0
 41
0.9999036429496571
 10
479.1014549175001
 20
1315.284501949342
 30
0.0
 41
0.9999999999999125
  0
SPLINE
  5
113
330
1F
100
AcDbEntity
  8
DEFAULT
100
AcDbSpline
210
0.0
220
0.0
230
1.0
 70
    12
 71
     2
 72
     6
 73
     3
 74
     0
 42
0.0000000001
 43
0.0000000001
 40
0.0
 40
0.0
 40
0.0
 40
13.62951554250513
 40
13.62951554250513
 40
13.62951554250513
 10
479.1014549175001
 20
1315.284501949342
 30
0.0
 41
0.9999999999999833
 10
479.7827848711763
 20
1322.065198604398
 30
0.0
 41
0.9999816836948375
 10
480.5461431977783
 20
1328.837151180936
 30
0.0
 41
1.0
  0
SPLINE
  5
114
330
1F
100
AcDbEntity
  8
DEFAULT
100
AcDbSpline
210
0.0
220
0.0
230
1.0
 70
    12
 71
     2
 72
     6
 73
     3
 74
     0
 42
0.0000000001
 43
0.0000000001
 40
0.0
 40
0.0
 40
0.0
 40
12.91107159680435
 40
12.91107159680435
 40
12.91107159680435
 10
480.5461431977783
 20
1328.837151180936
 30
0.0
 41
1.0
 10
481.2693462125613
 20
1335.25205453225
 30
0.0
 41
0.999998827275318
 10
482.012194475403
 20
1341.664712644583
 30
0.0
 41
1.0
  0
SPLINE
  5
115
330
1F
100
AcDbEntity
  8
DEFAULT
100
AcDbSpline
210
0.0
220
0.0
230
1.0
 70
    12
 71
     2
 72
     6
 73
     3
 74
     0
 42
0.0000000001
 43
0.0000000001
 40
0.0
 40
0.0
 40
0.0
 40
12.91973066245586
 40
12.91973066245586
 40
12.91973066245586
 10
482.012194475403
 20
1341.664712644583
 30
0.0
 41
1.0
 10
482.7554313583749
 20
1348.081802181249
 30
0.0
 41
0.9999716205025829
 10
483.40189643747
 20
1354.509361756026
 30
0.0
 41
1.0
  0
SPLINE
  5
116
330
1F
100
AcDbEntity
  8
DEFAULT
100
AcDbSpline
210
0.0
220
0.0
230
1.0
 70
    12
 71
     2
 72
     6
 73
     3
 74
     0
 42
0.0000000001
 43
0.0000000001
 40
0.0
 40
0.0
 40
0.0
 40
12.62510736940038
 40
12.62510736940038
 40
12.62510736940038
 10
483.40189643747
 20
1354.509361756026
 30
0.0
 41
1.0
 10
484.0336372417683
 20
1360.790532044846
 30
0.0
 41
0.9999273070987871
 10
484.5137364020757
 20
1367.085109190076
 30
0.0
 41
0.9999999999999982
  0
SPLINE
  5
117
330
1F
100
AcDbEntity
  8
DEFAULT
100
AcDbSpline
210
0.0
220
0.0
230
1.0
 70
    12
 71
     2
 72
     6
 73
     3
 74
     0
 42
0.0000000001
 43
0.0000000001
 40
0.0
 40
0.0
 40
0.0
 40
5.322871658621151
 40
5.322871658621151
 40
5.322871658621151
 10
484.5137364020757
 20
1367.085109190076
 30
0.0
 41
0.9999999999999978
 10
484.7161903006144
 20
1369.73890393753
 30
0.0
 41
0.9999604576850182
 10
484.8714143618263
 20
1372.395879592947
 30
0.0
 41
1.0
  0
SPLINE
  5
118
330
1F
100
AcDbEntity
  8
DEFAULT
100
AcDbSpline
210
0.0
220
0.0
230
1.0
 70
    12
 71
     2
 72
     6
 73
     3
 74
     0
 42
0.0000000001
 43
0.0000000001
 40
0.0
 40
0.0
 40
0.0
 40
7.259698486904219
 40
7.259698486904219
 40
7.259698486904219
 10
484.8714143618263
 20
1372.395879592947
 30
0.0
 41
1.0
 10
485.0831797674185
 20
1376.01972607309
 30
0.0
 41
0.9999258730542643
 10
485.2066769114087
 20
1379.648652366859
 30
0.0
 41
1.0
  0
SPLINE
  5
119
330
1F
100
AcDbEntity
  8
DEFAULT
100
AcDbSpline
210
0.0
220
0.0
230
1.0
 70
    12
 71
     2
 72
     6
 73
     3
 74
     0
 42
0.0000000001
 43
0.0000000001
 40
0.0
 40
0.0
 40
0.0
 40
13.246689317935
 40
13.246689317935
 40
13.246689317935
 10
485.2066769114087
 20
1379.648652366859
 30
0.0
 41
1.0
 10
485.4329916650477
 20
1386.27075707524
 30
0.0
 41
0.9996315003621512
 10
485.2995591244187
 20
1392.896813795675
 30
0.0
 41
1.0
  0
SPLINE
  5
11A
330
1F
100
AcDbEntity
  8
DEFAULT
100
AcDbSpline
210
0.0
220
0.0
230
1.0
 70
    12
 71
     2
 72
     6
 73
     3
 74
     0
 42
0.0000000001
 43
0.0000000001
 40
0.0
 40
0.0
 40
0.0
 40
12.91122398623254
 40
12.91122398623254
 40
12.91122398623254
 10
485.2995591244187
 20
1392.896813795675
 30
0.0
 41
1.0
 10
485.1706036347244
 20
1399.355911455155
 30
0.0
 41
0.9994553846408939
 10
484.6160830172013
 20
1405.790017215641
 30
0.0
 41
1.0
  0
POLYLINE
  5
11B
330
1F
100
AcDbEntity
  8
DEFAULT
100
AcDb2dPolyline
 66
     1
 10
0.0
 20
0.0
 30
0.0
  0
VERTEX
  5
11D
330
11B
100
AcDbEntity
  8
DEFAULT
100
AcDbVertex
100
AcDb2dVertex
 10
484.6160830172013
 20
1405.790017215641
 30
0.0
  0
VERTEX
  5
11E
330
11B
100
AcDbEntity
  8
DEFAULT
100
AcDbVertex
100
AcDb2dVertex
 10
484.6124338384406
 20
1405.83207697592
 30
0.0
  0
SEQEND
  5
11C
330
11B
100
AcDbEntity
  8
DEFAULT
  0
SPLINE
  5
11F
330
1F
100
AcDbEntity
  8
DEFAULT
100
AcDbSpline
210
0.0
220
0.0
230
1.0
 70
    12
 71
     2
 72
     6
 73
     3
 74
     0
 42
0.0000000001
 43
0.0000000001
 40
0.0
 40
0.0
 40
0.0
 40
11.73022371057214
 40
11.73022371057214
 40
11.73022371057214
 10
484.6124338384406
 20
1405.83207697592
 30
0.0
 41
1.0
 10
484.1076351135915
 20
1411.677528557535
 30
0.0
 41
0.9994642715762069
 10
483.221494397485
 20
1417.477432054739
 30
0.0
 41
1.0
  0
SPLINE
  5
120
330
1F
100
AcDbEntity
  8
DEFAULT
100
AcDbSpline
210
0.0
220
0.0
230
1.0
 70
    12
 71
     2
 72
     6
 73
     3
 74
     0
 42
0.0000000001
 43
0.0000000001
 40
0.0
 40
0.0
 40
0.0
 40
11.37196622540882
 40
11.37196622540882
 40
11.37196622540882
 10
483.221494397485
 20
1417.477432054739
 30
0.0
 41
1.0
 10
482.3618750989116
 20
1423.099971304973
 30
0.0
 41
0.9995018214630409
 10
481.1492370659898
 20
1428.657075043435
 30
0.0
 41
0.9999999999999998
  0
SPLINE
  5
121
330
1F
100
AcDbEntity
  8
DEFAULT
100
AcDbSpline
210
0.0
220
0.0
230
1.0
 70
    12
 71
     2
 72
     6
 73
     3
 74
     0
 42
0.0000000001
 43
0.0000000001
 40
0.0
 40
0.0
 40
0.0
 40
8.985747817760354
 40
8.985747817760354
 40
8.985747817760354
 10
481.1492370659898
 20
1428.657075043435
 30
0.0
 41
1.0
 10
480.1901698515155
 20
1433.047331443609
 30
0.0
 41
0.9996937739498734
 10
479.0150622883211
 20
1437.384759644294
 30
0.0
 41
1.0
  0
SPLINE
  5
122
330
1F
100
AcDbEntity
  8
DEFAULT
100
AcDbSpline
210
0.0
220
0.0
230
1.0
 70
    12
 71
     2
 72
     6
 73
     3
 74
     0
 42
0.0000000001
 43
0.0000000001
 40
0.0
 40
0.0
 40
0.0
 40
8.886602517936234
 40
8.886602517936234
 40
8.886602517936234
 10
479.0150622883211
 20
1437.384759644294
 30
0.0
 41
1.0
 10
477.852049199571
 20
1441.673796235813
 30
0.0
 41
0.9997908079056391
 10
476.5145953571659
 20
1445.911679162572
 30
0.0
 41
1.0
  0
SPLINE
  5
123
330
1F
100
AcDbEntity
  8
DEFAULT
100
AcDbSpline
210
0.0
220
0.0
230
1.0
 70
    12
 71
     2
 72
     6
 73
     3
 74
     0
 42
0.0000000001
 43
0.0000000001
 40
0.0
 40
0.0
 40
0.0
 40
5.717684185555347
 40
5.717684185555347
 40
5.717684185555347
 10
476.5145953571659
 20
1445.911679162572
 30
0.0
 41
1.0
 10
475.6539399102611
 20
1448.638026008802
 30
0.0
 41
0.9999342357743902
 10
474.7309813201509
 20
1451.343916299706
 30
0.0
 41
1.0
  0
SPLINE
  5
124
330
1F
100
AcDbEntity
  8
DEFAULT
100
AcDbSpline
210
0.0
220
0.0
230
1.0
 70
    12
 71
     2
 72
     6
 73
     3
 74
     0
 42
0.0000000001
 43
0.0000000001
 40
0.0
 40
0.0
 40
0.0
 40
5.819711955757382
 40
5.819711955757382
 40
5.819711955757382
 10
474.7309813201509
 20
1451.343916299706
 30
0.0
 41
1.0
 10
473.7914178958101
 20
1454.097949982851
 30
0.0
 41
0.9999805894680434
 10
472.817609384706
 20
1456.840061931689
 30
0.0
 41
1.0
  0
SPLINE
  5
125
330
1F
100
AcDbEntity
  8
DEFAULT
100
AcDbSpline
210
0.0
220
0.0
230
1.0
 70
    12
 71
     2
 72
     6
 73
     3
 74
     0
 42
0.0000000001
 43
0.0000000001
 40
0.0
 40
0.0
 40
0.0
 40
3.55147350219478
 40
3.55147350219478
 40
3.55147350219478
 10
472.817609384706
 20
1456.840061931689
 30
0.0
 41
1.0
 10
472.2234482324599
 20
1458.513447343833
 30
0.0
 41
0.9999987624148268
 10
471.6240246641969
 20
1460.184954926293
 30
0.0
 41
1.0
  0
SPLINE
  5
126
330
1F
100
AcDbEntity
  8
DEFAULT
100
AcDbSpline
210
0.0
220
0.0
230
1.0
 70
    12
 71
     2
 72
     6
 73
     3
 74
     0
 42
0.0000000001
 43
0.0000000001
 40
0.0
 40
0.0
 40
0.0
 40
3.689625499764328
 40
3.689625499764328
 40
3.689625499764328
 10
471.6240246641969
 20
1460.184954926293
 30
0.0
 41
1.0
 10
471.0015120661437
 20
1461.921586168225
 30
0.0
 41
0.9999832690369654
 10
470.3991322414004
 20
1463.6653030466
 30
0.0
 41
1.0
  0
SPLINE
  5
127
330
1F
100
AcDbEntity
  8
DEFAULT
100
AcDbSpline
210
0.0
220
0.0
230
1.0
 70
    12
 71
     2
 72
     6
 73
     3
 74
     0
 42
0.0000000001
 43
0.0000000001
 40
0.0
 40
0.0
 40
0.0
 40
2.398368472011487
 40
2.398368472011487
 40
2.398368472011487
 10
470.3991322414004
 20
1463.6653030466
 30
0.0
 41
1.0
 10
470.007543634487
 20
1464.798769517905
 30
0.0
 41
0.9999765069351153
 10
469.6315303851625
 20
1465.937497718563
 30
0.0
 41
1.0
  0
SPLINE
  5
128
330
1F
100
AcDbEntity
  8
DEFAULT
100
AcDbSpline
210
0.0
220
0.0
230
1.0
 70
    12
 71
     2
 72
     6
 73
     3
 74
     0
 42
0.0000000001
 43
0.0000000001
 40
0.0
 40
0.0
 40
0.0
 40
0.1461063850867363
 40
0.1461063850867363
 40
0.1461063850867363
 10
469.6315303851625
 20
1465.937497718563
 30
0.0
 41
1.0
 10
469.6086187657305
 20
1466.006865083356
 30
0.0
 41
0.9999993447414104
 10
469.5858660267185
 20
1466.076284723739
 30
0.0
 41
1.0
  0
POLYLINE
  5
129
330
1F
100
AcDbEntity
  8
DEFAULT
100
AcDb2dPolyline
 66
     1
 10
0.0
 20
0.0
 30
0.0
  0
VERTEX
  5
12B
330
129
100
AcDbEntity
  8
DEFAULT
100
AcDbVertex
100
AcDb2dVertex
 10
469.5858660267185
 20
1466.076284723739
 30
0.0
  0
VERTEX
  5
12C
330
129
100
AcDbEntity
  8
DEFAULT
100
AcDbVertex
100
AcDb2dVertex
 10
473.8023901915506
 20
1466.076284722081
 30
0.0
  0
SEQEND
  5
12A
330
129
100
AcDbEntity
  8
DEFAULT
  0
SPLINE
  5
12D
330
1F
100
AcDbEntity
  8
DEFAULT
100
AcDbSpline
210
0.0
220
0.0
230
1.0
 70
    12
 71
     2
 72
     6
 73
     3
 74
     0
 42
0.0000000001
 43
0.0000000001
 40
0.0
 40
0.0
 40
0.0
 40
1.167171891580624
 40
1.167171891580624
 40
1.167171891580624
 10
473.8023901915506
 20
1466.076284722081
 30
0.0
 41
1.0
 10
473.9891492378048
 20
1465.523386575551
 30
0.0
 41
0.9999939536046747
 10
474.1797491104612
 20
1464.971800688914
 30
0.0
 41
1.0
  0
SPLINE
  5
12E
330
1F
100
AcDbEntity
  8
DEFAULT
100
AcDbSpline
210
0.0
220
0.0
230
1.0
 70
    12
 71
     2
 72
     6
 73
     3
 74
     0
 42
0.0000000001
 43
0.0000000001
 40
0.0
 40
0.0
 40
0.0
 40
3.643302150315504
 40
3.643302150315504
 40
3.643302150315504
 10
474.1797491104612
 20
1464.971800688914
 30
0.0
 41
1.0
 10
474.7745640660148
 20
1463.249975544111
 30
0.0
 41
0.9999832707531806
 10
475.3892580177931
 20
1461.535146687848
 30
0.0
 41
1.0
  0
SPLINE
  5
12F
330
1F
100
AcDbEntity
  8
DEFAULT
100
AcDbSpline
210
0.0
220
0.0
230
1.0
 70
    12
 71
     2
 72
     6
 73
     3
 74
     0
 42
0.0000000001
 43
0.0000000001
 40
0.0
 40
0.0
 40
0.0
 40
3.564060542709479
 40
3.564060542709479
 40
3.564060542709479
 10
475.3892580177931
 20
1461.535146687848
 30
0.0
 41
1.0
 10
475.9908054205142
 20
1459.857714767216
 30
0.0
 41
0.9999987629130171
 10
476.5870728192481
 20
1458.178398741185
 30
0.0
 41
1.0
  0
SPLINE
  5
130
330
1F
100
AcDbEntity
  8
DEFAULT
100
AcDbSpline
210
0.0
220
0.0
230
1.0
 70
    12
 71
     2
 72
     6
 73
     3
 74
     0
 42
0.0000000001
 43
0.0000000001
 40
0.0
 40
0.0
 40
0.0
 40
5.869564680453038
 40
5.869564680453038
 40
5.869564680453038
 10
476.5870728192481
 20
1458.178398741185
 30
0.0
 41
1.0
 10
477.5692214149786
 20
1455.412796738723
 30
0.0
 41
0.9999805893975152
 10
478.5168315037818
 20
1452.63517087844
 30
0.0
 41
1.0
  0
SPLINE
  5
131
330
1F
100
AcDbEntity
  8
DEFAULT
100
AcDbSpline
210
0.0
220
0.0
230
1.0
 70
    12
 71
     2
 72
     6
 73
     3
 74
     0
 42
0.0000000001
 43
0.0000000001
 40
0.0
 40
0.0
 40
0.0
 40
5.809469550250575
 40
5.809469550250575
 40
5.809469550250575
 10
478.5168315037818
 20
1452.63517087844
 30
0.0
 41
1.0
 10
479.4546065626134
 20
1449.885843320673
 30
0.0
 41
0.9999342306506593
 10
480.3290758543312
 20
1447.115730048851
 30
0.0
 41
1.0
  0
SPLINE
  5
132
330
1F
100
AcDbEntity
  8
DEFAULT
100
AcDbSpline
210
0.0
220
0.0
230
1.0
 70
    12
 71
     2
 72
     6
 73
     3
 74
     0
 42
0.0000000001
 43
0.0000000001
 40
0.0
 40
0.0
 40
0.0
 40
9.050266529726528
 40
9.050266529726528
 40
9.050266529726528
 10
480.3290758543312
 20
1447.115730048851
 30
0.0
 41
1.0
 10
481.6911660618425
 20
1442.799799739944
 30
0.0
 41
0.9997908045596191
 10
482.8756014818905
 20
1438.431773080173
 30
0.0
 41
1.0
  0
SPLINE
  5
133
330
1F
100
AcDbEntity
  8
DEFAULT
100
AcDbSpline
210
0.0
220
0.0
230
1.0
 70
    12
 71
     2
 72
     6
 73
     3
 74
     0
 42
0.0000000001
 43
0.0000000001
 40
0.0
 40
0.0
 40
0.0
 40
9.183766103016373
 40
9.183766103016373
 40
9.183766103016373
 10
482.8756014818905
 20
1438.431773080173
 30
0.0
 41
1.0
 10
484.0766291783924
 20
1433.998767899223
 30
0.0
 41
0.9996937781955364
 10
485.0568574975687
 20
1429.511769469944
 30
0.0
 41
0.9999999999999998
  0
SPLINE
  5
134
330
1F
100
AcDbEntity
  8
DEFAULT
100
AcDbSpline
210
0.0
220
0.0
230
1.0
 70
    12
 71
     2
 72
     6
 73
     3
 74
     0
 42
0.0000000001
 43
0.0000000001
 40
0.0
 40
0.0
 40
0.0
 40
11.6246039032777
 40
11.6246039032777
 40
11.6246039032777
 10
485.0568574975687
 20
1429.511769469944
 30
0.0
 41
0.9999999999999998
 10
486.2964955694387
 20
1423.831223171239
 30
0.0
 41
0.9995018120353596
 10
487.1752695762798
 20
1418.083783302406
 30
0.0
 41
1.0
  0
SPLINE
  5
135
330
1F
100
AcDbEntity
  8
DEFAULT
100
AcDbSpline
210
0.0
220
0.0
230
1.0
 70
    12
 71
     2
 72
     6
 73
     3
 74
     0
 42
0.0000000001
 43
0.0000000001
 40
0.0
 40
0.0
 40
0.0
 40
11.99237047717506
 40
11.99237047717506
 40
11.99237047717506
 10
487.1752695762798
 20
1418.083783302406
 30
0.0
 41
1.0
 10
488.0812862994193
 20
1412.154274690054
 30
0.0
 41
0.9994642487243136
 10
488.5981059924043
 20
1406.170421584276
 30
0.0
 41
1.0
  0
SPLINE
  5
136
330
1F
100
AcDbEntity
  8
DEFAULT
100
AcDbSpline
210
0.0
220
0.0
230
1.0
 70
    12
 71
     2
 72
     6
 73
     3
 74
     0
 42
0.0000000001
 43
0.0000000001
 40
0.0
 40
0.0
 40
0.0
 40
13.20570851851329
 40
13.20570851851329
 40
13.20570851851329
 10
488.5981059924043
 20
1406.170421584276
 30
0.0
 41
1.0
 10
489.1669375740603
 20
1399.581864835325
 30
0.0
 41
0.9994527884521603
 10
489.2987368786444
 20
1392.977915600369
 30
0.0
 41
1.0
  0
POLYLINE
  5
137
330
1F
100
AcDbEntity
  8
DEFAULT
100
AcDb2dPolyline
 66
     1
 10
0.0
 20
0.0
 30
0.0
  0
VERTEX
  5
139
330
137
100
AcDbEntity
  8
DEFAULT
100
AcDbVertex
100
AcDb2dVertex
 10
489.2987368786444
 20
1392.977915600369
 30
0.0
  0
VERTEX
  5
13A
330
137
100
AcDbEntity
  8
DEFAULT
100
AcDbVertex
100
AcDb2dVertex
 10
489.2992317630984
 20
1392.953542799844
 30
0.0
  0
SEQEND
  5
138
330
137
100
AcDbEntity
  8
DEFAULT
  0
SPLINE
  5
13B
330
1F
100
AcDbEntity
  8
DEFAULT
100
AcDbSpline
210
0.0
220
0.0
230
1.0
 70
    12
 71
     2
 72
     6
 73
     3
 74
     0
 42
0.0000000001
 43
0.0000000001
 40
0.0
 40
0.0
 40
0.0
 40
13.44181607852476
 40
13.44181607852476
 40
13.44181607852476
 10
489.2992317630984
 20
1392.953542799844
 30
0.0
 41
1.0
 10
489.4339797444724
 20
1386.232339396923
 30
0.0
 41
0.9996327794359664
 10
489.2042063641723
 20
1379.50801271366
 30
0.0
 41
1.0
  0
SPLINE
  5
13C
330
1F
100
AcDbEntity
  8
DEFAULT
100
AcDbSpline
210
0.0
220
0.0
230
1.0
 70
    12
 71
     2
 72
     6
 73
     3
 74
     0
 42
0.0000000001
 43
0.0000000001
 40
0.0
 40
0.0
 40
0.0
 40
7.347754276706052
 40
7.347754276706052
 40
7.347754276706052
 10
489.2042063641723
 20
1379.50801271366
 30
0.0
 41
1.0
 10
489.078938891575
 20
1375.830390008662
 30
0.0
 41
0.9999260612475478
 10
488.8646054965911
 20
1372.162588870377
 30
0.0
 41
1.0
  0
SPLINE
  5
13D
330
1F
100
AcDbEntity
  8
DEFAULT
100
AcDbSpline
210
0.0
220
0.0
230
1.0
 70
    12
 71
     2
 72
     6
 73
     3
 74
     0
 42
0.0000000001
 43
0.0000000001
 40
0.0
 40
0.0
 40
0.0
 40
5.393997138941002
 40
5.393997138941002
 40
5.393997138941002
 10
488.8646054965911
 20
1372.162588870377
 30
0.0
 41
1.0
 10
488.7073072418525
 20
1369.470110076337
 30
0.0
 41
0.9999604580355694
 10
488.5021482655284
 20
1366.78085467907
 30
0.0
 41
1.0
  0
SPLINE
  5
13E
330
1F
100
AcDbEntity
  8
DEFAULT
100
AcDbSpline
210
0.0
220
0.0
230
1.0
 70
    12
 71
     2
 72
     6
 73
     3
 74
     0
 42
0.0000000001
 43
0.0000000001
 40
0.0
 40
0.0
 40
0.0
 40
12.72159124250819
 40
12.72159124250819
 40
12.72159124250819
 10
488.5021482655284
 20
1366.78085467907
 30
0.0
 41
1.0
 10
488.0183797207986
 20
1360.438173002263
 30
0.0
 41
0.999927306366121
 10
487.3818098844804
 20
1354.109000726075
 30
0.0
 41
1.0
  0
SPLINE
  5
13F
330
1F
100
AcDbEntity
  8
DEFAULT
100
AcDbSpline
210
0.0
220
0.0
230
1.0
 70
    12
 71
     2
 72
     6
 73
     3
 74
     0
 42
0.0000000001
 43
0.0000000001
 40
0.0
 40
0.0
 40
0.0
 40
12.97999702221579
 40
12.97999702221579
 40
12.97999702221579
 10
487.3818098844804
 20
1354.109000726075
 30
0.0
 41
1.0
 10
486.7323284601833
 20
1347.651458748624
 30
0.0
 41
0.9999716208151408
 10
485.9856243591385
 20
1341.204435598631
 30
0.0
 41
1.0
  0
SPLINE
  5
140
330
1F
100
AcDbEntity
  8
DEFAULT
100
AcDbSpline
210
0.0
220
0.0
230
1.0
 70
    12
 71
     2
 72
     6
 73
     3
 74
     0
 42
0.0000000001
 43
0.0000000001
 40
0.0
 40
0.0
 40
0.0
 40
12.89882287767426
 40
12.89882287767426
 40
12.89882287767426
 10
485.9856243591385
 20
1341.204435598631
 30
0.0
 41
1.0
 10
485.2434808014685
 20
1334.79786117178
 30
0.0
 41
0.9999988272697438
 10
484.5209639010761
 20
1328.389043630641
 30
0.0
 41
1.0
  0
SPLINE
  5
141
330
1F
100
AcDbEntity
  8
DEFAULT
100
AcDbSpline
210
0.0
220
0.0
230
1.0
 70
    12
 71
     2
 72
     6
 73
     3
 74
     0
 42
0.0000000001
 43
0.0000000001
 40
0.0
 40
0.0
 40
0.0
 40
13.58098093281544
 40
13.58098093281544
 40
13.58098093281544
 10
484.5209639010761
 20
1328.389043630641
 30
0.0
 41
1.0
 10
483.7603238873759
 20
1321.641205927062
 30
0.0
 41
0.9999816837261786
 10
483.0814200742174
 20
1314.884655289588
 30
0.0
 41
1.0
  0
SPLINE
  5
142
330
1F
100
AcDbEntity
  8
DEFAULT
100
AcDbSpline
210
0.0
220
0.0
230
1.0
 70
    12
 71
     2
 72
     6
 73
     3
 74
     0
 42
0.0000000001
 43
0.0000000001
 40
0.0
 40
0.0
 40
0.0
 40
13.56775888741157
 40
13.56775888741157
 40
13.56775888741157
 10
483.0814200742174
 20
1314.884655289588
 30
0.0
 41
1.0
 10
482.4034150582203
 20
1308.134303984277
 30
0.0
 41
0.9999036445840856
 10
481.9130659695961
 20
1301.367732376874
 30
0.0
 41
1.0
  0
SPLINE
  5
143
330
1F
100
AcDbEntity
  8
DEFAULT
100
AcDbSpline
210
0.0
220
0.0
230
1.0
 70
    12
 71
     2
 72
     6
 73
     3
 74
     0
 42
0.0000000001
 43
0.0000000001
 40
0.0
 40
0.0
 40
0.0
 40
14.31749929186091
 40
14.31749929186091
 40
14.31749929186091
 10
481.9130659695961
 20
1301.367732376874
 30
0.0
 41
1.0
 10
481.3957268389685
 20
1294.226923903444
 30
0.0
 41
0.9998377498058065
 10
481.1359387972702
 20
1287.072114639481
 30
0.0
 41
1.0
  0
SPLINE
  5
144
330
1F
100
AcDbEntity
  8
DEFAULT
100
AcDbSpline
210
0.0
220
0.0
230
1.0
 70
    12
 71
     2
 72
     6
 73
     3
 74
     0
 42
0.0000000001
 43
0.0000000001
 40
0.0
 40
0.0
 40
0.0
 40
14.34492334644759
 40
14.34492334644759
 40
14.34492334644759
 10
481.1359387972702
 20
1287.072114639481
 30
0.0
 41
1.0
 10
480.8756918815221
 20
1279.903110584897
 30
0.0
 41
0.9997356130439145
 10
480.9453205356856
 20
1272.729140597433
 30
0.0
 41
1.0
  0
SPLINE
  5
145
330
1F
100
AcDbEntity
  8
DEFAULT
100
AcDbSpline
210
0.0
220
0.0
230
1.0
 70
    12
 71
     2
 72
     6
 73
     3
 74
     0
 42
0.0000000001
 43
0.0000000001
 40
0.0
 40
0.0
 40
0.0
 40
1.239706614541832
 40
1.239706614541832
 40
1.239706614541832
 10
480.9453205356856
 20
1272.729140597433
 30
0.0
 41
1.0
 10
480.9513300450773
 20
1272.108733794237
 30
0.0
 41
0.9999977681132639
 10
480.9599529515672
 20
1271.488939544992
 30
0.0
 41
1.0
  0
SPLINE
  5
146
330
1F
100
AcDbEntity
  8
DEFAULT
100
AcDbSpline
210
0.0
220
0.0
230
1.0
 70
    12
 71
     2
 72
     6
 73
     3
 74
     0
 42
0.0000000001
 43
0.0000000001
 40
0.0
 40
0.0
 40
0.0
 40
16.13880950686759
 40
16.13880950686759
 40
16.13880950686759
 10
480.9599529515672
 20
1271.488939544992
 30
0.0
 41
1.0
 10
481.0720930895465
 20
1263.418266464651
 30
0.0
 41
0.9996195598536401
 10
481.6292662911479
 20
1255.363577926363
 30
0.0
 41
1.0
  0
SPLINE
  5
147
330
1F
100
AcDbEntity
  8
DEFAULT
100
AcDbSpline
210
0.0
220
0.0
230
1.0
 70
    12
 71
     2
 72
     6
 73
     3
 74
     0
 42
0.0000000001
 43
0.0000000001
 40
0.0
 40
0.0
 40
0.0
 40
17.26610806674787
 40
17.26610806674787
 40
17.26610806674787
 10
481.6292662911479
 20
1255.363577926363
 30
0.0
 41
1.0
 10
482.2246872616773
 20
1246.746015863113
 30
0.0
 41
0.9995537897169581
 10
483.3333112459786
 20
1238.181849720507
 30
0.0
 41
1.0
  0
SPLINE
  5
148
330
1F
100
AcDbEntity
  8
DEFAULT
100
AcDbSpline
210
0.0
220
0.0
230
1.0
 70
    12
 71
     2
 72
     6
 73
     3
 74
     0
 42
0.0000000001
 43
0.0000000001
 40
0.0
 40
0.0
 40
0.0
 40
17.92406025589041
 40
17.92406025589041
 40
17.92406025589041
 10
483.3333112459786
 20
1238.181849720507
 30
0.0
 41
1.0
 10
484.4833299364039
 20
1229.291182779559
 30
0.0
 41
0.9995472146870098
 10
486.1660517816567
 20
1220.485789612033
 30
0.0
 41
1.0
  0
POLYLINE
  5
149
330
1F
100
AcDbEntity
  8
DEFAULT
100
AcDb2dPolyline
 66
     1
 10
0.0
 20
0.0
 30
0.0
  0
VERTEX
  5
14B
330
149
100
AcDbEntity
  8
DEFAULT
100
AcDbVertex
100
AcDb2dVertex
 10
486.1660517816567
 20
1220.485789612033
 30
0.0
  0
VERTEX
  5
14C
330
149
100
AcDbEntity
  8
DEFAULT
100
AcDbVertex
100
AcDb2dVertex
 10
486.1701654246517
 20
1220.464301841662
 30
0.0
  0
SEQEND
  5
14A
330
149
100
AcDbEntity
  8
DEFAULT
  0
SPLINE
  5
14D
330
1F
100
AcDbEntity
  8
DEFAULT
100
AcDbSpline
210
0.0
220
0.0
230
1.0
 70
    12
 71
     2
 72
     6
 73
     3
 74
     0
 42
0.0000000001
 43
0.0000000001
 40
0.0
 40
0.0
 40
0.0
 40
17.56362459357795
 40
17.56362459357795
 40
17.56362459357795
 10
486.1701654246517
 20
1220.464301841662
 30
0.0
 41
1.0
 10
487.819708809896
 20
1211.836970823951
 30
0.0
 41
0.99969274570044
 10
489.8947916373895
 20
1203.30199190611
 30
0.0
 41
1.0
  0
SPLINE
  5
14E
330
1F
100
AcDbEntity
  8
DEFAULT
100
AcDbSpline
210
0.0
220
0.0
230
1.0
 70
    12
 71
     2
 72
     6
 73
     3
 74
     0
 42
0.0000000001
 43
0.0000000001
 40
0.0
 40
0.0
 40
0.0
 40
18.3496650982557
 40
18.3496650982557
 40
18.3496650982557
 10
489.8947916373895
 20
1203.30199190611
 30
0.0
 41
1.0
 10
492.0625869134543
 20
1194.385187521106
 30
0.0
 41
0.9997222546174752
 10
494.6481459022733
 20
1185.580437580608
 30
0.0
 41
1.0
  0
POLYLINE
  5
14F
330
1F
100
AcDbEntity
  8
DEFAULT
100
AcDb2dPolyline
 66
     1
 10
0.0
 20
0.0
 30
0.0
  0
VERTEX
  5
151
330
14F
100
AcDbEntity
  8
DEFAULT
100
AcDbVertex
100
AcDb2dVertex
 10
494.6481459022733
 20
1185.580437580608
 30
0.0
  0
VERTEX
  5
152
330
14F
100
AcDbEntity
  8
DEFAULT
100
AcDbVertex
100
AcDb2dVertex
 10
494.6623100824828
 20
1185.532267214757
 30
0.0
  0
SEQEND
  5
150
330
14F
100
AcDbEntity
  8
DEFAULT
  0
SPLINE
  5
153
330
1F
100
AcDbEntity
  8
DEFAULT
100
AcDbSpline
210
0.0
220
0.0
230
1.0
 70
    12
 71
     2
 72
     6
 73
     3
 74
     0
 42
0.0000000001
 43
0.0000000001
 40
0.0
 40
0.0
 40
0.0
 40
17.89104281337417
 40
17.89104281337417
 40
17.89104281337417
 10
494.6623100824828
 20
1185.532267214757
 30
0.0
 41
1.0
 10
497.1849595024333
 20
1176.9489593962
 30
0.0
 41
0.9998633752655174
 10
499.989950536164
 20
1168.453727880534
 30
0.0
 41
1.0
  0
POLYLINE
  5
154
330
1F
100
AcDbEntity
  8
DEFAULT
100
AcDb2dPolyline
 66
     1
 10
0.0
 20
0.0
 30
0.0
  0
VERTEX
  5
156
330
154
100
AcDbEntity
  8
DEFAULT
100
AcDbVertex
100
AcDb2dVertex
 10
499.989950536164
 20
1168.453727880534
 30
0.0
  0
VERTEX
  5
157
330
154
100
AcDbEntity
  8
DEFAULT
100
AcDbVertex
100
AcDb2dVertex
 10
500.0115665202998
 20
1168.38831325909
 30
0.0
  0
SEQEND
  5
155
330
154
100
AcDbEntity
  8
DEFAULT
  0
SPLINE
  5
158
330
1F
100
AcDbEntity
  8
DEFAULT
100
AcDbSpline
210
0.0
220
0.0
230
1.0
 70
    12
 71
     2
 72
     6
 73
     3
 74
     0
 42
0.0000000001
 43
0.0000000001
 40
0.0
 40
0.0
 40
0.0
 40
18.26124859670951
 40
18.26124859670951
 40
18.26124859670951
 10
500.0115665202998
 20
1168.38831325909
 30
0.0
 41
1.0
 10
502.8757875244999
 20
1159.717932666075
 30
0.0
 41
0.9999014004194124
 10
505.982361108333
 20
1151.131404720689
 30
0.0
 41
1.0
  0
POLYLINE
  5
159
330
1F
100
AcDbEntity
  8
DEFAULT
100
AcDb2dPolyline
 66
     1
 10
0.0
 20
0.0
 30
0.0
  0
VERTEX
  5
15B
330
159
100
AcDbEntity
  8
DEFAULT
100
AcDbVertex
100
AcDb2dVertex
 10
473.8023901915506
 20
1466.076284722081
 30
0.0
  0
VERTEX
  5
15C
330
159
100
AcDbEntity
  8
DEFAULT
100
AcDbVertex
100
AcDb2dVertex
 10
469.5858660267185
 20
1466.076284723739
 30
0.0
  0
SEQEND
  5
15A
330
159
100
AcDbEntity
  8
DEFAULT
  0
POLYLINE
  5
15D
330
1F
100
AcDbEntity
  8
DEFAULT
100
AcDb2dPolyline
 66
     1
 10
0.0
 20
0.0
 30
0.0
  0
VERTEX
  5
15F
330
15D
100
AcDbEntity
  8
DEFAULT
100
AcDbVertex
100
AcDb2dVertex
 10
541.0344783791306
 20
1001.883391503728
 30
0.0
  0
VERTEX
  5
160
330
15D
100
AcDbEntity
  8
DEFAULT
100
AcDbVertex
100
AcDb2dVertex
 10
548.0623324898597
 20
1001.883391503728
 30
0.0
  0
VERTEX
  5
161
330
15D
100
AcDbEntity
  8
DEFAULT
100
AcDbVertex
100
AcDb2dVertex
 10
548.0623324898597
 20
1011.683391503277
 30
0.0
  0
VERTEX
  5
162
330
15D
100
AcDbEntity
  8
DEFAULT
100
AcDbVertex
100
AcDb2dVertex
 10
541.0344783791306
 20
1011.683391503277
 30
0.0
  0
VERTEX
  5
163
330
15D
100
AcDbEntity
  8
DEFAULT
100
AcDbVertex
100
AcDb2dVertex
 10
541.0344783791306
 20
1001.883391503728
 30
0.0
  0
SEQEND
  5
15E
330
15D
100
AcDbEntity
  8
DEFAULT
  0
SPLINE
  5
164
330
1F
100
AcDbEntity
  8
DEFAULT
100
AcDbSpline
210
0.0
220
0.0
230
1.0
 70
    24
 71
     2
 72
     6
 73
     3
 74
     0
 42
0.0000000001
 43
0.0000000001
 40
0.0
 40
0.0
 40
0.0
 40
1.997107564761336
 40
1.997107564761336
 40
1.997107564761336
 10
533.1200455262815
 20
1009.686283938515
 30
0.0
 10
533.1200455262815
 20
1010.684837720896
 30
0.0
 10
533.1200455262815
 20
1011.683391503277
 30
0.0
  0
SPLINE
  5
165
330
1F
100
AcDbEntity
  8
DEFAULT
100
AcDbSpline
210
0.0
220
0.0
230
1.0
 70
    24
 71
     2
 72
     6
 73
     3
 74
     0
 42
0.0000000001
 43
0.0000000001
 40
-5.500168893968294
 40
-5.500168893968294
 40
-5.500168893968294
 40
0.0
 40
0.0
 40
0.0
 10
533.1200455262815
 20
1011.683391503277
 30
0.0
 10
535.8701299732656
 20
1011.683391503277
 30
0.0
 10
538.6202144202498
 20
1011.683391503277
 30
0.0
  0
SPLINE
  5
166
330
1F
100
AcDbEntity
  8
DEFAULT
100
AcDbSpline
210
0.0
220
0.0
230
1.0
 70
    24
 71
     2
 72
     6
 73
     3
 74
     0
 42
0.0000000001
 43
0.0000000001
 40
0.0
 40
0.0
 40
0.0
 40
0.268341556597079
 40
0.268341556597079
 40
0.268341556597079
 10
538.6202144202498
 20
1011.683391503277
 30
0.0
 10
538.7543851985483
 20
1011.683391503277
 30
0.0
 10
538.8885559768469
 20
1011.683391503277
 30
0.0
  0
SPLINE
  5
167
330
1F
100
AcDbEntity
  8
DEFAULT
100
AcDbSpline
210
0.0
220
0.0
230
1.0
 70
    24
 71
     2
 72
     6
 73
     3
 74
     0
 42
0.0000000001
 43
0.0000000001
 40
-0.9050620551042812
 40
-0.9050620551042812
 40
-0.9050620551042812
 40
0.0
 40
0.0
 40
0.0
 10
538.8885559768469
 20
1011.683391503277
 30
0.0
 10
539.341087004399
 20
1011.683391503277
 30
0.0
 10
539.7936180319512
 20
1011.683391503277
 30
0.0
  0
SPLINE
  5
168
330
1F
100
AcDbEntity
  8
DEFAULT
100
AcDbSpline
210
0.0
220
0.0
230
1.0
 70
    24
 71
     2
 72
     6
 73
     3
 74
     0
 42
0.0000000001
 43
0.0000000001
 40
0.0
 40
0.0
 40
0.0
 40
0.2688780185271753
 40
0.2688780185271753
 40
0.2688780185271753
 10
539.7936180319512
 20
1011.683391503277
 30
0.0
 10
539.9280570412147
 20
1011.683391503277
 30
0.0
 10
540.0624960504783
 20
1011.683391503277
 30
0.0
  0
SPLINE
  5
169
330
1F
100
AcDbEntity
  8
DEFAULT
100
AcDbSpline
210
0.0
220
0.0
230
1.0
 70
    24
 71
     2
 72
     6
 73
     3
 74
     0
 42
0.0000000001
 43
0.0000000001
 40
-0.7514970838183217
 40
-0.7514970838183217
 40
-0.7514970838183217
 40
0.0
 40
0.0
 40
0.0
 10
540.0624960504783
 20
1011.683391503277
 30
0.0
 10
540.4382445923875
 20
1011.683391503277
 30
0.0
 10
540.8139931342967
 20
1011.683391503277
 30
0.0
  0
SPLINE
  5
16A
330
1F
100
AcDbEntity
  8
DEFAULT
100
AcDbSpline
210
0.0
220
0.0
230
1.0
 70
    24
 71
     2
 72
     6
 73
     3
 74
     0
 42
0.0000000001
 43
0.0000000001
 40
0.0
 40
0.0
 40
0.0
 40
0.2092841748217324
 40
0.2092841748217324
 40
0.2092841748217324
 10
540.8139931342967
 20
1011.683391503277
 30
0.0
 10
540.9214354892106
 20
1011.683391503277
 30
0.0
 10
541.0288778441245
 20
1011.683391503277
 30
0.0
  0
SPLINE
  5
16B
330
1F
100
AcDbEntity
  8
DEFAULT
100
AcDbSpline
210
0.0
220
0.0
230
1.0
 70
    24
 71
     2
 72
     6
 73
     3
 74
     0
 42
0.0000000001
 43
0.0000000001
 40
0.0
 40
0.0
 40
0.0
 40
9.799999999548163
 40
9.799999999548163
 40
9.799999999548163
 10
541.0288778441245
 20
1011.683391503277
 30
0.0
 10
541.0316781116276
 20
1006.783391503503
 30
0.0
 10
541.0344783791306
 20
1001.883391503728
 30
0.0
  0
POLYLINE
  5
16C
330
1F
100
AcDbEntity
  8
DEFAULT
100
AcDb2dPolyline
 66
     1
 10
0.0
 20
0.0
 30
0.0
  0
VERTEX
  5
16E
330
16C
100
AcDbEntity
  8
DEFAULT
100
AcDbVertex
100
AcDb2dVertex
 10
541.0344783791306
 20
1001.883391503728
 30
0.0
  0
VERTEX
  5
16F
330
16C
100
AcDbEntity
  8
DEFAULT
100
AcDbVertex
100
AcDb2dVertex
 10
533.1200455262815
 20
1001.883391503727
 30
0.0
  0
SEQEND
  5
16D
330
16C
100
AcDbEntity
  8
DEFAULT
  0
SPLINE
  5
170
330
1F
100
AcDbEntity
  8
DEFAULT
100
AcDbSpline
210
0.0
220
0.0
230
1.0
 70
    24
 71
     2
 72
     6
 73
     3
 74
     0
 42
0.0000000001
 43
0.0000000001
 40
0.0
 40
0.0
 40
0.0
 40
1.997107564311818
 40
1.997107564311818
 40
1.997107564311818
 10
533.1200455262815
 20
1001.883391503727
 30
0.0
 10
533.1200455262815
 20
1002.881945285883
 30
0.0
 10
533.1200455262815
 20
1003.880499068039
 30
0.0
  0
SPLINE
  5
171
330
1F
100
AcDbEntity
  8
LINEE VISIBILI 2D
100
AcDbSpline
210
0.0
220
0.0
230
1.0
 70
    24
 71
     2
 72
     6
 73
     3
 74
     0
 42
0.0000000001
 43
0.0000000001
 40
0.0
 40
0.0
 40
0.0
 40
2.237759058290976
 40
2.237759058290976
 40
2.237759058290976
 10
534.8395028944142
 20
1010.283391503277
 30
0.0
 10
535.9583824235597
 20
1010.283391503277
 30
0.0
 10
537.0772619527052
 20
1010.283391503276
 30
0.0
  0
SPLINE
  5
172
330
1F
100
AcDbEntity
  8
LINEE VISIBILI 2D
100
AcDbSpline
210
0.0
220
0.0
230
1.0
 70
    12
 71
     2
 72
     8
 73
     5
 74
     0
 42
0.0000000001
 43
0.0000000001
 40
5.496919041383134
 40
5.496919041383134
 40
5.496919041383134
 40
10.99383808276621
 40
10.99383808276621
 40
16.49075712414936
 40
16.49075712414936
 40
16.49075712414936
 10
537.0772619527052
 20
1010.283391503276
 30
0.0
 41
1.0
 10
540.1550950619602
 20
1010.283391503277
 30
0.0
 41
0.7071067811865476
 10
540.1550950619603
 20
1006.783391503276
 30
0.0
 41
1.0
 10
540.1550950619602
 20
1003.283391503277
 30
0.0
 41
0.7071067811865476
 10
537.0772619527047
 20
1003.283391503276
 30
0.0
 41
1.0
  0
SPLINE
  5
173
330
1F
100
AcDbEntity
  8
LINEE VISIBILI 2D
100
AcDbSpline
210
0.0
220
0.0
230
1.0
 70
    24
 71
     2
 72
     6
 73
     3
 74
     0
 42
0.0000000001
 43
0.0000000001
 40
0.0
 40
0.0
 40
0.0
 40
2.237759058290976
 40
2.237759058290976
 40
2.237759058290976
 10
537.0772619527047
 20
1003.283391503276
 30
0.0
 10
535.958382423559
 20
1003.283391503276
 30
0.0
 10
534.8395028944133
 20
1003.283391503276
 30
0.0
  0
SPLINE
  5
174
330
1F
100
AcDbEntity
  8
LINEE VISIBILI 2D
100
AcDbSpline
210
0.0
220
0.0
230
1.0
 70
    12
 71
     2
 72
    10
 73
     7
 74
     0
 42
0.0000000001
 43
0.0000000001
 40
-2.309401076758424
 40
-2.309401076758424
 40
-2.309401076758424
 40
0.0
 40
0.0
 40
2.309401076758424
 40
2.309401076758424
 40
4.618802153517198
 40
4.618802153517198
 40
4.618802153517198
 10
533.8240813091861
 20
1004.783391503276
 30
0.0
 41
1.0
 10
533.3163705165721
 20
1005.783391503276
 30
0.0
 41
1.0
 10
532.808659723958
 20
1006.783391503276
 30
0.0
 41
1.0
 10
533.3163705165721
 20
1007.783391503276
 30
0.0
 41
1.0
 10
533.8240813091861
 20
1008.783391503276
 30
0.0
 41
1.0
 10
534.8395028944142
 20
1008.783391503276
 30
0.0
 41
1.0
 10
535.8549244796422
 20
1008.783391503276
 30
0.0
 41
1.0
  0
SPLINE
  5
175
330
1F
100
AcDbEntity
  8
LINEE VISIBILI 2D
100
AcDbSpline
210
0.0
220
0.0
230
1.0
 70
    24
 71
     2
 72
     6
 73
     3
 74
     0
 42
0.0000000001
 43
0.0000000001
 40
0.0
 40
0.0
 40
0.0
 40
2.243007132344229
 40
2.243007132344229
 40
2.243007132344229
 10
535.8549244796422
 20
1008.783391503276
 30
0.0
 10
536.3626352722563
 20
1007.783391503276
 30
0.0
 10
536.8703460648703
 20
1006.783391503276
 30
0.0
  0
SPLINE
  5
176
330
1F
100
AcDbEntity
  8
LINEE VISIBILI 2D
100
AcDbSpline
210
0.0
220
0.0
230
1.0
 70
    12
 71
     2
 72
     8
 73
     5
 74
     0
 42
0.0000000001
 43
0.0000000001
 40
6.928203230275646
 40
6.928203230275646
 40
6.928203230275646
 40
9.237604307034095
 40
9.237604307034095
 40
11.54700538379287
 40
11.54700538379287
 40
11.54700538379287
 10
536.8703460648703
 20
1006.783391503276
 30
0.0
 41
1.0
 10
536.3626352722563
 20
1005.783391503276
 30
0.0
 41
1.0
 10
535.8549244796422
 20
1004.783391503276
 30
0.0
 41
1.0
 10
534.8395028944142
 20
1004.783391503276
 30
0.0
 41
1.0
 10
533.8240813091861
 20
1004.783391503276
 30
0.0
 41
1.0
  0
SPLINE
  5
177
330
1F
100
AcDbEntity
  8
LINEE VISIBILI 2D
100
AcDbSpline
210
0.0
220
0.0
230
1.0
 70
    12
 71
     2
 72
     6
 73
     3
 74
     0
 42
0.0000000001
 43
0.0000000001
 40
0.0
 40
0.0
 40
0.0
 40
0.2870635317924993
 40
0.2870635317924993
 40
0.2870635317924993
 10
535.3995548017892
 20
1003.341822713818
 30
0.0
 41
1.0
 10
535.2589726764529
 20
1003.312223978719
 30
0.0
 41
0.9986172204402525
 10
535.1160598583892
 20
1003.297549323131
 30
0.0
 41
1.0
  0
SPLINE
  5
178
330
1F
100
AcDbEntity
  8
LINEE VISIBILI 2D
100
AcDbSpline
210
0.0
220
0.0
230
1.0
 70
    12
 71
     2
 72
     8
 73
     5
 74
     0
 42
0.0000000001
 43
0.0000000001
 40
16.14974973486003
 40
16.14974973486003
 40
16.14974973486003
 40
16.49336143134641
 40
16.49336143134641
 40
21.99114857512855
 40
21.99114857512855
 40
21.99114857512855
 10
535.1160598583892
 20
1003.297549323131
 30
0.0
 41
0.9656765759202959
 10
534.9780616177509
 20
1003.283391503276
 30
0.0
 41
0.9816941738241578
 10
534.8395028944142
 20
1003.283391503276
 30
0.0
 41
1.0
 10
531.7616697851587
 20
1003.283391503276
 30
0.0
 41
0.7071067811865246
 10
531.7616697851599
 20
1006.783391503276
 30
0.0
 41
1.0
  0
SPLINE
  5
179
330
1F
100
AcDbEntity
  8
LINEE VISIBILI 2D
100
AcDbSpline
210
0.0
220
0.0
230
1.0
 70
    12
 71
     2
 72
    10
 73
     7
 74
     0
 42
0.0000000001
 43
0.0000000001
 40
0.0
 40
0.0
 40
0.0
 40
5.497787143782138
 40
5.497787143782138
 40
10.99557428756428
 40
10.99557428756428
 40
15.80613803837365
 40
15.80613803837365
 40
15.80613803837365
 10
531.7616697851599
 20
1006.783391503276
 30
0.0
 41
1.0
 10
531.7616697851593
 20
1010.283391503277
 30
0.0
 41
0.7071067811865476
 10
534.8395028944142
 20
1010.283391503277
 30
0.0
 41
1.0
 10
537.9173360036693
 20
1010.283391503277
 30
0.0
 41
0.7071067811865476
 10
537.9173360036693
 20
1006.783391503276
 30
0.0
 41
1.0
 10
537.917336003669
 20
1003.871651764513
 30
0.0
 41
0.7437184335382091
 10
535.3995548017892
 20
1003.341822713818
 30
0.0
 41
0.9359296083845522
  0
POLYLINE
  5
17A
330
1F
100
AcDbEntity
  8
DEFAULT
100
AcDb2dPolyline
 66
     1
 10
0.0
 20
0.0
 30
0.0
  0
VERTEX
  5
17C
330
17A
100
AcDbEntity
  8
DEFAULT
100
AcDbVertex
100
AcDb2dVertex
 10
532.808659723958
 20
1006.783391503276
 30
0.0
  0
VERTEX
  5
17D
330
17A
100
AcDbEntity
  8
DEFAULT
100
AcDbVertex
100
AcDb2dVertex
 10
536.8703460648703
 20
1006.783391503276
 30
0.0
  0
SEQEND
  5
17B
330
17A
100
AcDbEntity
  8
DEFAULT
  0
POLYLINE
  5
17E
330
1F
100
AcDbEntity
  8
DEFAULT
100
AcDb2dPolyline
 66
     1
 10
0.0
 20
0.0
 30
0.0
  0
VERTEX
  5
180
330
17E
100
AcDbEntity
  8
DEFAULT
100
AcDbVertex
100
AcDb2dVertex
 10
489.4598117092437
 20
1001.88339150372
 30
0.0
  0
VERTEX
  5
181
330
17E
100
AcDbEntity
  8
DEFAULT
100
AcDbVertex
100
AcDb2dVertex
 10
498.4598117092437
 20
1001.88339150372
 30
0.0
  0
VERTEX
  5
182
330
17E
100
AcDbEntity
  8
DEFAULT
100
AcDbVertex
100
AcDb2dVertex
 10
498.4598117092437
 20
1003.783391463395
 30
0.0
  0
VERTEX
  5
183
330
17E
100
AcDbEntity
  8
DEFAULT
100
AcDbVertex
100
AcDb2dVertex
 10
489.4598117092437
 20
1003.783391463395
 30
0.0
  0
VERTEX
  5
184
330
17E
100
AcDbEntity
  8
DEFAULT
100
AcDbVertex
100
AcDb2dVertex
 10
489.4598117092437
 20
1001.88339150372
 30
0.0
  0
SEQEND
  5
17F
330
17E
100
AcDbEntity
  8
DEFAULT
  0
POLYLINE
  5
185
330
1F
100
AcDbEntity
  8
DEFAULT
100
AcDb2dPolyline
 66
     1
 10
0.0
 20
0.0
 30
0.0
  0
VERTEX
  5
187
330
185
100
AcDbEntity
  8
DEFAULT
100
AcDbVertex
100
AcDb2dVertex
 10
491.4598117092437
 20
1003.783391463395
 30
0.0
  0
VERTEX
  5
188
330
185
100
AcDbEntity
  8
DEFAULT
100
AcDbVertex
100
AcDb2dVertex
 10
496.4598117092437
 20
1003.783391463395
 30
0.0
  0
VERTEX
  5
189
330
185
100
AcDbEntity
  8
DEFAULT
100
AcDbVertex
100
AcDb2dVertex
 10
496.4598117092437
 20
1011.783391463394
 30
0.0
  0
VERTEX
  5
18A
330
185
100
AcDbEntity
  8
DEFAULT
100
AcDbVertex
100
AcDb2dVertex
 10
491.4598117092437
 20
1011.783391463394
 30
0.0
  0
VERTEX
  5
18B
330
185
100
AcDbEntity
  8
DEFAULT
100
AcDbVertex
100
AcDb2dVertex
 10
491.4598117092437
 20
1003.783391463395
 30
0.0
  0
SEQEND
  5
186
330
185
100
AcDbEntity
  8
DEFAULT
  0
POLYLINE
  5
18C
330
1F
100
AcDbEntity
  8
DEFAULT
100
AcDb2dPolyline
 66
     1
 10
0.0
 20
0.0
 30
0.0
  0
VERTEX
  5
18E
330
18C
100
AcDbEntity
  8
DEFAULT
100
AcDbVertex
100
AcDb2dVertex
 10
493.5598117092431
 20
1011.783391463396
 30
0.0
  0
VERTEX
  5
18F
330
18C
100
AcDbEntity
  8
DEFAULT
100
AcDbVertex
100
AcDb2dVertex
 10
494.3598117092433
 20
1011.783391463396
 30
0.0
  0
VERTEX
  5
190
330
18C
100
AcDbEntity
  8
DEFAULT
100
AcDbVertex
100
AcDb2dVertex
 10
494.3598117092433
 20
1466.076284722079
 30
0.0
  0
VERTEX
  5
191
330
18C
100
AcDbEntity
  8
DEFAULT
100
AcDbVertex
100
AcDb2dVertex
 10
493.5598117092431
 20
1466.076284722079
 30
0.0
  0
VERTEX
  5
192
330
18C
100
AcDbEntity
  8
DEFAULT
100
AcDbVertex
100
AcDb2dVertex
 10
493.5598117092431
 20
1011.783391463396
 30
0.0
  0
SEQEND
  5
18D
330
18C
100
AcDbEntity
  8
DEFAULT
  0
SPLINE
  5
193
330
1F
100
AcDbEntity
  8
LINEE VISIBILI 2D
100
AcDbSpline
210
0.0
220
0.0
230
1.0
 70
    24
 71
     2
 72
     6
 73
     3
 74
     0
 42
0.0000000001
 43
0.0000000001
 40
0.0
 40
0.0
 40
0.0
 40
57.86662604528878
 40
57.86662604528878
 40
57.86662604528878
 10
422.4132773448437
 20
1466.07628472208
 30
0.0
 10
403.1657444759126
 20
1487.679838112678
 30
0.0
 10
383.9182116069815
 20
1509.283391503276
 30
0.0
  0
SPLINE
  5
194
330
1F
100
AcDbEntity
  8
LINEE VISIBILI 2D
100
AcDbSpline
210
0.0
220
0.0
230
1.0
 70
    28
 71
     2
 72
     8
 73
     5
 74
     0
 42
0.0000000001
 43
0.0000000001
 40
0.0
 40
0.0
 40
0.0
 40
247.4142135623747
 40
247.4142135623747
 40
494.8284271247481
 40
494.8284271247481
 40
494.8284271247481
 10
383.9182116069815
 20
1509.283391503276
 30
0.0
 41
1.0
 10
382.7221002332053
 20
1509.283391503276
 30
0.0
 41
0.707106781186548
 10
492.9435525054632
 20
1509.283391503276
 30
0.0
 41
1.0
 10
603.1650047777223
 20
1509.283391503276
 30
0.0
 41
0.707106781186548
 10
604.3611161514991
 20
1509.283391503276
 30
0.0
 41
1.0
  0
SPLINE
  5
195
330
1F
100
AcDbEntity
  8
LINEE VISIBILI 2D
100
AcDbSpline
210
0.0
220
0.0
230
1.0
 70
    24
 71
     2
 72
     6
 73
     3
 74
     0
 42
0.0000000001
 43
0.0000000001
 40
0.0
 40
0.0
 40
0.0
 40
57.86943555837103
 40
57.86943555837103
 40
57.86943555837103
 10
604.3611161514991
 20
1509.283391503276
 30
0.0
 10
585.112625980561
 20
1487.679838112678
 30
0.0
 10
565.8641358096229
 20
1466.07628472208
 30
0.0
  0
SPLINE
  5
196
330
1F
100
AcDbEntity
  8
LINEE VISIBILI 2D
100
AcDbSpline
210
0.0
220
0.0
230
1.0
 70
    24
 71
     2
 72
     6
 73
     3
 74
     0
 42
0.0000000001
 43
0.0000000001
 40
0.0
 40
0.0
 40
0.0
 40
143.4485499279989
 40
143.4485499279989
 40
143.4485499279989
 10
565.8641358096229
 20
1466.07628472208
 30
0.0
 10
494.1387065772333
 20
1466.07628472208
 30
0.0
 10
422.4132773448437
 20
1466.07628472208
 30
0.0
  0
POLYLINE
  5
197
330
1F
100
AcDbEntity
  8
DEFAULT
100
AcDb2dPolyline
 66
     1
 10
0.0
 20
0.0
 30
0.0
  0
VERTEX
  5
199
330
197
100
AcDbEntity
  8
DEFAULT
100
AcDbVertex
100
AcDb2dVertex
 10
218.9565832945127
 20
1507.283391503276
 30
0.0
  0
VERTEX
  5
19A
330
197
100
AcDbEntity
  8
DEFAULT
100
AcDbVertex
100
AcDb2dVertex
 10
235.0072676138107
 20
1507.283391503276
 30
0.0
  0
VERTEX
  5
19B
330
197
100
AcDbEntity
  8
DEFAULT
100
AcDbVertex
100
AcDb2dVertex
 10
235.0072676138107
 20
1509.283391503276
 30
0.0
  0
VERTEX
  5
19C
330
197
100
AcDbEntity
  8
DEFAULT
100
AcDbVertex
100
AcDb2dVertex
 10
218.9565832945127
 20
1509.283391503276
 30
0.0
  0
VERTEX
  5
19D
330
197
100
AcDbEntity
  8
DEFAULT
100
AcDbVertex
100
AcDb2dVertex
 10
218.9565832945127
 20
1507.283391503276
 30
0.0
  0
SEQEND
  5
198
330
197
100
AcDbEntity
  8
DEFAULT
  0
POLYLINE
  5
19E
330
1F
100
AcDbEntity
  8
DEFAULT
100
AcDb2dPolyline
 66
     1
 10
0.0
 20
0.0
 30
0.0
  0
VERTEX
  5
1A0
330
19E
100
AcDbEntity
  8
DEFAULT
100
AcDbVertex
100
AcDb2dVertex
 10
220.9968811084173
 20
1478.283391503277
 30
0.0
  0
VERTEX
  5
1A1
330
19E
100
AcDbEntity
  8
DEFAULT
100
AcDbVertex
100
AcDb2dVertex
 10
232.9669697999061
 20
1478.283391503277
 30
0.0
  0
VERTEX
  5
1A2
330
19E
100
AcDbEntity
  8
DEFAULT
100
AcDbVertex
100
AcDb2dVertex
 10
232.9669697999061
 20
1507.283391503276
 30
0.0
  0
VERTEX
  5
1A3
330
19E
100
AcDbEntity
  8
DEFAULT
100
AcDbVertex
100
AcDb2dVertex
 10
220.9968811084173
 20
1507.283391503276
 30
0.0
  0
VERTEX
  5
1A4
330
19E
100
AcDbEntity
  8
DEFAULT
100
AcDbVertex
100
AcDb2dVertex
 10
220.9968811084173
 20
1478.283391503277
 30
0.0
  0
SEQEND
  5
19F
330
19E
100
AcDbEntity
  8
DEFAULT
  0
POLYLINE
  5
1A5
330
1F
100
AcDbEntity
  8
DEFAULT
100
AcDb2dPolyline
 66
     1
 10
0.0
 20
0.0
 30
0.0
  0
VERTEX
  5
1A7
330
1A5
100
AcDbEntity
  8
DEFAULT
100
AcDbVertex
100
AcDb2dVertex
 10
223.8680111843478
 20
1468.283391503277
 30
0.0
  0
VERTEX
  5
1A8
330
1A5
100
AcDbEntity
  8
DEFAULT
100
AcDbVertex
100
AcDb2dVertex
 10
230.0958397239747
 20
1468.283391503277
 30
0.0
  0
VERTEX
  5
1A9
330
1A5
100
AcDbEntity
  8
DEFAULT
100
AcDbVertex
100
AcDb2dVertex
 10
230.0958397239747
 20
1478.283391503277
 30
0.0
  0
VERTEX
  5
1AA
330
1A5
100
AcDbEntity
  8
DEFAULT
100
AcDbVertex
100
AcDb2dVertex
 10
223.8680111843478
 20
1478.283391503277
 30
0.0
  0
VERTEX
  5
1AB
330
1A5
100
AcDbEntity
  8
DEFAULT
100
AcDbVertex
100
AcDb2dVertex
 10
223.8680111843478
 20
1468.283391503277
 30
0.0
  0
SEQEND
  5
1A6
330
1A5
100
AcDbEntity
  8
DEFAULT
  0
POLYLINE
  5
1AC
330
1F
100
AcDbEntity
  8
DEFAULT
100
AcDb2dPolyline
 66
     1
 10
0.0
 20
0.0
 30
0.0
  0
VERTEX
  5
1AE
330
1AC
100
AcDbEntity
  8
DEFAULT
100
AcDbVertex
100
AcDb2dVertex
 10
226.5877182204285
 20
1087.783391503276
 30
0.0
  0
VERTEX
  5
1AF
330
1AC
100
AcDbEntity
  8
DEFAULT
100
AcDbVertex
100
AcDb2dVertex
 10
227.3877182204287
 20
1087.783391503276
 30
0.0
  0
VERTEX
  5
1B0
330
1AC
100
AcDbEntity
  8
DEFAULT
100
AcDbVertex
100
AcDb2dVertex
 10
227.3877182204287
 20
1468.283391503277
 30
0.0
  0
VERTEX
  5
1B1
330
1AC
100
AcDbEntity
  8
DEFAULT
100
AcDbVertex
100
AcDb2dVertex
 10
226.5877182204285
 20
1468.283391503277
 30
0.0
  0
VERTEX
  5
1B2
330
1AC
100
AcDbEntity
  8
DEFAULT
100
AcDbVertex
100
AcDb2dVertex
 10
226.5877182204285
 20
1087.783391503276
 30
0.0
  0
SEQEND
  5
1AD
330
1AC
100
AcDbEntity
  8
DEFAULT
  0
POLYLINE
  5
1B3
330
1F
100
AcDbEntity
  8
DEFAULT
100
AcDb2dPolyline
 66
     1
 10
0.0
 20
0.0
 30
0.0
  0
VERTEX
  5
1B5
330
1B3
100
AcDbEntity
  8
DEFAULT
100
AcDbVertex
100
AcDb2dVertex
 10
224.5072676138107
 20
1079.783391503277
 30
0.0
  0
VERTEX
  5
1B6
330
1B3
100
AcDbEntity
  8
DEFAULT
100
AcDbVertex
100
AcDb2dVertex
 10
229.5072676138107
 20
1079.783391503277
 30
0.0
  0
VERTEX
  5
1B7
330
1B3
100
AcDbEntity
  8
DEFAULT
100
AcDbVertex
100
AcDb2dVertex
 10
229.5072676138107
 20
1087.783391503276
 30
0.0
  0
VERTEX
  5
1B8
330
1B3
100
AcDbEntity
  8
DEFAULT
100
AcDbVertex
100
AcDb2dVertex
 10
224.5072676138107
 20
1087.783391503276
 30
0.0
  0
VERTEX
  5
1B9
330
1B3
100
AcDbEntity
  8
DEFAULT
100
AcDbVertex
100
AcDb2dVertex
 10
224.5072676138107
 20
1079.783391503277
 30
0.0
  0
SEQEND
  5
1B4
330
1B3
100
AcDbEntity
  8
DEFAULT
  0
POLYLINE
  5
1BA
330
1F
100
AcDbEntity
  8
DEFAULT
100
AcDb2dPolyline
 66
     1
 10
0.0
 20
0.0
 30
0.0
  0
VERTEX
  5
1BC
330
1BA
100
AcDbEntity
  8
DEFAULT
100
AcDbVertex
100
AcDb2dVertex
 10
231.5072676138107
 20
1068.156112765697
 30
0.0
  0
VERTEX
  5
1BD
330
1BA
100
AcDbEntity
  8
DEFAULT
100
AcDbVertex
100
AcDb2dVertex
 10
231.5072676138107
 20
1061.783391503277
 30
0.0
  0
VERTEX
  5
1BE
330
1BA
100
AcDbEntity
  8
DEFAULT
100
AcDbVertex
100
AcDb2dVertex
 10
222.5072676138107
 20
1061.783391503277
 30
0.0
  0
VERTEX
  5
1BF
330
1BA
100
AcDbEntity
  8
DEFAULT
100
AcDbVertex
100
AcDb2dVertex
 10
222.5072676138107
 20
1079.783391503277
 30
0.0
  0
VERTEX
  5
1C0
330
1BA
100
AcDbEntity
  8
DEFAULT
100
AcDbVertex
100
AcDb2dVertex
 10
231.5072676138107
 20
1079.783391503277
 30
0.0
  0
VERTEX
  5
1C1
330
1BA
100
AcDbEntity
  8
DEFAULT
100
AcDbVertex
100
AcDb2dVertex
 10
231.5072676138107
 20
1069.085391131992
 30
0.0
  0
SEQEND
  5
1BB
330
1BA
100
AcDbEntity
  8
DEFAULT
  0
POLYLINE
  5
1C2
330
1F
100
AcDbEntity
  8
DEFAULT
100
AcDb2dPolyline
 66
     1
 10
0.0
 20
0.0
 30
0.0
  0
VERTEX
  5
1C4
330
1C2
100
AcDbEntity
  8
DEFAULT
100
AcDbVertex
100
AcDb2dVertex
 10
222.5072676138113
 20
1067.949664472306
 30
0.0
  0
VERTEX
  5
1C5
330
1C2
100
AcDbEntity
  8
DEFAULT
100
AcDbVertex
100
AcDb2dVertex
 10
222.5072676138118
 20
1068.899267325457
 30
0.0
  0
SEQEND
  5
1C3
330
1C2
100
AcDbEntity
  8
DEFAULT
  0
SPLINE
  5
1C6
330
1F
100
AcDbEntity
  8
DEFAULT
100
AcDbSpline
210
0.0
220
0.0
230
1.0
 70
     8
 71
     3
 72
    11
 73
     7
 74
     0
 42
0.0000000001
 43
0.0000000001
 40
-10.34860661855547
 40
-10.34860661855547
 40
-10.34860661855547
 40
-10.34860661855547
 40
-5.62497377810788
 40
-2.880042317439528
 40
-1.467356752668555
 40
0.0
 40
0.0
 40
0.0
 40
0.0
 10
222.5072676138118
 20
1068.899267325457
 30
0.0
 10
221.1663602857116
 20
1068.066865588795
 30
0.0
 10
219.347797848339
 20
1066.32260694109
 30
0.0
 10
217.644319296139
 20
1063.901605848214
 30
0.0
 10
216.6961309851986
 20
1062.279007682341
 30
0.0
 10
216.2572122452652
 20
1061.427679195698
 30
0.0
 10
216.0430550695951
 20
1060.986900282927
 30
0.0
  0
SPLINE
  5
1C7
330
1F
100
AcDbEntity
  8
DEFAULT
100
AcDbSpline
210
0.0
220
0.0
230
1.0
 70
    12
 71
     2
 72
     6
 73
     3
 74
     0
 42
0.0000000001
 43
0.0000000001
 40
-0.6223735380208545
 40
-0.6223735380208545
 40
-0.6223735380208545
 40
0.0
 40
0.0
 40
0.0
 10
216.0430550695951
 20
1060.986900282927
 30
0.0
 41
1.0
 10
215.9027047275102
 20
1060.709082887104
 30
0.0
 41
0.9996630968663016
 10
215.7769604627206
 20
1060.424356520542
 30
0.0
 41
0.999999999999998
  0
SPLINE
  5
1C8
330
1F
100
AcDbEntity
  8
DEFAULT
100
AcDbSpline
210
0.0
220
0.0
230
1.0
 70
    24
 71
     2
 72
     6
 73
     3
 74
     0
 42
0.0000000001
 43
0.0000000001
 40
-61.66878954694
 40
-61.66878954694
 40
-61.66878954694
 40
0.0
 40
0.0
 40
0.0
 10
215.7769604627206
 20
1060.424356520542
 30
0.0
 10
203.6992061473647
 20
1032.053812786872
 30
0.0
 10
191.6214518320089
 20
1003.683269053201
 30
0.0
  0
SPLINE
  5
1C9
330
1F
100
AcDbEntity
  8
DEFAULT
100
AcDbSpline
210
0.0
220
0.0
230
1.0
 70
    12
 71
     2
 72
     6
 73
     3
 74
     0
 42
0.0000000001
 43
0.0000000001
 40
-1.880677820283106
 40
-1.880677820283106
 40
-1.880677820283106
 40
0.0
 40
0.0
 40
0.0
 10
191.6214518320089
 20
1003.683269053201
 30
0.0
 41
1.0
 10
191.2607903080798
 20
1002.811162409964
 30
0.0
 41
0.9946017016466512
 10
191.0879091999212
 20
1001.883391503726
 30
0.0
 41
1.0
  0
POLYLINE
  5
1CA
330
1F
100
AcDbEntity
  8
DEFAULT
100
AcDb2dPolyline
 66
     1
 10
0.0
 20
0.0
 30
0.0
  0
VERTEX
  5
1CC
330
1CA
100
AcDbEntity
  8
DEFAULT
100
AcDbVertex
100
AcDb2dVertex
 10
191.0879091999212
 20
1001.883391503726
 30
0.0
  0
VERTEX
  5
1CD
330
1CA
100
AcDbEntity
  8
DEFAULT
100
AcDbVertex
100
AcDb2dVertex
 10
191.9006399185174
 20
1001.883391503728
 30
0.0
  0
SEQEND
  5
1CB
330
1CA
100
AcDbEntity
  8
DEFAULT
  0
SPLINE
  5
1CE
330
1F
100
AcDbEntity
  8
DEFAULT
100
AcDbSpline
210
0.0
220
0.0
230
1.0
 70
    12
 71
     2
 72
     6
 73
     3
 74
     0
 42
0.0000000001
 43
0.0000000001
 40
-1.557574603308314
 40
-1.557574603308314
 40
-1.557574603308314
 40
0.0
 40
0.0
 40
0.0
 10
191.9006399185174
 20
1001.883391503728
 30
0.0
 41
1.0
 10
192.0569860960216
 20
1002.64881069052
 30
0.0
 41
0.9953282849572843
 10
192.3575270867218
 20
1003.36991107995
 30
0.0
 41
0.9999999999999791
  0
SPLINE
  5
1CF
330
1F
100
AcDbEntity
  8
DEFAULT
100
AcDbSpline
210
0.0
220
0.0
230
1.0
 70
    24
 71
     2
 72
     6
 73
     3
 74
     0
 42
0.0000000001
 43
0.0000000001
 40
-61.66878954695002
 40
-61.66878954695002
 40
-61.66878954695002
 40
0.0
 40
0.0
 40
0.0
 10
192.3575270867218
 20
1003.36991107995
 30
0.0
 10
204.4352814020799
 20
1031.740454813624
 30
0.0
 10
216.513035717438
 20
1060.110998547298
 30
0.0
  0
SPLINE
  5
1D0
330
1F
100
AcDbEntity
  8
DEFAULT
100
AcDbSpline
210
0.0
220
0.0
230
1.0
 70
    12
 71
     2
 72
     6
 73
     3
 74
     0
 42
0.0000000001
 43
0.0000000001
 40
-0.582698221251938
 40
-0.582698221251938
 40
-0.582698221251938
 40
0.0
 40
0.0
 40
0.0
 10
216.513035717438
 20
1060.110998547298
 30
0.0
 41
1.0
 10
216.6313605356881
 20
1060.377303039093
 30
0.0
 41
0.9996949347445735
 10
216.7626918509723
 20
1060.63743940831
 30
0.0
 41
1.0
  0
SPLINE
  5
1D1
330
1F
100
AcDbEntity
  8
DEFAULT
100
AcDbSpline
210
0.0
220
0.0
230
1.0
 70
     8
 71
     3
 72
    11
 73
     7
 74
     0
 42
0.0000000001
 43
0.0000000001
 40
-9.398791595551142
 40
-9.398791595551142
 40
-9.398791595551142
 40
-9.398791595551142
 40
-4.272910217973917
 40
-2.044646658105723
 40
-0.9970673170180777
 40
0.0
 40
0.0
 40
0.0
 40
0.0
 10
216.7626918509723
 20
1060.63743940831
 30
0.0
 10
217.5101336895733
 20
1062.171824137532
 30
0.0
 10
218.7655938959928
 20
1064.296925988883
 30
0.0
 10
220.6276233468909
 20
1066.398663381918
 30
0.0
 10
221.6894985064756
 20
1067.349630815406
 30
0.0
 10
222.2332823970185
 20
1067.761505451328
 30
0.0
 10
222.5072676138113
 20
1067.949664472306
 30
0.0
  0
POLYLINE
  5
1D2
330
1F
100
AcDbEntity
  8
DEFAULT
100
AcDb2dPolyline
 66
     1
 10
0.0
 20
0.0
 30
0.0
  0
VERTEX
  5
1D4
330
1D2
100
AcDbEntity
  8
DEFAULT
100
AcDbVertex
100
AcDb2dVertex
 10
263.402696215545
 20
1001.883391503728
 30
0.0
  0
VERTEX
  5
1D5
330
1D2
100
AcDbEntity
  8
DEFAULT
100
AcDbVertex
100
AcDb2dVertex
 10
262.5795073992912
 20
1001.883391503726
 30
0.0
  0
SEQEND
  5
1D3
330
1D2
100
AcDbEntity
  8
DEFAULT
  0
SPLINE
  5
1D6
330
1F
100
AcDbEntity
  8
DEFAULT
100
AcDbSpline
210
0.0
220
0.0
230
1.0
 70
    12
 71
     2
 72
     6
 73
     3
 74
     0
 42
0.0000000001
 43
0.0000000001
 40
0.0
 40
0.0
 40
0.0
 40
1.044780235687839
 40
1.044780235687839
 40
1.044780235687839
 10
262.5795073992912
 20
1001.883391503726
 30
0.0
 41
1.0
 10
262.4447377743409
 20
1002.38897083744
 30
0.0
 41
0.9975839023805185
 10
262.241191559202
 20
1002.870989771498
 30
0.0
 41
1.0
  0
SPLINE
  5
1D7
330
1F
100
AcDbEntity
  8
DEFAULT
100
AcDbSpline
210
0.0
220
0.0
230
1.0
 70
    24
 71
     2
 72
     6
 73
     3
 74
     0
 42
0.0000000001
 43
0.0000000001
 40
0.0
 40
0.0
 40
0.0
 40
62.2341692114402
 40
62.2341692114402
 40
62.2341692114402
 10
262.241191559202
 20
1002.870989771498
 30
0.0
 10
250.0273621823467
 20
1031.490831251013
 30
0.0
 10
237.8135328054914
 20
1060.110672730528
 30
0.0
  0
SPLINE
  5
1D8
330
1F
100
AcDbEntity
  8
DEFAULT
100
AcDbSpline
210
0.0
220
0.0
230
1.0
 70
    12
 71
     2
 72
     6
 73
     3
 74
     0
 42
0.0000000001
 43
0.0000000001
 40
0.0
 40
0.0
 40
0.0
 40
0.5830502649075879
 40
0.5830502649075879
 40
0.5830502649075879
 10
237.8135328054914
 20
1060.110672730528
 30
0.0
 41
0.999999999999998
 10
237.6950379959717
 20
1060.377092254709
 30
0.0
 41
0.9997046570596446
 10
237.56373779658
 20
1060.637439408314
 30
0.0
 41
1.0
  0
SPLINE
  5
1D9
330
1F
100
AcDbEntity
  8
DEFAULT
100
AcDbSpline
210
0.0
220
0.0
230
1.0
 70
     8
 71
     3
 72
    12
 73
     8
 74
     0
 42
0.0000000001
 43
0.0000000001
 40
0.0
 40
0.0
 40
0.0
 40
0.0
 40
2.228631900981056
 40
4.381518088371068
 40
8.165837296232278
 40
11.43670172746004
 40
14.38645778207994
 40
14.38645778207994
 40
14.38645778207994
 40
14.38645778207994
 10
237.56373779658
 20
1060.637439408314
 30
0.0
 10
237.2383170314505
 20
1061.304681453447
 30
0.0
 10
236.5537095159188
 20
1062.597591318166
 30
0.0
 10
235.0655428070185
 20
1064.878233479862
 30
0.0
 10
233.0345676161567
 20
1067.204306299334
 30
0.0
 10
230.2108917407656
 20
1069.058059253893
 30
0.0
 10
228.1474022576042
 20
1069.516658087916
 30
0.0
 10
227.1632148241715
 20
1069.513571308232
 30
0.0
  0
ARC
  5
1DA
330
1F
100
AcDbEntity
  8
DEFAULT
100
AcDbCircle
 10
227.4246745772325
 20
1069.914393311115
 30
0.0
 40
0.478559798213694
100
AcDbArc
 50
123.4761679722872
 51
236.8832328131509
  0
SPLINE
  5
1DB
330
1F
100
AcDbEntity
  8
DEFAULT
100
AcDbSpline
210
0.0
220
0.0
230
1.0
 70
     8
 71
     3
 72
    11
 73
     7
 74
     0
 42
0.0000000001
 43
0.0000000001
 40
-15.28251720251657
 40
-15.28251720251657
 40
-15.28251720251657
 40
-15.28251720251657
 40
-10.57686828465166
 40
-7.713182352409214
 40
-3.759650912081801
 40
0.0
 40
0.0
 40
0.0
 40
0.0
 10
227.160705737469
 20
1070.313567373525
 30
0.0
 10
228.7292476620278
 20
1070.318486907327
 30
0.0
 10
231.2174388715404
 20
1069.516670695565
 30
0.0
 10
234.240716634907
 20
1067.117934369701
 30
0.0
 10
236.474808658111
 20
1064.36183416549
 30
0.0
 10
237.7334255631777
 20
1062.114517211787
 30
0.0
 10
238.2833745879131
 20
1060.986900262429
 30
0.0
  0
SPLINE
  5
1DC
330
1F
100
AcDbEntity
  8
DEFAULT
100
AcDbSpline
210
0.0
220
0.0
230
1.0
 70
    12
 71
     2
 72
     6
 73
     3
 74
     0
 42
0.0000000001
 43
0.0000000001
 40
0.0
 40
0.0
 40
0.0
 40
0.6220165639320809
 40
0.6220165639320809
 40
0.6220165639320809
 10
238.2833745879131
 20
1060.986900262429
 30
0.0
 41
1.0
 10
238.4234925059702
 20
1060.709168883081
 30
0.0
 41
0.9996775860416078
 10
238.5493303124845
 20
1060.424682330226
 30
0.0
 41
1.0
  0
SPLINE
  5
1DD
330
1F
100
AcDbEntity
  8
DEFAULT
100
AcDbSpline
210
0.0
220
0.0
230
1.0
 70
    24
 71
     2
 72
     6
 73
     3
 74
     0
 42
0.0000000001
 43
0.0000000001
 40
0.0
 40
0.0
 40
0.0
 40
62.23416921142623
 40
62.23416921142623
 40
62.23416921142623
 10
238.5493303124845
 20
1060.424682330226
 30
0.0
 10
250.7631596889389
 20
1031.804840851648
 30
0.0
 10
262.9769890653934
 20
1003.184999373069
 30
0.0
  0
SPLINE
  5
1DE
330
1F
100
AcDbEntity
  8
DEFAULT
100
AcDbSpline
210
0.0
220
0.0
230
1.0
 70
    12
 71
     2
 72
     6
 73
     3
 74
     0
 42
0.0000000001
 43
0.0000000001
 40
0.0
 40
0.0
 40
0.0
 40
1.37096060441704
 40
1.37096060441704
 40
1.37096060441704
 10
262.9769890653934
 20
1003.184999373069
 30
0.0
 41
0.9999999999727356
 10
263.2427792572217
 20
1002.551509021688
 30
0.0
 41
0.9967081996580774
 10
263.402696215545
 20
1001.883391503728
 30
0.0
 41
1.0
  0
POLYLINE
  5
1DF
330
1F
100
AcDbEntity
  8
DEFAULT
100
AcDb2dPolyline
 66
     1
 10
0.0
 20
0.0
 30
0.0
  0
VERTEX
  5
1E1
330
1DF
100
AcDbEntity
  8
DEFAULT
100
AcDbVertex
100
AcDb2dVertex
 10
1314.867500444812
 20
1001.883391503727
 30
0.0
  0
VERTEX
  5
1E2
330
1DF
100
AcDbEntity
  8
DEFAULT
100
AcDbVertex
100
AcDb2dVertex
 10
1313.999517933034
 20
1001.883391503728
 30
0.0
  0
SEQEND
  5
1E0
330
1DF
100
AcDbEntity
  8
DEFAULT
  0
SPLINE
  5
1E3
330
1F
100
AcDbEntity
  8
DEFAULT
100
AcDbSpline
210
0.0
220
0.0
230
1.0
 70
    12
 71
     2
 72
     6
 73
     3
 74
     0
 42
0.0000000001
 43
0.0000000001
 40
0.0
 40
0.0
 40
0.0
 40
1.060695499277191
 40
1.060695499277191
 40
1.060695499277191
 10
1313.999517933034
 20
1001.883391503728
 30
0.0
 41
1.0
 10
1313.768089685065
 20
1002.362278426357
 30
0.0
 41
0.9956965375751016
 10
1313.452258216861
 20
1002.790229594498
 30
0.0
 41
1.0
  0
SPLINE
  5
1E4
330
1F
100
AcDbEntity
  8
DEFAULT
100
AcDbSpline
210
0.0
220
0.0
230
1.0
 70
    24
 71
     2
 72
     6
 73
     3
 74
     0
 42
0.0000000001
 43
0.0000000001
 40
0.0
 40
0.0
 40
0.0
 40
71.17944114569362
 40
71.17944114569362
 40
71.17944114569362
 10
1313.452258216861
 20
1002.790229594498
 30
0.0
 10
1292.29728518117
 20
1031.410071074012
 30
0.0
 10
1271.14231214548
 20
1060.029912553525
 30
0.0
  0
SPLINE
  5
1E5
330
1F
100
AcDbEntity
  8
DEFAULT
100
AcDbSpline
210
0.0
220
0.0
230
1.0
 70
    12
 71
     2
 72
     6
 73
     3
 74
     0
 42
0.0000000001
 43
0.0000000001
 40
0.0
 40
0.0
 40
0.0
 40
0.6792592192151052
 40
0.6792592192151052
 40
0.6792592192151052
 10
1271.14231214548
 20
1060.029912553525
 30
0.0
 41
1.0
 10
1270.934764252336
 20
1060.29888041026
 30
0.0
 41
0.9995349675388184
 10
1270.711206463939
 20
1060.554696264248
 30
0.0
 41
0.9999999999999978
  0
SPLINE
  5
1E6
330
1F
100
AcDbEntity
  8
DEFAULT
100
AcDbSpline
210
0.0
220
0.0
230
1.0
 70
     8
 71
     3
 72
    11
 73
     7
 74
     0
 42
0.0000000001
 43
0.0000000001
 40
0.0
 40
0.0
 40
0.0
 40
0.0
 40
2.084414423058437
 40
4.262363564011404
 40
8.543934933364339
 40
16.93546912848042
 40
16.93546912848042
 40
16.93546912848042
 40
16.93546912848042
 10
1270.711206463939
 20
1060.554696264248
 30
0.0
 10
1270.263677425002
 20
1061.085935114845
 30
0.0
 10
1269.309389998107
 20
1062.140522245418
 30
0.0
 10
1267.234530223638
 20
1064.093977067658
 30
0.0
 10
1263.235671571956
 20
1067.041825526003
 30
0.0
 10
1259.242032450597
 20
1068.611127715433
 30
0.0
 10
1256.490911306778
 20
1069.126911685843
 30
0.0
  0
POLYLINE
  5
1E7
330
1F
100
AcDbEntity
  8
DEFAULT
100
AcDb2dPolyline
 66
     1
 10
0.0
 20
0.0
 30
0.0
  0
VERTEX
  5
1E9
330
1E7
100
AcDbEntity
  8
DEFAULT
100
AcDbVertex
100
AcDb2dVertex
 10
1256.490911306778
 20
1069.126911685843
 30
0.0
  0
VERTEX
  5
1EA
330
1E7
100
AcDbEntity
  8
DEFAULT
100
AcDbVertex
100
AcDb2dVertex
 10
1256.490911306777
 20
1069.935028385975
 30
0.0
  0
SEQEND
  5
1E8
330
1E7
100
AcDbEntity
  8
DEFAULT
  0
SPLINE
  5
1EB
330
1F
100
AcDbEntity
  8
DEFAULT
100
AcDbSpline
210
0.0
220
0.0
230
1.0
 70
    12
 71
     3
 72
    11
 73
     7
 74
     0
 42
0.0000000001
 43
0.0000000001
 40
29.05364094827837
 40
29.05364094827837
 40
29.05364094827837
 40
29.05364094827837
 40
36.13584614436064
 40
37.73598981733316
 40
42.85642640316538
 40
48.61670080400462
 40
48.61670080400462
 40
48.61670080400462
 40
48.61670080400462
 10
1256.490911306777
 20
1069.935028385975
 30
0.0
 41
1.0
 10
1258.518752431848
 20
1069.56570113943
 30
0.0
 41
1.0
 10
1260.958670712471
 20
1068.780316148107
 30
0.0
 41
1.0
 10
1264.617958736096
 20
1066.91506567767
 30
0.0
 41
1.0
 10
1267.752187508551
 20
1064.810997307895
 30
0.0
 41
1.0
 10
1270.162946570545
 20
1062.449381675685
 30
0.0
 41
1.0
 10
1271.323439605466
 20
1061.069643426989
 30
0.0
 41
1.0
  0
SPLINE
  5
1EC
330
1F
100
AcDbEntity
  8
DEFAULT
100
AcDbSpline
210
0.0
220
0.0
230
1.0
 70
    12
 71
     2
 72
     6
 73
     3
 74
     0
 42
0.0000000001
 43
0.0000000001
 40
0.0
 40
0.0
 40
0.0
 40
0.7294786175901837
 40
0.7294786175901837
 40
0.7294786175901837
 10
1271.323439605466
 20
1061.069643426989
 30
0.0
 41
0.9999999999999971
 10
1271.563698476126
 20
1060.795045708214
 30
0.0
 41
0.9994734192607172
 10
1271.785640410358
 20
1060.505442514315
 30
0.0
 41
1.0
  0
SPLINE
  5
1ED
330
1F
100
AcDbEntity
  8
DEFAULT
100
AcDbSpline
210
0.0
220
0.0
230
1.0
 70
    24
 71
     2
 72
     6
 73
     3
 74
     0
 42
0.0000000001
 43
0.0000000001
 40
0.0
 40
0.0
 40
0.0
 40
71.17944114569238
 40
71.17944114569238
 40
71.17944114569238
 10
1271.785640410358
 20
1060.505442514315
 30
0.0
 10
1292.940613446047
 20
1031.885601034801
 30
0.0
 10
1314.095586481736
 20
1003.265759555286
 30
0.0
  0
SPLINE
  5
1EE
330
1F
100
AcDbEntity
  8
DEFAULT
100
AcDbSpline
210
0.0
220
0.0
230
1.0
 70
    12
 71
     2
 72
     6
 73
     3
 74
     0
 42
0.0000000001
 43
0.0000000001
 40
0.0
 40
0.0
 40
0.0
 40
1.587231163496416
 40
1.587231163496416
 40
1.587231163496416
 10
1314.095586491793
 20
1003.26575954168
 30
0.0
 41
1.0
 10
1314.566412111895
 20
1002.621966151223
 30
0.0
 41
0.9925458185975455
 10
1314.867500444812
 20
1001.883391503727
 30
0.0
 41
1.0
  0
ARC
  5
1EF
330
1F
100
AcDbEntity
  8
DEFAULT
100
AcDbCircle
 10
1401.405840217891
 20
989.9219563366502
 30
0.0
 40
12.04015801741176
100
AcDbArc
 50
255.1692090183597
 51
284.8288294990066
  0
POLYLINE
  5
1F0
330
1F
100
AcDbEntity
  8
DEFAULT
100
AcDb2dPolyline
 66
     1
 10
0.0
 20
0.0
 30
0.0
  0
VERTEX
  5
1F2
330
1F0
100
AcDbEntity
  8
DEFAULT
100
AcDbVertex
100
AcDb2dVertex
 10
1373.151717928126
 20
987.8049287680344
 30
0.0
  0
VERTEX
  5
1F3
330
1F0
100
AcDbEntity
  8
DEFAULT
100
AcDbVertex
100
AcDb2dVertex
 10
1390.911473441837
 20
978.2830313685274
 30
0.0
  0
VERTEX
  5
1F4
330
1F0
100
AcDbEntity
  8
DEFAULT
100
AcDbVertex
100
AcDb2dVertex
 10
1411.899808536996
 20
978.2826721077292
 30
0.0
  0
VERTEX
  5
1F5
330
1F0
100
AcDbEntity
  8
DEFAULT
100
AcDbVertex
100
AcDb2dVertex
 10
1429.651626071383
 20
987.8049287680344
 30
0.0
  0
VERTEX
  5
1F6
330
1F0
100
AcDbEntity
  8
DEFAULT
100
AcDbVertex
100
AcDb2dVertex
 10
1373.180789114004
 20
987.8056531466138
 30
0.0
  0
SEQEND
  5
1F1
330
1F0
100
AcDbEntity
  8
DEFAULT
  0
POLYLINE
  5
1F7
330
1F
100
AcDbEntity
  8
DEFAULT
100
AcDb2dPolyline
 66
     1
 10
0.0
 20
0.0
 30
0.0
  0
VERTEX
  5
1F9
330
1F7
100
AcDbEntity
  8
DEFAULT
100
AcDbVertex
100
AcDb2dVertex
 10
1373.151717928126
 20
987.8049287680344
 30
0.0
  0
VERTEX
  5
1FA
330
1F7
100
AcDbEntity
  8
DEFAULT
100
AcDbVertex
100
AcDb2dVertex
 10
1429.651626071383
 20
987.8049287680344
 30
0.0
  0
VERTEX
  5
1FB
330
1F7
100
AcDbEntity
  8
DEFAULT
100
AcDbVertex
100
AcDb2dVertex
 10
1429.651626071383
 20
988.8831491078972
 30
0.0
  0
VERTEX
  5
1FC
330
1F7
100
AcDbEntity
  8
DEFAULT
100
AcDbVertex
100
AcDb2dVertex
 10
1373.151717928126
 20
988.8831491078972
 30
0.0
  0
VERTEX
  5
1FD
330
1F7
100
AcDbEntity
  8
DEFAULT
100
AcDbVertex
100
AcDb2dVertex
 10
1373.151717928126
 20
987.8049287680344
 30
0.0
  0
SEQEND
  5
1F8
330
1F7
100
AcDbEntity
  8
DEFAULT
  0
ARC
  5
1FE
330
1F
100
AcDbEntity
  8
DEFAULT
100
AcDbCircle
 10
1302.845063227666
 20
989.9219563366502
 30
0.0
 40
12.04015801741176
100
AcDbArc
 50
255.1692090183597
 51
284.8288294990066
  0
POLYLINE
  5
1FF
330
1F
100
AcDbEntity
  8
DEFAULT
100
AcDb2dPolyline
 66
     1
 10
0.0
 20
0.0
 30
0.0
  0
VERTEX
  5
201
330
1FF
100
AcDbEntity
  8
DEFAULT
100
AcDbVertex
100
AcDb2dVertex
 10
1274.590940937901
 20
987.8049287680344
 30
0.0
  0
VERTEX
  5
202
330
1FF
100
AcDbEntity
  8
DEFAULT
100
AcDbVertex
100
AcDb2dVertex
 10
1292.350696451613
 20
978.2830313685274
 30
0.0
  0
VERTEX
  5
203
330
1FF
100
AcDbEntity
  8
DEFAULT
100
AcDbVertex
100
AcDb2dVertex
 10
1313.339031546771
 20
978.2826721077292
 30
0.0
  0
VERTEX
  5
204
330
1FF
100
AcDbEntity
  8
DEFAULT
100
AcDbVertex
100
AcDb2dVertex
 10
1331.090849081159
 20
987.8049287680344
 30
0.0
  0
VERTEX
  5
205
330
1FF
100
AcDbEntity
  8
DEFAULT
100
AcDbVertex
100
AcDb2dVertex
 10
1274.62001212378
 20
987.8056531466138
 30
0.0
  0
SEQEND
  5
200
330
1FF
100
AcDbEntity
  8
DEFAULT
  0
POLYLINE
  5
206
330
1F
100
AcDbEntity
  8
DEFAULT
100
AcDb2dPolyline
 66
     1
 10
0.0
 20
0.0
 30
0.0
  0
VERTEX
  5
208
330
206
100
AcDbEntity
  8
DEFAULT
100
AcDbVertex
100
AcDb2dVertex
 10
1274.590940937901
 20
987.8049287680344
 30
0.0
  0
VERTEX
  5
209
330
206
100
AcDbEntity
  8
DEFAULT
100
AcDbVertex
100
AcDb2dVertex
 10
1331.090849081159
 20
987.8049287680344
 30
0.0
  0
VERTEX
  5
20A
330
206
100
AcDbEntity
  8
DEFAULT
100
AcDbVertex
100
AcDb2dVertex
 10
1331.090849081159
 20
988.8831491078972
 30
0.0
  0
VERTEX
  5
20B
330
206
100
AcDbEntity
  8
DEFAULT
100
AcDbVertex
100
AcDb2dVertex
 10
1274.590940937901
 20
988.8831491078972
 30
0.0
  0
VERTEX
  5
20C
330
206
100
AcDbEntity
  8
DEFAULT
100
AcDbVertex
100
AcDb2dVertex
 10
1274.590940937901
 20
987.8049287680344
 30
0.0
  0
SEQEND
  5
207
330
206
100
AcDbEntity
  8
DEFAULT
  0
ARC
  5
20D
330
1F
100
AcDbEntity
  8
DEFAULT
100
AcDbCircle
 10
1006.241824537226
 20
989.9219563366502
 30
0.0
 40
12.04015801741176
100
AcDbArc
 50
255.1692090183597
 51
284.8288294990066
  0
POLYLINE
  5
20E
330
1F
100
AcDbEntity
  8
DEFAULT
100
AcDb2dPolyline
 66
     1
 10
0.0
 20
0.0
 30
0.0
  0
VERTEX
  5
210
330
20E
100
AcDbEntity
  8
DEFAULT
100
AcDbVertex
100
AcDb2dVertex
 10
977.9877022474607
 20
987.8049287680344
 30
0.0
  0
VERTEX
  5
211
330
20E
100
AcDbEntity
  8
DEFAULT
100
AcDbVertex
100
AcDb2dVertex
 10
995.747457761172
 20
978.2830313685274
 30
0.0
  0
VERTEX
  5
212
330
20E
100
AcDbEntity
  8
DEFAULT
100
AcDbVertex
100
AcDb2dVertex
 10
1016.735792856331
 20
978.2826721077292
 30
0.0
  0
VERTEX
  5
213
330
20E
100
AcDbEntity
  8
DEFAULT
100
AcDbVertex
100
AcDb2dVertex
 10
1034.487610390718
 20
987.8049287680344
 30
0.0
  0
VERTEX
  5
214
330
20E
100
AcDbEntity
  8
DEFAULT
100
AcDbVertex
100
AcDb2dVertex
 10
978.0167734333393
 20
987.8056531466138
 30
0.0
  0
SEQEND
  5
20F
330
20E
100
AcDbEntity
  8
DEFAULT
  0
POLYLINE
  5
215
330
1F
100
AcDbEntity
  8
DEFAULT
100
AcDb2dPolyline
 66
     1
 10
0.0
 20
0.0
 30
0.0
  0
VERTEX
  5
217
330
215
100
AcDbEntity
  8
DEFAULT
100
AcDbVertex
100
AcDb2dVertex
 10
977.9877022474607
 20
987.8049287680344
 30
0.0
  0
VERTEX
  5
218
330
215
100
AcDbEntity
  8
DEFAULT
100
AcDbVertex
100
AcDb2dVertex
 10
1034.487610390718
 20
987.8049287680344
 30
0.0
  0
VERTEX
  5
219
330
215
100
AcDbEntity
  8
DEFAULT
100
AcDbVertex
100
AcDb2dVertex
 10
1034.487610390718
 20
988.8831491078972
 30
0.0
  0
VERTEX
  5
21A
330
215
100
AcDbEntity
  8
DEFAULT
100
AcDbVertex
100
AcDb2dVertex
 10
977.9877022474607
 20
988.8831491078972
 30
0.0
  0
VERTEX
  5
21B
330
215
100
AcDbEntity
  8
DEFAULT
100
AcDbVertex
100
AcDb2dVertex
 10
977.9877022474607
 20
987.8049287680344
 30
0.0
  0
SEQEND
  5
216
330
215
100
AcDbEntity
  8
DEFAULT
  0
ARC
  5
21C
330
1F
100
AcDbEntity
  8
DEFAULT
100
AcDbCircle
 10
1105.388521475004
 20
989.9221987324811
 30
0.0
 40
12.04015801741176
100
AcDbArc
 50
255.1692090183597
 51
284.8288294990066
  0
POLYLINE
  5
21D
330
1F
100
AcDbEntity
  8
DEFAULT
100
AcDb2dPolyline
 66
     1
 10
0.0
 20
0.0
 30
0.0
  0
VERTEX
  5
21F
330
21D
100
AcDbEntity
  8
DEFAULT
100
AcDbVertex
100
AcDb2dVertex
 10
1077.13439918524
 20
987.8051711638653
 30
0.0
  0
VERTEX
  5
220
330
21D
100
AcDbEntity
  8
DEFAULT
100
AcDbVertex
100
AcDb2dVertex
 10
1094.894154698951
 20
978.2832737643583
 30
0.0
  0
VERTEX
  5
221
330
21D
100
AcDbEntity
  8
DEFAULT
100
AcDbVertex
100
AcDb2dVertex
 10
1115.882489794109
 20
978.2829145035602
 30
0.0
  0
VERTEX
  5
222
330
21D
100
AcDbEntity
  8
DEFAULT
100
AcDbVertex
100
AcDb2dVertex
 10
1133.634307328497
 20
987.8051711638653
 30
0.0
  0
VERTEX
  5
223
330
21D
100
AcDbEntity
  8
DEFAULT
100
AcDbVertex
100
AcDb2dVertex
 10
1077.163470371118
 20
987.8058955424448
 30
0.0
  0
SEQEND
  5
21E
330
21D
100
AcDbEntity
  8
DEFAULT
  0
POLYLINE
  5
224
330
1F
100
AcDbEntity
  8
DEFAULT
100
AcDb2dPolyline
 66
     1
 10
0.0
 20
0.0
 30
0.0
  0
VERTEX
  5
226
330
224
100
AcDbEntity
  8
DEFAULT
100
AcDbVertex
100
AcDb2dVertex
 10
1077.13439918524
 20
987.8051711638653
 30
0.0
  0
VERTEX
  5
227
330
224
100
AcDbEntity
  8
DEFAULT
100
AcDbVertex
100
AcDb2dVertex
 10
1133.634307328497
 20
987.8051711638653
 30
0.0
  0
VERTEX
  5
228
330
224
100
AcDbEntity
  8
DEFAULT
100
AcDbVertex
100
AcDb2dVertex
 10
1133.634307328497
 20
988.8833915037281
 30
0.0
  0
VERTEX
  5
229
330
224
100
AcDbEntity
  8
DEFAULT
100
AcDbVertex
100
AcDb2dVertex
 10
1077.13439918524
 20
988.8833915037281
 30
0.0
  0
VERTEX
  5
22A
330
224
100
AcDbEntity
  8
DEFAULT
100
AcDbVertex
100
AcDb2dVertex
 10
1077.13439918524
 20
987.8051711638653
 30
0.0
  0
SEQEND
  5
225
330
224
100
AcDbEntity
  8
DEFAULT
  0
ARC
  5
22B
330
1F
100
AcDbEntity
  8
DEFAULT
100
AcDbCircle
 10
1203.714123920475
 20
989.9224285128561
 30
0.0
 40
12.04015801741176
100
AcDbArc
 50
255.1692090183597
 51
284.8288294990066
  0
POLYLINE
  5
22C
330
1F
100
AcDbEntity
  8
DEFAULT
100
AcDb2dPolyline
 66
     1
 10
0.0
 20
0.0
 30
0.0
  0
VERTEX
  5
22E
330
22C
100
AcDbEntity
  8
DEFAULT
100
AcDbVertex
100
AcDb2dVertex
 10
1175.46000163071
 20
987.8054009442403
 30
0.0
  0
VERTEX
  5
22F
330
22C
100
AcDbEntity
  8
DEFAULT
100
AcDbVertex
100
AcDb2dVertex
 10
1193.219757144421
 20
978.2835035447333
 30
0.0
  0
VERTEX
  5
230
330
22C
100
AcDbEntity
  8
DEFAULT
100
AcDbVertex
100
AcDb2dVertex
 10
1214.20809223958
 20
978.2831442839351
 30
0.0
  0
VERTEX
  5
231
330
22C
100
AcDbEntity
  8
DEFAULT
100
AcDbVertex
100
AcDb2dVertex
 10
1231.959909773967
 20
987.8054009442403
 30
0.0
  0
VERTEX
  5
232
330
22C
100
AcDbEntity
  8
DEFAULT
100
AcDbVertex
100
AcDb2dVertex
 10
1175.489072816589
 20
987.8061253228198
 30
0.0
  0
SEQEND
  5
22D
330
22C
100
AcDbEntity
  8
DEFAULT
  0
POLYLINE
  5
233
330
1F
100
AcDbEntity
  8
DEFAULT
100
AcDb2dPolyline
 66
     1
 10
0.0
 20
0.0
 30
0.0
  0
VERTEX
  5
235
330
233
100
AcDbEntity
  8
DEFAULT
100
AcDbVertex
100
AcDb2dVertex
 10
1175.46000163071
 20
987.8054009442403
 30
0.0
  0
VERTEX
  5
236
330
233
100
AcDbEntity
  8
DEFAULT
100
AcDbVertex
100
AcDb2dVertex
 10
1231.959909773967
 20
987.8054009442403
 30
0.0
  0
VERTEX
  5
237
330
233
100
AcDbEntity
  8
DEFAULT
100
AcDbVertex
100
AcDb2dVertex
 10
1231.959909773967
 20
988.8836212841031
 30
0.0
  0
VERTEX
  5
238
330
233
100
AcDbEntity
  8
DEFAULT
100
AcDbVertex
100
AcDb2dVertex
 10
1175.46000163071
 20
988.8836212841031
 30
0.0
  0
VERTEX
  5
239
330
233
100
AcDbEntity
  8
DEFAULT
100
AcDbVertex
100
AcDb2dVertex
 10
1175.46000163071
 20
987.8054009442403
 30
0.0
  0
SEQEND
  5
234
330
233
100
AcDbEntity
  8
DEFAULT
  0
SPLINE
  5
23A
330
1F
100
AcDbEntity
  8
DEFAULT
100
AcDbSpline
210
0.0
220
0.0
230
1.0
 70
    24
 71
     2
 72
     6
 73
     3
 74
     0
 42
0.0000000001
 43
0.0000000001
 40
0.0
 40
0.0
 40
0.0
 40
1.399999999547958
 40
1.399999999547958
 40
1.399999999547958
 10
1016.093414133969
 20
1003.283391503276
 30
0.0
 10
1016.093414133969
 20
1002.583391503502
 30
0.0
 10
1016.093414133969
 20
1001.883391503728
 30
0.0
  0
POLYLINE
  5
23B
330
1F
100
AcDbEntity
  8
DEFAULT
100
AcDb2dPolyline
 66
     1
 10
0.0
 20
0.0
 30
0.0
  0
VERTEX
  5
23D
330
23B
100
AcDbEntity
  8
DEFAULT
100
AcDbVertex
100
AcDb2dVertex
 10
1016.093414133969
 20
1001.883391503728
 30
0.0
  0
VERTEX
  5
23E
330
23B
100
AcDbEntity
  8
DEFAULT
100
AcDbVertex
100
AcDb2dVertex
 10
1011.808340966775
 20
1001.883391503728
 30
0.0
  0
VERTEX
  5
23F
330
23B
100
AcDbEntity
  8
DEFAULT
100
AcDbVertex
100
AcDb2dVertex
 10
1011.808340966775
 20
1011.683391503277
 30
0.0
  0
SEQEND
  5
23C
330
23B
100
AcDbEntity
  8
DEFAULT
  0
SPLINE
  5
240
330
1F
100
AcDbEntity
  8
DEFAULT
100
AcDbSpline
210
0.0
220
0.0
230
1.0
 70
    24
 71
     2
 72
     6
 73
     3
 74
     0
 42
0.0000000001
 43
0.0000000001
 40
-4.285073167193332
 40
-4.285073167193332
 40
-4.285073167193332
 40
0.0
 40
0.0
 40
0.0
 10
1011.808340966775
 20
1011.683391503277
 30
0.0
 10
1013.950877550372
 20
1011.683391503277
 30
0.0
 10
1016.093414133969
 20
1011.683391503277
 30
0.0
  0
SPLINE
  5
241
330
1F
100
AcDbEntity
  8
DEFAULT
100
AcDbSpline
210
0.0
220
0.0
230
1.0
 70
    24
 71
     2
 72
     6
 73
     3
 74
     0
 42
0.0000000001
 43
0.0000000001
 40
0.0
 40
0.0
 40
0.0
 40
1.400000000000091
 40
1.400000000000091
 40
1.400000000000091
 10
1016.093414133969
 20
1011.683391503277
 30
0.0
 10
1016.093414133969
 20
1010.983391503277
 30
0.0
 10
1016.093414133969
 20
1010.283391503277
 30
0.0
  0
POLYLINE
  5
242
330
1F
100
AcDbEntity
  8
DEFAULT
100
AcDb2dPolyline
 66
     1
 10
0.0
 20
0.0
 30
0.0
  0
VERTEX
  5
244
330
242
100
AcDbEntity
  8
DEFAULT
100
AcDbVertex
100
AcDb2dVertex
 10
1086.048808749113
 20
1185.767289091421
 30
0.0
  0
VERTEX
  5
245
330
242
100
AcDbEntity
  8
DEFAULT
100
AcDbVertex
100
AcDb2dVertex
 10
1086.065848386306
 20
1185.806876799772
 30
0.0
  0
SEQEND
  5
243
330
242
100
AcDbEntity
  8
DEFAULT
  0
SPLINE
  5
246
330
1F
100
AcDbEntity
  8
DEFAULT
100
AcDbSpline
210
0.0
220
0.0
230
1.0
 70
    12
 71
     2
 72
     6
 73
     3
 74
     0
 42
0.0000000001
 43
0.0000000001
 40
0.0
 40
0.0
 40
0.0
 40
18.95116731206548
 40
18.95116731206548
 40
18.95116731206548
 10
1086.065848386306
 20
1185.806876799772
 30
0.0
 41
1.0
 10
1089.811773638461
 20
1194.515421503951
 30
0.0
 41
0.9992987992918969
 10
1092.895521124836
 20
1203.479862830643
 30
0.0
 41
1.0
  0
SPLINE
  5
247
330
1F
100
AcDbEntity
  8
DEFAULT
100
AcDbSpline
210
0.0
220
0.0
230
1.0
 70
    12
 71
     2
 72
     6
 73
     3
 74
     0
 42
0.0000000001
 43
0.0000000001
 40
0.0
 40
0.0
 40
0.0
 40
17.8743909532412
 40
17.8743909532412
 40
17.8743909532412
 10
1092.895521124836
 20
1203.479862830643
 30
0.0
 41
1.0
 10
1095.804161908257
 20
1211.935430368983
 30
0.0
 41
0.9992181455086732
 10
1098.037531393082
 20
1220.601737535238
 30
0.0
 41
1.0
  0
SPLINE
  5
248
330
1F
100
AcDbEntity
  8
DEFAULT
100
AcDbSpline
210
0.0
220
0.0
230
1.0
 70
    12
 71
     2
 72
     6
 73
     3
 74
     0
 42
0.0000000001
 43
0.0000000001
 40
0.0
 40
0.0
 40
0.0
 40
18.01820352054663
 40
18.01820352054663
 40
18.01820352054663
 10
1098.037531393082
 20
1220.601737535238
 30
0.0
 41
1.0
 10
1100.288372159566
 20
1229.339719137288
 30
0.0
 41
0.9989151651925683
 10
1101.715324331316
 20
1238.241701336074
 30
0.0
 41
1.0
  0
SPLINE
  5
249
330
1F
100
AcDbEntity
  8
DEFAULT
100
AcDbSpline
210
0.0
220
0.0
230
1.0
 70
    12
 71
     2
 72
     6
 73
     3
 74
     0
 42
0.0000000001
 43
0.0000000001
 40
0.0
 40
0.0
 40
0.0
 40
17.22844437351248
 40
17.22844437351248
 40
17.22844437351248
 10
1101.715324331316
 20
1238.241701336074
 30
0.0
 41
1.0
 10
1103.080170867213
 20
1246.753134372572
 30
0.0
 41
0.9989656662598488
 10
1103.666519957907
 20
1255.359079206396
 30
0.0
 41
1.0
  0
SPLINE
  5
24A
330
1F
100
AcDbEntity
  8
DEFAULT
100
AcDbSpline
210
0.0
220
0.0
230
1.0
 70
    12
 71
     2
 72
     6
 73
     3
 74
     0
 42
0.0000000001
 43
0.0000000001
 40
0.0
 40
0.0
 40
0.0
 40
16.08746766383811
 40
16.08746766383811
 40
16.08746766383811
 10
1103.666519957907
 20
1255.359079206396
 30
0.0
 41
1.0
 10
1104.214051369547
 20
1263.393981374813
 30
0.0
 41
0.9992408733277476
 10
1104.134414892435
 20
1271.441394977157
 30
0.0
 41
1.0
  0
SPLINE
  5
24B
330
1F
100
AcDbEntity
  8
DEFAULT
100
AcDbSpline
210
0.0
220
0.0
230
1.0
 70
    12
 71
     2
 72
     6
 73
     3
 74
     0
 42
0.0000000001
 43
0.0000000001
 40
0.0
 40
0.0
 40
0.0
 40
1.236290275929491
 40
1.236290275929491
 40
1.236290275929491
 10
1104.134414892435
 20
1271.441394977157
 30
0.0
 41
1.0
 10
1104.128318371503
 20
1272.059511883692
 30
0.0
 41
0.9999955529295473
 10
1104.11852636141
 20
1272.678136647451
 30
0.0
 41
1.0
  0
SPLINE
  5
24C
330
1F
100
AcDbEntity
  8
DEFAULT
100
AcDbSpline
210
0.0
220
0.0
230
1.0
 70
    12
 71
     2
 72
     6
 73
     3
 74
     0
 42
0.0000000001
 43
0.0000000001
 40
0.0
 40
0.0
 40
0.0
 40
14.32969042320758
 40
14.32969042320758
 40
14.32969042320758
 10
1104.11852636141
 20
1272.678136647451
 30
0.0
 41
1.0
 10
1104.005045429745
 20
1279.844880579337
 30
0.0
 41
0.9995308736655438
 10
1103.45302982328
 20
1286.990677624368
 30
0.0
 41
1.0
  0
SPLINE
  5
24D
330
1F
100
AcDbEntity
  8
DEFAULT
100
AcDbSpline
210
0.0
220
0.0
230
1.0
 70
    12
 71
     2
 72
     6
 73
     3
 74
     0
 42
0.0000000001
 43
0.0000000001
 40
0.0
 40
0.0
 40
0.0
 40
14.35655301472915
 40
14.35655301472915
 40
14.35655301472915
 10
1103.45302982328
 20
1286.990677624368
 30
0.0
 41
1.0
 10
1102.900086915621
 20
1294.148584679044
 30
0.0
 41
0.9998002710935643
 10
1102.061534979528
 20
1301.278676537708
 30
0.0
 41
1.0
  0
SPLINE
  5
24E
330
1F
100
AcDbEntity
  8
DEFAULT
100
AcDbSpline
210
0.0
220
0.0
230
1.0
 70
    12
 71
     2
 72
     6
 73
     3
 74
     0
 42
0.0000000001
 43
0.0000000001
 40
0.0
 40
0.0
 40
0.0
 40
13.63702450054154
 40
13.63702450054154
 40
13.63702450054154
 10
1102.061534979528
 20
1301.278676537708
 30
0.0
 41
1.0
 10
1101.265005302461
 20
1308.050870426353
 30
0.0
 41
0.9999199901515928
 10
1100.297412666758
 20
1314.800747023979
 30
0.0
 41
1.0
  0
SPLINE
  5
24F
330
1F
100
AcDbEntity
  8
DEFAULT
100
AcDbSpline
210
0.0
220
0.0
230
1.0
 70
    12
 71
     2
 72
     6
 73
     3
 74
     0
 42
0.0000000001
 43
0.0000000001
 40
0.0
 40
0.0
 40
0.0
 40
13.67021359045504
 40
13.67021359045504
 40
13.67021359045504
 10
1100.297412666758
 20
1314.800747023979
 30
0.0
 41
1.0
 10
1099.327421381152
 20
1321.566682653534
 30
0.0
 41
0.9999986653873923
 10
1098.379543288359
 20
1328.335751655888
 30
0.0
 41
1.0
  0
SPLINE
  5
250
330
1F
100
AcDbEntity
  8
DEFAULT
100
AcDbSpline
210
0.0
220
0.0
230
1.0
 70
    12
 71
     2
 72
     6
 73
     3
 74
     0
 42
0.0000000001
 43
0.0000000001
 40
0.0
 40
0.0
 40
0.0
 40
12.96689671471445
 40
12.96689671471445
 40
12.96689671471445
 10
1098.379543288359
 20
1328.335751655888
 30
0.0
 41
1.0
 10
1097.480414310268
 20
1334.756727081796
 30
0.0
 41
0.9999597547282121
 10
1096.696637792953
 20
1341.192801406279
 30
0.0
 41
1.0
  0
SPLINE
  5
251
330
1F
100
AcDbEntity
  8
DEFAULT
100
AcDbSpline
210
0.0
220
0.0
230
1.0
 70
    12
 71
     2
 72
     6
 73
     3
 74
     0
 42
0.0000000001
 43
0.0000000001
 40
0.0
 40
0.0
 40
0.0
 40
13.03378172785381
 40
13.03378172785381
 40
13.03378172785381
 10
1096.696637792953
 20
1341.192801406279
 30
0.0
 41
1.0
 10
1095.908769390067
 20
1347.663187218184
 30
0.0
 41
0.9997040926411089
 10
1095.436530241814
 20
1354.164234777003
 30
0.0
 41
1.0
  0
SPLINE
  5
252
330
1F
100
AcDbEntity
  8
DEFAULT
100
AcDbSpline
210
0.0
220
0.0
230
1.0
 70
    12
 71
     2
 72
     6
 73
     3
 74
     0
 42
0.0000000001
 43
0.0000000001
 40
0.0
 40
0.0
 40
0.0
 40
12.76205189716519
 40
12.76205189716519
 40
12.76205189716519
 10
1095.436530241814
 20
1354.164234777003
 30
0.0
 41
1.0
 10
1094.974136432091
 20
1360.530585099768
 30
0.0
 41
0.9995079163227126
 10
1094.91185004206
 20
1366.913401474461
 30
0.0
 41
0.9999999999999145
  0
SPLINE
  5
253
330
1F
100
AcDbEntity
  8
DEFAULT
100
AcDbSpline
210
0.0
220
0.0
230
1.0
 70
    12
 71
     2
 72
     6
 73
     3
 74
     0
 42
0.0000000001
 43
0.0000000001
 40
0.0
 40
0.0
 40
0.0
 40
5.421905335567041
 40
5.421905335567041
 40
5.421905335567041
 10
1094.91185004206
 20
1366.913401474461
 30
0.0
 41
0.9999999999999278
 10
1094.885319949894
 20
1369.624543310327
 30
0.0
 41
0.9998235395563037
 10
1094.96065015855
 20
1372.334768256644
 30
0.0
 41
1.0
  0
SPLINE
  5
254
330
1F
100
AcDbEntity
  8
DEFAULT
100
AcDbSpline
210
0.0
220
0.0
230
1.0
 70
    12
 71
     2
 72
     6
 73
     3
 74
     0
 42
0.0000000001
 43
0.0000000001
 40
0.0
 40
0.0
 40
0.0
 40
7.416051403434578
 40
7.416051403434578
 40
7.416051403434578
 10
1094.96065015855
 20
1372.334768256644
 30
0.0
 41
1.0
 10
1095.063690746218
 20
1376.042172348568
 30
0.0
 41
0.9996724251583456
 10
1095.356361358608
 20
1379.740130333868
 30
0.0
 41
1.0
  0
SPLINE
  5
255
330
1F
100
AcDbEntity
  8
DEFAULT
100
AcDbSpline
210
0.0
220
0.0
230
1.0
 70
    12
 71
     2
 72
     6
 73
     3
 74
     0
 42
0.0000000001
 43
0.0000000001
 40
0.0
 40
0.0
 40
0.0
 40
13.68342055357338
 40
13.68342055357338
 40
13.68342055357338
 10
1095.356361358608
 20
1379.740130333868
 30
0.0
 41
1.0
 10
1095.896833557518
 20
1386.567414083802
 30
0.0
 41
0.9986321532404611
 10
1097.147248819391
 20
1393.30056389702
 30
0.0
 41
1.0
  0
SPLINE
  5
256
330
1F
100
AcDbEntity
  8
DEFAULT
100
AcDbSpline
210
0.0
220
0.0
230
1.0
 70
    12
 71
     2
 72
     6
 73
     3
 74
     0
 42
0.0000000001
 43
0.0000000001
 40
0.0
 40
0.0
 40
0.0
 40
13.65881119394801
 40
13.65881119394801
 40
13.65881119394801
 10
1097.147248819391
 20
1393.30056389702
 30
0.0
 41
1.0
 10
1098.395058293047
 20
1400.022146694717
 30
0.0
 41
0.9985297371794677
 10
1100.365505518693
 20
1406.576903714947
 30
0.0
 41
1.0
  0
SPLINE
  5
257
330
1F
100
AcDbEntity
  8
DEFAULT
100
AcDbSpline
210
0.0
220
0.0
230
1.0
 70
    12
 71
     2
 72
     6
 73
     3
 74
     0
 42
0.0000000001
 43
0.0000000001
 40
0.0
 40
0.0
 40
0.0
 40
12.68157025309653
 40
12.68157025309653
 40
12.68157025309653
 10
1100.365505518693
 20
1406.576903714947
 30
0.0
 41
1.0
 10
1102.195284635468
 20
1412.661757226129
 30
0.0
 41
0.9988615699411759
 10
1104.593424719936
 20
1418.536755003774
 30
0.0
 41
1.0
  0
SPLINE
  5
258
330
1F
100
AcDbEntity
  8
DEFAULT
100
AcDbSpline
210
0.0
220
0.0
230
1.0
 70
    12
 71
     2
 72
     6
 73
     3
 74
     0
 42
0.0000000001
 43
0.0000000001
 40
0.0
 40
0.0
 40
0.0
 40
12.54708484570149
 40
12.54708484570149
 40
12.54708484570149
 10
1104.593424719936
 20
1418.536755003774
 30
0.0
 41
1.0
 10
1106.965435995998
 20
1424.347528425027
 30
0.0
 41
0.9993490073324529
 10
1109.750272107636
 20
1429.972136240533
 30
0.0
 41
1.0
  0
SPLINE
  5
259
330
1F
100
AcDbEntity
  8
DEFAULT
100
AcDbSpline
210
0.0
220
0.0
230
1.0
 70
    12
 71
     2
 72
     6
 73
     3
 74
     0
 42
0.0000000001
 43
0.0000000001
 40
0.0
 40
0.0
 40
0.0
 40
10.05972499255626
 40
10.05972499255626
 40
10.05972499255626
 10
1109.750272107636
 20
1429.972136240533
 30
0.0
 41
1.0
 10
1111.982786158371
 20
1434.480426483157
 30
0.0
 41
0.9997249004627827
 10
1114.424266989658
 20
1438.879059367237
 30
0.0
 41
1.0
  0
SPLINE
  5
25A
330
1F
100
AcDbEntity
  8
DEFAULT
100
AcDbSpline
210
0.0
220
0.0
230
1.0
 70
    12
 71
     2
 72
     6
 73
     3
 74
     0
 42
0.0000000001
 43
0.0000000001
 40
0.0
 40
0.0
 40
0.0
 40
9.910100470028315
 40
9.910100470028315
 40
9.910100470028315
 10
1114.424266989658
 20
1438.879059367237
 30
0.0
 41
1.0
 10
1116.829344545
 20
1443.211373552985
 30
0.0
 41
0.9999749091076933
 10
1119.295558245973
 20
1447.509179299221
 30
0.0
 41
1.0
  0
SPLINE
  5
25B
330
1F
100
AcDbEntity
  8
DEFAULT
100
AcDbSpline
210
0.0
220
0.0
230
1.0
 70
    12
 71
     2
 72
     6
 73
     3
 74
     0
 42
0.0000000001
 43
0.0000000001
 40
0.0
 40
0.0
 40
0.0
 40
6.29954473834013
 40
6.29954473834013
 40
6.29954473834013
 10
1119.295558245973
 20
1447.509179299221
 30
0.0
 41
1.0
 10
1120.863332260111
 20
1450.241060110354
 30
0.0
 41
0.9999983256831979
 10
1122.421097509318
 20
1452.978660438013
 30
0.0
 41
1.0
  0
SPLINE
  5
25C
330
1F
100
AcDbEntity
  8
DEFAULT
100
AcDbSpline
210
0.0
220
0.0
230
1.0
 70
    12
 71
     2
 72
     6
 73
     3
 74
     0
 42
0.0000000001
 43
0.0000000001
 40
0.0
 40
0.0
 40
0.0
 40
6.175011731879836
 40
6.175011731879836
 40
6.175011731879836
 10
1122.421097509318
 20
1452.978660438013
 30
0.0
 41
0.9999999999999998
 10
1123.948518450298
 20
1455.662539375651
 30
0.0
 41
0.9997224967309056
 10
1125.347831296519
 20
1458.415382349966
 30
0.0
 41
1.0
  0
SPLINE
  5
25D
330
1F
100
AcDbEntity
  8
DEFAULT
100
AcDbSpline
210
0.0
220
0.0
230
1.0
 70
    12
 71
     2
 72
     6
 73
     3
 74
     0
 42
0.0000000001
 43
0.0000000001
 40
0.0
 40
0.0
 40
0.0
 40
3.622626254712448
 40
3.622626254712448
 40
3.622626254712448
 10
1125.347831296519
 20
1458.415382349966
 30
0.0
 41
1.0
 10
1126.168707002177
 20
1460.03037844511
 30
0.0
 41
0.9997271345827322
 10
1126.913257142694
 20
1461.681951755542
 30
0.0
 41
1.0
  0
SPLINE
  5
25E
330
1F
100
AcDbEntity
  8
DEFAULT
100
AcDbSpline
210
0.0
220
0.0
230
1.0
 70
    12
 71
     2
 72
     6
 73
     3
 74
     0
 42
0.0000000001
 43
0.0000000001
 40
0.0
 40
0.0
 40
0.0
 40
3.475081766556769
 40
3.475081766556769
 40
3.475081766556769
 10
1126.913257142694
 20
1461.681951755542
 30
0.0
 41
1.0
 10
1127.628125605189
 20
1463.267736444843
 30
0.0
 41
0.998338746309591
 10
1128.155814165566
 20
1464.925232985634
 30
0.0
 41
1.0
  0
SPLINE
  5
25F
330
1F
100
AcDbEntity
  8
DEFAULT
100
AcDbSpline
210
0.0
220
0.0
230
1.0
 70
    12
 71
     2
 72
     6
 73
     3
 74
     0
 42
0.0000000001
 43
0.0000000001
 40
0.0
 40
0.0
 40
0.0
 40
1.197268806591168
 40
1.197268806591168
 40
1.197268806591168
 10
1128.155814165566
 20
1464.925232985634
 30
0.0
 41
1.0
 10
1128.337458192557
 20
1465.495831937112
 30
0.0
 41
0.9995512052960723
 10
1128.484605331133
 20
1466.07628472208
 30
0.0
 41
1.0
  0
POLYLINE
  5
260
330
1F
100
AcDbEntity
  8
DEFAULT
100
AcDb2dPolyline
 66
     1
 10
0.0
 20
0.0
 30
0.0
  0
VERTEX
  5
262
330
260
100
AcDbEntity
  8
DEFAULT
100
AcDbVertex
100
AcDb2dVertex
 10
1128.484605331133
 20
1466.07628472208
 30
0.0
  0
VERTEX
  5
263
330
260
100
AcDbEntity
  8
DEFAULT
100
AcDbVertex
100
AcDb2dVertex
 10
1132.589306982914
 20
1466.07628472208
 30
0.0
  0
SEQEND
  5
261
330
260
100
AcDbEntity
  8
DEFAULT
  0
SPLINE
  5
264
330
1F
100
AcDbEntity
  8
DEFAULT
100
AcDbSpline
210
0.0
220
0.0
230
1.0
 70
    12
 71
     2
 72
     6
 73
     3
 74
     0
 42
0.0000000001
 43
0.0000000001
 40
0.0
 40
0.0
 40
0.0
 40
2.445908244957828
 40
2.445908244957828
 40
2.445908244957828
 10
1132.589306982914
 20
1466.07628472208
 30
0.0
 41
1.0
 10
1132.338608728924
 20
1464.878219974826
 30
0.0
 41
0.9987024104801102
 10
1131.96734300382
 20
1463.71187074988
 30
0.0
 41
1.0
  0
POLYLINE
  5
265
330
1F
100
AcDbEntity
  8
DEFAULT
100
AcDb2dPolyline
 66
     1
 10
0.0
 20
0.0
 30
0.0
  0
VERTEX
  5
267
330
265
100
AcDbEntity
  8
DEFAULT
100
AcDbVertex
100
AcDb2dVertex
 10
1131.96734300382
 20
1463.71187074988
 30
0.0
  0
VERTEX
  5
268
330
265
100
AcDbEntity
  8
DEFAULT
100
AcDbVertex
100
AcDb2dVertex
 10
1131.947638879312
 20
1463.650177841835
 30
0.0
  0
SEQEND
  5
266
330
265
100
AcDbEntity
  8
DEFAULT
  0
SPLINE
  5
269
330
1F
100
AcDbEntity
  8
DEFAULT
100
AcDbSpline
210
0.0
220
0.0
230
1.0
 70
    12
 71
     2
 72
     6
 73
     3
 74
     0
 42
0.0000000001
 43
0.0000000001
 40
0.0
 40
0.0
 40
0.0
 40
3.87151863888522
 40
3.87151863888522
 40
3.87151863888522
 10
1131.947638879312
 20
1463.650177841835
 30
0.0
 41
1.0
 10
1131.356280676665
 20
1461.80477641278
 30
0.0
 41
0.9983927837114811
 10
1130.559887823694
 20
1460.038149858599
 30
0.0
 41
1.0
  0
SPLINE
  5
26A
330
1F
100
AcDbEntity
  8
DEFAULT
100
AcDbSpline
210
0.0
220
0.0
230
1.0
 70
    12
 71
     2
 72
     6
 73
     3
 74
     0
 42
0.0000000001
 43
0.0000000001
 40
0.0
 40
0.0
 40
0.0
 40
3.809491771663272
 40
3.809491771663272
 40
3.809491771663272
 10
1130.559887823694
 20
1460.038149858599
 30
0.0
 41
1.0
 10
1129.776927054392
 20
1458.301385841838
 30
0.0
 41
0.9997272385871253
 10
1128.913718859736
 20
1456.603078322907
 30
0.0
 41
0.9999999999999998
  0
SPLINE
  5
26B
330
1F
100
AcDbEntity
  8
DEFAULT
100
AcDbSpline
210
0.0
220
0.0
230
1.0
 70
    12
 71
     2
 72
     6
 73
     3
 74
     0
 42
0.0000000001
 43
0.0000000001
 40
0.0
 40
0.0
 40
0.0
 40
6.363467288802223
 40
6.363467288802223
 40
6.363467288802223
 10
1128.913718859736
 20
1456.603078322907
 30
0.0
 41
1.0
 10
1127.471704766245
 20
1453.766218920539
 30
0.0
 41
0.9997225066417454
 10
1125.897675055781
 20
1451.000426740132
 30
0.0
 41
0.9999999999999998
  0
SPLINE
  5
26C
330
1F
100
AcDbEntity
  8
DEFAULT
100
AcDbSpline
210
0.0
220
0.0
230
1.0
 70
    12
 71
     2
 72
     6
 73
     3
 74
     0
 42
0.0000000001
 43
0.0000000001
 40
0.0
 40
0.0
 40
0.0
 40
6.314190168834759
 40
6.314190168834759
 40
6.314190168834759
 10
1125.897675055781
 20
1451.000426740132
 30
0.0
 41
1.0
 10
1124.336288314883
 20
1448.256461895459
 30
0.0
 41
0.9999983256647454
 10
1122.76486948493
 20
1445.518229895733
 30
0.0
 41
1.0
  0
SPLINE
  5
26D
330
1F
100
AcDbEntity
  8
DEFAULT
100
AcDbSpline
210
0.0
220
0.0
230
1.0
 70
    12
 71
     2
 72
     6
 73
     3
 74
     0
 42
0.0000000001
 43
0.0000000001
 40
0.0
 40
0.0
 40
0.0
 40
9.853414726332847
 40
9.853414726332847
 40
9.853414726332847
 10
1122.76486948493
 20
1445.518229895733
 30
0.0
 41
1.0
 10
1120.312763385735
 20
1441.245007087994
 30
0.0
 41
0.9999749092794883
 10
1117.921443531634
 20
1436.93747335723
 30
0.0
 41
1.0
  0
SPLINE
  5
26E
330
1F
100
AcDbEntity
  8
DEFAULT
100
AcDbSpline
210
0.0
220
0.0
230
1.0
 70
    12
 71
     2
 72
     6
 73
     3
 74
     0
 42
0.0000000001
 43
0.0000000001
 40
0.0
 40
0.0
 40
0.0
 40
9.872051753008861
 40
9.872051753008861
 40
9.872051753008861
 10
1117.921443531634
 20
1436.93747335723
 30
0.0
 41
1.0
 10
1115.525520279675
 20
1432.620895662165
 30
0.0
 41
0.9997249082435733
 10
1113.334662646006
 20
1428.196708272847
 30
0.0
 41
1.0
  0
SPLINE
  5
26F
330
1F
100
AcDbEntity
  8
DEFAULT
100
AcDbSpline
210
0.0
220
0.0
230
1.0
 70
    12
 71
     2
 72
     6
 73
     3
 74
     0
 42
0.0000000001
 43
0.0000000001
 40
0.0
 40
0.0
 40
0.0
 40
12.25835012008484
 40
12.25835012008484
 40
12.25835012008484
 10
1113.334662646006
 20
1428.196708272847
 30
0.0
 41
1.0
 10
1110.613931696395
 20
1422.701524443633
 30
0.0
 41
0.9993490057594033
 10
1108.29652678312
 20
1417.024460353371
 30
0.0
 41
1.0
  0
SPLINE
  5
270
330
1F
100
AcDbEntity
  8
DEFAULT
100
AcDbSpline
210
0.0
220
0.0
230
1.0
 70
    12
 71
     2
 72
     6
 73
     3
 74
     0
 42
0.0000000001
 43
0.0000000001
 40
0.0
 40
0.0
 40
0.0
 40
12.30193947548948
 40
12.30193947548948
 40
12.30193947548948
 10
1108.29652678312
 20
1417.024460353371
 30
0.0
 41
1.0
 10
1105.970199481642
 20
1411.325323006624
 30
0.0
 41
0.9988611301944114
 10
1104.197459447394
 20
1405.429665979382
 30
0.0
 41
1.0
  0
SPLINE
  5
271
330
1F
100
AcDbEntity
  8
DEFAULT
100
AcDbSpline
210
0.0
220
0.0
230
1.0
 70
    12
 71
     2
 72
     6
 73
     3
 74
     0
 42
0.0000000001
 43
0.0000000001
 40
0.0
 40
0.0
 40
0.0
 40
13.23775300837617
 40
13.23775300837617
 40
13.23775300837617
 10
1104.197459447394
 20
1405.429665979382
 30
0.0
 41
1.0
 10
1102.289250364954
 20
1399.084226015637
 30
0.0
 41
0.9985269154480976
 10
1101.079969372389
 20
1392.570009940255
 30
0.0
 41
1.0
  0
SPLINE
  5
272
330
1F
100
AcDbEntity
  8
DEFAULT
100
AcDbSpline
210
0.0
220
0.0
230
1.0
 70
    12
 71
     2
 72
     6
 73
     3
 74
     0
 42
0.0000000001
 43
0.0000000001
 40
0.0
 40
0.0
 40
0.0
 40
13.26617210741939
 40
13.26617210741939
 40
13.26617210741939
 10
1101.079969372389
 20
1392.570009940255
 30
0.0
 41
1.0
 10
1099.867698366294
 20
1386.042355229662
 30
0.0
 41
0.9986317531778269
 10
1099.343817672802
 20
1379.423597369084
 30
0.0
 41
1.0
  0
SPLINE
  5
273
330
1F
100
AcDbEntity
  8
DEFAULT
100
AcDbSpline
210
0.0
220
0.0
230
1.0
 70
    12
 71
     2
 72
     6
 73
     3
 74
     0
 42
0.0000000001
 43
0.0000000001
 40
0.0
 40
0.0
 40
0.0
 40
7.21064140100763
 40
7.21064140100763
 40
7.21064140100763
 10
1099.343817672802
 20
1379.423597369084
 30
0.0
 41
1.0
 10
1099.059297416989
 20
1375.828416267725
 30
0.0
 41
0.9996724931388631
 10
1098.959107847245
 20
1372.223700206679
 30
0.0
 41
1.0
  0
SPLINE
  5
274
330
1F
100
AcDbEntity
  8
DEFAULT
100
AcDbSpline
210
0.0
220
0.0
230
1.0
 70
     8
 71
     2
 72
     6
 73
     3
 74
     0
 42
0.0000000001
 43
0.0000000001
 40
0.0
 40
0.0
 40
0.0
 40
1.0
 40
1.0
 40
1.0
 10
1098.959107847245
 20
1372.223700206679
 30
0.0
 10
1098.959107847245
 20
1369.225876145896
 30
0.0
 10
1098.911658340267
 20
1366.952562393726
 30
0.0
  0
SPLINE
  5
275
330
1F
100
AcDbEntity
  8
DEFAULT
100
AcDbSpline
210
0.0
220
0.0
230
1.0
 70
    12
 71
     2
 72
     6
 73
     3
 74
     0
 42
0.0000000001
 43
0.0000000001
 40
0.0
 40
0.0
 40
0.0
 40
12.5110661054923
 40
12.5110661054923
 40
12.5110661054923
 10
1098.911658340267
 20
1366.952562393726
 30
0.0
 41
1.0
 10
1098.972717396698
 20
1360.695274139029
 30
0.0
 41
0.9995079250249216
 10
1099.426011673058
 20
1354.454127705098
 30
0.0
 41
1.0
  0
SPLINE
  5
276
330
1F
100
AcDbEntity
  8
DEFAULT
100
AcDbSpline
210
0.0
220
0.0
230
1.0
 70
    12
 71
     2
 72
     6
 73
     3
 74
     0
 42
0.0000000001
 43
0.0000000001
 40
0.0
 40
0.0
 40
0.0
 40
12.83919811336094
 40
12.83919811336094
 40
12.83919811336094
 10
1099.426011673058
 20
1354.454127705098
 30
0.0
 41
1.0
 10
1099.891195646719
 20
1348.050135008071
 30
0.0
 41
0.9997040804502131
 10
1100.66730320526
 20
1341.676346836935
 30
0.0
 41
1.0
  0
SPLINE
  5
277
330
1F
100
AcDbEntity
  8
DEFAULT
100
AcDbSpline
210
0.0
220
0.0
230
1.0
 70
    12
 71
     2
 72
     6
 73
     3
 74
     0
 42
0.0000000001
 43
0.0000000001
 40
0.0
 40
0.0
 40
0.0
 40
12.89514281466034
 40
12.89514281466034
 40
12.89514281466034
 10
1100.66730320526
 20
1341.676346836935
 30
0.0
 41
1.0
 10
1101.446741813715
 20
1335.27588721163
 30
0.0
 41
0.9999597535418746
 10
1102.340896256734
 20
1328.890443155689
 30
0.0
 41
1.0
  0
SPLINE
  5
278
330
1F
100
AcDbEntity
  8
DEFAULT
100
AcDbSpline
210
0.0
220
0.0
230
1.0
 70
    12
 71
     2
 72
     6
 73
     3
 74
     0
 42
0.0000000001
 43
0.0000000001
 40
0.0
 40
0.0
 40
0.0
 40
13.65711231328564
 40
13.65711231328564
 40
13.65711231328564
 10
1102.340896256734
 20
1328.890443155689
 30
0.0
 41
1.0
 10
1103.28786592138
 20
1322.127861502596
 30
0.0
 41
0.999998665385879
 10
1104.256927598489
 20
1315.368410221134
 30
0.0
 41
1.0
  0
SPLINE
  5
279
330
1F
100
AcDbEntity
  8
DEFAULT
100
AcDbSpline
210
0.0
220
0.0
230
1.0
 70
    12
 71
     2
 72
     6
 73
     3
 74
     0
 42
0.0000000001
 43
0.0000000001
 40
0.0
 40
0.0
 40
0.0
 40
13.73824026556252
 40
13.73824026556252
 40
13.73824026556252
 10
1104.256927598489
 20
1315.368410221134
 30
0.0
 41
1.0
 10
1105.231703252635
 20
1308.568435361504
 30
0.0
 41
0.9999199888932627
 10
1106.034144943894
 20
1301.745977373385
 30
0.0
 41
1.0
  0
SPLINE
  5
27A
330
1F
100
AcDbEntity
  8
DEFAULT
100
AcDbSpline
210
0.0
220
0.0
230
1.0
 70
    12
 71
     2
 72
     6
 73
     3
 74
     0
 42
0.0000000001
 43
0.0000000001
 40
0.0
 40
0.0
 40
0.0
 40
14.5164754695483
 40
14.5164754695483
 40
14.5164754695483
 10
1106.034144943894
 20
1301.745977373385
 30
0.0
 41
1.0
 10
1106.882041686417
 20
1294.536461458614
 30
0.0
 41
0.9998002645737495
 10
1107.441143197553
 20
1287.298819984241
 30
0.0
 41
1.0
  0
SPLINE
  5
27B
330
1F
100
AcDbEntity
  8
DEFAULT
100
AcDbSpline
210
0.0
220
0.0
230
1.0
 70
    12
 71
     2
 72
     6
 73
     3
 74
     0
 42
0.0000000001
 43
0.0000000001
 40
0.0
 40
0.0
 40
0.0
 40
14.57402233551211
 40
14.57402233551211
 40
14.57402233551211
 10
1107.441143197553
 20
1287.298819984241
 30
0.0
 41
1.0
 10
1108.002573882617
 20
1280.031182191495
 30
0.0
 41
0.9995309160351793
 10
1108.118009870907
 20
1272.742421528726
 30
0.0
 41
1.0
  0
SPLINE
  5
27C
330
1F
100
AcDbEntity
  8
DEFAULT
100
AcDbSpline
210
0.0
220
0.0
230
1.0
 70
    12
 71
     2
 72
     6
 73
     3
 74
     0
 42
0.0000000001
 43
0.0000000001
 40
0.0
 40
0.0
 40
0.0
 40
1.261316981061428
 40
1.261316981061428
 40
1.261316981061428
 10
1108.118009870907
 20
1272.742421528726
 30
0.0
 41
1.0
 10
1108.12800059771
 20
1272.111456555793
 30
0.0
 41
0.9999955449076875
 10
1108.134220528488
 20
1271.48082686515
 30
0.0
 41
1.0
  0
SPLINE
  5
27D
330
1F
100
AcDbEntity
  8
DEFAULT
100
AcDbSpline
210
0.0
220
0.0
230
1.0
 70
    12
 71
     2
 72
     6
 73
     3
 74
     0
 42
0.0000000001
 43
0.0000000001
 40
0.0
 40
0.0
 40
0.0
 40
16.39656439089019
 40
16.39656439089019
 40
16.39656439089019
 10
1108.134220528488
 20
1271.48082686515
 30
0.0
 41
1.0
 10
1108.215382307906
 20
1263.278795463358
 30
0.0
 41
0.9992411130965271
 10
1107.657437150288
 20
1255.089657610961
 30
0.0
 41
1.0
  0
SPLINE
  5
27E
330
1F
100
AcDbEntity
  8
DEFAULT
100
AcDbSpline
210
0.0
220
0.0
230
1.0
 70
    12
 71
     2
 72
     6
 73
     3
 74
     0
 42
0.0000000001
 43
0.0000000001
 40
0.0
 40
0.0
 40
0.0
 40
17.59542483588638
 40
17.59542483588638
 40
17.59542483588638
 10
1107.657437150288
 20
1255.089657610961
 30
0.0
 41
1.0
 10
1107.058724793628
 20
1246.300548972848
 30
0.0
 41
0.9989652972441556
 10
1105.66477886004
 20
1237.607817336013
 30
0.0
 41
1.0
  0
SPLINE
  5
27F
330
1F
100
AcDbEntity
  8
DEFAULT
100
AcDbSpline
210
0.0
220
0.0
230
1.0
 70
    12
 71
     2
 72
     6
 73
     3
 74
     0
 42
0.0000000001
 43
0.0000000001
 40
0.0
 40
0.0
 40
0.0
 40
18.39094778756867
 40
18.39094778756867
 40
18.39094778756867
 10
1105.66477886004
 20
1237.607817336013
 30
0.0
 41
1.0
 10
1104.208269749411
 20
1228.521684976103
 30
0.0
 41
0.9989151615823004
 10
1101.911971556545
 20
1219.607386183334
 30
0.0
 41
1.0
  0
SPLINE
  5
280
330
1F
100
AcDbEntity
  8
DEFAULT
100
AcDbSpline
210
0.0
220
0.0
230
1.0
 70
    12
 71
     2
 72
     6
 73
     3
 74
     0
 42
0.0000000001
 43
0.0000000001
 40
0.0
 40
0.0
 40
0.0
 40
18.19990299565816
 40
18.19990299565816
 40
18.19990299565816
 10
1101.911971556545
 20
1219.607386183334
 30
0.0
 41
1.0
 10
1099.639387257612
 20
1210.787587618104
 30
0.0
 41
0.9992173715199233
 10
1096.677750036677
 20
1202.178039317861
 30
0.0
 41
1.0
  0
SPLINE
  5
281
330
1F
100
AcDbEntity
  8
DEFAULT
100
AcDbSpline
210
0.0
220
0.0
230
1.0
 70
    12
 71
     2
 72
     6
 73
     3
 74
     0
 42
0.0000000001
 43
0.0000000001
 40
0.0
 40
0.0
 40
0.0
 40
19.25071104031895
 40
19.25071104031895
 40
19.25071104031895
 10
1096.677750036677
 20
1202.178039317861
 30
0.0
 41
1.0
 10
1093.545235892228
 20
1193.07191380172
 30
0.0
 41
0.9992988027670145
 10
1089.740079893717
 20
1184.225730748681
 30
0.0
 41
1.0
  0
POLYLINE
  5
282
330
1F
100
AcDbEntity
  8
DEFAULT
100
AcDb2dPolyline
 66
     1
 10
0.0
 20
0.0
 30
0.0
  0
VERTEX
  5
284
330
282
100
AcDbEntity
  8
DEFAULT
100
AcDbVertex
100
AcDb2dVertex
 10
1089.740079893717
 20
1184.225730748681
 30
0.0
  0
VERTEX
  5
285
330
282
100
AcDbEntity
  8
DEFAULT
100
AcDbVertex
100
AcDb2dVertex
 10
1089.726433472048
 20
1184.19402526933
 30
0.0
  0
SEQEND
  5
283
330
282
100
AcDbEntity
  8
DEFAULT
  0
SPLINE
  5
286
330
1F
100
AcDbEntity
  8
DEFAULT
100
AcDbSpline
210
0.0
220
0.0
230
1.0
 70
    12
 71
     2
 72
     6
 73
     3
 74
     0
 42
0.0000000001
 43
0.0000000001
 40
0.0
 40
0.0
 40
0.0
 40
2.971644993290816
 40
2.971644993290816
 40
2.971644993290816
 10
1089.726433472048
 20
1184.19402526933
 30
0.0
 41
1.0
 10
1089.138956542083
 20
1182.829266914229
 30
0.0
 41
0.9999911606223111
 10
1088.540023954013
 20
1181.469496982952
 30
0.0
 41
1.0
  0
POLYLINE
  5
287
330
1F
100
AcDbEntity
  8
DEFAULT
100
AcDb2dPolyline
 66
     1
 10
0.0
 20
0.0
 30
0.0
  0
VERTEX
  5
289
330
287
100
AcDbEntity
  8
DEFAULT
100
AcDbVertex
100
AcDb2dVertex
 10
1088.540023954013
 20
1181.469496982952
 30
0.0
  0
VERTEX
  5
28A
330
287
100
AcDbEntity
  8
DEFAULT
100
AcDbVertex
100
AcDb2dVertex
 10
1087.740023954012
 20
1179.666894562168
 30
0.0
  0
SEQEND
  5
288
330
287
100
AcDbEntity
  8
DEFAULT
  0
SPLINE
  5
28B
330
1F
100
AcDbEntity
  8
DEFAULT
100
AcDbSpline
210
0.0
220
0.0
230
1.0
 70
    12
 71
     2
 72
     6
 73
     3
 74
     0
 42
0.0000000001
 43
0.0000000001
 40
0.0
 40
0.0
 40
0.0
 40
14.08172877108994
 40
14.08172877108994
 40
14.08172877108994
 10
1087.740023954012
 20
1179.666894562168
 30
0.0
 41
1.0
 10
1084.865848800267
 20
1173.238342696466
 30
0.0
 41
0.9997974672467703
 10
1081.735302231561
 20
1166.930661657797
 30
0.0
 41
1.0
  0
POLYLINE
  5
28C
330
1F
100
AcDbEntity
  8
DEFAULT
100
AcDb2dPolyline
 66
     1
 10
0.0
 20
0.0
 30
0.0
  0
VERTEX
  5
28E
330
28C
100
AcDbEntity
  8
DEFAULT
100
AcDbVertex
100
AcDb2dVertex
 10
1081.735302231561
 20
1166.930661657797
 30
0.0
  0
VERTEX
  5
28F
330
28C
100
AcDbEntity
  8
DEFAULT
100
AcDbVertex
100
AcDb2dVertex
 10
1081.725540600712
 20
1166.910996906297
 30
0.0
  0
SEQEND
  5
28D
330
28C
100
AcDbEntity
  8
DEFAULT
  0
SPLINE
  5
290
330
1F
100
AcDbEntity
  8
DEFAULT
100
AcDbSpline
210
0.0
220
0.0
230
1.0
 70
    12
 71
     2
 72
     6
 73
     3
 74
     0
 42
0.0000000001
 43
0.0000000001
 40
0.0
 40
0.0
 40
0.0
 40
19.69684623823553
 40
19.69684623823553
 40
19.69684623823553
 10
1081.725540600712
 20
1166.910996906297
 30
0.0
 41
1.0
 10
1077.346159950242
 20
1158.087861712535
 30
0.0
 41
0.9997275086122168
 10
1072.559742512502
 20
1149.478744589345
 30
0.0
 41
1.0
  0
SPLINE
  5
291
330
1F
100
AcDbEntity
  8
DEFAULT
100
AcDbSpline
210
0.0
220
0.0
230
1.0
 70
    12
 71
     2
 72
     6
 73
     3
 74
     0
 42
0.0000000001
 43
0.0000000001
 40
0.0
 40
0.0
 40
0.0
 40
19.6008582197522
 40
19.6008582197522
 40
19.6008582197522
 10
1072.559742512502
 20
1149.478744589345
 30
0.0
 41
1.0
 10
1067.79681018314
 20
1140.912829522749
 30
0.0
 41
0.9999061949648929
 10
1062.801036341077
 20
1132.480589664845
 30
0.0
 41
1.0
  0
SPLINE
  5
292
330
1F
100
AcDbEntity
  8
DEFAULT
100
AcDbSpline
210
0.0
220
0.0
230
1.0
 70
    12
 71
     2
 72
     6
 73
     3
 74
     0
 42
0.0000000001
 43
0.0000000001
 40
0.0
 40
0.0
 40
0.0
 40
19.30920383232504
 40
19.30920383232504
 40
19.30920383232504
 10
1062.801036341077
 20
1132.480589664845
 30
0.0
 41
1.0
 10
1057.879695119599
 20
1124.174154737697
 30
0.0
 41
0.9999587857270072
 10
1052.808344445584
 20
1115.958446432366
 30
0.0
 41
0.9999999999999998
  0
SPLINE
  5
293
330
1F
100
AcDbEntity
  8
DEFAULT
100
AcDbSpline
210
0.0
220
0.0
230
1.0
 70
    12
 71
     2
 72
     6
 73
     3
 74
     0
 42
0.0000000001
 43
0.0000000001
 40
0.0
 40
0.0
 40
0.0
 40
19.2802911614775
 40
19.2802911614775
 40
19.2802911614775
 10
1052.808344445584
 20
1115.958446432366
 30
0.0
 41
1.0
 10
1047.744722796256
 20
1107.755264767791
 30
0.0
 41
0.9999996222092151
 10
1042.695369890816
 20
1099.543292479341
 30
0.0
 41
1.0
  0
SPLINE
  5
294
330
1F
100
AcDbEntity
  8
DEFAULT
100
AcDbSpline
210
0.0
220
0.0
230
1.0
 70
    12
 71
     2
 72
     6
 73
     3
 74
     0
 42
0.0000000001
 43
0.0000000001
 40
0.0
 40
0.0
 40
0.0
 40
14.88660642183386
 40
14.88660642183386
 40
14.88660642183386
 10
1042.695369890816
 20
1099.543292479341
 30
0.0
 41
1.0
 10
1038.796721141403
 20
1093.202623571651
 30
0.0
 41
0.9999894197393581
 10
1034.95657148725
 20
1086.826355470181
 30
0.0
 41
1.0
  0
SPLINE
  5
295
330
1F
100
AcDbEntity
  8
DEFAULT
100
AcDbSpline
210
0.0
220
0.0
230
1.0
 70
    12
 71
     2
 72
     6
 73
     3
 74
     0
 42
0.0000000001
 43
0.0000000001
 40
0.0
 40
0.0
 40
0.0
 40
14.91350827315906
 40
14.91350827315906
 40
14.91350827315906
 10
1034.95657148725
 20
1086.826355470181
 30
0.0
 41
1.0
 10
1031.109498545832
 20
1080.438035645584
 30
0.0
 41
0.999899953843425
 10
1027.440393847261
 20
1073.935865876867
 30
0.0
 41
1.0
  0
SPLINE
  5
296
330
1F
100
AcDbEntity
  8
DEFAULT
100
AcDbSpline
210
0.0
220
0.0
230
1.0
 70
    12
 71
     2
 72
     6
 73
     3
 74
     0
 42
0.0000000001
 43
0.0000000001
 40
0.0
 40
0.0
 40
0.0
 40
11.38478331128053
 40
11.38478331128053
 40
11.38478331128053
 10
1027.440393847261
 20
1073.935865876867
 30
0.0
 41
1.0
 10
1024.638648062217
 20
1068.970222213393
 30
0.0
 41
0.9998875300021194
 10
1021.98675565916
 20
1063.922143052098
 30
0.0
 41
1.0
  0
SPLINE
  5
297
330
1F
100
AcDbEntity
  8
DEFAULT
100
AcDbSpline
210
0.0
220
0.0
230
1.0
 70
    12
 71
     2
 72
     6
 73
     3
 74
     0
 42
0.0000000001
 43
0.0000000001
 40
0.0
 40
0.0
 40
0.0
 40
11.41624649047179
 40
11.41624649047179
 40
11.41624649047179
 10
1021.98675565916
 20
1063.922143052098
 30
0.0
 41
1.0
 10
1019.32794782221
 20
1058.85890364501
 30
0.0
 41
0.9996499626809328
 10
1016.944618283292
 20
1053.670683807503
 30
0.0
 41
1.0
  0
SPLINE
  5
298
330
1F
100
AcDbEntity
  8
DEFAULT
100
AcDbSpline
210
0.0
220
0.0
230
1.0
 70
    12
 71
     2
 72
     6
 73
     3
 74
     0
 42
0.0000000001
 43
0.0000000001
 40
0.0
 40
0.0
 40
0.0
 40
8.802468184621773
 40
8.802468184621773
 40
8.802468184621773
 10
1016.944618283292
 20
1053.670683807503
 30
0.0
 41
1.0
 10
1015.106919286238
 20
1049.670404300136
 30
0.0
 41
0.9996705660156284
 10
1013.476918668385
 20
1045.581092410999
 30
0.0
 41
1.0
  0
SPLINE
  5
299
330
1F
100
AcDbEntity
  8
DEFAULT
100
AcDbSpline
210
0.0
220
0.0
230
1.0
 70
    12
 71
     2
 72
     6
 73
     3
 74
     0
 42
0.0000000001
 43
0.0000000001
 40
0.0
 40
0.0
 40
0.0
 40
8.812360316557662
 40
8.812360316557662
 40
8.812360316557662
 10
1013.476918668385
 20
1045.581092410999
 30
0.0
 41
1.0
 10
1011.844971066818
 20
1041.4856850717
 30
0.0
 41
0.999182251024683
 10
1010.549267941794
 20
1037.271807088079
 30
0.0
 41
0.9999999999987017
  0
SPLINE
  5
29A
330
1F
100
AcDbEntity
  8
DEFAULT
100
AcDbSpline
210
0.0
220
0.0
230
1.0
 70
    12
 71
     2
 72
     6
 73
     3
 74
     0
 42
0.0000000001
 43
0.0000000001
 40
0.0
 40
0.0
 40
0.0
 40
7.428381162248479
 40
7.428381162248479
 40
7.428381162248479
 10
1010.549267941794
 20
1037.271807088079
 30
0.0
 41
0.9999999999983504
 10
1009.456901864212
 20
1033.719614045151
 30
0.0
 41
0.9991242040375448
 10
1008.665368354107
 20
1030.08852415862
 30
0.0
 41
1.0
  0
SPLINE
  5
29B
330
1F
100
AcDbEntity
  8
DEFAULT
100
AcDbSpline
210
0.0
220
0.0
230
1.0
 70
    12
 71
     2
 72
     6
 73
     3
 74
     0
 42
0.0000000001
 43
0.0000000001
 40
0.0
 40
0.0
 40
0.0
 40
7.379302109451984
 40
7.379302109451984
 40
7.379302109451984
 10
1008.665368354107
 20
1030.08852415862
 30
0.0
 41
1.0
 10
1007.878581226509
 20
1026.478808576182
 30
0.0
 41
0.9980461325618197
 10
1007.548135552996
 20
1022.799150137263
 30
0.0
 41
1.0
  0
SPLINE
  5
29C
330
1F
100
AcDbEntity
  8
DEFAULT
100
AcDbSpline
210
0.0
220
0.0
230
1.0
 70
    12
 71
     2
 72
     6
 73
     3
 74
     0
 42
0.0000000001
 43
0.0000000001
 40
0.0
 40
0.0
 40
0.0
 40
3.184376114168197
 40
3.184376114168197
 40
3.184376114168197
 10
1007.548135552996
 20
1022.799150137263
 30
0.0
 41
1.0
 10
1007.405511758236
 20
1021.212814469942
 30
0.0
 41
0.9994856860979563
 10
1007.364870528407
 20
1019.620598816621
 30
0.0
 41
1.0
  0
SPLINE
  5
29D
330
1F
100
AcDbEntity
  8
DEFAULT
100
AcDbSpline
210
0.0
220
0.0
230
1.0
 70
    12
 71
     2
 72
     6
 73
     3
 74
     0
 42
0.0000000001
 43
0.0000000001
 40
0.0
 40
0.0
 40
0.0
 40
2.043044326872733
 40
2.043044326872733
 40
2.043044326872733
 10
1007.364870528407
 20
1019.620598816621
 30
0.0
 41
1.0
 10
1007.338795722966
 20
1018.599264022657
 30
0.0
 41
0.9997865056244002
 10
1007.354941042698
 20
1017.577724015858
 30
0.0
 41
1.0
  0
SPLINE
  5
29E
330
1F
100
AcDbEntity
  8
DEFAULT
100
AcDbSpline
210
0.0
220
0.0
230
1.0
 70
    12
 71
     2
 72
     6
 73
     3
 74
     0
 42
0.0000000001
 43
0.0000000001
 40
0.0
 40
0.0
 40
0.0
 40
5.141828257107496
 40
5.141828257107496
 40
5.141828257107496
 10
1007.354941042698
 20
1017.577724015858
 30
0.0
 41
1.0
 10
1007.394910744864
 20
1015.00341158531
 30
0.0
 41
0.9978407481555228
 10
1007.771966281342
 20
1012.456548575729
 30
0.0
 41
1.0
  0
SPLINE
  5
29F
330
1F
100
AcDbEntity
  8
DEFAULT
100
AcDbSpline
210
0.0
220
0.0
230
1.0
 70
    12
 71
     2
 72
     6
 73
     3
 74
     0
 42
0.0000000001
 43
0.0000000001
 40
0.0
 40
0.0
 40
0.0
 40
0.7829576522909414
 40
0.7829576522909414
 40
0.7829576522909414
 10
1007.771966281342
 20
1012.456548575729
 30
0.0
 41
1.0
 10
1007.829431852539
 20
1012.069294623435
 30
0.0
 41
0.9999400845992765
 10
1007.895361342398
 20
1011.683391503718
 30
0.0
 41
1.0
  0
POLYLINE
  5
2A0
330
1F
100
AcDbEntity
  8
DEFAULT
100
AcDb2dPolyline
 66
     1
 10
0.0
 20
0.0
 30
0.0
  0
VERTEX
  5
2A2
330
2A0
100
AcDbEntity
  8
DEFAULT
100
AcDbVertex
100
AcDb2dVertex
 10
1007.895361342398
 20
1011.683391503718
 30
0.0
  0
VERTEX
  5
2A3
330
2A0
100
AcDbEntity
  8
DEFAULT
100
AcDbVertex
100
AcDb2dVertex
 10
1003.843345940394
 20
1011.683391503276
 30
0.0
  0
SEQEND
  5
2A1
330
2A0
100
AcDbEntity
  8
DEFAULT
  0
SPLINE
  5
2A4
330
1F
100
AcDbEntity
  8
DEFAULT
100
AcDbSpline
210
0.0
220
0.0
230
1.0
 70
    12
 71
     2
 72
     6
 73
     3
 74
     0
 42
0.0000000001
 43
0.0000000001
 40
0.0
 40
0.0
 40
0.0
 40
0.1880715582489456
 40
0.1880715582489456
 40
0.1880715582489456
 10
1003.843345940394
 20
1011.683391503276
 30
0.0
 41
1.0
 10
1003.82910352492
 20
1011.77634264186
 30
0.0
 41
0.9999972174678405
 10
1003.815299817134
 20
1011.869359942476
 30
0.0
 41
1.0
  0
SPLINE
  5
2A5
330
1F
100
AcDbEntity
  8
DEFAULT
100
AcDbSpline
210
0.0
220
0.0
230
1.0
 70
    12
 71
     2
 72
     6
 73
     3
 74
     0
 42
0.0000000001
 43
0.0000000001
 40
0.0
 40
0.0
 40
0.0
 40
5.667901258993737
 40
5.667901258993737
 40
5.667901258993737
 10
1003.815299817134
 20
1011.869359942476
 30
0.0
 41
1.0
 10
1003.399570288975
 20
1014.676785039672
 30
0.0
 41
0.9978404319493407
 10
1003.355441031147
 20
1017.514481169555
 30
0.0
 41
1.0
  0
SPLINE
  5
2A6
330
1F
100
AcDbEntity
  8
DEFAULT
100
AcDbSpline
210
0.0
220
0.0
230
1.0
 70
    12
 71
     2
 72
     6
 73
     3
 74
     0
 42
0.0000000001
 43
0.0000000001
 40
0.0
 40
0.0
 40
0.0
 40
2.208296661866067
 40
2.208296661866067
 40
2.208296661866067
 10
1003.355441031147
 20
1017.514481169555
 30
0.0
 41
1.0
 10
1003.337989211023
 20
1018.618648768481
 30
0.0
 41
0.9997865184665625
 10
1003.366171132712
 20
1019.722594614904
 30
0.0
 41
1.0
  0
SPLINE
  5
2A7
330
1F
100
AcDbEntity
  8
DEFAULT
100
AcDbSpline
210
0.0
220
0.0
230
1.0
 70
    12
 71
     2
 72
     6
 73
     3
 74
     0
 42
0.0000000001
 43
0.0000000001
 40
0.0
 40
0.0
 40
0.0
 40
3.441009698269177
 40
3.441009698269177
 40
3.441009698269177
 10
1003.366171132712
 20
1019.722594614904
 30
0.0
 41
1.0
 10
1003.410082088824
 20
1021.443129514382
 30
0.0
 41
0.999485610448905
 10
1003.564202649254
 20
1023.157310183169
 30
0.0
 41
1.0
  0
SPLINE
  5
2A8
330
1F
100
AcDbEntity
  8
DEFAULT
100
AcDbSpline
210
0.0
220
0.0
230
1.0
 70
    12
 71
     2
 72
     6
 73
     3
 74
     0
 42
0.0000000001
 43
0.0000000001
 40
0.0
 40
0.0
 40
0.0
 40
7.879700984056436
 40
7.879700984056436
 40
7.879700984056436
 10
1003.564202649254
 20
1023.157310183169
 30
0.0
 41
1.0
 10
1003.917083716861
 20
1027.086488133298
 30
0.0
 41
0.9980460743976453
 10
1004.757257944728
 20
1030.940975346727
 30
0.0
 41
1.0
  0
SPLINE
  5
2A9
330
1F
100
AcDbEntity
  8
DEFAULT
100
AcDbSpline
210
0.0
220
0.0
230
1.0
 70
    12
 71
     2
 72
     6
 73
     3
 74
     0
 42
0.0000000001
 43
0.0000000001
 40
0.0
 40
0.0
 40
0.0
 40
7.763288253433482
 40
7.763288253433482
 40
7.763288253433482
 10
1004.757257944728
 20
1030.940975346727
 30
0.0
 41
1.0
 10
1005.584500783346
 20
1034.735767129255
 30
0.0
 41
0.9991242109053553
 10
1006.726137442333
 20
1038.448103472537
 30
0.0
 41
1.0
  0
SPLINE
  5
2AA
330
1F
100
AcDbEntity
  8
DEFAULT
100
AcDbSpline
210
0.0
220
0.0
230
1.0
 70
    12
 71
     2
 72
     6
 73
     3
 74
     0
 42
0.0000000001
 43
0.0000000001
 40
0.0
 40
0.0
 40
0.0
 40
9.13597194655287
 40
9.13597194655287
 40
9.13597194655287
 10
1006.726137442333
 20
1038.448103472537
 30
0.0
 41
1.0
 10
1008.069451303053
 20
1042.816716427798
 30
0.0
 41
0.9991822578062567
 10
1009.761355117933
 20
1047.062506432317
 30
0.0
 41
1.0
  0
SPLINE
  5
2AB
330
1F
100
AcDbEntity
  8
DEFAULT
100
AcDbSpline
210
0.0
220
0.0
230
1.0
 70
    12
 71
     2
 72
     6
 73
     3
 74
     0
 42
0.0000000001
 43
0.0000000001
 40
0.0
 40
0.0
 40
0.0
 40
9.007837191054659
 40
9.007837191054659
 40
9.007837191054659
 10
1009.761355117933
 20
1047.062506432317
 30
0.0
 41
1.0
 10
1011.42939240247
 20
1051.24722250474
 30
0.0
 41
0.9996705570963176
 10
1013.309976530538
 20
1055.340827313056
 30
0.0
 41
1.0
  0
SPLINE
  5
2AC
330
1F
100
AcDbEntity
  8
DEFAULT
100
AcDbSpline
210
0.0
220
0.0
230
1.0
 70
    12
 71
     2
 72
     6
 73
     3
 74
     0
 42
0.0000000001
 43
0.0000000001
 40
0.0
 40
0.0
 40
0.0
 40
11.62179309664752
 40
11.62179309664752
 40
11.62179309664752
 10
1013.309976530538
 20
1055.340827313056
 30
0.0
 41
1.0
 10
1015.736226327488
 20
1060.62245402369
 30
0.0
 41
0.9996503281895246
 10
1018.438307415514
 20
1065.768425902882
 30
0.0
 41
1.0
  0
POLYLINE
  5
2AD
330
1F
100
AcDbEntity
  8
DEFAULT
100
AcDb2dPolyline
 66
     1
 10
0.0
 20
0.0
 30
0.0
  0
VERTEX
  5
2AF
330
2AD
100
AcDbEntity
  8
DEFAULT
100
AcDbVertex
100
AcDb2dVertex
 10
1018.438307415514
 20
1065.768425902882
 30
0.0
  0
VERTEX
  5
2B0
330
2AD
100
AcDbEntity
  8
DEFAULT
100
AcDbVertex
100
AcDb2dVertex
 10
1018.450101994531
 20
1065.790878754759
 30
0.0
  0
SEQEND
  5
2AE
330
2AD
100
AcDbEntity
  8
DEFAULT
  0
SPLINE
  5
2B1
330
1F
100
AcDbEntity
  8
DEFAULT
100
AcDbSpline
210
0.0
220
0.0
230
1.0
 70
    12
 71
     2
 72
     6
 73
     3
 74
     0
 42
0.0000000001
 43
0.0000000001
 40
0.0
 40
0.0
 40
0.0
 40
11.50583499310597
 40
11.50583499310597
 40
11.50583499310597
 10
1018.450101994531
 20
1065.790878754759
 30
0.0
 41
1.0
 10
1021.125761280403
 20
1070.884195146678
 30
0.0
 41
0.9998875084952287
 10
1023.957053980223
 20
1075.902167922261
 30
0.0
 41
1.0
  0
SPLINE
  5
2B2
330
1F
100
AcDbEntity
  8
DEFAULT
100
AcDbSpline
210
0.0
220
0.0
230
1.0
 70
    12
 71
     2
 72
     6
 73
     3
 74
     0
 42
0.0000000001
 43
0.0000000001
 40
0.0
 40
0.0
 40
0.0
 40
15.0266758024095
 40
15.0266758024095
 40
15.0266758024095
 10
1023.957053980223
 20
1075.902167922261
 30
0.0
 41
1.0
 10
1027.65375600769
 20
1082.453239568528
 30
0.0
 41
0.9998999535179415
 10
1031.53002370401
 20
1088.890034294314
 30
0.0
 41
1.0
  0
SPLINE
  5
2B3
330
1F
100
AcDbEntity
  8
DEFAULT
100
AcDbSpline
210
0.0
220
0.0
230
1.0
 70
    12
 71
     2
 72
     6
 73
     3
 74
     0
 42
0.0000000001
 43
0.0000000001
 40
0.0
 40
0.0
 40
0.0
 40
14.92343052909424
 40
14.92343052909424
 40
14.92343052909424
 10
1031.53002370401
 20
1088.890034294314
 30
0.0
 41
1.0
 10
1035.37967270743
 20
1095.282074867131
 30
0.0
 41
0.999989419807415
 10
1039.28796532261
 20
1101.638428300374
 30
0.0
 41
1.0
  0
SPLINE
  5
2B4
330
1F
100
AcDbEntity
  8
DEFAULT
100
AcDbSpline
210
0.0
220
0.0
230
1.0
 70
    12
 71
     2
 72
     6
 73
     3
 74
     0
 42
0.0000000001
 43
0.0000000001
 40
0.0
 40
0.0
 40
0.0
 40
19.28725079306775
 40
19.28725079306775
 40
19.28725079306775
 10
1039.28796532261
 20
1101.638428300374
 30
0.0
 41
1.0
 10
1044.339140904795
 20
1109.853364871794
 30
0.0
 41
0.9999996222094795
 10
1049.404590376484
 20
1118.059507649248
 30
0.0
 41
1.0
  0
SPLINE
  5
2B5
330
1F
100
AcDbEntity
  8
DEFAULT
100
AcDbSpline
210
0.0
220
0.0
230
1.0
 70
    12
 71
     2
 72
     6
 73
     3
 74
     0
 42
0.0000000001
 43
0.0000000001
 40
0.0
 40
0.0
 40
0.0
 40
19.23659598659783
 40
19.23659598659783
 40
19.23659598659783
 10
1049.404590376484
 20
1118.059507649248
 30
0.0
 41
0.9999999999999998
 10
1054.456871561731
 20
1126.244322562438
 30
0.0
 41
0.9999587853722212
 10
1059.359706725715
 20
1134.519523326941
 30
0.0
 41
1.0
  0
SPLINE
  5
2B6
330
1F
100
AcDbEntity
  8
DEFAULT
100
AcDbSpline
210
0.0
220
0.0
230
1.0
 70
    12
 71
     2
 72
     6
 73
     3
 74
     0
 42
0.0000000001
 43
0.0000000001
 40
0.0
 40
0.0
 40
0.0
 40
19.49128624671441
 40
19.49128624671441
 40
19.49128624671441
 10
1059.359706725715
 20
1134.519523326941
 30
0.0
 41
1.0
 10
1064.327552429962
 20
1142.904626160967
 30
0.0
 41
0.9999061951444731
 10
1069.063858451583
 20
1151.422656787108
 30
0.0
 41
1.0
  0
SPLINE
  5
2B7
330
1F
100
AcDbEntity
  8
DEFAULT
100
AcDbSpline
210
0.0
220
0.0
230
1.0
 70
    12
 71
     2
 72
     6
 73
     3
 74
     0
 42
0.0000000001
 43
0.0000000001
 40
0.0
 40
0.0
 40
0.0
 40
19.50797669863912
 40
19.50797669863912
 40
19.50797669863912
 10
1069.063858451583
 20
1151.422656787108
 30
0.0
 41
1.0
 10
1073.804374409613
 20
1159.949225181831
 30
0.0
 41
0.9997275667094573
 10
1078.141799969461
 20
1168.687737621087
 30
0.0
 41
1.0
  0
POLYLINE
  5
2B8
330
1F
100
AcDbEntity
  8
DEFAULT
100
AcDb2dPolyline
 66
     1
 10
0.0
 20
0.0
 30
0.0
  0
VERTEX
  5
2BA
330
2B8
100
AcDbEntity
  8
DEFAULT
100
AcDbVertex
100
AcDb2dVertex
 10
1078.141799969461
 20
1168.687737621087
 30
0.0
  0
VERTEX
  5
2BB
330
2B8
100
AcDbEntity
  8
DEFAULT
100
AcDbVertex
100
AcDb2dVertex
 10
1078.152409883042
 20
1168.709111100139
 30
0.0
  0
SEQEND
  5
2B9
330
2B8
100
AcDbEntity
  8
DEFAULT
  0
SPLINE
  5
2BC
330
1F
100
AcDbEntity
  8
DEFAULT
100
AcDbSpline
210
0.0
220
0.0
230
1.0
 70
    12
 71
     2
 72
     6
 73
     3
 74
     0
 42
0.0000000001
 43
0.0000000001
 40
0.0
 40
0.0
 40
0.0
 40
18.79949795192598
 40
18.79949795192598
 40
18.79949795192598
 10
1078.152409883042
 20
1168.709111100139
 30
0.0
 41
1.0
 10
1082.331886590304
 20
1177.131139564058
 30
0.0
 41
0.9996325559552899
 10
1086.048808749113
 20
1185.767289091421
 30
0.0
 41
1.0
  0
POLYLINE
  5
2BD
330
1F
100
AcDbEntity
  8
DEFAULT
100
AcDb2dPolyline
 66
     1
 10
0.0
 20
0.0
 30
0.0
  0
VERTEX
  5
2BF
330
2BD
100
AcDbEntity
  8
DEFAULT
100
AcDbVertex
100
AcDb2dVertex
 10
1191.019375388321
 20
1001.883391503727
 30
0.0
  0
VERTEX
  5
2C0
330
2BD
100
AcDbEntity
  8
DEFAULT
100
AcDbVertex
100
AcDb2dVertex
 10
1190.181622733481
 20
1001.883391503729
 30
0.0
  0
SEQEND
  5
2BE
330
2BD
100
AcDbEntity
  8
DEFAULT
  0
SPLINE
  5
2C1
330
1F
100
AcDbEntity
  8
DEFAULT
100
AcDbSpline
210
0.0
220
0.0
230
1.0
 70
    12
 71
     2
 72
     6
 73
     3
 74
     0
 42
0.0000000001
 43
0.0000000001
 40
0.0
 40
0.0
 40
0.0
 40
2.117363806891462
 40
2.117363806891462
 40
2.117363806891462
 10
1190.181622733481
 20
1001.883391503729
 30
0.0
 41
1.0
 10
1190.508511642827
 20
1002.899707562592
 30
0.0
 41
0.9875266224358651
 10
1191.135242862893
 20
1003.7639775831
 30
0.0
 41
1.0
  0
SPLINE
  5
2C2
330
1F
100
AcDbEntity
  8
DEFAULT
100
AcDbSpline
210
0.0
220
0.0
230
1.0
 70
    24
 71
     2
 72
     6
 73
     3
 74
     0
 42
0.0000000001
 43
0.0000000001
 40
0.0
 40
0.0
 40
0.0
 40
70.49834606997248
 40
70.49834606997248
 40
70.49834606997248
 10
1191.135242862893
 20
1003.7639775831
 30
0.0
 10
1212.054526978424
 20
1032.134521316771
 30
0.0
 10
1232.973811093955
 20
1060.505065050441
 30
0.0
  0
SPLINE
  5
2C3
330
1F
100
AcDbEntity
  8
DEFAULT
100
AcDbSpline
210
0.0
220
0.0
230
1.0
 70
    12
 71
     2
 72
     6
 73
     3
 74
     0
 42
0.0000000001
 43
0.0000000001
 40
0.0
 40
0.0
 40
0.0
 40
0.7299534824705822
 40
0.7299534824705822
 40
0.7299534824705822
 10
1232.973811093955
 20
1060.505065050441
 30
0.0
 41
1.0
 10
1233.195667255898
 20
1060.795040878621
 30
0.0
 41
0.9994479754183251
 10
1233.436290567226
 20
1061.069643426988
 30
0.0
 41
1.0
  0
SPLINE
  5
2C4
330
1F
100
AcDbEntity
  8
DEFAULT
100
AcDbSpline
210
0.0
220
0.0
230
1.0
 70
    12
 71
     3
 72
    12
 73
     8
 74
     0
 42
0.0000000001
 43
0.0000000001
 40
0.0
 40
0.0
 40
0.0
 40
0.0
 40
4.136536507800642
 40
12.13586615320929
 40
14.69571472514742
 40
14.69571472514742
 40
18.65396641376159
 40
18.65396641376159
 40
18.65396641376159
 40
18.65396641376159
 10
1233.436290567226
 20
1061.069643426988
 30
0.0
 41
1.0
 10
1234.269657429977
 20
1062.060453454392
 30
0.0
 41
1.0
 10
1236.889500156683
 20
1064.770909316584
 30
0.0
 41
1.0
 10
1240.585708896504
 20
1067.288719635221
 30
0.0
 41
1.0
 10
1243.454121951888
 20
1068.527496435227
 30
0.0
 41
1.0
 10
1245.249460269803
 20
1069.204858452619
 30
0.0
 41
1.0
 10
1246.363242347451
 20
1069.534323621107
 30
0.0
 41
1.0
 10
1247.490911306776
 20
1069.77958053128
 30
0.0
 41
1.0
  0
POLYLINE
  5
2C5
330
1F
100
AcDbEntity
  8
DEFAULT
100
AcDb2dPolyline
 66
     1
 10
0.0
 20
0.0
 30
0.0
  0
VERTEX
  5
2C7
330
2C5
100
AcDbEntity
  8
DEFAULT
100
AcDbVertex
100
AcDb2dVertex
 10
1247.490911306776
 20
1069.77958053128
 30
0.0
  0
VERTEX
  5
2C8
330
2C5
100
AcDbEntity
  8
DEFAULT
100
AcDbVertex
100
AcDb2dVertex
 10
1247.490911306777
 20
1068.965886137713
 30
0.0
  0
SEQEND
  5
2C6
330
2C5
100
AcDbEntity
  8
DEFAULT
  0
SPLINE
  5
2C9
330
1F
100
AcDbEntity
  8
DEFAULT
100
AcDbSpline
210
0.0
220
0.0
230
1.0
 70
     8
 71
     3
 72
    11
 73
     7
 74
     0
 42
0.0000000001
 43
0.0000000001
 40
0.0
 40
0.0
 40
0.0
 40
0.0
 40
2.032688556780978
 40
3.95715133345712
 40
7.844663645151171
 40
16.14103370343577
 40
16.14103370343577
 40
16.14103370343577
 40
16.14103370343577
 10
1247.490911306777
 20
1068.965886137713
 30
0.0
 10
1246.829953071716
 20
1068.817296672615
 30
0.0
 10
1245.556140239192
 20
1068.468540036661
 30
0.0
 10
1243.099845890828
 20
1067.566824672306
 30
0.0
 10
1238.908559096431
 20
1065.395268869025
 30
0.0
 10
1235.827602051036
 20
1062.67016266086
 30
0.0
 10
1234.048523709876
 20
1060.554696265579
 30
0.0
  0
SPLINE
  5
2CA
330
1F
100
AcDbEntity
  8
DEFAULT
100
AcDbSpline
210
0.0
220
0.0
230
1.0
 70
    12
 71
     2
 72
     6
 73
     3
 74
     0
 42
0.0000000001
 43
0.0000000001
 40
0.0
 40
0.0
 40
0.0
 40
0.6787934756371813
 40
0.6787934756371813
 40
0.6787934756371813
 10
1234.048523708756
 20
1060.554696264248
 30
0.0
 41
1.0
 10
1233.82500200766
 20
1060.299154444433
 30
0.0
 41
0.9995222163702601
 10
1233.617696695597
 20
1060.030290017397
 30
0.0
 41
1.0
  0
SPLINE
  5
2CB
330
1F
100
AcDbEntity
  8
DEFAULT
100
AcDbSpline
210
0.0
220
0.0
230
1.0
 70
    24
 71
     2
 72
     6
 73
     3
 74
     0
 42
0.0000000001
 43
0.0000000001
 40
0.0
 40
0.0
 40
0.0
 40
70.49834606997665
 40
70.49834606997665
 40
70.49834606997665
 10
1233.617696695597
 20
1060.030290017397
 30
0.0
 10
1212.698412580064
 20
1031.659746283726
 30
0.0
 10
1191.779128464532
 20
1003.289202550055
 30
0.0
  0
SPLINE
  5
2CC
330
1F
100
AcDbEntity
  8
DEFAULT
100
AcDbSpline
210
0.0
220
0.0
230
1.0
 70
    12
 71
     2
 72
     6
 73
     3
 74
     0
 42
0.0000000001
 43
0.0000000001
 40
0.0
 40
0.0
 40
0.0
 40
1.603052631743272
 40
1.603052631743272
 40
1.603052631743272
 10
1191.779128464532
 20
1003.289202550055
 30
0.0
 41
1.0
 10
1191.301701402616
 20
1002.639016992881
 30
0.0
 41
0.9905067153904585
 10
1191.019375388321
 20
1001.883391503727
 30
0.0
 41
1.0
  0
POLYLINE
  5
2CD
330
1F
100
AcDbEntity
  8
DEFAULT
100
AcDb2dPolyline
 66
     1
 10
0.0
 20
0.0
 30
0.0
  0
VERTEX
  5
2CF
330
2CD
100
AcDbEntity
  8
DEFAULT
100
AcDbVertex
100
AcDb2dVertex
 10
1243.967534162478
 20
1507.283391503276
 30
0.0
  0
VERTEX
  5
2D0
330
2CD
100
AcDbEntity
  8
DEFAULT
100
AcDbVertex
100
AcDb2dVertex
 10
1260.004564894276
 20
1507.283391503276
 30
0.0
  0
VERTEX
  5
2D1
330
2CD
100
AcDbEntity
  8
DEFAULT
100
AcDbVertex
100
AcDb2dVertex
 10
1260.004564894276
 20
1509.283391503276
 30
0.0
  0
VERTEX
  5
2D2
330
2CD
100
AcDbEntity
  8
DEFAULT
100
AcDbVertex
100
AcDb2dVertex
 10
1243.967534162478
 20
1509.283391503276
 30
0.0
  0
VERTEX
  5
2D3
330
2CD
100
AcDbEntity
  8
DEFAULT
100
AcDbVertex
100
AcDb2dVertex
 10
1243.967534162478
 20
1507.283391503276
 30
0.0
  0
SEQEND
  5
2CE
330
2CD
100
AcDbEntity
  8
DEFAULT
  0
POLYLINE
  5
2D4
330
1F
100
AcDbEntity
  8
DEFAULT
100
AcDb2dPolyline
 66
     1
 10
0.0
 20
0.0
 30
0.0
  0
VERTEX
  5
2D6
330
2D4
100
AcDbEntity
  8
DEFAULT
100
AcDbVertex
100
AcDb2dVertex
 10
1245.994178388883
 20
1478.283391503277
 30
0.0
  0
VERTEX
  5
2D7
330
2D4
100
AcDbEntity
  8
DEFAULT
100
AcDbVertex
100
AcDb2dVertex
 10
1257.964267080371
 20
1478.283391503277
 30
0.0
  0
VERTEX
  5
2D8
330
2D4
100
AcDbEntity
  8
DEFAULT
100
AcDbVertex
100
AcDb2dVertex
 10
1257.964267080371
 20
1507.283391503276
 30
0.0
  0
VERTEX
  5
2D9
330
2D4
100
AcDbEntity
  8
DEFAULT
100
AcDbVertex
100
AcDb2dVertex
 10
1245.994178388883
 20
1507.283391503276
 30
0.0
  0
VERTEX
  5
2DA
330
2D4
100
AcDbEntity
  8
DEFAULT
100
AcDbVertex
100
AcDb2dVertex
 10
1245.994178388883
 20
1478.283391503277
 30
0.0
  0
SEQEND
  5
2D5
330
2D4
100
AcDbEntity
  8
DEFAULT
  0
POLYLINE
  5
2DB
330
1F
100
AcDbEntity
  8
DEFAULT
100
AcDb2dPolyline
 66
     1
 10
0.0
 20
0.0
 30
0.0
  0
VERTEX
  5
2DD
330
2DB
100
AcDbEntity
  8
DEFAULT
100
AcDbVertex
100
AcDb2dVertex
 10
1248.865308464813
 20
1468.283391503277
 30
0.0
  0
VERTEX
  5
2DE
330
2DB
100
AcDbEntity
  8
DEFAULT
100
AcDbVertex
100
AcDb2dVertex
 10
1255.093137004441
 20
1468.283391503277
 30
0.0
  0
VERTEX
  5
2DF
330
2DB
100
AcDbEntity
  8
DEFAULT
100
AcDbVertex
100
AcDb2dVertex
 10
1255.093137004441
 20
1478.283391503277
 30
0.0
  0
VERTEX
  5
2E0
330
2DB
100
AcDbEntity
  8
DEFAULT
100
AcDbVertex
100
AcDb2dVertex
 10
1248.865308464813
 20
1478.283391503277
 30
0.0
  0
VERTEX
  5
2E1
330
2DB
100
AcDbEntity
  8
DEFAULT
100
AcDbVertex
100
AcDb2dVertex
 10
1248.865308464813
 20
1468.283391503277
 30
0.0
  0
SEQEND
  5
2DC
330
2DB
100
AcDbEntity
  8
DEFAULT
  0
POLYLINE
  5
2E2
330
1F
100
AcDbEntity
  8
DEFAULT
100
AcDb2dPolyline
 66
     1
 10
0.0
 20
0.0
 30
0.0
  0
VERTEX
  5
2E4
330
2E2
100
AcDbEntity
  8
DEFAULT
100
AcDbVertex
100
AcDb2dVertex
 10
1251.581197997971
 20
1087.783391503275
 30
0.0
  0
VERTEX
  5
2E5
330
2E2
100
AcDbEntity
  8
DEFAULT
100
AcDbVertex
100
AcDb2dVertex
 10
1252.381197997971
 20
1087.783391503275
 30
0.0
  0
VERTEX
  5
2E6
330
2E2
100
AcDbEntity
  8
DEFAULT
100
AcDbVertex
100
AcDb2dVertex
 10
1252.381197997971
 20
1468.283391503276
 30
0.0
  0
VERTEX
  5
2E7
330
2E2
100
AcDbEntity
  8
DEFAULT
100
AcDbVertex
100
AcDb2dVertex
 10
1251.581197997971
 20
1468.283391503276
 30
0.0
  0
VERTEX
  5
2E8
330
2E2
100
AcDbEntity
  8
DEFAULT
100
AcDbVertex
100
AcDb2dVertex
 10
1251.581197997971
 20
1087.783391503275
 30
0.0
  0
SEQEND
  5
2E3
330
2E2
100
AcDbEntity
  8
DEFAULT
  0
POLYLINE
  5
2E9
330
1F
100
AcDbEntity
  8
DEFAULT
100
AcDb2dPolyline
 66
     1
 10
0.0
 20
0.0
 30
0.0
  0
VERTEX
  5
2EB
330
2E9
100
AcDbEntity
  8
DEFAULT
100
AcDbVertex
100
AcDb2dVertex
 10
1249.490911306776
 20
1079.783391503276
 30
0.0
  0
VERTEX
  5
2EC
330
2E9
100
AcDbEntity
  8
DEFAULT
100
AcDbVertex
100
AcDb2dVertex
 10
1254.490911306776
 20
1079.783391503276
 30
0.0
  0
VERTEX
  5
2ED
330
2E9
100
AcDbEntity
  8
DEFAULT
100
AcDbVertex
100
AcDb2dVertex
 10
1254.490911306776
 20
1087.783391503277
 30
0.0
  0
VERTEX
  5
2EE
330
2E9
100
AcDbEntity
  8
DEFAULT
100
AcDbVertex
100
AcDb2dVertex
 10
1249.490911306776
 20
1087.783391503277
 30
0.0
  0
VERTEX
  5
2EF
330
2E9
100
AcDbEntity
  8
DEFAULT
100
AcDbVertex
100
AcDb2dVertex
 10
1249.490911306776
 20
1079.783391503276
 30
0.0
  0
SEQEND
  5
2EA
330
2E9
100
AcDbEntity
  8
DEFAULT
  0
POLYLINE
  5
2F0
330
1F
100
AcDbEntity
  8
DEFAULT
100
AcDb2dPolyline
 66
     1
 10
0.0
 20
0.0
 30
0.0
  0
VERTEX
  5
2F2
330
2F0
100
AcDbEntity
  8
DEFAULT
100
AcDbVertex
100
AcDb2dVertex
 10
1247.490911306776
 20
1061.783391503277
 30
0.0
  0
VERTEX
  5
2F3
330
2F0
100
AcDbEntity
  8
DEFAULT
100
AcDbVertex
100
AcDb2dVertex
 10
1256.490911306776
 20
1061.783391503277
 30
0.0
  0
VERTEX
  5
2F4
330
2F0
100
AcDbEntity
  8
DEFAULT
100
AcDbVertex
100
AcDb2dVertex
 10
1256.490911306776
 20
1079.783391503277
 30
0.0
  0
VERTEX
  5
2F5
330
2F0
100
AcDbEntity
  8
DEFAULT
100
AcDbVertex
100
AcDb2dVertex
 10
1247.490911306776
 20
1079.783391503277
 30
0.0
  0
VERTEX
  5
2F6
330
2F0
100
AcDbEntity
  8
DEFAULT
100
AcDbVertex
100
AcDb2dVertex
 10
1247.490911306776
 20
1061.783391503277
 30
0.0
  0
SEQEND
  5
2F1
330
2F0
100
AcDbEntity
  8
DEFAULT
  0
POLYLINE
  5
2F7
330
1F
100
AcDbEntity
  8
DEFAULT
100
AcDb2dPolyline
 66
     1
 10
0.0
 20
0.0
 30
0.0
  0
VERTEX
  5
2F9
330
2F7
100
AcDbEntity
  8
DEFAULT
100
AcDbVertex
100
AcDb2dVertex
 10
1083.640023930471
 20
1001.883391503728
 30
0.0
  0
VERTEX
  5
2FA
330
2F7
100
AcDbEntity
  8
DEFAULT
100
AcDbVertex
100
AcDb2dVertex
 10
1092.640023930472
 20
1001.883391503728
 30
0.0
  0
VERTEX
  5
2FB
330
2F7
100
AcDbEntity
  8
DEFAULT
100
AcDbVertex
100
AcDb2dVertex
 10
1092.640023930472
 20
1003.783391463395
 30
0.0
  0
VERTEX
  5
2FC
330
2F7
100
AcDbEntity
  8
DEFAULT
100
AcDbVertex
100
AcDb2dVertex
 10
1083.640023930471
 20
1003.783391463395
 30
0.0
  0
VERTEX
  5
2FD
330
2F7
100
AcDbEntity
  8
DEFAULT
100
AcDbVertex
100
AcDb2dVertex
 10
1083.640023930471
 20
1001.883391503728
 30
0.0
  0
SEQEND
  5
2F8
330
2F7
100
AcDbEntity
  8
DEFAULT
  0
POLYLINE
  5
2FE
330
1F
100
AcDbEntity
  8
DEFAULT
100
AcDb2dPolyline
 66
     1
 10
0.0
 20
0.0
 30
0.0
  0
VERTEX
  5
300
330
2FE
100
AcDbEntity
  8
DEFAULT
100
AcDbVertex
100
AcDb2dVertex
 10
1085.640023930471
 20
1003.783391463394
 30
0.0
  0
VERTEX
  5
301
330
2FE
100
AcDbEntity
  8
DEFAULT
100
AcDbVertex
100
AcDb2dVertex
 10
1090.640023930472
 20
1003.783391463394
 30
0.0
  0
VERTEX
  5
302
330
2FE
100
AcDbEntity
  8
DEFAULT
100
AcDbVertex
100
AcDb2dVertex
 10
1090.640023930472
 20
1011.783391463394
 30
0.0
  0
VERTEX
  5
303
330
2FE
100
AcDbEntity
  8
DEFAULT
100
AcDbVertex
100
AcDb2dVertex
 10
1085.640023930471
 20
1011.783391463394
 30
0.0
  0
VERTEX
  5
304
330
2FE
100
AcDbEntity
  8
DEFAULT
100
AcDbVertex
100
AcDb2dVertex
 10
1085.640023930471
 20
1003.783391463394
 30
0.0
  0
SEQEND
  5
2FF
330
2FE
100
AcDbEntity
  8
DEFAULT
  0
POLYLINE
  5
305
330
1F
100
AcDbEntity
  8
DEFAULT
100
AcDb2dPolyline
 66
     1
 10
0.0
 20
0.0
 30
0.0
  0
VERTEX
  5
307
330
305
100
AcDbEntity
  8
DEFAULT
100
AcDbVertex
100
AcDb2dVertex
 10
1088.540023954013
 20
1011.783391463393
 30
0.0
  0
VERTEX
  5
308
330
305
100
AcDbEntity
  8
DEFAULT
100
AcDbVertex
100
AcDb2dVertex
 10
1087.740023954013
 20
1011.783391463393
 30
0.0
  0
SEQEND
  5
306
330
305
100
AcDbEntity
  8
DEFAULT
  0
SPLINE
  5
309
330
1F
100
AcDbEntity
  8
DEFAULT
100
AcDbSpline
210
0.0
220
0.0
230
1.0
 70
    24
 71
     2
 72
     6
 73
     3
 74
     0
 42
0.0000000001
 43
0.0000000001
 40
-167.8835030987748
 40
-167.8835030987748
 40
-167.8835030987748
 40
0.0
 40
0.0
 40
0.0
 10
1087.740023954013
 20
1011.783391463393
 30
0.0
 10
1087.740023954013
 20
1095.72514301278
 30
0.0
 10
1087.740023954013
 20
1179.666894562168
 30
0.0
  0
POLYLINE
  5
30A
330
1F
100
AcDbEntity
  8
DEFAULT
100
AcDb2dPolyline
 66
     1
 10
0.0
 20
0.0
 30
0.0
  0
VERTEX
  5
30C
330
30A
100
AcDbEntity
  8
DEFAULT
100
AcDbVertex
100
AcDb2dVertex
 10
1087.740023954013
 20
1179.666894562168
 30
0.0
  0
VERTEX
  5
30D
330
30A
100
AcDbEntity
  8
DEFAULT
100
AcDbVertex
100
AcDb2dVertex
 10
1088.540023954013
 20
1181.469496982952
 30
0.0
  0
SEQEND
  5
30B
330
30A
100
AcDbEntity
  8
DEFAULT
  0
SPLINE
  5
30E
330
1F
100
AcDbEntity
  8
DEFAULT
100
AcDbSpline
210
0.0
220
0.0
230
1.0
 70
    24
 71
     2
 72
     6
 73
     3
 74
     0
 42
0.0000000001
 43
0.0000000001
 40
0.0
 40
0.0
 40
0.0
 40
169.6861055195589
 40
169.6861055195589
 40
169.6861055195589
 10
1088.540023954013
 20
1181.469496982952
 30
0.0
 10
1088.540023954013
 20
1096.626444223172
 30
0.0
 10
1088.540023954013
 20
1011.783391463393
 30
0.0
  0
POLYLINE
  5
30F
330
1F
100
AcDbEntity
  8
DEFAULT
100
AcDb2dPolyline
 66
     1
 10
0.0
 20
0.0
 30
0.0
  0
VERTEX
  5
311
330
30F
100
AcDbEntity
  8
DEFAULT
100
AcDbVertex
100
AcDb2dVertex
 10
1087.740023954013
 20
1189.791631697183
 30
0.0
  0
VERTEX
  5
312
330
30F
100
AcDbEntity
  8
DEFAULT
100
AcDbVertex
100
AcDb2dVertex
 10
1088.540023954013
 20
1191.766489761647
 30
0.0
  0
SEQEND
  5
310
330
30F
100
AcDbEntity
  8
DEFAULT
  0
SPLINE
  5
313
330
1F
100
AcDbEntity
  8
DEFAULT
100
AcDbSpline
210
0.0
220
0.0
230
1.0
 70
    24
 71
     2
 72
     6
 73
     3
 74
     0
 42
0.0000000001
 43
0.0000000001
 40
-274.3097949604346
 40
-274.3097949604346
 40
-274.3097949604346
 40
0.0
 40
0.0
 40
0.0
 10
1088.540023954013
 20
1191.766489761647
 30
0.0
 10
1088.540023954013
 20
1328.921387241864
 30
0.0
 10
1088.540023954013
 20
1466.076284722081
 30
0.0
  0
POLYLINE
  5
314
330
1F
100
AcDbEntity
  8
DEFAULT
100
AcDb2dPolyline
 66
     1
 10
0.0
 20
0.0
 30
0.0
  0
VERTEX
  5
316
330
314
100
AcDbEntity
  8
DEFAULT
100
AcDbVertex
100
AcDb2dVertex
 10
1088.540023954013
 20
1466.076284722081
 30
0.0
  0
VERTEX
  5
317
330
314
100
AcDbEntity
  8
DEFAULT
100
AcDbVertex
100
AcDb2dVertex
 10
1087.740023954013
 20
1466.076284722079
 30
0.0
  0
SEQEND
  5
315
330
314
100
AcDbEntity
  8
DEFAULT
  0
SPLINE
  5
318
330
1F
100
AcDbEntity
  8
DEFAULT
100
AcDbSpline
210
0.0
220
0.0
230
1.0
 70
    24
 71
     2
 72
     6
 73
     3
 74
     0
 42
0.0000000001
 43
0.0000000001
 40
0.0
 40
0.0
 40
0.0
 40
276.2846530248964
 40
276.2846530248964
 40
276.2846530248964
 10
1087.740023954013
 20
1466.076284722079
 30
0.0
 10
1087.740023954013
 20
1327.933958209631
 30
0.0
 10
1087.740023954013
 20
1189.791631697183
 30
0.0
  0
SPLINE
  5
319
330
1F
100
AcDbEntity
  8
LINEE VISIBILI 2D
100
AcDbSpline
210
0.0
220
0.0
230
1.0
 70
    24
 71
     2
 72
     6
 73
     3
 74
     0
 42
0.0000000001
 43
0.0000000001
 40
0.0
 40
0.0
 40
0.0
 40
57.86662604528804
 40
57.86662604528804
 40
57.86662604528804
 10
1016.378382994894
 20
1466.07628472208
 30
0.0
 10
997.130850125963
 20
1487.679838112678
 30
0.0
 10
977.8833172570321
 20
1509.283391503276
 30
0.0
  0
SPLINE
  5
31A
330
1F
100
AcDbEntity
  8
LINEE VISIBILI 2D
100
AcDbSpline
210
0.0
220
0.0
230
1.0
 70
    28
 71
     2
 72
     6
 73
     3
 74
     0
 42
0.0000000001
 43
0.0000000001
 40
-247.4142135623747
 40
-247.4142135623747
 40
-247.4142135623747
 40
0.0
 40
0.0
 40
0.0
 10
977.8833172570321
 20
1509.283391503276
 30
0.0
 41
1.0
 10
976.6872058832541
 20
1509.283391503276
 30
0.0
 41
0.707106781186548
 10
1086.908658155513
 20
1509.283391503276
 30
0.0
 41
1.0
  0
SPLINE
  5
31B
330
1F
100
AcDbEntity
  8
LINEE VISIBILI 2D
100
AcDbSpline
210
0.0
220
0.0
230
1.0
 70
    24
 71
     2
 72
     6
 73
     3
 74
     0
 42
0.0000000001
 43
0.0000000001
 40
0.0
 40
0.0
 40
0.0
 40
111.4175636460359
 40
111.4175636460359
 40
111.4175636460359
 10
1086.908658155513
 20
1509.283391503276
 30
0.0
 10
1142.618344384845
 20
1509.282585641354
 30
0.0
 10
1198.328030614176
 20
1509.281779779432
 30
0.0
  0
SPLINE
  5
31C
330
1F
100
AcDbEntity
  8
LINEE VISIBILI 2D
100
AcDbSpline
210
0.0
220
0.0
230
1.0
 70
    24
 71
     2
 72
     6
 73
     3
 74
     0
 42
0.0000000001
 43
0.0000000001
 40
0.0
 40
0.0
 40
0.0
 40
57.86662604528782
 40
57.86662604528782
 40
57.86662604528782
 10
1198.328030614176
 20
1509.281779779432
 30
0.0
 10
1179.079593338932
 20
1487.679032250756
 30
0.0
 10
1159.831156063688
 20
1466.07628472208
 30
0.0
  0
SPLINE
  5
31D
330
1F
100
AcDbEntity
  8
LINEE VISIBILI 2D
100
AcDbSpline
210
0.0
220
0.0
230
1.0
 70
    28
 71
     2
 72
     8
 73
     5
 74
     0
 42
0.0000000001
 43
0.0000000001
 40
158.4843749999873
 40
158.4843749999873
 40
158.4843749999873
 40
160.6297450460276
 40
160.6297450460276
 40
321.9999999999741
 40
321.9999999999741
 40
321.9999999999741
 10
1159.831156063688
 20
1466.07628472208
 30
0.0
 41
0.9923156790008646
 10
1159.836587122557
 20
1466.07628472208
 30
0.0
 41
0.9961060708585354
 10
1159.829241459674
 20
1466.07628472208
 30
0.0
 41
1.0
 10
1159.050895186007
 20
1466.07628472208
 30
0.0
 41
0.707106781186548
 10
1087.326423255625
 20
1466.07628472208
 30
0.0
 41
1.0
  0
SPLINE
  5
31E
330
1F
100
AcDbEntity
  8
LINEE VISIBILI 2D
100
AcDbSpline
210
0.0
220
0.0
230
1.0
 70
    24
 71
     2
 72
     6
 73
     3
 74
     0
 42
0.0000000001
 43
0.0000000001
 40
0.0
 40
0.0
 40
0.0
 40
70.94573172395008
 40
70.94573172395008
 40
70.94573172395008
 10
1087.326423255625
 20
1466.07628472208
 30
0.0
 10
1051.852403125259
 20
1466.07628472208
 30
0.0
 10
1016.378382994894
 20
1466.07628472208
 30
0.0
  0
SPLINE
  5
31F
330
1F
100
AcDbEntity
  8
LINEE VISIBILI 2D
100
AcDbSpline
210
0.0
220
0.0
230
1.0
 70
    24
 71
     2
 72
     6
 73
     3
 74
     0
 42
0.0000000001
 43
0.0000000001
 40
0.0
 40
0.0
 40
0.0
 40
4.133090175284451
 40
4.133090175284451
 40
4.133090175284451
 10
1018.083967725656
 20
1003.283391503276
 30
0.0
 10
1016.017422638014
 20
1003.283391503276
 30
0.0
 10
1013.950877550372
 20
1003.283391503276
 30
0.0
  0
SPLINE
  5
320
330
1F
100
AcDbEntity
  8
LINEE VISIBILI 2D
100
AcDbSpline
210
0.0
220
0.0
230
1.0
 70
    12
 71
     2
 72
     6
 73
     3
 74
     0
 42
0.0000000001
 43
0.0000000001
 40
16.49075712414936
 40
16.49075712414936
 40
16.49075712414936
 40
21.98767616553243
 40
21.98767616553243
 40
21.98767616553243
 10
1013.950877550372
 20
1003.283391503276
 30
0.0
 41
1.0
 10
1012.284461230367
 20
1003.283391503277
 30
0.0
 41
0.7071067811865476
 10
1012.284461230367
 20
1006.783391503276
 30
0.0
 41
1.0
  0
SPLINE
  5
321
330
1F
100
AcDbEntity
  8
LINEE VISIBILI 2D
100
AcDbSpline
210
0.0
220
0.0
230
1.0
 70
    12
 71
     2
 72
     6
 73
     3
 74
     0
 42
0.0000000001
 43
0.0000000001
 40
0.0
 40
0.0
 40
0.0
 40
5.496919041383134
 40
5.496919041383134
 40
5.496919041383134
 10
1012.284461230367
 20
1006.783391503276
 30
0.0
 41
1.0
 10
1012.284461230367
 20
1010.283391503277
 30
0.0
 41
0.7071067811865476
 10
1013.950877550372
 20
1010.283391503276
 30
0.0
 41
1.0
  0
SPLINE
  5
322
330
1F
100
AcDbEntity
  8
LINEE VISIBILI 2D
100
AcDbSpline
210
0.0
220
0.0
230
1.0
 70
    24
 71
     2
 72
     6
 73
     3
 74
     0
 42
0.0000000001
 43
0.0000000001
 40
0.0
 40
0.0
 40
0.0
 40
4.133090175284451
 40
4.133090175284451
 40
4.133090175284451
 10
1013.950877550372
 20
1010.283391503276
 30
0.0
 10
1016.017422638014
 20
1010.283391503277
 30
0.0
 10
1018.083967725656
 20
1010.283391503277
 30
0.0
  0
SPLINE
  5
323
330
1F
100
AcDbEntity
  8
LINEE VISIBILI 2D
100
AcDbSpline
210
0.0
220
0.0
230
1.0
 70
    12
 71
     2
 72
     6
 73
     3
 74
     0
 42
0.0000000001
 43
0.0000000001
 40
0.0
 40
0.0
 40
0.0
 40
0.3079248708080949
 40
0.3079248708080949
 40
0.3079248708080949
 10
1016.790240103794
 20
1004.577348060879
 30
0.0
 41
1.0
 10
1016.734837888892
 20
1004.721058827075
 30
0.0
 41
0.9994385461204761
 10
1016.689184745991
 20
1004.868157366428
 30
0.0
 41
1.0
  0
SPLINE
  5
324
330
1F
100
AcDbEntity
  8
LINEE VISIBILI 2D
100
AcDbSpline
210
0.0
220
0.0
230
1.0
 70
    12
 71
     2
 72
     6
 73
     3
 74
     0
 42
0.0000000001
 43
0.0000000001
 40
19.92947839621025
 40
19.92947839621025
 40
19.92947839621025
 40
21.99114857512855
 40
21.99114857512855
 40
21.99114857512855
 10
1016.689184745991
 20
1004.868157366428
 30
0.0
 41
0.8627063036811834
 10
1016.417551405652
 20
1005.740800966091
 30
0.0
 41
0.8901650429449467
 10
1016.417551405652
 20
1006.783391503276
 30
0.0
 41
1.0
  0
SPLINE
  5
325
330
1F
100
AcDbEntity
  8
LINEE VISIBILI 2D
100
AcDbSpline
210
0.0
220
0.0
230
1.0
 70
    12
 71
     2
 72
    12
 73
     9
 74
     0
 42
0.0000000001
 43
0.0000000001
 40
0.0
 40
0.0
 40
0.0
 40
5.497787143782138
 40
5.497787143782138
 40
10.99557428756428
 40
10.99557428756428
 40
16.49336143134641
 40
16.49336143134641
 40
19.58586669972387
 40
19.58586669972387
 40
19.58586669972387
 10
1016.417551405652
 20
1006.783391503276
 30
0.0
 41
1.0
 10
1016.417551405652
 20
1010.283391503277
 30
0.0
 41
0.7071067811865476
 10
1018.083967725656
 20
1010.283391503277
 30
0.0
 41
1.0
 10
1019.750384045661
 20
1010.283391503277
 30
0.0
 41
0.7071067811865476
 10
1019.75038404566
 20
1006.783391503276
 30
0.0
 41
1.0
 10
1019.75038404566
 20
1003.283391503275
 30
0.0
 41
0.7071067811865246
 10
1018.083967725656
 20
1003.283391503276
 30
0.0
 41
1.0
 10
1017.290414938646
 20
1003.283391503276
 30
0.0
 41
0.8352475644174201
 10
1016.790240103794
 20
1004.577348060879
 30
0.0
 41
0.8558416188652426
  0
POLYLINE
  5
326
330
1F
100
AcDbEntity
  8
DEFAULT
100
AcDb2dPolyline
 66
     1
 10
0.0
 20
0.0
 30
0.0
  0
VERTEX
  5
328
330
326
100
AcDbEntity
  8
DEFAULT
100
AcDbVertex
100
AcDb2dVertex
 10
1218.724546417808
 20
1001.883391503728
 30
0.0
  0
VERTEX
  5
329
330
326
100
AcDbEntity
  8
DEFAULT
100
AcDbVertex
100
AcDb2dVertex
 10
1218.724546417808
 20
993.4833908010141
 30
0.0
  0
SEQEND
  5
327
330
326
100
AcDbEntity
  8
DEFAULT
  0
SPLINE
  5
32A
330
1F
100
AcDbEntity
  8
DEFAULT
100
AcDbSpline
210
0.0
220
0.0
230
1.0
 70
    12
 71
     2
 72
     6
 73
     3
 74
     0
 42
0.0000000001
 43
0.0000000001
 40
0.0
 40
0.0
 40
0.0
 40
1.831676307650794
 40
1.831676307650794
 40
1.831676307650794
 10
1218.724546417808
 20
993.4833908010141
 30
0.0
 41
1.0
 10
1218.782814980341
 20
992.5644507919083
 30
0.0
 41
0.9919599828073423
 10
1219.069934423855
 20
991.689574577309
 30
0.0
 41
1.0
  0
SPLINE
  5
32B
330
1F
100
AcDbEntity
  8
DEFAULT
100
AcDbSpline
210
0.0
220
0.0
230
1.0
 70
    12
 71
     2
 72
     6
 73
     3
 74
     0
 42
0.0000000001
 43
0.0000000001
 40
0.0
 40
0.0
 40
0.0
 40
0.1640765199399398
 40
0.1640765199399398
 40
0.1640765199399398
 10
1219.069934423855
 20
991.689574577309
 30
0.0
 41
1.0
 10
1219.095750573809
 20
991.6117011007501
 30
0.0
 41
0.9999469763769931
 10
1219.123165012485
 20
991.5343758105664
 30
0.0
 41
1.0
  0
SPLINE
  5
32C
330
1F
100
AcDbEntity
  8
DEFAULT
100
AcDbSpline
210
0.0
220
0.0
230
1.0
 70
    12
 71
     2
 72
     6
 73
     3
 74
     0
 42
0.0000000001
 43
0.0000000001
 40
0.0
 40
0.0
 40
0.0
 40
1.485981860834825
 40
1.485981860834825
 40
1.485981860834825
 10
1219.123165012485
 20
991.5343758105664
 30
0.0
 41
1.0
 10
1219.36994278832
 20
990.829323545105
 30
0.0
 41
0.9919837454301204
 10
1219.785599556508
 20
990.208656630618
 30
0.0
 41
1.0
  0
SPLINE
  5
32D
330
1F
100
AcDbEntity
  8
DEFAULT
100
AcDbSpline
210
0.0
220
0.0
230
1.0
 70
    12
 71
     2
 72
     6
 73
     3
 74
     0
 42
0.0000000001
 43
0.0000000001
 40
0.0
 40
0.0
 40
0.0
 40
1.369215834256891
 40
1.369215834256891
 40
1.369215834256891
 10
1219.785599556508
 20
990.208656630618
 30
0.0
 41
1.0
 10
1220.164842208579
 20
989.6288762881926
 30
0.0
 41
0.9823595664062706
 10
1220.730575683016
 20
989.2289814638771
 30
0.0
 41
1.0
  0
SPLINE
  5
32E
330
1F
100
AcDbEntity
  8
DEFAULT
100
AcDbSpline
210
0.0
220
0.0
230
1.0
 70
    12
 71
     2
 72
     6
 73
     3
 74
     0
 42
0.0000000001
 43
0.0000000001
 40
0.0
 40
0.0
 40
0.0
 40
0.3152175866927049
 40
0.3152175866927049
 40
0.3152175866927049
 10
1220.730575683016
 20
989.2289814638771
 30
0.0
 41
1.0
 10
1220.860856658095
 20
989.1398106115732
 30
0.0
 41
0.997470906774724
 10
1221.002465076003
 20
989.0700135532879
 30
0.0
 41
1.0
  0
SPLINE
  5
32F
330
1F
100
AcDbEntity
  8
DEFAULT
100
AcDbSpline
210
0.0
220
0.0
230
1.0
 70
    12
 71
     2
 72
     6
 73
     3
 74
     0
 42
0.0000000001
 43
0.0000000001
 40
0.0
 40
0.0
 40
0.0
 40
0.6785258279884876
 40
0.6785258279884876
 40
0.6785258279884876
 10
1221.002465076003
 20
989.0700135532879
 30
0.0
 41
1.0
 10
1221.308462446711
 20
988.9134275596227
 30
0.0
 41
0.9805995111869391
 10
1221.651141775336
 20
988.8865120989093
 30
0.0
 41
1.0
  0
POLYLINE
  5
330
330
1F
100
AcDbEntity
  8
DEFAULT
100
AcDb2dPolyline
 66
     1
 10
0.0
 20
0.0
 30
0.0
  0
VERTEX
  5
332
330
330
100
AcDbEntity
  8
DEFAULT
100
AcDbVertex
100
AcDb2dVertex
 10
985.8782700913789
 20
988.8834428742949
 30
0.0
  0
VERTEX
  5
333
330
330
100
AcDbEntity
  8
DEFAULT
100
AcDbVertex
100
AcDb2dVertex
 10
1421.795860496421
 20
988.8834428742949
 30
0.0
  0
VERTEX
  5
334
330
330
100
AcDbEntity
  8
DEFAULT
100
AcDbVertex
100
AcDb2dVertex
 10
1421.795860496421
 20
1001.883391503728
 30
0.0
  0
VERTEX
  5
335
330
330
100
AcDbEntity
  8
DEFAULT
100
AcDbVertex
100
AcDb2dVertex
 10
985.8782700913789
 20
1001.883391503728
 30
0.0
  0
VERTEX
  5
336
330
330
100
AcDbEntity
  8
DEFAULT
100
AcDbVertex
100
AcDb2dVertex
 10
985.8782700913789
 20
988.8834428742949
 30
0.0
  0
SEQEND
  5
331
330
330
100
AcDbEntity
  8
DEFAULT
  0
POLYLINE
  5
337
330
1F
100
AcDbEntity
  8
DEFAULT
100
AcDb2dPolyline
 66
     1
 10
0.0
 20
0.0
 30
0.0
  0
VERTEX
  5
339
330
337
100
AcDbEntity
  8
DEFAULT
100
AcDbVertex
100
AcDb2dVertex
 10
999.336449555145
 20
1001.883391503727
 30
0.0
  0
VERTEX
  5
33A
330
337
100
AcDbEntity
  8
DEFAULT
100
AcDbVertex
100
AcDb2dVertex
 10
1011.808340966775
 20
1001.883391503727
 30
0.0
  0
VERTEX
  5
33B
330
337
100
AcDbEntity
  8
DEFAULT
100
AcDbVertex
100
AcDb2dVertex
 10
1011.808340966775
 20
1011.683391503277
 30
0.0
  0
VERTEX
  5
33C
330
337
100
AcDbEntity
  8
DEFAULT
100
AcDbVertex
100
AcDb2dVertex
 10
999.336449555145
 20
1011.683391503277
 30
0.0
  0
VERTEX
  5
33D
330
337
100
AcDbEntity
  8
DEFAULT
100
AcDbVertex
100
AcDb2dVertex
 10
999.336449555145
 20
1001.883391503727
 30
0.0
  0
SEQEND
  5
338
330
337
100
AcDbEntity
  8
DEFAULT
  0
POLYLINE
  5
33E
330
1F
100
AcDbEntity
  8
DEFAULT
100
AcDb2dPolyline
 66
     1
 10
0.0
 20
0.0
 30
0.0
  0
VERTEX
  5
340
330
33E
100
AcDbEntity
  8
DEFAULT
100
AcDbVertex
100
AcDb2dVertex
 10
1021.032820539646
 20
1001.883391503437
 30
0.0
  0
VERTEX
  5
341
330
33E
100
AcDbEntity
  8
DEFAULT
100
AcDbVertex
100
AcDb2dVertex
 10
1021.032820539697
 20
993.4833908010141
 30
0.0
  0
SEQEND
  5
33F
330
33E
100
AcDbEntity
  8
DEFAULT
  0
SPLINE
  5
342
330
1F
100
AcDbEntity
  8
DEFAULT
100
AcDbSpline
210
0.0
220
0.0
230
1.0
 70
    12
 71
     2
 72
     6
 73
     3
 74
     0
 42
0.0000000001
 43
0.0000000001
 40
0.0
 40
0.0
 40
0.0
 40
1.831676307650777
 40
1.831676307650777
 40
1.831676307650777
 10
1021.032820539697
 20
993.4833908010141
 30
0.0
 41
1.0
 10
1021.091089102231
 20
992.5644507919083
 30
0.0
 41
0.9919599828073716
 10
1021.378208545744
 20
991.689574577309
 30
0.0
 41
1.0
  0
SPLINE
  5
343
330
1F
100
AcDbEntity
  8
DEFAULT
100
AcDbSpline
210
0.0
220
0.0
230
1.0
 70
    12
 71
     2
 72
     6
 73
     3
 74
     0
 42
0.0000000001
 43
0.0000000001
 40
0.0
 40
0.0
 40
0.0
 40
0.1640765199399427
 40
0.1640765199399427
 40
0.1640765199399427
 10
1021.378208545744
 20
991.689574577309
 30
0.0
 41
1.0
 10
1021.404024695698
 20
991.6117011007498
 30
0.0
 41
0.9999469763769393
 10
1021.431439134374
 20
991.5343758105664
 30
0.0
 41
1.0
  0
SPLINE
  5
344
330
1F
100
AcDbEntity
  8
DEFAULT
100
AcDbSpline
210
0.0
220
0.0
230
1.0
 70
    12
 71
     2
 72
     6
 73
     3
 74
     0
 42
0.0000000001
 43
0.0000000001
 40
0.0
 40
0.0
 40
0.0
 40
1.485981860834825
 40
1.485981860834825
 40
1.485981860834825
 10
1021.431439134374
 20
991.5343758105664
 30
0.0
 41
1.0
 10
1021.67821691021
 20
990.829323545105
 30
0.0
 41
0.9919837454301204
 10
1022.093873678397
 20
990.208656630618
 30
0.0
 41
1.0
  0
SPLINE
  5
345
330
1F
100
AcDbEntity
  8
DEFAULT
100
AcDbSpline
210
0.0
220
0.0
230
1.0
 70
    12
 71
     2
 72
     6
 73
     3
 74
     0
 42
0.0000000001
 43
0.0000000001
 40
0.0
 40
0.0
 40
0.0
 40
1.369215834256871
 40
1.369215834256871
 40
1.369215834256871
 10
1022.093873678397
 20
990.208656630618
 30
0.0
 41
1.0
 10
1022.473116330469
 20
989.6288762881925
 30
0.0
 41
0.9823595664063132
 10
1023.038849804906
 20
989.2289814638771
 30
0.0
 41
1.0
  0
SPLINE
  5
346
330
1F
100
AcDbEntity
  8
DEFAULT
100
AcDbSpline
210
0.0
220
0.0
230
1.0
 70
    12
 71
     2
 72
     6
 73
     3
 74
     0
 42
0.0000000001
 43
0.0000000001
 40
0.0
 40
0.0
 40
0.0
 40
0.3152175866927034
 40
0.3152175866927034
 40
0.3152175866927034
 10
1023.038849804906
 20
989.2289814638771
 30
0.0
 41
1.0
 10
1023.169130779984
 20
989.1398106115732
 30
0.0
 41
0.9974709067747245
 10
1023.310739197893
 20
989.0700135532879
 30
0.0
 41
1.0
  0
SPLINE
  5
347
330
1F
100
AcDbEntity
  8
DEFAULT
100
AcDbSpline
210
0.0
220
0.0
230
1.0
 70
    12
 71
     2
 72
     6
 73
     3
 74
     0
 42
0.0000000001
 43
0.0000000001
 40
0.0
 40
0.0
 40
0.0
 40
0.7726665138963106
 40
0.7726665138963106
 40
0.7726665138963106
 10
1023.310739197893
 20
989.0700135532879
 30
0.0
 41
1.0
 10
1023.660168979334
 20
988.8893984411169
 30
0.0
 41
0.9734616761673374
 10
1024.053471544296
 20
988.8833915037276
 30
0.0
 41
1.0
  0
SPLINE
  5
348
330
1F
100
AcDbEntity
  8
LINEE VISIBILI 2D
100
AcDbSpline
210
0.0
220
0.0
230
1.0
 70
    12
 71
     2
 72
     6
 73
     3
 74
     0
 42
0.0000000001
 43
0.0000000001
 40
0.0
 40
0.0
 40
0.0
 40
14.62534476674778
 40
14.62534476674778
 40
14.62534476674778
 10
1221.052531563283
 20
209.5382505961336
 30
0.0
 41
1.0
 10
1217.036060953933
 20
216.0441606956777
 30
0.0
 41
0.9355223764028976
 10
1209.731210345579
 20
218.3020490828088
 30
0.0
 41
0.9984239282744956
  0
SPLINE
  5
349
330
1F
100
AcDbEntity
  8
LINEE VISIBILI 2D
100
AcDbSpline
210
0.0
220
0.0
230
1.0
 70
    24
 71
     2
 72
     6
 73
     3
 74
     0
 42
0.0000000001
 43
0.0000000001
 40
0.0
 40
0.0
 40
0.0
 40
101.2314204207314
 40
101.2314204207314
 40
101.2314204207314
 10
1209.731210345579
 20
218.3020490828088
 30
0.0
 10
1209.731210345566
 20
268.9177592920102
 30
0.0
 10
1209.731210345554
 20
319.5334695012116
 30
0.0
  0
SPLINE
  5
34A
330
1F
100
AcDbEntity
  8
LINEE VISIBILI 2D
100
AcDbSpline
210
0.0
220
0.0
230
1.0
 70
    12
 71
     2
 72
    10
 73
     7
 74
     0
 42
0.0000000001
 43
0.0000000001
 40
307.356911791616
 40
307.356911791616
 40
307.356911791616
 40
310.740501689879
 40
310.740501689879
 40
314.1240915881442
 40
314.1240915881442
 40
403.8799835693816
 40
403.8799835693816
 40
403.8799835693816
 10
1209.731210345554
 20
319.5334695012116
 30
0.0
 41
1.0
 10
1209.731210345679
 20
321.4335601808288
 30
0.0
 41
0.843391445824422
 10
1211.453277324649
 20
322.2365732009966
 30
0.0
 41
1.0
 10
1213.175344303622
 20
323.0395862211656
 30
0.0
 41
0.843391445824235
 10
1214.630898210299
 20
321.8182314752466
 30
0.0
 41
1.0
 10
1249.009399355004
 20
292.971243844192
 30
0.0
 41
1.0
 10
1283.387900499711
 20
264.1242562131374
 30
0.0
 41
1.0
  0
POLYLINE
  5
34B
330
1F
100
AcDbEntity
  8
LINEE VISIBILI 2D
100
AcDb2dPolyline
 66
     1
 10
0.0
 20
0.0
 30
0.0
  0
VERTEX
  5
34D
330
34B
100
AcDbEntity
  8
LINEE VISIBILI 2D
100
AcDbVertex
100
AcDb2dVertex
 10
1283.387900499711
 20
264.1242562131374
 30
0.0
  0
VERTEX
  5
34E
330
34B
100
AcDbEntity
  8
LINEE VISIBILI 2D
100
AcDbVertex
100
AcDb2dVertex
 10
1283.771096119745
 20
263.8027169096967
 30
0.0
  0
SEQEND
  5
34C
330
34B
100
AcDbEntity
  8
LINEE VISIBILI 2D
  0
SPLINE
  5
34F
330
1F
100
AcDbEntity
  8
LINEE VISIBILI 2D
100
AcDbSpline
210
0.0
220
0.0
230
1.0
 70
    12
 71
     2
 72
     6
 73
     3
 74
     0
 42
0.0000000001
 43
0.0000000001
 40
61.44812088877987
 40
61.44812088877987
 40
61.44812088877987
 40
64.01556548081041
 40
64.01556548081041
 40
64.01556548081041
 10
1283.771096119745
 20
263.8027169096967
 30
0.0
 41
0.9567812695551291
 10
1283.311991807255
 20
262.7118256764609
 30
0.0
 41
0.9765061167534189
 10
1282.982275131192
 20
261.5751166697128
 30
0.0
 41
1.0
  0
SPLINE
  5
350
330
1F
100
AcDbEntity
  8
LINEE VISIBILI 2D
100
AcDbSpline
210
0.0
220
0.0
230
1.0
 70
    12
 71
     2
 72
     6
 73
     3
 74
     0
 42
0.0000000001
 43
0.0000000001
 40
0.0
 40
0.0
 40
0.0
 40
15.82111110226232
 40
15.82111110226232
 40
15.82111110226232
 10
1282.982275131192
 20
261.5751166697128
 30
0.0
 41
1.0
 10
1280.660738631116
 20
253.5715437821239
 30
0.0
 41
0.9255865744523135
 10
1284.612894592949
 20
246.2348433015621
 30
0.0
 41
1.0
  0
SPLINE
  5
351
330
1F
100
AcDbEntity
  8
LINEE VISIBILI 2D
100
AcDbSpline
210
0.0
220
0.0
230
1.0
 70
    12
 71
     2
 72
     8
 73
     5
 74
     0
 42
0.0000000001
 43
0.0000000001
 40
0.0
 40
0.0
 40
0.0
 40
15.38658140573053
 40
15.38658140573053
 40
47.39436414613611
 40
47.39436414613611
 40
47.39436414613611
 10
1285.006067784262
 20
245.5380815187018
 30
0.0
 41
1.0
 10
1289.11478908693
 20
238.5796133332241
 30
0.0
 41
0.9295699760811069
 10
1296.875846102582
 20
236.3284215974745
 30
0.0
 41
1.0
 10
1316.445979124396
 20
230.6518595470491
 30
0.0
 41
0.7071067811865224
 10
1322.12254117482
 20
250.2219925688641
 30
0.0
 41
1.0
  0
SPLINE
  5
352
330
1F
100
AcDbEntity
  8
LINEE VISIBILI 2D
100
AcDbSpline
210
0.0
220
0.0
230
1.0
 70
    12
 71
     2
 72
     8
 73
     5
 74
     0
 42
0.0000000001
 43
0.0000000001
 40
0.0
 40
0.0
 40
0.0
 40
32.00778274040509
 40
32.00778274040509
 40
49.36069100995311
 40
49.36069100995311
 40
49.36069100995311
 10
1322.12254117482
 20
250.2219925688641
 30
0.0
 41
1.0
 10
1327.799103225245
 20
269.7921255906783
 30
0.0
 41
0.7071067811865412
 10
1308.22897020343
 20
275.4686876411024
 30
0.0
 41
1.0
 10
1299.310475242393
 20
278.0556087410407
 30
0.0
 41
0.8412089584566416
 10
1291.506987233162
 20
273.0219929395353
 30
0.0
 41
0.8545939404932904
  0
POLYLINE
  5
353
330
1F
100
AcDbEntity
  8
LINEE VISIBILI 2D
100
AcDb2dPolyline
 66
     1
 10
0.0
 20
0.0
 30
0.0
  0
VERTEX
  5
355
330
353
100
AcDbEntity
  8
LINEE VISIBILI 2D
100
AcDbVertex
100
AcDb2dVertex
 10
1291.506987233162
 20
273.0219929395353
 30
0.0
  0
VERTEX
  5
356
330
353
100
AcDbEntity
  8
LINEE VISIBILI 2D
100
AcDbVertex
100
AcDb2dVertex
 10
1291.1237916152
 20
273.343532241237
 30
0.0
  0
SEQEND
  5
354
330
353
100
AcDbEntity
  8
LINEE VISIBILI 2D
  0
SPLINE
  5
357
330
1F
100
AcDbEntity
  8
LINEE VISIBILI 2D
100
AcDbSpline
210
0.0
220
0.0
230
1.0
 70
    12
 71
     2
 72
    10
 73
     7
 74
     0
 42
0.0000000001
 43
0.0000000001
 40
415.9148936992084
 40
415.9148936992084
 40
415.9148936992084
 40
512.8473488531587
 40
512.8473488531587
 40
530.2854089553828
 40
530.2854089553828
 40
587.0806042433722
 40
587.0806042433722
 40
587.0806042433722
 10
1291.1237916152
 20
273.343532241237
 30
0.0
 41
1.0
 10
1253.996507300953
 20
304.4970228160046
 30
0.0
 41
1.0
 10
1216.869222986706
 20
335.6505133907722
 30
0.0
 41
1.0
 10
1209.731210345744
 20
341.6400171648077
 30
0.0
 41
0.906307787037036
 10
1209.731210345532
 20
350.9580308975483
 30
0.0
 41
1.0
 10
1209.731210345579
 20
379.3556285414938
 30
0.0
 41
1.0
 10
1209.731210345627
 20
407.7532261854385
 30
0.0
 41
1.0
  0
SPLINE
  5
358
330
1F
100
AcDbEntity
  8
LINEE VISIBILI 2D
100
AcDbSpline
210
0.0
220
0.0
230
1.0
 70
    12
 71
     2
 72
     8
 73
     5
 74
     0
 42
0.0000000001
 43
0.0000000001
 40
22.23108860596862
 40
22.23108860596862
 40
22.23108860596862
 40
32.007782740405
 40
32.007782740405
 40
64.0155654808105
 40
64.0155654808105
 40
64.0155654808105
 10
1209.731210345627
 20
407.7532261854386
 30
0.0
 41
0.8757258247762075
 10
1214.350119132877
 20
409.1773732785032
 30
0.0
 41
0.9105365267686841
 10
1217.837298583242
 20
412.5243260431207
 30
0.0
 41
1.0
 10
1232.538412035975
 20
426.6342773702404
 30
0.0
 41
0.7071067811865531
 10
1218.428460708856
 20
441.3353908229737
 30
0.0
 41
1.0
  0
SPLINE
  5
359
330
1F
100
AcDbEntity
  8
LINEE VISIBILI 2D
100
AcDbSpline
210
0.0
220
0.0
230
1.0
 70
    12
 71
     2
 72
     6
 73
     3
 74
     0
 42
0.0000000001
 43
0.0000000001
 40
0.0
 40
0.0
 40
0.0
 40
31.61393222102384
 40
31.61393222102384
 40
31.61393222102384
 10
1218.428460708856
 20
441.3353908229737
 30
0.0
 41
1.0
 10
1204.562800930609
 20
455.7819776871828
 30
0.0
 41
0.7107107842351617
 10
1189.876277238289
 20
442.1707170936091
 30
0.0
 41
0.9928806872363258
  0
SPLINE
  5
35A
330
1F
100
AcDbEntity
  8
LINEE VISIBILI 2D
100
AcDbSpline
210
0.0
220
0.0
230
1.0
 70
    24
 71
     2
 72
     6
 73
     3
 74
     0
 42
0.0000000001
 43
0.0000000001
 40
0.0
 40
0.0
 40
0.0
 40
4.050149421993004
 40
4.050149421993004
 40
4.050149421993004
 10
1189.876277238288
 20
442.170717093609
 30
0.0
 10
1188.122511095014
 20
443.1832544485237
 30
0.0
 10
1186.368744951741
 20
444.1957918034383
 30
0.0
  0
SPLINE
  5
35B
330
1F
100
AcDbEntity
  8
LINEE VISIBILI 2D
100
AcDbSpline
210
0.0
220
0.0
230
1.0
 70
    12
 71
     3
 72
     8
 73
     4
 74
     0
 42
0.0000000001
 43
0.0000000001
 40
76.64927559243078
 40
76.64927559243078
 40
76.64927559243078
 40
76.64927559243078
 40
88.18658205899926
 40
88.18658205899926
 40
88.18658205899926
 40
88.18658205899926
 10
1277.527696256383
 20
269.0415514323543
 30
0.0
 41
1.0
 10
1275.776766537824
 20
265.7109365253344
 30
0.0
 41
1.0
 10
1274.670060468414
 20
261.9836154488319
 30
0.0
 41
1.0
 10
1274.377021400556
 20
258.021319758138
 30
0.0
 41
1.0
  0
SPLINE
  5
35C
330
1F
100
AcDbEntity
  8
LINEE VISIBILI 2D
100
AcDbSpline
210
0.0
220
0.0
230
1.0
 70
    12
 71
     2
 72
     6
 73
     3
 74
     0
 42
0.0000000001
 43
0.0000000001
 40
-1.45414874165831
 40
-1.45414874165831
 40
-1.45414874165831
 40
0.0
 40
0.0
 40
0.0
 10
1274.377021400556
 20
258.021319758138
 30
0.0
 41
1.0
 10
1274.323378614636
 20
257.2960705280662
 30
0.0
 41
0.9996782918527172
 10
1274.306551892093
 20
256.5690348667465
 30
0.0
 41
1.0
  0
SPLINE
  5
35D
330
1F
100
AcDbEntity
  8
LINEE VISIBILI 2D
100
AcDbSpline
210
0.0
220
0.0
230
1.0
 70
    12
 71
     3
 72
     8
 73
     4
 74
     0
 42
0.0000000001
 43
0.0000000001
 40
89.5863688116684
 40
89.5863688116684
 40
89.5863688116684
 40
89.5863688116684
 40
104.4353759744173
 40
104.4353759744173
 40
104.4353759744173
 40
104.4353759744173
 10
1274.306551892093
 20
256.5690348667465
 30
0.0
 41
1.0
 10
1274.186671380108
 20
251.3990745497464
 30
0.0
 41
1.0
 10
1275.463659159378
 20
246.5214044600192
 30
0.0
 41
1.0
 10
1277.792705166981
 20
242.2972051005537
 30
0.0
 41
1.0
  0
SPLINE
  5
35E
330
1F
100
AcDbEntity
  8
LINEE VISIBILI 2D
100
AcDbSpline
210
0.0
220
0.0
230
1.0
 70
    12
 71
     3
 72
     8
 73
     4
 74
     0
 42
0.0000000001
 43
0.0000000001
 40
105.256883341189
 40
105.256883341189
 40
105.256883341189
 40
105.256883341189
 40
134.379544101583
 40
134.379544101583
 40
134.379544101583
 40
134.379544101583
 10
1278.188863890911
 20
241.6021670157551
 30
0.0
 41
1.0
 10
1282.982948708088
 20
233.4614202293762
 30
0.0
 41
1.0
 10
1291.750412560162
 20
227.9111184018657
 30
0.0
 41
1.0
 10
1301.890012980808
 20
227.676002378849
 30
0.0
 41
1.0
  0
SPLINE
  5
35F
330
1F
100
AcDbEntity
  8
LINEE VISIBILI 2D
100
AcDbSpline
210
0.0
220
0.0
230
1.0
 70
    12
 71
     3
 72
     8
 73
     4
 74
     0
 42
0.0000000001
 43
0.0000000001
 40
134.3754141499967
 40
134.3754141499967
 40
134.3754141499967
 40
134.3754141499967
 40
177.7719800529641
 40
177.7719800529641
 40
177.7719800529641
 40
177.7719800529641
 10
1301.890012980808
 20
227.676002378849
 30
0.0
 41
1.0
 10
1316.991388824994
 20
227.3258332093418
 30
0.0
 41
1.0
 10
1329.609650219042
 20
238.9131706456353
 30
0.0
 41
1.0
 10
1330.712575376805
 20
253.8071786476557
 30
0.0
 41
1.0
  0
SPLINE
  5
360
330
1F
100
AcDbEntity
  8
LINEE VISIBILI 2D
100
AcDbSpline
210
0.0
220
0.0
230
1.0
 70
    12
 71
     3
 72
     8
 73
     4
 74
     0
 42
0.0000000001
 43
0.0000000001
 40
177.7729388689291
 40
177.7729388689291
 40
177.7729388689291
 40
177.7729388689291
 40
179.172725796908
 40
179.172725796908
 40
179.172725796908
 40
179.172725796908
 10
1330.712575376805
 20
253.8071786476557
 30
0.0
 41
1.0
 10
1330.748163956566
 20
254.2879095483248
 30
0.0
 41
1.0
 10
1330.771744339298
 20
254.7721016152971
 30
0.0
 41
1.0
 10
1330.783045241201
 20
255.2594636845206
 30
0.0
 41
1.0
  0
SPLINE
  5
361
330
1F
100
AcDbEntity
  8
LINEE VISIBILI 2D
100
AcDbSpline
210
0.0
220
0.0
230
1.0
 70
    12
 71
     3
 72
    10
 73
     6
 74
     0
 42
0.0000000001
 43
0.0000000001
 40
0.0
 40
0.0
 40
0.0
 40
0.0
 40
44.78832515576429
 40
44.78832515576429
 40
44.78833347973692
 40
44.78833347973692
 40
44.78833347973692
 40
44.78833347973692
 10
1330.783045241201
 20
255.2594636845206
 30
0.0
 41
1.0
 10
1331.144515834768
 20
270.8482244726256
 30
0.0
 41
1.0
 10
1318.785128857552
 20
283.7910954510771
 30
0.0
 41
1.0
 10
1303.199589946746
 20
284.1524960380619
 30
0.0
 41
1.0
 10
1303.199587050152
 20
284.1524961052282
 30
0.0
 41
1.0
 10
1303.199584153083
 20
284.1524961724051
 30
0.0
 41
1.0
  0
SPLINE
  5
362
330
1F
100
AcDbEntity
  8
LINEE VISIBILI 2D
100
AcDbSpline
210
0.0
220
0.0
230
1.0
 70
    12
 71
     3
 72
     8
 73
     4
 74
     0
 42
0.0000000001
 43
0.0000000001
 40
44.7931927262563
 40
44.7931927262563
 40
44.7931927262563
 40
44.7931927262563
 40
64.15788684653013
 40
64.15788684653013
 40
64.15788684653013
 40
64.15788684653013
 10
1303.199584153083
 20
284.1524961724051
 30
0.0
 41
1.0
 10
1296.457402788729
 20
284.3088331879757
 30
0.0
 41
1.0
 10
1290.212318052525
 20
282.0895233214021
 30
0.0
 41
1.0
 10
1285.265387845469
 20
278.259316683714
 30
0.0
 41
1.0
  0
SPLINE
  5
363
330
1F
100
AcDbEntity
  8
DEFAULT
100
AcDbSpline
210
0.0
220
0.0
230
1.0
 70
    24
 71
     2
 72
     6
 73
     3
 74
     0
 42
0.0000000001
 43
0.0000000001
 40
0.0
 40
0.0
 40
0.0
 40
13.06998328315366
 40
13.06998328315366
 40
13.06998328315366
 10
1245.261344688203
 20
222.5914549403251
 30
0.0
 10
1239.601875913082
 20
219.3239591195386
 30
0.0
 10
1233.942407137962
 20
216.0564632987521
 30
0.0
  0
SPLINE
  5
364
330
1F
100
AcDbEntity
  8
DEFAULT
100
AcDbSpline
210
0.0
220
0.0
230
1.0
 70
    24
 71
     2
 72
     6
 73
     3
 74
     0
 42
0.0000000001
 43
0.0000000001
 40
0.0
 40
0.0
 40
0.0
 40
0.5157507404146962
 40
0.5157507404146962
 40
0.5157507404146962
 10
1233.942407137962
 20
216.0564632987521
 30
0.0
 10
1233.719080516362
 20
215.9275256136536
 30
0.0
 10
1233.495753894762
 20
215.7985879285552
 30
0.0
  0
SPLINE
  5
365
330
1F
100
AcDbEntity
  8
DEFAULT
100
AcDbSpline
210
0.0
220
0.0
230
1.0
 70
    24
 71
     2
 72
     6
 73
     3
 74
     0
 42
0.0000000001
 43
0.0000000001
 40
0.0
 40
0.0
 40
0.0
 40
48.31101726143361
 40
48.31101726143361
 40
48.31101726143361
 10
1233.495753894762
 20
215.7985879285552
 30
0.0
 10
1212.576469779231
 20
203.7208336131994
 30
0.0
 10
1191.6571856637
 20
191.6430792978435
 30
0.0
  0
SPLINE
  5
366
330
1F
100
AcDbEntity
  8
DEFAULT
100
AcDbSpline
210
0.0
220
0.0
230
1.0
 70
    24
 71
     2
 72
     6
 73
     3
 74
     0
 42
0.0000000001
 43
0.0000000001
 40
0.0
 40
0.0
 40
0.0
 40
0.9513532336204906
 40
0.9513532336204906
 40
0.9513532336204906
 10
1191.6571856637
 20
191.6430792978435
 30
0.0
 10
1191.245237629553
 20
191.4052409894371
 30
0.0
 10
1190.833289595407
 20
191.1674026810308
 30
0.0
  0
ARC
  5
367
330
1F
100
AcDbEntity
  8
DEFAULT
100
AcDbCircle
 10
1190.742350196345
 20
191.5767790098528
 30
0.0
 40
0.4193554016601322
100
AcDbArc
 50
137.4756094545331
 51
282.5243905454476
  0
SPLINE
  5
368
330
1F
100
AcDbEntity
  8
DEFAULT
100
AcDbSpline
210
0.0
220
0.0
230
1.0
 70
    24
 71
     2
 72
     6
 73
     3
 74
     0
 42
0.0000000001
 43
0.0000000001
 40
0.0
 40
0.0
 40
0.0
 40
0.9513532336637205
 40
0.9513532336637205
 40
0.9513532336637205
 10
1190.433289595408
 20
191.8602230040564
 30
0.0
 10
1190.845237629565
 20
192.0980613124702
 30
0.0
 10
1191.257185663722
 20
192.335899620884
 30
0.0
  0
SPLINE
  5
369
330
1F
100
AcDbEntity
  8
DEFAULT
100
AcDbSpline
210
0.0
220
0.0
230
1.0
 70
    24
 71
     2
 72
     6
 73
     3
 74
     0
 42
0.0000000001
 43
0.0000000001
 40
0.0
 40
0.0
 40
0.0
 40
48.31101726143137
 40
48.31101726143137
 40
48.31101726143137
 10
1191.257185663722
 20
192.335899620884
 30
0.0
 10
1212.176469779253
 20
204.413653936241
 30
0.0
 10
1233.095753894785
 20
216.4914082515979
 30
0.0
  0
SPLINE
  5
36A
330
1F
100
AcDbEntity
  8
DEFAULT
100
AcDbSpline
210
0.0
220
0.0
230
1.0
 70
    24
 71
     2
 72
     6
 73
     3
 74
     0
 42
0.0000000001
 43
0.0000000001
 40
0.0
 40
0.0
 40
0.0
 40
0.5157507404106362
 40
0.5157507404106362
 40
0.5157507404106362
 10
1233.095753894785
 20
216.4914082515979
 30
0.0
 10
1233.319080516394
 20
216.6203459367009
 30
0.0
 10
1233.542407138003
 20
216.7492836218039
 30
0.0
  0
SPLINE
  5
36B
330
1F
100
AcDbEntity
  8
DEFAULT
100
AcDbSpline
210
0.0
220
0.0
230
1.0
 70
    24
 71
     2
 72
     6
 73
     3
 74
     0
 42
0.0000000001
 43
0.0000000001
 40
0.0
 40
0.0
 40
0.0
 40
13.06565952772563
 40
13.06565952772563
 40
13.06565952772563
 10
1233.542407138003
 20
216.7492836218039
 30
0.0
 10
1239.200003672106
 20
220.0156985037337
 30
0.0
 10
1244.857600206208
 20
223.2821133856636
 30
0.0
  0
SPLINE
  5
36C
330
1F
100
AcDbEntity
  8
DEFAULT
100
AcDbSpline
210
0.0
220
0.0
230
1.0
 70
    24
 71
     2
 72
     6
 73
     3
 74
     0
 42
0.0000000001
 43
0.0000000001
 40
0.0
 40
0.0
 40
0.0
 40
13.94088180618626
 40
13.94088180618626
 40
13.94088180618626
 10
1258.74416523938
 20
231.2995254456864
 30
0.0
 10
1264.780744137036
 20
234.7847458972321
 30
0.0
 10
1270.817323034692
 20
238.2699663487779
 30
0.0
  0
SPLINE
  5
36D
330
1F
100
AcDbEntity
  8
DEFAULT
100
AcDbSpline
210
0.0
220
0.0
230
1.0
 70
    24
 71
     2
 72
     6
 73
     3
 74
     0
 42
0.0000000001
 43
0.0000000001
 40
0.0
 40
0.0
 40
0.0
 40
0.5157507404093937
 40
0.5157507404093937
 40
0.5157507404093937
 10
1270.817323034692
 20
238.2699663487779
 30
0.0
 10
1271.040649656302
 20
238.3989040338811
 30
0.0
 10
1271.263976277911
 20
238.5278417189843
 30
0.0
  0
SPLINE
  5
36E
330
1F
100
AcDbEntity
  8
DEFAULT
100
AcDbSpline
210
0.0
220
0.0
230
1.0
 70
    24
 71
     2
 72
     6
 73
     3
 74
     0
 42
0.0000000001
 43
0.0000000001
 40
0.0
 40
0.0
 40
0.0
 40
48.84698850191285
 40
48.84698850191285
 40
48.84698850191285
 10
1271.263976277911
 20
238.5278417189843
 30
0.0
 10
1292.417146031015
 20
250.7406299701515
 30
0.0
 10
1313.570315784119
 20
262.9534182213188
 30
0.0
  0
SPLINE
  5
36F
330
1F
100
AcDbEntity
  8
DEFAULT
100
AcDbSpline
210
0.0
220
0.0
230
1.0
 70
    24
 71
     2
 72
     6
 73
     3
 74
     0
 42
0.0000000001
 43
0.0000000001
 40
0.0
 40
0.0
 40
0.0
 40
0.9560705473668482
 40
0.9560705473668482
 40
0.9560705473668482
 10
1313.570315784119
 20
262.9534182213188
 30
0.0
 10
1313.986109757622
 20
263.19347698385
 30
0.0
 10
1314.401903731126
 20
263.4335357463813
 30
0.0
  0
ARC
  5
370
330
1F
100
AcDbEntity
  8
DEFAULT
100
AcDbCircle
 10
1314.461908035366
 20
263.0062990322343
 30
0.0
 40
0.4314298627151083
100
AcDbArc
 50
322.0052473504907
 51
97.99475264940972
  0
SPLINE
  5
371
330
1F
100
AcDbEntity
  8
DEFAULT
100
AcDbSpline
210
0.0
220
0.0
230
1.0
 70
    24
 71
     2
 72
     6
 73
     3
 74
     0
 42
0.0000000001
 43
0.0000000001
 40
0.0
 40
0.0
 40
0.0
 40
0.9560705473520938
 40
0.9560705473520938
 40
0.9560705473520938
 10
1314.801903731126
 20
262.7407154233522
 30
0.0
 10
1314.387190121135
 20
262.5012804089878
 30
0.0
 10
1313.972476511143
 20
262.2618453946234
 30
0.0
  0
SPLINE
  5
372
330
1F
100
AcDbEntity
  8
DEFAULT
100
AcDbSpline
210
0.0
220
0.0
230
1.0
 70
    24
 71
     2
 72
     6
 73
     3
 74
     0
 42
0.0000000001
 43
0.0000000001
 40
0.0
 40
0.0
 40
0.0
 40
48.85197848723219
 40
48.85197848723219
 40
48.85197848723219
 10
1313.972476511143
 20
262.2618453946234
 30
0.0
 10
1292.818226394541
 20
250.0484333952984
 30
0.0
 10
1271.66397627794
 20
237.8350213959734
 30
0.0
  0
SPLINE
  5
373
330
1F
100
AcDbEntity
  8
DEFAULT
100
AcDbSpline
210
0.0
220
0.0
230
1.0
 70
    24
 71
     2
 72
     6
 73
     3
 74
     0
 42
0.0000000001
 43
0.0000000001
 40
0.0
 40
0.0
 40
0.0
 40
0.5157507404207863
 40
0.5157507404207863
 40
0.5157507404207863
 10
1271.66397627794
 20
237.8350213959734
 30
0.0
 10
1271.440649656342
 20
237.7060837108772
 30
0.0
 10
1271.217323034745
 20
237.5771460257811
 30
0.0
  0
SPLINE
  5
374
330
1F
100
AcDbEntity
  8
DEFAULT
100
AcDbSpline
210
0.0
220
0.0
230
1.0
 70
    24
 71
     2
 72
     6
 73
     3
 74
     0
 42
0.0000000001
 43
0.0000000001
 40
0.0
 40
0.0
 40
0.0
 40
13.94520556161622
 40
13.94520556161622
 40
13.94520556161622
 10
1271.217323034745
 20
237.5771460257811
 30
0.0
 10
1265.178871896065
 20
234.0908446353752
 30
0.0
 10
1259.140420757385
 20
230.6045432449694
 30
0.0
  0
SPLINE
  5
375
330
1F
100
AcDbEntity
  8
LINEE VISIBILI 2D
100
AcDbSpline
210
0.0
220
0.0
230
1.0
 70
    12
 71
     2
 72
     6
 73
     3
 74
     0
 42
0.0000000001
 43
0.0000000001
 40
0.0
 40
0.0
 40
0.0
 40
14.65550121810484
 40
14.65550121810484
 40
14.65550121810484
 10
1303.631791396972
 20
56.48616909020052
 30
0.0
 41
1.0
 10
1311.12759296444
 20
56.28575616539997
 30
0.0
 41
0.966194468397743
 10
1317.527083672942
 20
52.37759481368176
 30
0.0
 41
1.0
  0
SPLINE
  5
376
330
1F
100
AcDbEntity
  8
LINEE VISIBILI 2D
100
AcDbSpline
210
0.0
220
0.0
230
1.0
 70
    12
 71
     3
 72
     8
 73
     4
 74
     0
 42
0.0000000001
 43
0.0000000001
 40
-179.172725796908
 40
-179.172725796908
 40
-179.172725796908
 40
-179.172725796908
 40
-177.7729388689291
 40
-177.7729388689291
 40
-177.7729388689291
 40
-177.7729388689291
 10
1317.527083672942
 20
52.37759481368176
 30
0.0
 41
1.0
 10
1317.94350115478
 20
52.12412691093698
 30
0.0
 41
1.0
 10
1318.351033593722
 20
51.86160966697281
 30
0.0
 41
1.0
 10
1318.749564476205
 20
51.59042360248036
 30
0.0
 41
1.0
  0
SPLINE
  5
377
330
1F
100
AcDbEntity
  8
LINEE VISIBILI 2D
100
AcDbSpline
210
0.0
220
0.0
230
1.0
 70
    12
 71
     3
 72
     8
 73
     4
 74
     0
 42
0.0000000001
 43
0.0000000001
 40
-177.7719800529638
 40
-177.7719800529638
 40
-177.7719800529638
 40
-177.7719800529638
 40
-134.3754141501801
 40
-134.3754141501801
 40
-134.3754141501801
 40
-134.3754141501801
 10
1318.749564476205
 20
51.59042360248036
 30
0.0
 41
1.0
 10
1331.096691191193
 20
43.18825839639758
 30
0.0
 41
1.0
 10
1334.822489076238
 20
26.46685475933621
 30
0.0
 41
1.0
 10
1326.968545757763
 20
13.5637642309815
 30
0.0
 41
1.0
  0
SPLINE
  5
378
330
1F
100
AcDbEntity
  8
LINEE VISIBILI 2D
100
AcDbSpline
210
0.0
220
0.0
230
1.0
 70
    12
 71
     3
 72
     8
 73
     4
 74
     0
 42
0.0000000001
 43
0.0000000001
 40
-134.379544101583
 40
-134.379544101583
 40
-134.379544101583
 40
-134.379544101583
 40
-89.58636881167858
 40
-89.58636881167858
 40
-89.58636881167858
 40
-89.58636881167858
 10
1326.968545757763
 20
13.5637642309815
 30
0.0
 41
1.0
 10
1318.857574073894
 20
0.2384068010981835
 30
0.0
 41
1.0
 10
1301.480072624021
 20
-3.988669294903852
 30
0.0
 41
1.0
 10
1288.154715086521
 20
4.12230244780041
 30
0.0
 41
1.0
  0
SPLINE
  5
379
330
1F
100
AcDbEntity
  8
LINEE VISIBILI 2D
100
AcDbSpline
210
0.0
220
0.0
230
1.0
 70
    12
 71
     2
 72
     6
 73
     3
 74
     0
 42
0.0000000001
 43
0.0000000001
 40
0.0
 40
0.0
 40
0.0
 40
1.45414874165759
 40
1.45414874165759
 40
1.45414874165759
 10
1288.154715086521
 20
4.12230244780041
 30
0.0
 41
1.0
 10
1287.533497095628
 20
4.50039264764723
 30
0.0
 41
0.9996782918527292
 10
1286.932234231271
 20
4.909473278020021
 30
0.0
 41
1.0
  0
SPLINE
  5
37A
330
1F
100
AcDbEntity
  8
LINEE VISIBILI 2D
100
AcDbSpline
210
0.0
220
0.0
230
1.0
 70
    12
 71
     3
 72
     8
 73
     4
 74
     0
 42
0.0000000001
 43
0.0000000001
 40
-88.18658205899926
 40
-88.18658205899926
 40
-88.18658205899926
 40
-88.18658205899926
 40
-44.7931927262563
 40
-44.7931927262563
 40
-44.7931927262563
 40
-44.7931927262563
 10
1286.932234231271
 20
4.909473278020021
 30
0.0
 41
1.0
 10
1274.577213928684
 20
13.31541097765567
 30
0.0
 41
1.0
 10
1270.855749043526
 20
30.02719279124963
 30
0.0
 41
1.0
 10
1278.713253002006
 20
42.93613303101303
 30
0.0
 41
1.0
  0
SPLINE
  5
37B
330
1F
100
AcDbEntity
  8
LINEE VISIBILI 2D
100
AcDbSpline
210
0.0
220
0.0
230
1.0
 70
    12
 71
     2
 72
     6
 73
     3
 74
     0
 42
0.0000000001
 43
0.0000000001
 40
0.0
 40
0.0
 40
0.0
 40
17.58957558722071
 40
17.58957558722071
 40
17.58957558722071
 10
1278.713253002006
 20
42.93613303101303
 30
0.0
 41
1.0
 10
1283.430150803955
 20
50.71056907551043
 30
0.0
 41
0.9514535816785806
 10
1291.80681587146
 20
54.24927830659836
 30
0.0
 41
1.0
  0
SPLINE
  5
37C
330
1F
100
AcDbEntity
  8
DEFAULT
100
AcDbSpline
210
0.0
220
0.0
230
1.0
 70
    28
 71
     2
 72
     6
 73
     3
 74
     0
 42
0.0000000001
 43
0.0000000001
 40
191.8551944978301
 40
191.8551944978301
 40
191.8551944978301
 40
195.8437146579282
 40
195.8437146579282
 40
195.8437146579282
 10
1180.338209632353
 20
433.7808057872141
 30
0.0
 41
1.0
 10
1182.098515903881
 20
432.7644924874916
 30
0.0
 41
1.0
 10
1183.858822175408
 20
431.7481791877691
 30
0.0
 41
1.0
  0
SPLINE
  5
37D
330
1F
100
AcDbEntity
  8
DEFAULT
100
AcDbSpline
210
0.0
220
0.0
230
1.0
 70
    12
 71
     2
 72
     6
 73
     3
 74
     0
 42
0.0000000001
 43
0.0000000001
 40
44.07058446775614
 40
44.07058446775614
 40
44.07058446775614
 40
64.01556548080961
 40
64.01556548080961
 40
64.01556548080961
 10
1183.858822175408
 20
431.7481791877691
 30
0.0
 41
0.8624343678542249
 10
1181.421110506614
 20
421.0392419660302
 30
0.0
 41
0.8174897106911443
 10
1189.02623380339
 20
413.1154881687344
 30
0.0
 41
1.0
  0
SPLINE
  5
37E
330
1F
100
AcDbEntity
  8
DEFAULT
100
AcDbSpline
210
0.0
220
0.0
230
1.0
 70
    12
 71
     2
 72
     6
 73
     3
 74
     0
 42
0.0000000001
 43
0.0000000001
 40
0.0
 40
0.0
 40
0.0
 40
10.55987132433452
 40
10.55987132433452
 40
10.55987132433452
 10
1189.02623380339
 20
413.1154881687344
 30
0.0
 41
1.0
 10
1192.669978411123
 20
409.3190822400965
 30
0.0
 41
0.9033699170128324
 10
1197.696300215729
 20
407.7616285945844
 30
0.0
 41
0.8704994046700977
  0
SPLINE
  5
37F
330
1F
100
AcDbEntity
  8
DEFAULT
100
AcDbSpline
210
0.0
220
0.0
230
1.0
 70
    12
 71
     2
 72
    10
 73
     7
 74
     0
 42
0.0000000001
 43
0.0000000001
 40
599.775773479878
 40
599.775773479878
 40
599.775773479878
 40
656.5793711766819
 40
656.5793711766819
 40
674.0174312779867
 40
674.0174312779867
 40
770.9498864326242
 40
770.9498864326242
 40
770.9498864326242
 10
1197.696300215729
 20
407.7616285945844
 30
0.0
 41
1.0
 10
1197.696300215752
 20
379.3598297460663
 30
0.0
 41
1.0
 10
1197.696300215775
 20
350.9580308975483
 30
0.0
 41
1.0
 10
1197.696300215704
 20
341.640017165409
 30
0.0
 41
0.906307787044641
 10
1190.558287575471
 20
335.6505133912879
 30
0.0
 41
1.0
 10
1153.431003260911
 20
304.4970228163438
 30
0.0
 41
1.0
 10
1116.30371894635
 20
273.3435322413989
 30
0.0
 41
1.0
  0
POLYLINE
  5
380
330
1F
100
AcDbEntity
  8
DEFAULT
100
AcDb2dPolyline
 66
     1
 10
0.0
 20
0.0
 30
0.0
  0
VERTEX
  5
382
330
380
100
AcDbEntity
  8
DEFAULT
100
AcDbVertex
100
AcDb2dVertex
 10
1116.30371894635
 20
273.3435322413989
 30
0.0
  0
VERTEX
  5
383
330
380
100
AcDbEntity
  8
DEFAULT
100
AcDbVertex
100
AcDb2dVertex
 10
1116.136994633375
 20
273.203633931873
 30
0.0
  0
SEQEND
  5
381
330
380
100
AcDbEntity
  8
DEFAULT
  0
SPLINE
  5
384
330
1F
100
AcDbEntity
  8
DEFAULT
100
AcDbSpline
210
0.0
220
0.0
230
1.0
 70
    12
 71
     2
 72
     8
 73
     5
 74
     0
 42
0.0000000001
 43
0.0000000001
 40
26.13640294981533
 40
26.13640294981533
 40
26.13640294981533
 40
32.00778274040493
 40
32.00778274040493
 40
64.0155654808102
 40
64.0155654808102
 40
64.0155654808102
 10
1116.136994633375
 20
273.203633931873
 30
0.0
 41
0.9122566680438781
 10
1113.762777115066
 20
274.6748872881525
 30
0.0
 41
0.9462728380878704
 10
1111.080232283825
 20
275.4529929949767
 30
0.0
 41
1.0
 10
1091.510099262011
 20
281.1295550453997
 30
0.0
 41
0.7071067811865743
 10
1085.833537211587
 20
261.5594220235862
 30
0.0
 41
1.0
  0
SPLINE
  5
385
330
1F
100
AcDbEntity
  8
DEFAULT
100
AcDbSpline
210
0.0
220
0.0
230
1.0
 70
    12
 71
     2
 72
     8
 73
     5
 74
     0
 42
0.0000000001
 43
0.0000000001
 40
0.0
 40
0.0
 40
0.0
 40
32.00778274040528
 40
32.00778274040528
 40
64.01556548081133
 40
64.01556548081133
 40
64.01556548081133
 10
1085.833537211587
 20
261.5594220235862
 30
0.0
 41
1.0
 10
1080.156975161162
 20
241.9892890017718
 30
0.0
 41
0.7071067811865281
 10
1099.727108182977
 20
236.3127269513479
 30
0.0
 41
1.0
 10
1119.297241204792
 20
230.6361649009229
 30
0.0
 41
0.7071067811865217
 10
1124.973803255215
 20
250.2062979227384
 30
0.0
 41
1.0
  0
SPLINE
  5
386
330
1F
100
AcDbEntity
  8
DEFAULT
100
AcDbSpline
210
0.0
220
0.0
230
1.0
 70
    12
 71
     2
 72
     6
 73
     3
 74
     0
 42
0.0000000001
 43
0.0000000001
 40
0.0
 40
0.0
 40
0.0
 40
14.32773778527506
 40
14.32773778527506
 40
14.32773778527506
 10
1124.973803255215
 20
250.2062979227384
 30
0.0
 41
1.0
 10
1127.041690969666
 20
257.3354083396584
 30
0.0
 41
0.8688913483236435
 10
1124.0395043688
 20
264.1241674714729
 30
0.0
 41
0.8551597982000598
  0
SPLINE
  5
387
330
1F
100
AcDbEntity
  8
DEFAULT
100
AcDbSpline
210
0.0
220
0.0
230
1.0
 70
    12
 71
     2
 72
    14
 73
    11
 74
     0
 42
0.0000000001
 43
0.0000000001
 40
-0.0001482935125874
 40
-0.0001482935125874
 40
-0.0001482935125874
 40
0.0
 40
0.0
 40
89.7558919823765
 40
89.7558919823765
 40
93.13948188018094
 40
93.13948188018094
 40
96.52307177798536
 40
96.52307177798536
 40
195.8437146579284
 40
195.8437146579284
 40
195.8437146579284
 10
1124.0395043688
 20
264.1241674714728
 30
0.0
 41
0.999944670954312
 10
1124.039557211366
 20
264.1242118468147
 30
0.0
 41
0.9999723313740783
 10
1124.039610061585
 20
264.1242562130383
 30
0.0
 41
1.0
 10
1158.418111206746
 20
292.9712438443821
 30
0.0
 41
1.0
 10
1192.796612351907
 20
321.818231475726
 30
0.0
 41
1.0
 10
1194.252166258623
 20
323.0395862211131
 30
0.0
 41
0.843391445864004
 10
1195.974233237179
 20
322.2365732007984
 30
0.0
 41
1.0
 10
1197.696300215736
 20
321.4335601804831
 30
0.0
 41
0.843391445864004
 10
1197.696300215774
 20
319.533469501217
 30
0.0
 41
1.0
 10
1197.696300215775
 20
268.9177592908455
 30
0.0
 41
1.0
 10
1197.696300215776
 20
218.3020490804739
 30
0.0
 41
1.0
  0
SPLINE
  5
388
330
1F
100
AcDbEntity
  8
DEFAULT
100
AcDbSpline
210
0.0
220
0.0
230
1.0
 70
    12
 71
     2
 72
     6
 73
     3
 74
     0
 42
0.0000000001
 43
0.0000000001
 40
0.1846089520493821
 40
0.1846089520493821
 40
0.1846089520493821
 40
20.32381651502272
 40
20.32381651502272
 40
20.32381651502272
 10
1197.696300215777
 20
218.3020490804739
 30
0.0
 41
0.997807476958035
 10
1187.203232699821
 20
215.0587007018821
 30
0.0
 41
0.879311280641645
 10
1184.143622266416
 20
204.5105938293136
 30
0.0
 41
1.0
  0
SPLINE
  5
389
330
1F
100
AcDbEntity
  8
DEFAULT
100
AcDbSpline
210
0.0
220
0.0
230
1.0
 70
    12
 71
     2
 72
     8
 73
     5
 74
     0
 42
0.0000000001
 43
0.0000000001
 40
0.0
 40
0.0
 40
0.0
 40
32.00778274040554
 40
32.00778274040554
 40
52.90757375143973
 40
52.90757375143973
 40
52.90757375143973
 10
1184.143622266416
 20
204.5105938293136
 30
0.0
 41
1.0
 10
1178.467060215992
 20
184.9404608074992
 30
0.0
 41
0.7071067811865471
 10
1198.037193237807
 20
179.2638987570753
 30
0.0
 41
1.0
 10
1209.209670347973
 20
176.0231819207554
 30
0.0
 41
0.8087525427363098
 10
1217.68028034872
 20
183.9965912671789
 30
0.0
 41
0.8672588357164432
  0
SPLINE
  5
38A
330
1F
100
AcDbEntity
  8
DEFAULT
100
AcDbSpline
210
0.0
220
0.0
230
1.0
 70
    12
 71
     2
 72
    10
 73
     7
 74
     0
 42
0.0000000001
 43
0.0000000001
 40
600.0142666509315
 40
600.0142666509315
 40
600.0142666509315
 40
656.5793711766819
 40
656.5793711766819
 40
674.0174312779867
 40
674.0174312779867
 40
770.9498864326242
 40
770.9498864326242
 40
770.9498864326242
 10
1217.68028034872
 20
183.9965912671789
 30
0.0
 41
1.0
 10
1242.173689092342
 20
169.8553151357038
 30
0.0
 41
1.0
 10
1266.667097835965
 20
155.7140390042287
 30
0.0
 41
1.0
 10
1274.736734440773
 20
151.0550321380961
 30
0.0
 41
0.906307787044641
 10
1276.35479054511
 20
141.8785799720608
 30
0.0
 41
1.0
 10
1284.77086264229
 20
94.14866329465167
 30
0.0
 41
1.0
 10
1293.186934739471
 20
46.4187466172425
 30
0.0
 41
1.0
  0
POLYLINE
  5
38B
330
1F
100
AcDbEntity
  8
DEFAULT
100
AcDb2dPolyline
 66
     1
 10
0.0
 20
0.0
 30
0.0
  0
VERTEX
  5
38D
330
38B
100
AcDbEntity
  8
DEFAULT
100
AcDbVertex
100
AcDb2dVertex
 10
1293.186934739471
 20
46.4187466172425
 30
0.0
  0
VERTEX
  5
38E
330
38B
100
AcDbEntity
  8
DEFAULT
100
AcDbVertex
100
AcDb2dVertex
 10
1293.22472807298
 20
46.20440997201395
 30
0.0
  0
SEQEND
  5
38C
330
38B
100
AcDbEntity
  8
DEFAULT
  0
SPLINE
  5
38F
330
1F
100
AcDbEntity
  8
DEFAULT
100
AcDbSpline
210
0.0
220
0.0
230
1.0
 70
    12
 71
     2
 72
     8
 73
     5
 74
     0
 42
0.0000000001
 43
0.0000000001
 40
26.13640294981622
 40
26.13640294981622
 40
26.13640294981622
 40
32.0077827404054
 40
32.0077827404054
 40
64.01556548081103
 40
64.01556548081103
 40
64.01556548081103
 10
1293.22472807298
 20
46.20440997201394
 30
0.0
 41
0.9122566680438858
 10
1290.763476531884
 20
44.8839039651882
 30
0.0
 41
0.9462728380878762
 10
1288.748344807324
 20
42.94980484795541
 30
0.0
 41
1.0
 10
1274.047231354591
 20
28.83985352083573
 30
0.0
 41
0.7071067811865476
 10
1288.157182681711
 20
14.13874006810234
 30
0.0
 41
1.0
  0
SPLINE
  5
390
330
1F
100
AcDbEntity
  8
DEFAULT
100
AcDbSpline
210
0.0
220
0.0
230
1.0
 70
    12
 71
     2
 72
     8
 73
     5
 74
     0
 42
0.0000000001
 43
0.0000000001
 40
0.0
 40
0.0
 40
0.0
 40
32.00778274040582
 40
32.00778274040582
 40
64.0155654808105
 40
64.0155654808105
 40
64.0155654808105
 10
1288.157182681711
 20
14.13874006810234
 30
0.0
 41
1.0
 10
1302.267134008831
 20
-0.5623733846313642
 30
0.0
 41
0.7071067811865271
 10
1316.968247461564
 20
13.54757794248961
 30
0.0
 41
1.0
 10
1331.669360914297
 20
27.65752926960885
 30
0.0
 41
0.7071067811865476
 10
1317.559409587177
 20
42.35864272234181
 30
0.0
 41
1.0
  0
SPLINE
  5
391
330
1F
100
AcDbEntity
  8
DEFAULT
100
AcDbSpline
210
0.0
220
0.0
230
1.0
 70
    12
 71
     2
 72
     6
 73
     3
 74
     0
 42
0.0000000001
 43
0.0000000001
 40
0.0
 40
0.0
 40
0.0
 40
14.32773778527586
 40
14.32773778527586
 40
14.32773778527586
 10
1317.559409587177
 20
42.35864272234181
 30
0.0
 41
1.0
 10
1312.419362716965
 20
47.71404122368983
 30
0.0
 41
0.868891348323641
 10
1305.039031548207
 20
48.50845092634625
 30
0.0
 41
0.8551597982000619
  0
SPLINE
  5
392
330
1F
100
AcDbEntity
  8
DEFAULT
100
AcDbSpline
210
0.0
220
0.0
230
1.0
 70
    12
 71
     2
 72
    14
 73
    11
 74
     0
 42
0.0000000001
 43
0.0000000001
 40
-0.0001482935119575
 40
-0.0001482935119575
 40
-0.0001482935119575
 40
0.0
 40
0.0
 40
89.7558919823765
 40
89.7558919823765
 40
93.13948188018094
 40
93.13948188018094
 40
96.52307177798536
 40
96.52307177798536
 40
195.8437146579286
 40
195.8437146579286
 40
195.8437146579286
 10
1305.039031548207
 20
48.50845092634626
 30
0.0
 41
0.9999446709545471
 10
1305.039019539317
 20
48.50851887702188
 30
0.0
 41
0.9999723313741958
 10
1305.03900754215
 20
48.50858682976559
 30
0.0
 41
1.0
 10
1297.246034003331
 20
92.70473598117951
 30
0.0
 41
1.0
 10
1289.453060464512
 20
136.9008851325934
 30
0.0
 41
1.0
 10
1289.123113181332
 20
138.7721091650796
 30
0.0
 41
0.843391445864004
 10
1290.679576345773
 20
139.8619564053715
 30
0.0
 41
1.0
 10
1292.236039510213
 20
140.951803645662
 30
0.0
 41
0.843391445864004
 10
1293.881566307971
 20
140.0017583060626
 30
0.0
 41
1.0
 10
1337.716057180745
 20
114.6939032008772
 30
0.0
 41
1.0
 10
1381.550548053519
 20
89.38604809569192
 30
0.0
 41
1.0
  0
SPLINE
  5
393
330
1F
100
AcDbEntity
  8
DEFAULT
100
AcDbSpline
210
0.0
220
0.0
230
1.0
 70
    12
 71
     2
 72
     6
 73
     3
 74
     0
 42
0.0000000001
 43
0.0000000001
 40
44.07058446775553
 40
44.07058446775553
 40
44.07058446775553
 40
64.01556548080892
 40
64.01556548080892
 40
64.01556548080892
 10
1381.550548053519
 20
89.38604809569192
 30
0.0
 41
0.8624343678542277
 10
1379.112836384725
 20
78.67711087395318
 30
0.0
 41
0.8174897106911473
 10
1386.7179596815
 20
70.75335707665734
 30
0.0
 41
1.0
  0
SPLINE
  5
394
330
1F
100
AcDbEntity
  8
DEFAULT
100
AcDbSpline
210
0.0
220
0.0
230
1.0
 70
    12
 71
     2
 72
     8
 73
     5
 74
     0
 42
0.0000000001
 43
0.0000000001
 40
0.0
 40
0.0
 40
0.0
 40
32.00778274040498
 40
32.00778274040498
 40
64.01556548081074
 40
64.01556548081074
 40
64.01556548081074
 10
1386.7179596815
 20
70.75335707665734
 30
0.0
 41
1.0
 10
1400.82791100862
 20
56.05224362392302
 30
0.0
 41
0.7071067811865148
 10
1415.529024461352
 20
70.16219495104357
 30
0.0
 41
1.0
 10
1430.230137914086
 20
84.27214627816328
 30
0.0
 41
0.707106781186542
 10
1416.120186586966
 20
98.9732597308967
 30
0.0
 41
1.0
  0
SPLINE
  5
395
330
1F
100
AcDbEntity
  8
DEFAULT
100
AcDbSpline
210
0.0
220
0.0
230
1.0
 70
    12
 71
     2
 72
     6
 73
     3
 74
     0
 42
0.0000000001
 43
0.0000000001
 40
0.0
 40
0.0
 40
0.0
 40
31.61393222102365
 40
31.61393222102365
 40
31.61393222102365
 10
1416.120186586966
 20
98.9732597308967
 30
0.0
 41
1.0
 10
1402.254526808718
 20
113.4198465951046
 30
0.0
 41
0.7107107842351938
 10
1387.568003116399
 20
99.80858600153184
 30
0.0
 41
0.992880687236333
  0
SPLINE
  5
396
330
1F
100
AcDbEntity
  8
DEFAULT
100
AcDbSpline
210
0.0
220
0.0
230
1.0
 70
    24
 71
     2
 72
     6
 73
     3
 74
     0
 42
0.0000000001
 43
0.0000000001
 40
0.0
 40
0.0
 40
0.0
 40
101.2314204207326
 40
101.2314204207326
 40
101.2314204207326
 10
1387.568003116399
 20
99.80858600153182
 30
0.0
 10
1343.733512244632
 20
125.1164411061216
 30
0.0
 10
1299.899021372866
 20
150.4242962107114
 30
0.0
  0
SPLINE
  5
397
330
1F
100
AcDbEntity
  8
DEFAULT
100
AcDbSpline
210
0.0
220
0.0
230
1.0
 70
    12
 71
     2
 72
    10
 73
     7
 74
     0
 42
0.0000000001
 43
0.0000000001
 40
307.356911791616
 40
307.356911791616
 40
307.356911791616
 40
310.740501689879
 40
310.740501689879
 40
314.1240915881442
 40
314.1240915881442
 40
403.8799835693816
 40
403.8799835693816
 40
403.8799835693816
 10
1299.899021372866
 20
150.4242962107114
 30
0.0
 41
1.0
 10
1298.253494574886
 20
151.3743415506285
 30
0.0
 41
0.843391445824422
 10
1298.419098389336
 20
153.2672018115181
 30
0.0
 41
1.0
 10
1298.584702203787
 20
155.1600620724118
 30
0.0
 41
0.843391445824235
 10
1300.370203394124
 20
155.809931359212
 30
0.0
 41
1.0
 10
1342.541678077626
 20
171.159092879032
 30
0.0
 41
1.0
 10
1384.713152761127
 20
186.5082543988528
 30
0.0
 41
1.0
  0
POLYLINE
  5
398
330
1F
100
AcDbEntity
  8
DEFAULT
100
AcDb2dPolyline
 66
     1
 10
0.0
 20
0.0
 30
0.0
  0
VERTEX
  5
39A
330
398
100
AcDbEntity
  8
DEFAULT
100
AcDbVertex
100
AcDb2dVertex
 10
1384.713152761127
 20
186.5082543988528
 30
0.0
  0
VERTEX
  5
39B
330
398
100
AcDbEntity
  8
DEFAULT
100
AcDbVertex
100
AcDb2dVertex
 10
1385.183211776239
 20
186.6793418887015
 30
0.0
  0
SEQEND
  5
399
330
398
100
AcDbEntity
  8
DEFAULT
  0
SPLINE
  5
39C
330
1F
100
AcDbEntity
  8
DEFAULT
100
AcDbSpline
210
0.0
220
0.0
230
1.0
 70
    12
 71
     2
 72
     6
 73
     3
 74
     0
 42
0.0000000001
 43
0.0000000001
 40
61.44812088877888
 40
61.44812088877888
 40
61.44812088877888
 40
64.01556548080961
 40
64.01556548080961
 40
64.01556548080961
 10
1385.183211776239
 20
186.6793418887015
 30
0.0
 41
0.9567812695551271
 10
1385.898399140742
 20
185.7363002744808
 30
0.0
 41
0.9765061167534177
 10
1386.717959679265
 20
184.8824027535839
 30
0.0
 41
1.0
  0
SPLINE
  5
39D
330
1F
100
AcDbEntity
  8
DEFAULT
100
AcDbSpline
210
0.0
220
0.0
230
1.0
 70
    12
 71
     2
 72
     8
 73
     5
 74
     0
 42
0.0000000001
 43
0.0000000001
 40
0.0
 40
0.0
 40
0.0
 40
32.0077827404059
 40
32.0077827404059
 40
64.01556548081078
 40
64.01556548081078
 40
64.01556548081078
 10
1386.717959679265
 20
184.8824027535839
 30
0.0
 41
1.0
 10
1400.827911006385
 20
170.1812893008504
 30
0.0
 41
0.7071067811865399
 10
1415.529024459118
 20
184.2912406279709
 30
0.0
 41
1.0
 10
1430.230137911852
 20
198.4011919550908
 30
0.0
 41
0.707106781186514
 10
1416.120186584731
 20
213.1023054078232
 30
0.0
 41
1.0
  0
SPLINE
  5
39E
330
1F
100
AcDbEntity
  8
DEFAULT
100
AcDbSpline
210
0.0
220
0.0
230
1.0
 70
    12
 71
     2
 72
     8
 73
     5
 74
     0
 42
0.0000000001
 43
0.0000000001
 40
0.0
 40
0.0
 40
0.0
 40
32.00778274040417
 40
32.00778274040417
 40
49.36069100995258
 40
49.36069100995258
 40
49.36069100995258
 10
1416.120186584731
 20
213.1023054078232
 30
0.0
 41
1.0
 10
1402.010235257611
 20
227.8034188605549
 30
0.0
 41
0.7071067811865761
 10
1387.309121804878
 20
213.6934675334369
 30
0.0
 41
1.0
 10
1380.609534934227
 20
207.2632848836234
 30
0.0
 41
0.8412089584566415
 10
1381.067030086607
 20
197.98845812875
 30
0.0
 41
0.8545939404932935
  0
POLYLINE
  5
39F
330
1F
100
AcDbEntity
  8
DEFAULT
100
AcDb2dPolyline
 66
     1
 10
0.0
 20
0.0
 30
0.0
  0
VERTEX
  5
3A1
330
39F
100
AcDbEntity
  8
DEFAULT
100
AcDbVertex
100
AcDb2dVertex
 10
1381.067030086607
 20
197.98845812875
 30
0.0
  0
VERTEX
  5
3A2
330
39F
100
AcDbEntity
  8
DEFAULT
100
AcDbVertex
100
AcDb2dVertex
 10
1380.596971074036
 20
197.8173706398265
 30
0.0
  0
SEQEND
  5
3A0
330
39F
100
AcDbEntity
  8
DEFAULT
  0
SPLINE
  5
3A3
330
1F
100
AcDbEntity
  8
DEFAULT
100
AcDbSpline
210
0.0
220
0.0
230
1.0
 70
    12
 71
     2
 72
    10
 73
     7
 74
     0
 42
0.0000000001
 43
0.0000000001
 40
415.9148936992084
 40
415.9148936992084
 40
415.9148936992084
 40
512.8473488531587
 40
512.8473488531587
 40
530.2854089553828
 40
530.2854089553828
 40
586.9439355151694
 40
586.9439355151694
 40
586.9439355151694
 10
1380.596971074036
 20
197.8173706398265
 30
0.0
 41
1.0
 10
1335.053614662605
 20
181.2409445375451
 30
0.0
 41
1.0
 10
1289.510258251174
 20
164.6645184352628
 30
0.0
 41
1.0
 10
1280.754189506315
 20
161.4775700426734
 30
0.0
 41
0.906307787037036
 10
1272.684552900843
 20
166.1365769088598
 30
0.0
 41
1.0
 10
1248.150691230024
 20
180.3012085488234
 30
0.0
 41
1.0
 10
1223.616829559206
 20
194.465840188786
 30
0.0
 41
1.0
  0
SPLINE
  5
3A4
330
1F
100
AcDbEntity
  8
DEFAULT
100
AcDbSpline
210
0.0
220
0.0
230
1.0
 70
    12
 71
     2
 72
     6
 73
     3
 74
     0
 42
0.0000000001
 43
0.0000000001
 40
1.377941861331208
 40
1.377941861331208
 40
1.377941861331208
 40
16.22266955337413
 40
16.22266955337413
 40
16.22266955337413
 10
1223.616829559206
 20
194.465840188786
 30
0.0
 41
0.9878457169613184
 10
1225.285680258486
 20
202.0697327218447
 30
0.0
 41
0.9284531071564137
 10
1221.459358371692
 20
208.8493717335798
 30
0.0
 41
1.0
  0
SPLINE
  5
3A5
330
1F
100
AcDbEntity
  8
LINEE VISIBILI 2D
100
AcDbSpline
210
0.0
220
0.0
230
1.0
 70
    12
 71
     3
 72
     8
 73
     4
 74
     0
 42
0.0000000001
 43
0.0000000001
 40
-39.49989508023216
 40
-39.49989508023216
 40
-39.49989508023216
 40
-39.49989508023216
 40
0.0
 40
0.0
 40
0.0
 40
0.0
 10
1380.511601533937
 20
103.8826013546739
 30
0.0
 41
1.0
 10
1389.429397879202
 20
113.6949114496196
 30
0.0
 41
1.0
 10
1404.341050768414
 20
116.1423421525197
 30
0.0
 41
1.0
 10
1416.087860663167
 20
108.9922118197892
 30
0.0
 41
1.0
  0
SPLINE
  5
3A6
330
1F
100
AcDbEntity
  8
LINEE VISIBILI 2D
100
AcDbSpline
210
0.0
220
0.0
230
1.0
 70
    12
 71
     3
 72
    10
 73
     6
 74
     0
 42
0.0000000001
 43
0.0000000001
 40
-179.172725796908
 40
-179.172725796908
 40
-179.172725796908
 40
-179.172725796908
 40
-134.3754173542446
 40
-134.3754173542446
 40
-89.5863688116684
 40
-89.5863688116684
 40
-89.5863688116684
 40
-89.5863688116684
 10
1416.087860663167
 20
108.9922118197892
 30
0.0
 41
1.0
 10
1429.404881670745
 20
100.8863144143661
 30
0.0
 41
1.0
 10
1433.636773485225
 20
83.49795764885675
 30
0.0
 41
1.0
 10
1417.423370372863
 20
56.86126645589957
 30
0.0
 41
1.0
 10
1400.035162885851
 20
52.62940914877527
 30
0.0
 41
1.0
 10
1386.715492076743
 20
60.73691945391147
 30
0.0
 41
1.0
  0
SPLINE
  5
3A7
330
1F
100
AcDbEntity
  8
LINEE VISIBILI 2D
100
AcDbSpline
210
0.0
220
0.0
230
1.0
 70
    12
 71
     3
 72
     8
 73
     4
 74
     0
 42
0.0000000001
 43
0.0000000001
 40
-89.5863688116684
 40
-89.5863688116684
 40
-89.5863688116684
 40
-89.5863688116684
 40
-51.36650854872729
 40
-51.36650854872729
 40
-51.36650854872729
 40
-51.36650854872729
 10
1386.715492076743
 20
60.73691945391147
 30
0.0
 41
1.0
 10
1375.353882133063
 20
67.65258358866656
 30
0.0
 41
1.0
 10
1370.605244156779
 20
81.32463941504665
 30
0.0
 41
1.0
 10
1374.490383783095
 20
93.46223583774578
 30
0.0
 41
1.0
  0
SPLINE
  5
3A8
330
1F
100
AcDbEntity
  8
LINEE VISIBILI 2D
100
AcDbSpline
210
0.0
220
0.0
230
1.0
 70
    12
 71
     3
 72
     8
 73
     4
 74
     0
 42
0.0000000001
 43
0.0000000001
 40
76.64927559242959
 40
76.64927559242959
 40
76.64927559242959
 40
76.64927559242959
 40
88.18658205899926
 40
88.18658205899926
 40
88.18658205899926
 40
88.18658205899926
 10
1377.524548061712
 20
183.8918162623754
 30
0.0
 41
1.0
 10
1379.533480322135
 20
180.7101591923513
 30
0.0
 41
1.0
 10
1382.208082027743
 20
177.8880630834688
 30
0.0
 41
1.0
 10
1385.493011219261
 20
175.6531359610553
 30
0.0
 41
1.0
  0
SPLINE
  5
3A9
330
1F
100
AcDbEntity
  8
LINEE VISIBILI 2D
100
AcDbSpline
210
0.0
220
0.0
230
1.0
 70
    12
 71
     2
 72
     6
 73
     3
 74
     0
 42
0.0000000001
 43
0.0000000001
 40
-1.454148741658766
 40
-1.454148741658766
 40
-1.454148741658766
 40
0.0
 40
0.0
 40
0.0
 10
1385.493011219261
 20
175.6531359610553
 30
0.0
 41
1.0
 10
1386.094274083618
 20
175.2440553306824
 30
0.0
 41
0.9996782918527155
 10
1386.715492074507
 20
174.8659651308379
 30
0.0
 41
1.0
  0
SPLINE
  5
3AA
330
1F
100
AcDbEntity
  8
LINEE VISIBILI 2D
100
AcDbSpline
210
0.0
220
0.0
230
1.0
 70
    12
 71
     3
 72
     8
 73
     4
 74
     0
 42
0.0000000001
 43
0.0000000001
 40
89.5863688116684
 40
89.5863688116684
 40
89.5863688116684
 40
89.5863688116684
 40
134.379544101583
 40
134.379544101583
 40
134.379544101583
 40
134.379544101583
 10
1386.715492074507
 20
174.8659651308379
 30
0.0
 41
1.0
 10
1400.040849612003
 20
166.7549933881292
 30
0.0
 41
1.0
 10
1417.418351061883
 20
170.9820694841301
 30
0.0
 41
1.0
 10
1425.529322745753
 20
184.3074269140171
 30
0.0
 41
1.0
  0
SPLINE
  5
3AB
330
1F
100
AcDbEntity
  8
LINEE VISIBILI 2D
100
AcDbSpline
210
0.0
220
0.0
230
1.0
 70
    12
 71
     3
 72
     8
 73
     4
 74
     0
 42
0.0000000001
 43
0.0000000001
 40
134.3754141499975
 40
134.3754141499975
 40
134.3754141499975
 40
134.3754141499975
 40
177.771980052963
 40
177.771980052963
 40
177.771980052963
 40
177.771980052963
 10
1425.529322745753
 20
184.3074269140171
 30
0.0
 41
1.0
 10
1433.38326606426
 20
197.2105174424253
 30
0.0
 41
1.0
 10
1429.657468179233
 20
213.9319210794091
 30
0.0
 41
1.0
 10
1417.310341464196
 20
222.3340862855145
 30
0.0
 41
1.0
  0
SPLINE
  5
3AC
330
1F
100
AcDbEntity
  8
LINEE VISIBILI 2D
100
AcDbSpline
210
0.0
220
0.0
230
1.0
 70
    12
 71
     3
 72
     8
 73
     4
 74
     0
 42
0.0000000001
 43
0.0000000001
 40
177.7729388689291
 40
177.7729388689291
 40
177.7729388689291
 40
177.7729388689291
 40
179.172725796908
 40
179.172725796908
 40
179.172725796908
 40
179.172725796908
 10
1417.310341464196
 20
222.3340862855145
 30
0.0
 41
1.0
 10
1416.911810581712
 20
222.6052723500067
 30
0.0
 41
1.0
 10
1416.50427814277
 20
222.8677895939709
 30
0.0
 41
1.0
 10
1416.087860660932
 20
223.1212574967158
 30
0.0
 41
1.0
  0
SPLINE
  5
3AD
330
1F
100
AcDbEntity
  8
LINEE VISIBILI 2D
100
AcDbSpline
210
0.0
220
0.0
230
1.0
 70
    12
 71
     3
 72
    10
 73
     6
 74
     0
 42
0.0000000001
 43
0.0000000001
 40
0.0
 40
0.0
 40
0.0
 40
0.0
 40
44.78832515576429
 40
44.78832515576429
 40
44.78833347973552
 40
44.78833347973552
 40
44.78833347973552
 40
44.78833347973552
 10
1416.087860660932
 20
223.1212574967158
 30
0.0
 41
1.0
 10
1402.768333101698
 20
231.2286806075181
 30
0.0
 41
1.0
 10
1385.379784547847
 20
226.9965729992728
 30
0.0
 41
1.0
 10
1377.274033003172
 20
213.679800664336
 30
0.0
 41
1.0
 10
1377.274031496708
 20
213.6797981893961
 30
0.0
 41
1.0
 10
1377.274029989997
 20
213.6797957140486
 30
0.0
 41
1.0
  0
SPLINE
  5
3AE
330
1F
100
AcDbEntity
  8
LINEE VISIBILI 2D
100
AcDbSpline
210
0.0
220
0.0
230
1.0
 70
    12
 71
     3
 72
     8
 73
     4
 74
     0
 42
0.0000000001
 43
0.0000000001
 40
44.7931927262563
 40
44.7931927262563
 40
44.7931927262563
 40
44.7931927262563
 40
64.15788684652996
 40
64.15788684652996
 40
64.15788684652996
 40
64.15788684652996
 10
1377.274029989997
 20
213.6797957140486
 30
0.0
 41
1.0
 10
1373.767547480783
 20
207.9190638833803
 30
0.0
 41
1.0
 10
1372.566983836003
 20
201.4010069197548
 30
0.0
 41
1.0
 10
1373.410574982457
 20
195.2017363708517
 30
0.0
 41
1.0
  0
SPLINE
  5
3AF
330
1F
100
AcDbEntity
  8
LINEE VISIBILI 2D
100
AcDbSpline
210
0.0
220
0.0
230
1.0
 70
    12
 71
     2
 72
     8
 73
     5
 74
     0
 42
0.0000000001
 43
0.0000000001
 40
0.0
 40
0.0
 40
0.0
 40
12.60617798564964
 40
12.60617798564964
 40
25.21235597129917
 40
25.21235597129917
 40
25.21235597129917
 10
1243.967534162478
 20
226.5139906271452
 30
0.0
 41
1.0
 10
1244.435468989492
 20
218.5023020549946
 30
0.0
 41
0.7071067811864541
 10
1252.447157561643
 20
218.9702368820111
 30
0.0
 41
1.0
 10
1260.458846133792
 20
219.4381717090266
 30
0.0
 41
0.7071067811865264
 10
1259.990911306776
 20
227.4498602811764
 30
0.0
 41
1.0
  0
SPLINE
  5
3B0
330
1F
100
AcDbEntity
  8
LINEE VISIBILI 2D
100
AcDbSpline
210
0.0
220
0.0
230
1.0
 70
    12
 71
     2
 72
     8
 73
     5
 74
     0
 42
0.0000000001
 43
0.0000000001
 40
-25.21235597129643
 40
-25.21235597129643
 40
-25.21235597129643
 40
-12.60617798564827
 40
-12.60617798564827
 40
0.0
 40
0.0
 40
0.0
 10
1259.990911306776
 20
227.4498602811764
 30
0.0
 41
1.0
 10
1259.522976479759
 20
235.4615488533242
 30
0.0
 41
0.7071067811866502
 10
1251.511287907611
 20
234.99361402631
 30
0.0
 41
1.0
 10
1243.499599335464
 20
234.5256791992931
 30
0.0
 41
0.7071067811866569
 10
1243.967534162478
 20
226.5139906271452
 30
0.0
 41
1.0
  0
SPLINE
  5
3B1
330
1F
100
AcDbEntity
  8
LINEE VISIBILI 2D
100
AcDbSpline
210
0.0
220
0.0
230
1.0
 70
    12
 71
     3
 72
    10
 73
     6
 74
     0
 42
0.0000000001
 43
0.0000000001
 40
-158.971488983622
 40
-158.971488983622
 40
-158.971488983622
 40
-158.971488983622
 40
-134.3754173542446
 40
-134.3754173542446
 40
-89.5863688116684
 40
-89.5863688116684
 40
-89.5863688116684
 40
-89.5863688116684
 10
1224.691138093068
 20
179.9488706701116
 30
0.0
 41
1.0
 10
1219.371856143483
 20
174.0492737734863
 30
0.0
 41
1.0
 10
1211.610439628006
 20
170.4130134662041
 30
0.0
 41
1.0
 10
1187.465424222846
 20
170.9728828265797
 30
0.0
 41
1.0
 10
1175.106424546179
 20
183.9155835830452
 30
0.0
 41
1.0
 10
1175.467899027317
 20
199.5045120263476
 30
0.0
 41
1.0
  0
SPLINE
  5
3B2
330
1F
100
AcDbEntity
  8
LINEE VISIBILI 2D
100
AcDbSpline
210
0.0
220
0.0
230
1.0
 70
    12
 71
     3
 72
     8
 73
     4
 74
     0
 42
0.0000000001
 43
0.0000000001
 40
-89.5863688116684
 40
-89.5863688116684
 40
-89.5863688116684
 40
-89.5863688116684
 40
-51.36650854872938
 40
-51.36650854872938
 40
-51.36650854872938
 40
-51.36650854872938
 10
1175.467899027317
 20
199.5045120263476
 30
0.0
 41
1.0
 10
1175.776234880217
 20
212.8017869328413
 30
0.0
 41
1.0
 10
1185.242263559678
 20
223.7502559668677
 30
0.0
 41
1.0
 10
1197.696300215775
 20
226.454424564579
 30
0.0
 41
1.0
  0
SPLINE
  5
3B3
330
1F
100
AcDbEntity
  8
LINEE VISIBILI 2D
100
AcDbSpline
210
0.0
220
0.0
230
1.0
 70
    12
 71
     2
 72
     6
 73
     3
 74
     0
 42
0.0000000001
 43
0.0000000001
 40
0.0
 40
0.0
 40
0.0
 40
15.22985454351229
 40
15.22985454351229
 40
15.22985454351229
 10
1228.276038620195
 20
212.7849839060401
 30
0.0
 41
1.0
 10
1232.136918719634
 20
205.9995334807425
 30
0.0
 41
0.9635074064099844
 10
1231.944392376426
 20
198.1949408441224
 30
0.0
 41
1.0
  0
SPLINE
  5
3B4
330
1F
100
AcDbEntity
  8
LINEE VISIBILI 2D
100
AcDbSpline
210
0.0
220
0.0
230
1.0
 70
    12
 71
     2
 72
     6
 73
     3
 74
     0
 42
0.0000000001
 43
0.0000000001
 40
0.0
 40
0.0
 40
0.0
 40
7.928147150508543
 40
7.928147150508543
 40
7.928147150508543
 10
1231.944392376426
 20
198.1949408441224
 30
0.0
 41
1.0
 10
1231.855179932956
 20
194.2056041813031
 30
0.0
 41
0.9901576367690403
 10
1230.663784984994
 20
190.3972785718846
 30
0.0
 41
1.0
  0
SPLINE
  5
3B5
330
1F
100
AcDbEntity
  8
LINEE VISIBILI 2D
100
AcDbSpline
210
0.0
220
0.0
230
1.0
 70
    12
 71
     2
 72
     6
 73
     3
 74
     0
 42
0.0000000001
 43
0.0000000001
 40
0.0
 40
0.0
 40
0.0
 40
14.65550121810469
 40
14.65550121810469
 40
14.65550121810469
 10
1130.244790887313
 20
269.3317322735954
 30
0.0
 41
1.0
 10
1133.819128986923
 20
262.7399712320411
 30
0.0
 41
0.9661944683977369
 10
1133.634307328497
 20
255.2437690313363
 30
0.0
 41
1.0
  0
SPLINE
  5
3B6
330
1F
100
AcDbEntity
  8
LINEE VISIBILI 2D
100
AcDbSpline
210
0.0
220
0.0
230
1.0
 70
    12
 71
     3
 72
     8
 73
     4
 74
     0
 42
0.0000000001
 43
0.0000000001
 40
-179.172725796908
 40
-179.172725796908
 40
-179.172725796908
 40
-179.172725796908
 40
-177.7729388689291
 40
-177.7729388689291
 40
-177.7729388689291
 40
-177.7729388689291
 10
1133.634307328497
 20
255.2437690313363
 30
0.0
 41
1.0
 10
1133.623006426595
 20
254.7564069621129
 30
0.0
 41
1.0
 10
1133.599426043862
 20
254.2722148951405
 30
0.0
 41
1.0
 10
1133.5638374641
 20
253.7914839944715
 30
0.0
 41
1.0
  0
SPLINE
  5
3B7
330
1F
100
AcDbEntity
  8
LINEE VISIBILI 2D
100
AcDbSpline
210
0.0
220
0.0
230
1.0
 70
    12
 71
     3
 72
     8
 73
     4
 74
     0
 42
0.0000000001
 43
0.0000000001
 40
-177.7719800529647
 40
-177.7719800529647
 40
-177.7719800529647
 40
-177.7719800529647
 40
-134.3754141501802
 40
-134.3754141501802
 40
-134.3754141501802
 40
-134.3754141501802
 10
1133.5638374641
 20
253.7914839944715
 30
0.0
 41
1.0
 10
1132.460912306334
 20
238.8974759925055
 30
0.0
 41
1.0
 10
1119.842650912227
 20
227.3101385561584
 30
0.0
 41
1.0
 10
1104.741275068103
 20
227.660307725664
 30
0.0
 41
1.0
  0
SPLINE
  5
3B8
330
1F
100
AcDbEntity
  8
LINEE VISIBILI 2D
100
AcDbSpline
210
0.0
220
0.0
230
1.0
 70
    12
 71
     3
 72
     8
 73
     4
 74
     0
 42
0.0000000001
 43
0.0000000001
 40
-134.379544101583
 40
-134.379544101583
 40
-134.379544101583
 40
-134.379544101583
 40
-89.5863688116684
 40
-89.5863688116684
 40
-89.5863688116684
 40
-89.5863688116684
 10
1104.741275068103
 20
227.660307725664
 30
0.0
 41
1.0
 10
1089.145691177379
 20
228.0219365383282
 30
0.0
 41
1.0
 10
1076.796185169573
 20
240.957756200225
 30
0.0
 41
1.0
 10
1077.157813979388
 20
256.5533402135613
 30
0.0
 41
1.0
  0
SPLINE
  5
3B9
330
1F
100
AcDbEntity
  8
LINEE VISIBILI 2D
100
AcDbSpline
210
0.0
220
0.0
230
1.0
 70
    12
 71
     2
 72
     6
 73
     3
 74
     0
 42
0.0000000001
 43
0.0000000001
 40
0.0
 40
0.0
 40
0.0
 40
1.454148741657444
 40
1.454148741657444
 40
1.454148741657444
 10
1077.157813979388
 20
256.5533402135613
 30
0.0
 41
1.0
 10
1077.174640701931
 20
257.2803758748806
 30
0.0
 41
0.9996782918527245
 10
1077.228283487851
 20
258.0056251049524
 30
0.0
 41
1.0
  0
SPLINE
  5
3BA
330
1F
100
AcDbEntity
  8
LINEE VISIBILI 2D
100
AcDbSpline
210
0.0
220
0.0
230
1.0
 70
    12
 71
     3
 72
     8
 73
     4
 74
     0
 42
0.0000000001
 43
0.0000000001
 40
-88.18658205899926
 40
-88.18658205899926
 40
-88.18658205899926
 40
-88.18658205899926
 40
-44.79319272626649
 40
-44.79319272626649
 40
-44.79319272626649
 40
-44.79319272626649
 10
1077.228283487851
 20
258.0056251049524
 30
0.0
 41
1.0
 10
1078.330528927071
 20
272.9083554010792
 30
0.0
 41
1.0
 10
1090.942624077562
 20
284.4871294377126
 30
0.0
 41
1.0
 10
1106.050846240373
 20
284.1368015192198
 30
0.0
 41
1.0
  0
SPLINE
  5
3BB
330
1F
100
AcDbEntity
  8
LINEE VISIBILI 2D
100
AcDbSpline
210
0.0
220
0.0
230
1.0
 70
    12
 71
     2
 72
     6
 73
     3
 74
     0
 42
0.0000000001
 43
0.0000000001
 40
0.0
 40
0.0
 40
0.0
 40
17.58957558722163
 40
17.58957558722163
 40
17.58957558722163
 10
1106.050846240373
 20
284.1368015192198
 30
0.0
 41
1.0
 10
1115.142154255985
 20
283.9390662179256
 30
0.0
 41
0.9514535816785884
 10
1122.395098880467
 20
278.4540160860162
 30
0.0
 41
1.0
  0
SPLINE
  5
3BC
330
1F
100
AcDbEntity
  8
LINEE VISIBILI 2D
100
AcDbSpline
210
0.0
220
0.0
230
1.0
 70
    12
 71
     2
 72
     8
 73
     5
 74
     0
 42
0.0000000001
 43
0.0000000001
 40
0.0
 40
0.0
 40
0.0
 40
173.1456465880822
 40
173.1456465880822
 40
346.2912931761649
 40
346.2912931761649
 40
346.2912931761649
 10
1089.300880903068
 20
604.3611161514982
 30
0.0
 41
1.0
 10
979.0794286308095
 20
605.557227525276
 30
0.0
 41
0.707106781186546
 10
977.8833172570321
 20
495.3357752530173
 30
0.0
 41
1.0
 10
976.6872058832544
 20
385.1143229807589
 30
0.0
 41
0.7071067811865492
 10
1086.908658155513
 20
383.9182116069805
 30
0.0
 41
1.0
  0
SPLINE
  5
3BD
330
1F
100
AcDbEntity
  8
LINEE VISIBILI 2D
100
AcDbSpline
210
0.0
220
0.0
230
1.0
 70
    12
 71
     2
 72
     8
 73
     5
 74
     0
 42
0.0000000001
 43
0.0000000001
 40
0.0
 40
0.0
 40
0.0
 40
173.1456465880831
 40
173.1456465880831
 40
346.2912931761651
 40
346.2912931761651
 40
346.2912931761651
 10
1086.908658155513
 20
383.9182116069805
 30
0.0
 41
1.0
 10
1197.130110427772
 20
382.7221002332029
 30
0.0
 41
0.707106781186543
 10
1198.326221801549
 20
492.9435525054623
 30
0.0
 41
1.0
 10
1199.522333175326
 20
603.1650047777204
 30
0.0
 41
0.70710678118655
 10
1089.300880903068
 20
604.3611161514982
 30
0.0
 41
1.0
  0
SPLINE
  5
3BE
330
1F
100
AcDbEntity
  8
LINEE VISIBILI 2D
100
AcDbSpline
210
0.0
220
0.0
230
1.0
 70
    12
 71
     3
 72
    10
 73
     6
 74
     0
 42
0.0000000001
 43
0.0000000001
 40
-44.78833347973672
 40
-44.78833347973672
 40
-44.78833347973672
 40
-44.78833347973672
 40
-44.78832515576429
 40
-44.78832515576429
 40
0.0
 40
0.0
 40
0.0
 40
0.0
 10
1179.582304112133
 20
556.041926806532
 30
0.0
 41
1.0
 10
1179.582305618597
 20
556.0419292814724
 30
0.0
 41
1.0
 10
1179.582307125062
 20
556.0419317564127
 30
0.0
 41
1.0
 10
1187.688058669736
 20
569.3587040913499
 30
0.0
 41
1.0
 10
1205.076607223587
 20
573.5908116995952
 30
0.0
 41
1.0
 10
1218.396134782822
 20
565.4833885887938
 30
0.0
 41
1.0
  0
SPLINE
  5
3BF
330
1F
100
AcDbEntity
  8
LINEE VISIBILI 2D
100
AcDbSpline
210
0.0
220
0.0
230
1.0
 70
    12
 71
     3
 72
     8
 73
     4
 74
     0
 42
0.0000000001
 43
0.0000000001
 40
-179.172725796908
 40
-179.172725796908
 40
-179.172725796908
 40
-179.172725796908
 40
-177.7729388689291
 40
-177.7729388689291
 40
-177.7729388689291
 40
-177.7729388689291
 10
1218.396134782822
 20
565.4833885887938
 30
0.0
 41
1.0
 10
1218.812552264659
 20
565.2299206860489
 30
0.0
 41
1.0
 10
1219.220084703602
 20
564.9674034420846
 30
0.0
 41
1.0
 10
1219.618615586085
 20
564.6962173775925
 30
0.0
 41
1.0
  0
SPLINE
  5
3C0
330
1F
100
AcDbEntity
  8
LINEE VISIBILI 2D
100
AcDbSpline
210
0.0
220
0.0
230
1.0
 70
    12
 71
     3
 72
     8
 73
     4
 74
     0
 42
0.0000000001
 43
0.0000000001
 40
-177.7719800529633
 40
-177.7719800529633
 40
-177.7719800529633
 40
-177.7719800529633
 40
-134.3754141499964
 40
-134.3754141499964
 40
-134.3754141499964
 40
-134.3754141499964
 10
1219.618615586085
 20
564.6962173775925
 30
0.0
 41
1.0
 10
1231.965742301123
 20
556.2940521714861
 30
0.0
 41
1.0
 10
1235.69154018615
 20
539.5726485345016
 30
0.0
 41
1.0
 10
1227.837596867643
 20
526.6695580060937
 30
0.0
 41
1.0
  0
SPLINE
  5
3C1
330
1F
100
AcDbEntity
  8
LINEE VISIBILI 2D
100
AcDbSpline
210
0.0
220
0.0
230
1.0
 70
    12
 71
     3
 72
     8
 73
     4
 74
     0
 42
0.0000000001
 43
0.0000000001
 40
-134.379544101583
 40
-134.379544101583
 40
-134.379544101583
 40
-134.379544101583
 40
-97.63591037298156
 40
-97.63591037298156
 40
-97.63591037298156
 40
-97.63591037298156
 10
1227.837596867643
 20
526.6695580060937
 30
0.0
 41
1.0
 10
1221.184204452241
 20
515.7388291721072
 30
0.0
 41
1.0
 10
1208.295508036942
 20
510.9301925804569
 30
0.0
 41
1.0
 10
1196.522936144493
 20
514.0318827404631
 30
0.0
 41
1.0
  0
SPLINE
  5
3C2
330
1F
100
AcDbEntity
  8
LINEE VISIBILI 2D
100
AcDbSpline
210
0.0
220
0.0
230
1.0
 70
    12
 71
     2
 72
     8
 73
     5
 74
     0
 42
0.0000000001
 43
0.0000000001
 40
0.0
 40
0.0
 40
0.0
 40
25.24444168198508
 40
25.24444168198508
 40
57.25222442238946
 40
57.25222442238946
 40
57.25222442238946
 10
1194.426387062227
 20
523.2242451656276
 30
0.0
 41
1.0
 10
1207.354439058022
 20
516.5920496226478
 30
0.0
 41
0.8142030340989274
 10
1217.837298581007
 20
526.6533717200482
 30
0.0
 41
1.0
 10
1232.53841203374
 20
540.7633230471679
 30
0.0
 41
0.7071067811865587
 10
1218.42846070662
 20
555.4644364999003
 30
0.0
 41
1.0
  0
SPLINE
  5
3C3
330
1F
100
AcDbEntity
  8
LINEE VISIBILI 2D
100
AcDbSpline
210
0.0
220
0.0
230
1.0
 70
    12
 71
     2
 72
     8
 73
     5
 74
     0
 42
0.0000000001
 43
0.0000000001
 40
0.0
 40
0.0
 40
0.0
 40
32.00778274040471
 40
32.00778274040471
 40
41.88013633366463
 40
41.88013633366463
 40
41.88013633366463
 10
1218.42846070662
 20
555.4644364999003
 30
0.0
 41
1.0
 10
1204.318509379501
 20
570.1655499526337
 30
0.0
 41
0.7071067811865364
 10
1189.617395926768
 20
556.055598625514
 30
0.0
 41
1.0
 10
1185.984786656446
 20
552.5690640742719
 30
0.0
 41
0.970801862258338
 10
1184.394124124337
 20
547.7918718029916
 30
0.0
 41
1.0
  0
SPLINE
  5
3C4
330
1F
100
AcDbEntity
  8
LINEE VISIBILI 2D
100
AcDbSpline
210
0.0
220
0.0
230
1.0
 70
    12
 71
     3
 72
     8
 73
     4
 74
     0
 42
0.0000000001
 43
0.0000000001
 40
-77.27038282864484
 40
-77.27038282864484
 40
-77.27038282864484
 40
-77.27038282864484
 40
-44.7931927262563
 40
-44.7931927262563
 40
-44.7931927262563
 40
-44.7931927262563
 10
982.6907621159886
 20
526.3590100006718
 30
0.0
 41
1.0
 10
976.8343712557131
 20
535.2044496618917
 30
0.0
 41
1.0
 10
976.2291726968281
 20
546.9961580660959
 30
0.0
 41
1.0
 10
982.1100143115657
 20
556.6576782339909
 30
0.0
 41
1.0
  0
SPLINE
  5
3C5
330
1F
100
AcDbEntity
  8
LINEE VISIBILI 2D
100
AcDbSpline
210
0.0
220
0.0
230
1.0
 70
    12
 71
     3
 72
    10
 73
     6
 74
     0
 42
0.0000000001
 43
0.0000000001
 40
-44.78833347973672
 40
-44.78833347973672
 40
-44.78833347973672
 40
-44.78833347973672
 40
-44.78832515576429
 40
-44.78832515576429
 40
-13.35974195444646
 40
-13.35974195444646
 40
-13.35974195444646
 40
-13.35974195444646
 10
982.1100143115657
 20
556.6576782339909
 30
0.0
 41
1.0
 10
982.1100158182771
 20
556.6576807093381
 30
0.0
 41
1.0
 10
982.1100173247416
 20
556.6576831842784
 30
0.0
 41
1.0
 10
987.797935014698
 20
566.0022460566473
 30
0.0
 41
1.0
 10
998.0567213718706
 20
570.8734990075628
 30
0.0
 41
1.0
 10
1008.272985500714
 20
570.1468048742727
 30
0.0
 41
1.0
  0
SPLINE
  5
3C6
330
1F
100
AcDbEntity
  8
LINEE VISIBILI 2D
100
AcDbSpline
210
0.0
220
0.0
230
1.0
 70
    12
 71
     3
 72
     8
 73
     4
 74
     0
 42
0.0000000001
 43
0.0000000001
 40
-172.278450327854
 40
-172.278450327854
 40
-172.278450327854
 40
-172.278450327854
 40
-134.3754141501801
 40
-134.3754141501801
 40
-134.3754141501801
 40
-134.3754141501801
 10
1125.326393522075
 20
390.3863510127863
 30
0.0
 41
1.0
 10
1134.162692815654
 20
381.3780841865967
 30
0.0
 41
1.0
 10
1136.136540033657
 20
367.1955959762439
 30
0.0
 41
1.0
 10
1129.276819879652
 20
355.9258953230586
 30
0.0
 41
1.0
  0
SPLINE
  5
3C7
330
1F
100
AcDbEntity
  8
LINEE VISIBILI 2D
100
AcDbSpline
210
0.0
220
0.0
230
1.0
 70
    12
 71
     3
 72
     8
 73
     4
 74
     0
 42
0.0000000001
 43
0.0000000001
 40
-134.379544101583
 40
-134.379544101583
 40
-134.379544101583
 40
-134.379544101583
 40
-89.5863688116684
 40
-89.5863688116684
 40
-89.5863688116684
 40
-89.5863688116684
 10
1129.276819879652
 20
355.9258953230586
 30
0.0
 41
1.0
 10
1121.165848195782
 20
342.6005378931723
 30
0.0
 41
1.0
 10
1103.788346745902
 20
338.3734617971713
 30
0.0
 41
1.0
 10
1090.462989208406
 20
346.4844335398803
 30
0.0
 41
1.0
  0
SPLINE
  5
3C8
330
1F
100
AcDbEntity
  8
LINEE VISIBILI 2D
100
AcDbSpline
210
0.0
220
0.0
230
1.0
 70
    12
 71
     2
 72
     6
 73
     3
 74
     0
 42
0.0000000001
 43
0.0000000001
 40
0.0
 40
0.0
 40
0.0
 40
1.454148741659179
 40
1.454148741659179
 40
1.454148741659179
 10
1090.462989208406
 20
346.4844335398803
 30
0.0
 41
1.0
 10
1089.841771217517
 20
346.8625237397247
 30
0.0
 41
0.9996782918527252
 10
1089.24050835316
 20
347.2716043700976
 30
0.0
 41
1.0
  0
SPLINE
  5
3C9
330
1F
100
AcDbEntity
  8
LINEE VISIBILI 2D
100
AcDbSpline
210
0.0
220
0.0
230
1.0
 70
    12
 71
     3
 72
     8
 73
     4
 74
     0
 42
0.0000000001
 43
0.0000000001
 40
-88.18658205899926
 40
-88.18658205899926
 40
-88.18658205899926
 40
-88.18658205899926
 40
-46.03275244038637
 40
-46.03275244038637
 40
-46.03275244038637
 40
-46.03275244038637
 10
1089.24050835316
 20
347.2716043700976
 30
0.0
 41
1.0
 10
1077.238416550666
 20
355.4374203906447
 30
0.0
 41
1.0
 10
1073.383680107453
 20
371.4413360801668
 30
0.0
 41
1.0
 10
1080.376439860068
 20
384.1829808447447
 30
0.0
 41
1.0
  0
SPLINE
  5
3CA
330
1F
100
AcDbEntity
  8
LINEE VISIBILI 2D
100
AcDbSpline
210
0.0
220
0.0
230
1.0
 70
    12
 71
     2
 72
     6
 73
     3
 74
     0
 42
0.0000000001
 43
0.0000000001
 40
0.0
 40
0.0
 40
0.0
 40
30.09395199119954
 40
30.09395199119954
 40
30.09395199119954
 10
1089.740077307974
 20
383.9238528905556
 30
0.0
 41
1.0
 10
1077.622188330534
 20
369.8822317722149
 30
0.0
 41
0.7395214934153795
 10
1090.4654568036
 20
356.5008711601795
 30
0.0
 41
1.0
  0
SPLINE
  5
3CB
330
1F
100
AcDbEntity
  8
LINEE VISIBILI 2D
100
AcDbSpline
210
0.0
220
0.0
230
1.0
 70
    12
 71
     2
 72
     8
 73
     5
 74
     0
 42
0.0000000001
 43
0.0000000001
 40
0.0
 40
0.0
 40
0.0
 40
32.00778274040601
 40
32.00778274040601
 40
64.01556548081092
 40
64.01556548081092
 40
64.01556548081092
 10
1090.4654568036
 20
356.5008711601795
 30
0.0
 41
1.0
 10
1104.57540813072
 20
341.7997577074451
 30
0.0
 41
0.7071067811865127
 10
1119.276521583453
 20
355.9097090345667
 30
0.0
 41
1.0
 10
1133.977635036187
 20
370.0196603616864
 30
0.0
 41
0.707106781186514
 10
1119.867683709066
 20
384.7207738144189
 30
0.0
 41
1.0
  0
SPLINE
  5
3CC
330
1F
100
AcDbEntity
  8
LINEE VISIBILI 2D
100
AcDbSpline
210
0.0
220
0.0
230
1.0
 70
    12
 71
     2
 72
     6
 73
     3
 74
     0
 42
0.0000000001
 43
0.0000000001
 40
0.0
 40
0.0
 40
0.0
 40
4.515750102094986
 40
4.515750102094986
 40
4.515750102094986
 10
1119.867683709066
 20
384.7207738144189
 30
0.0
 41
1.0
 10
1118.297782795148
 20
386.3564485882004
 30
0.0
 41
0.9938672680207495
 10
1116.406748793331
 20
387.6070529417331
 30
0.0
 41
1.0
  0
SPLINE
  5
3CD
330
1F
100
AcDbEntity
  8
LINEE VISIBILI 2D
100
AcDbSpline
210
0.0
220
0.0
230
1.0
 70
    12
 71
     2
 72
     6
 73
     3
 74
     0
 42
0.0000000001
 43
0.0000000001
 40
0.0
 40
0.0
 40
0.0
 40
9.386782104840009
 40
9.386782104840009
 40
9.386782104840009
 10
1197.696300225928
 20
399.6223870165127
 30
0.0
 41
1.0
 10
1193.067817583517
 20
400.631787159809
 30
0.0
 41
0.9861635576554963
 10
1189.023766198631
 20
403.0990505459886
 30
0.0
 41
1.0
  0
SPLINE
  5
3CE
330
1F
100
AcDbEntity
  8
LINEE VISIBILI 2D
100
AcDbSpline
210
0.0
220
0.0
230
1.0
 70
    12
 71
     3
 72
     8
 73
     4
 74
     0
 42
0.0000000001
 43
0.0000000001
 40
-89.5863688116684
 40
-89.5863688116684
 40
-89.5863688116684
 40
-89.5863688116684
 40
-60.55305949342127
 40
-60.55305949342127
 40
-60.55305949342127
 40
-60.55305949342127
 10
1189.023766198631
 20
403.0990505459886
 30
0.0
 41
1.0
 10
1180.393040351421
 20
408.3524610656534
 30
0.0
 41
1.0
 10
1175.578342692301
 20
417.5046604010171
 30
0.0
 41
1.0
 10
1175.465496079423
 20
426.9213428643743
 30
0.0
 41
1.0
  0
SPLINE
  5
3CF
330
1F
100
AcDbEntity
  8
LINEE VISIBILI 2D
100
AcDbSpline
210
0.0
220
0.0
230
1.0
 70
    12
 71
     3
 72
     8
 73
     4
 74
     0
 42
0.0000000001
 43
0.0000000001
 40
-30.30472730516271
 40
-30.30472730516271
 40
-30.30472730516271
 40
-30.30472730516271
 40
0.0
 40
0.0
 40
0.0
 40
0.0
 10
1189.906690226647
 20
451.8718491054249
 30
0.0
 41
1.0
 10
1198.508723576617
 20
456.676413993167
 30
0.0
 41
1.0
 10
1209.383860958936
 20
456.83999672157
 30
0.0
 41
1.0
 10
1218.396134785056
 20
451.3543429118663
 30
0.0
 41
1.0
  0
SPLINE
  5
3D0
330
1F
100
AcDbEntity
  8
LINEE VISIBILI 2D
100
AcDbSpline
210
0.0
220
0.0
230
1.0
 70
    12
 71
     3
 72
    10
 73
     6
 74
     0
 42
0.0000000001
 43
0.0000000001
 40
-179.172725796908
 40
-179.172725796908
 40
-179.172725796908
 40
-179.172725796908
 40
-134.3754173542446
 40
-134.3754173542446
 40
-111.2872567928147
 40
-111.2872567928147
 40
-111.2872567928147
 40
-111.2872567928147
 10
1218.396134785056
 20
451.3543429118663
 30
0.0
 41
1.0
 10
1231.713155792635
 20
443.2484455064432
 30
0.0
 41
1.0
 10
1235.945047607114
 20
425.8600887409339
 30
0.0
 41
1.0
 10
1223.65908675912
 20
405.6757176469175
 30
0.0
 41
1.0
 10
1217.014033486268
 20
401.2251152425133
 30
0.0
 41
1.0
 10
1209.731210345612
 20
399.6344507958581
 30
0.0
 41
1.0
  0
SPLINE
  5
3D1
330
1F
100
AcDbEntity
  8
LINEE VISIBILI 2D
100
AcDbSpline
210
0.0
220
0.0
230
1.0
 70
    24
 71
     2
 72
     6
 73
     3
 74
     0
 42
0.0000000001
 43
0.0000000001
 40
0.0
 40
0.0
 40
0.0
 40
13.00000000000091
 40
13.00000000000091
 40
13.00000000000091
 10
64.4865210415901
 20
988.8833915037267
 30
0.0
 10
64.4865210415901
 20
995.3833915037271
 30
0.0
 10
64.4865210415901
 20
1001.883391503728
 30
0.0
  0
SPLINE
  5
3D2
330
1F
100
AcDbEntity
  8
LINEE VISIBILI 2D
100
AcDbSpline
210
0.0
220
0.0
230
1.0
 70
    24
 71
     2
 72
     6
 73
     3
 74
     0
 42
0.0000000001
 43
0.0000000001
 40
0.0
 40
0.0
 40
0.0
 40
13.00000000000091
 40
13.00000000000091
 40
13.00000000000091
 10
105.2400957659656
 20
1001.883391503728
 30
0.0
 10
105.2400957659656
 20
995.3833915037271
 30
0.0
 10
105.2400957659656
 20
988.8833915037267
 30
0.0
  0
SPLINE
  5
3D3
330
1F
100
AcDbEntity
  8
LINEE VISIBILI 2D
100
AcDbSpline
210
0.0
220
0.0
230
1.0
 70
    24
 71
     2
 72
     6
 73
     3
 74
     0
 42
0.0000000001
 43
0.0000000001
 40
0.0
 40
0.0
 40
0.0
 40
12.99998426484126
 40
12.99998426484126
 40
12.99998426484126
 10
178.6155667185167
 20
988.8834072388863
 30
0.0
 10
178.6155667185167
 20
995.383399371307
 30
0.0
 10
178.6155667185167
 20
1001.883391503728
 30
0.0
  0
SPLINE
  5
3D4
330
1F
100
AcDbEntity
  8
LINEE VISIBILI 2D
100
AcDbSpline
210
0.0
220
0.0
230
1.0
 70
    24
 71
     2
 72
     6
 73
     3
 74
     0
 42
0.0000000001
 43
0.0000000001
 40
0.0
 40
0.0
 40
0.0
 40
13.00000000000091
 40
13.00000000000091
 40
13.00000000000091
 10
219.3691414428922
 20
1001.883391503728
 30
0.0
 10
219.3691414428922
 20
995.3833915037271
 30
0.0
 10
219.3691414428922
 20
988.8833915037267
 30
0.0
  0
SPLINE
  5
3D5
330
1F
100
AcDbEntity
  8
LINEE VISIBILI 2D
100
AcDbSpline
210
0.0
220
0.0
230
1.0
 70
    24
 71
     2
 72
     6
 73
     3
 74
     0
 42
0.0000000001
 43
0.0000000001
 40
0.0
 40
0.0
 40
0.0
 40
12.99994354828141
 40
12.99994354828141
 40
12.99994354828141
 10
520.9776978105947
 20
988.8834479554462
 30
0.0
 10
520.9776978105947
 20
995.3834197295869
 30
0.0
 10
520.9776978105947
 20
1001.883391503728
 30
0.0
  0
SPLINE
  5
3D6
330
1F
100
AcDbEntity
  8
LINEE VISIBILI 2D
100
AcDbSpline
210
0.0
220
0.0
230
1.0
 70
    24
 71
     2
 72
     6
 73
     3
 74
     0
 42
0.0000000001
 43
0.0000000001
 40
0.0
 40
0.0
 40
0.0
 40
13.0
 40
13.0
 40
13.0
 10
235.5217672571016
 20
988.8833915037276
 30
0.0
 10
235.5217672571016
 20
995.3833915037276
 30
0.0
 10
235.5217672571016
 20
1001.883391503728
 30
0.0
  0
SPLINE
  5
3D7
330
1F
100
AcDbEntity
  8
LINEE VISIBILI 2D
100
AcDbSpline
210
0.0
220
0.0
230
1.0
 70
    24
 71
     2
 72
     6
 73
     3
 74
     0
 42
0.0000000001
 43
0.0000000001
 40
0.0
 40
0.0
 40
0.0
 40
13.00000000000091
 40
13.00000000000091
 40
13.00000000000091
 10
276.2753419814771
 20
1001.883391503728
 30
0.0
 10
276.2753419814771
 20
995.3833915037271
 30
0.0
 10
276.2753419814771
 20
988.8833915037267
 30
0.0
  0
SPLINE
  5
3D8
330
1F
100
AcDbEntity
  8
LINEE VISIBILI 2D
100
AcDbSpline
210
0.0
220
0.0
230
1.0
 70
    24
 71
     2
 72
     6
 73
     3
 74
     0
 42
0.0000000001
 43
0.0000000001
 40
0.0
 40
0.0
 40
0.0
 40
0.3742711339480138
 40
0.3742711339480138
 40
0.3742711339480138
 10
262.8486428287493
 20
1001.883391503728
 30
0.0
 10
263.0357783957234
 20
1001.883391503728
 30
0.0
 10
263.2229139626974
 20
1001.883391503728
 30
0.0
  0
SPLINE
  5
3D9
330
1F
100
AcDbEntity
  8
LINEE VISIBILI 2D
100
AcDbSpline
210
0.0
220
0.0
230
1.0
 70
    24
 71
     2
 72
     6
 73
     3
 74
     0
 42
0.0000000001
 43
0.0000000001
 40
0.0
 40
0.0
 40
0.0
 40
13.00000000000091
 40
13.00000000000091
 40
13.00000000000091
 10
1323.235083496632
 20
1001.883391503728
 30
0.0
 10
1323.235083496632
 20
995.3833915037271
 30
0.0
 10
1323.235083496632
 20
988.8833915037267
 30
0.0
  0
SPLINE
  5
3DA
330
1F
100
AcDbEntity
  8
LINEE VISIBILI 2D
100
AcDbSpline
210
0.0
220
0.0
230
1.0
 70
    24
 71
     2
 72
     6
 73
     3
 74
     0
 42
0.0000000001
 43
0.0000000001
 40
0.0
 40
0.0
 40
0.0
 40
12.99996828609073
 40
12.99996828609073
 40
12.99996828609073
 10
1282.481508772256
 20
988.8834232176368
 30
0.0
 10
1282.481508772256
 20
995.3834073606822
 30
0.0
 10
1282.481508772256
 20
1001.883391503728
 30
0.0
  0
SPLINE
  5
3DB
330
1F
100
AcDbEntity
  8
LINEE VISIBILI 2D
100
AcDbSpline
210
0.0
220
0.0
230
1.0
 70
    24
 71
     2
 72
     6
 73
     3
 74
     0
 42
0.0000000001
 43
0.0000000001
 40
0.0
 40
0.0
 40
0.0
 40
12.99997707259342
 40
12.99997707259342
 40
12.99997707259342
 10
1125.780457595589
 20
1001.883391503728
 30
0.0
 10
1125.780457595589
 20
995.3834029674308
 30
0.0
 10
1125.780457595589
 20
988.8834144311342
 30
0.0
  0
SPLINE
  5
3DC
330
1F
100
AcDbEntity
  8
LINEE VISIBILI 2D
100
AcDbSpline
210
0.0
220
0.0
230
1.0
 70
    24
 71
     2
 72
     6
 73
     3
 74
     0
 42
0.0000000001
 43
0.0000000001
 40
0.0
 40
0.0
 40
0.0
 40
12.99996790010312
 40
12.99996790010312
 40
12.99996790010312
 10
1183.336967926042
 20
988.8834236036245
 30
0.0
 10
1183.336967926042
 20
995.3834075536761
 30
0.0
 10
1183.336967926042
 20
1001.883391503728
 30
0.0
  0
SPLINE
  5
3DD
330
1F
100
AcDbEntity
  8
LINEE VISIBILI 2D
100
AcDbSpline
210
0.0
220
0.0
230
1.0
 70
    24
 71
     2
 72
     6
 73
     3
 74
     0
 42
0.0000000001
 43
0.0000000001
 40
0.0
 40
0.0
 40
0.0
 40
12.99999009907424
 40
12.99999009907424
 40
12.99999009907424
 10
985.8782700913789
 20
988.8834014046533
 30
0.0
 10
985.8782700913789
 20
995.3833964541905
 30
0.0
 10
985.8782700913789
 20
1001.883391503728
 30
0.0
  0
SPLINE
  5
3DE
330
1F
100
AcDbEntity
  8
LINEE VISIBILI 2D
100
AcDbSpline
210
0.0
220
0.0
230
1.0
 70
    24
 71
     2
 72
     6
 73
     3
 74
     0
 42
0.0000000001
 43
0.0000000001
 40
0.0
 40
0.0
 40
0.0
 40
13.00000000000091
 40
13.00000000000091
 40
13.00000000000091
 10
1421.795860496421
 20
1001.883391503728
 30
0.0
 10
1421.795860496421
 20
995.3833915037271
 30
0.0
 10
1421.795860496421
 20
988.8833915037267
 30
0.0
  0
SPLINE
  5
3DF
330
1F
100
AcDbEntity
  8
LINEE VISIBILI 2D
100
AcDbSpline
210
0.0
220
0.0
230
1.0
 70
    24
 71
     2
 72
     6
 73
     3
 74
     0
 42
0.0000000001
 43
0.0000000001
 40
0.0
 40
0.0
 40
0.0
 40
12.99999009907526
 40
12.99999009907526
 40
12.99999009907526
 10
1381.042285772045
 20
988.8834014046523
 30
0.0
 10
1381.042285772045
 20
995.38339645419
 30
0.0
 10
1381.042285772045
 20
1001.883391503728
 30
0.0
  0
SPLINE
  5
3E0
330
1F
100
AcDbEntity
  8
LINEE VISIBILI 2D
100
AcDbSpline
210
0.0
220
0.0
230
1.0
 70
    24
 71
     2
 72
     6
 73
     3
 74
     0
 42
0.0000000001
 43
0.0000000001
 40
0.0
 40
0.0
 40
0.0
 40
12.99997534992156
 40
12.99997534992156
 40
12.99997534992156
 10
1084.789782894146
 20
988.883416153806
 30
0.0
 10
1084.789782894146
 20
995.3834038287669
 30
0.0
 10
1084.789782894146
 20
1001.883391503728
 30
0.0
  0
SPLINE
  5
3E1
330
1F
100
AcDbEntity
  8
LINEE VISIBILI 2D
100
AcDbSpline
210
0.0
220
0.0
230
1.0
 70
    24
 71
     2
 72
     6
 73
     3
 74
     0
 42
0.0000000001
 43
0.0000000001
 40
0.0
 40
0.0
 40
0.0
 40
0.143227849870982
 40
0.143227849870982
 40
0.143227849870982
 10
999.9232843772425
 20
1011.683391503277
 30
0.0
 10
999.851670452307
 20
1011.683391503277
 30
0.0
 10
999.7800565273715
 20
1011.683391503277
 30
0.0
  0
SPLINE
  5
3E2
330
1F
100
AcDbEntity
  8
LINEE VISIBILI 2D
100
AcDbSpline
210
0.0
220
0.0
230
1.0
 70
    24
 71
     2
 72
     6
 73
     3
 74
     0
 42
0.0000000001
 43
0.0000000001
 40
0.0
 40
0.0
 40
0.0
 40
0.1756732783582038
 40
0.1756732783582038
 40
0.1756732783582038
 10
1001.946314472482
 20
1011.683391503277
 30
0.0
 10
1001.858477833303
 20
1011.683391503277
 30
0.0
 10
1001.770641194124
 20
1011.683391503277
 30
0.0
  0
SPLINE
  5
3E3
330
1F
100
AcDbEntity
  8
LINEE VISIBILI 2D
100
AcDbSpline
210
0.0
220
0.0
230
1.0
 70
    24
 71
     2
 72
     6
 73
     3
 74
     0
 42
0.0000000001
 43
0.0000000001
 40
0.0
 40
0.0
 40
0.0
 40
0.0795602877961983
 40
0.0795602877961983
 40
0.0795602877961983
 10
1002.846387576734
 20
1011.683391503277
 30
0.0
 10
1002.806607432836
 20
1011.683391503277
 30
0.0
 10
1002.766827288938
 20
1011.683391503277
 30
0.0
  0
SPLINE
  5
3E4
330
1F
100
AcDbEntity
  8
LINEE VISIBILI 2D
100
AcDbSpline
210
0.0
220
0.0
230
1.0
 70
    24
 71
     2
 72
     6
 73
     3
 74
     0
 42
0.0000000001
 43
0.0000000001
 40
0.0
 40
0.0
 40
0.0
 40
1.654461574006405
 40
1.654461574006405
 40
1.654461574006405
 10
1004.500849150741
 20
1011.683391503277
 30
0.0
 10
1003.673618363737
 20
1011.683391503277
 30
0.0
 10
1002.846387576734
 20
1011.683391503277
 30
0.0
  0
SPLINE
  5
3E5
330
1F
100
AcDbEntity
  8
LINEE VISIBILI 2D
100
AcDbSpline
210
0.0
220
0.0
230
1.0
 70
    24
 71
     2
 72
     6
 73
     3
 74
     0
 42
0.0000000001
 43
0.0000000001
 40
0.0
 40
0.0
 40
0.0
 40
2.199099224997553
 40
2.199099224997553
 40
2.199099224997553
 10
1016.984418113158
 20
1006.783391503276
 30
0.0
 10
1018.083967725656
 20
1006.783391503276
 30
0.0
 10
1019.183517338155
 20
1006.783391503276
 30
0.0
  0
SPLINE
  5
3E6
330
1F
100
AcDbEntity
  8
LINEE VISIBILI 2D
100
AcDbSpline
210
0.0
220
0.0
230
1.0
 70
    28
 71
     2
 72
     6
 73
     3
 74
     0
 42
0.0000000001
 43
0.0000000001
 40
112.0272395914182
 40
112.0272395914182
 40
112.0272395914182
 40
115.4307139443668
 40
115.4307139443668
 40
115.4307139443668
 10
1084.794070977294
 20
1001.883391503728
 30
0.0
 41
0.8535533905932741
 10
1084.75724851668
 20
1001.883391503728
 30
0.0
 41
0.8535533905932741
 10
1085.034725783501
 20
1001.883391503728
 30
0.0
 41
0.8601766703002268
  0
SPLINE
  5
3E7
330
1F
100
AcDbEntity
  8
LINEE VISIBILI 2D
100
AcDbSpline
210
0.0
220
0.0
230
1.0
 70
    15
 71
     2
 72
    16
 73
    13
 74
     0
 42
0.0000000001
 43
0.0000000001
 40
-2.309401076758424
 40
-2.309401076758424
 40
-2.309401076758424
 40
0.0
 40
0.0
 40
2.309401076758424
 40
2.309401076758424
 40
4.618802153517198
 40
4.618802153517198
 40
6.928203230275646
 40
6.928203230275646
 40
9.237604307034095
 40
9.237604307034095
 40
11.54700538379287
 40
11.54700538379287
 40
11.54700538379287
 10
1017.534192919406
 20
1004.783391503276
 30
0.0
 41
1.0
 10
1017.259305516282
 20
1005.783391503276
 30
0.0
 41
1.0
 10
1016.984418113158
 20
1006.783391503276
 30
0.0
 41
1.0
 10
1017.259305516282
 20
1007.783391503276
 30
0.0
 41
1.0
 10
1017.534192919406
 20
1008.783391503276
 30
0.0
 41
1.0
 10
1018.083967725656
 20
1008.783391503276
 30
0.0
 41
1.0
 10
1018.633742531906
 20
1008.783391503276
 30
0.0
 41
1.0
 10
1018.908629935031
 20
1007.783391503276
 30
0.0
 41
1.0
 10
1019.183517338155
 20
1006.783391503276
 30
0.0
 41
1.0
 10
1018.908629935031
 20
1005.783391503276
 30
0.0
 41
1.0
 10
1018.633742531906
 20
1004.783391503276
 30
0.0
 41
1.0
 10
1018.083967725656
 20
1004.783391503276
 30
0.0
 41
1.0
 10
1017.534192919406
 20
1004.783391503276
 30
0.0
 41
1.0
  0
SPLINE
  5
3E8
330
1F
100
AcDbEntity
  8
LINEE VISIBILI 2D
100
AcDbSpline
210
0.0
220
0.0
230
1.0
 70
    12
 71
     2
 72
     8
 73
     5
 74
     0
 42
0.0000000001
 43
0.0000000001
 40
0.0
 40
0.0
 40
0.0
 40
10.23872787923123
 40
10.23872787923123
 40
31.76887669512051
 40
31.76887669512051
 40
31.76887669512051
 10
1000.969094386919
 20
561.6494656928094
 30
0.0
 41
1.0
 10
995.9182637776071
 20
560.2927812448731
 30
0.0
 41
0.968606117440245
 10
992.1451061264471
 20
556.6713500533797
 30
0.0
 41
1.0
 10
983.5649947889164
 20
548.4362627082547
 30
0.0
 41
0.8636647935480832
 10
986.5152074800632
 20
536.9153591315707
 30
0.0
 41
1.0
  0
SPLINE
  5
3E9
330
1F
100
AcDbEntity
  8
LINEE VISIBILI 2D
100
AcDbSpline
210
0.0
220
0.0
230
1.0
 70
    12
 71
     2
 72
     6
 73
     3
 74
     0
 42
0.0000000001
 43
0.0000000001
 40
0.0
 40
0.0
 40
0.0
 40
22.92473432295846
 40
22.92473432295846
 40
22.92473432295846
 10
1209.731210345577
 20
226.4500797890957
 30
0.0
 41
1.0
 10
1221.583868286205
 20
223.8528999338007
 30
0.0
 41
0.9190182392715845
 10
1227.870721666591
 20
213.4747344874505
 30
0.0
 41
1.0
  0
SPLINE
  5
3EA
330
1F
100
AcDbEntity
  8
LINEE VISIBILI 2D
100
AcDbSpline
210
0.0
220
0.0
230
1.0
 70
    12
 71
     3
 72
     8
 73
     4
 74
     0
 42
0.0000000001
 43
0.0000000001
 40
44.7931927262563
 40
44.7931927262563
 40
44.7931927262563
 40
44.7931927262563
 40
45.03162587769037
 40
45.03162587769037
 40
45.03162587769037
 40
45.03162587769037
 10
1179.582304111638
 20
556.0419268057183
 30
0.0
 41
1.0
 10
1179.53912957607
 20
555.9709962019956
 30
0.0
 41
1.0
 10
1179.4963046281
 20
555.8999507844004
 30
0.0
 41
1.0
 10
1179.453828779101
 20
555.82879256168
 30
0.0
 41
1.0
  0
ENDSEC
  0
SECTION
  2
OBJECTS
  0
DICTIONARY
  5
C
330
0
100
AcDbDictionary
281
     1
  3
ACAD_GROUP
350
D
  3
ACAD_LAYOUT
350
1A
  3
ACAD_MLEADERSTYLE
350
3EC
  3
ACAD_MLINESTYLE
350
17
  3
ACAD_PLOTSETTINGS
350
19
  3
ACAD_PLOTSTYLENAME
350
E
  3
ACAD_SCALELIST
350
3B
  3
ACAD_TABLESTYLE
350
3EB
  3
ACAD_VISUALSTYLE
350
2A
  0
DICTIONARY
  5
D
102
{ACAD_REACTORS
330
C
102
}
330
C
100
AcDbDictionary
281
     1
  0
DICTIONARY
  5
1A
102
{ACAD_REACTORS
330
C
102
}
330
C
100
AcDbDictionary
281
     1
  3
Layout1
350
1E
  3
Layout2
350
26
  3
Model
350
22
  0
DICTIONARY
  5
3EC
102
{ACAD_REACTORS
330
C
102
}
330
C
100
AcDbDictionary
281
     1
  0
DICTIONARY
  5
17
102
{ACAD_REACTORS
330
C
102
}
330
C
100
AcDbDictionary
281
     1
  3
Standard
350
18
  0
DICTIONARY
  5
19
102
{ACAD_REACTORS
330
C
102
}
330
C
100
AcDbDictionary
281
     1
  0
ACDBDICTIONARYWDFLT
  5
E
102
{ACAD_REACTORS
330
C
102
}
330
C
100
AcDbDictionary
281
     1
  3
Normal
350
F
100
AcDbDictionaryWithDefault
340
F
  0
DICTIONARY
  5
3B
102
{ACAD_REACTORS
330
C
102
}
330
C
100
AcDbDictionary
281
     1
  3
A0
350
3C
  3
A1
350
3D
  3
A2
350
3E
  3
A3
350
3F
  3
A4
350
40
  3
A5
350
41
  3
A6
350
42
  3
A7
350
43
  3
A8
350
44
  3
A9
350
45
  3
B0
350
46
  3
B1
350
47
  3
B2
350
48
  3
B3
350
49
  3
B4
350
4A
  3
B5
350
4B
  3
B6
350
4C
  3
B7
350
4D
  3
B8
350
4E
  3
B9
350
4F
  3
C0
350
50
  3
C1
350
51
  3
C2
350
52
  3
C3
350
53
  3
C4
350
54
  3
C5
350
55
  3
C6
350
56
  3
C7
350
57
  3
C8
350
58
  3
C9
350
59
  3
D0
350
5A
  3
D1
350
5B
  3
D2
350
5C
  0
DICTIONARY
  5
3EB
102
{ACAD_REACTORS
330
C
102
}
330
C
100
AcDbDictionary
281
     1
  0
DICTIONARY
  5
2A
102
{ACAD_REACTORS
330
C
102
}
330
C
100
AcDbDictionary
281
     1
  3
2dWireframe
350
2F
  3
3D Hidden
350
31
  3
3dWireframe
350
30
  3
Basic
350
32
  3
Brighten
350
36
  3
ColorChange
350
3A
  3
Conceptual
350
34
  3
Dim
350
35
  3
Facepattern
350
39
  3
Flat
350
2B
  3
FlatWithEdges
350
2C
  3
Gouraud
350
2D
  3
GouraudWithEdges
350
2E
  3
Linepattern
350
38
  3
Realistic
350
33
  3
Thicken
350
37
  0
LAYOUT
  5
1E
102
{ACAD_REACTORS
330
1A
102
}
330
1A
100
AcDbPlotSettings
  1

  2
none_device
  4

  6

 40
0.0
 41
0.0
 42
0.0
 43
0.0
 44
0.0
 45
0.0
 46
0.0
 47
0.0
 48
0.0
 49
0.0
140
0.0
141
0.0
142
1.0
143
1.0
 70
   688
 72
     0
 73
     0
 74
     5
  7

 75
    16
 76
     0
 77
     2
 78
   300
147
1.0
148
0.0
149
0.0
100
AcDbLayout
  1
Layout1
 70
     1
 71
     1
 10
0.0
 20
0.0
 11
12.0
 21
9.0
 12
0.0
 22
0.0
 32
0.0
 14
1.000000000000000E+20
 24
1.000000000000000E+20
 34
1.000000000000000E+20
 15
-1.000000000000000E+20
 25
-1.000000000000000E+20
 35
-1.000000000000000E+20
146
0.0
 13
0.0
 23
0.0
 33
0.0
 16
1.0
 26
0.0
 36
0.0
 17
0.0
 27
1.0
 37
0.0
 76
     0
330
1B
  0
LAYOUT
  5
26
102
{ACAD_REACTORS
330
1A
102
}
330
1A
100
AcDbPlotSettings
  1

  2
none_device
  4

  6

 40
0.0
 41
0.0
 42
0.0
 43
0.0
 44
0.0
 45
0.0
 46
0.0
 47
0.0
 48
0.0
 49
0.0
140
0.0
141
0.0
142
1.0
143
1.0
 70
   688
 72
     0
 73
     0
 74
     5
  7

 75
    16
 76
     0
 77
     2
 78
   300
147
1.0
148
0.0
149
0.0
100
AcDbLayout
  1
Layout2
 70
     1
 71
     2
 10
0.0
 20
0.0
 11
0.0
 21
0.0
 12
0.0
 22
0.0
 32
0.0
 14
0.0
 24
0.0
 34
0.0
 15
0.0
 25
0.0
 35
0.0
146
0.0
 13
0.0
 23
0.0
 33
0.0
 16
1.0
 26
0.0
 36
0.0
 17
0.0
 27
1.0
 37
0.0
 76
     0
330
23
  0
LAYOUT
  5
22
102
{ACAD_REACTORS
330
1A
102
}
330
1A
100
AcDbPlotSettings
  1

  2
none_device
  4

  6

 40
0.0
 41
0.0
 42
0.0
 43
0.0
 44
0.0
 45
0.0
 46
0.0
 47
0.0
 48
0.0
 49
0.0
140
0.0
141
0.0
142
1.0
143
1.0
 70
  1712
 72
     0
 73
     0
 74
     0
  7

 75
     0
 76
     0
 77
     2
 78
   300
147
1.0
148
0.0
149
0.0
100
AcDbLayout
  1
Model
 70
     1
 71
     0
 10
0.0
 20
0.0
 11
12.0
 21
9.0
 12
0.0
 22
0.0
 32
0.0
 14
-0.0113938432341456
 24
0.0317261074373291
 34
0.0
 15
1429.651626071383
 25
1509.283391503276
 35
0.0
146
0.0
 13
0.0
 23
0.0
 33
0.0
 16
1.0
 26
0.0
 36
0.0
 17
0.0
 27
1.0
 37
0.0
 76
     0
330
1F
331
29
  0
MLINESTYLE
  5
18
102
{ACAD_REACTORS
330
17
102
}
330
17
100
AcDbMlineStyle
  2
Standard
 70
     0
  3

 62
   256
 51
90.0
 52
90.0
 71
     2
 49
0.5
 62
   256
  6
BYLAYER
 49
-0.5
 62
   256
  6
BYLAYER
  0
ACDBPLACEHOLDER
  5
F
102
{ACAD_REACTORS
330
E
102
}
330
E
  0
SCALE
  5
3C
102
{ACAD_REACTORS
330
3B
102
}
330
3B
100
AcDbScale
 70
     0
300
1:1
140
1.0
141
1.0
290
     1
  0
SCALE
  5
3D
102
{ACAD_REACTORS
330
3B
102
}
330
3B
100
AcDbScale
 70
     0
300
1:2
140
1.0
141
2.0
290
     0
  0
SCALE
  5
3E
102
{ACAD_REACTORS
330
3B
102
}
330
3B
100
AcDbScale
 70
     0
300
1:4
140
1.0
141
4.0
290
     0
  0
SCALE
  5
3F
102
{ACAD_REACTORS
330
3B
102
}
330
3B
100
AcDbScale
 70
     0
300
1:5
140
1.0
141
5.0
290
     0
  0
SCALE
  5
40
102
{ACAD_REACTORS
330
3B
102
}
330
3B
100
AcDbScale
 70
     0
300
1:8
140
1.0
141
8.0
290
     0
  0
SCALE
  5
41
102
{ACAD_REACTORS
330
3B
102
}
330
3B
100
AcDbScale
 70
     0
300
1:10
140
1.0
141
10.0
290
     0
  0
SCALE
  5
42
102
{ACAD_REACTORS
330
3B
102
}
330
3B
100
AcDbScale
 70
     0
300
1:16
140
1.0
141
16.0
290
     0
  0
SCALE
  5
43
102
{ACAD_REACTORS
330
3B
102
}
330
3B
100
AcDbScale
 70
     0
300
1:20
140
1.0
141
20.0
290
     0
  0
SCALE
  5
44
102
{ACAD_REACTORS
330
3B
102
}
330
3B
100
AcDbScale
 70
     0
300
1:30
140
1.0
141
30.0
290
     0
  0
SCALE
  5
45
102
{ACAD_REACTORS
330
3B
102
}
330
3B
100
AcDbScale
 70
     0
300
1:40
140
1.0
141
40.0
290
     0
  0
SCALE
  5
46
102
{ACAD_REACTORS
330
3B
102
}
330
3B
100
AcDbScale
 70
     0
300
1:50
140
1.0
141
50.0
290
     0
  0
SCALE
  5
47
102
{ACAD_REACTORS
330
3B
102
}
330
3B
100
AcDbScale
 70
     0
300
1:100
140
1.0
141
100.0
290
     0
  0
SCALE
  5
48
102
{ACAD_REACTORS
330
3B
102
}
330
3B
100
AcDbScale
 70
     0
300
2:1
140
2.0
141
1.0
290
     0
  0
SCALE
  5
49
102
{ACAD_REACTORS
330
3B
102
}
330
3B
100
AcDbScale
 70
     0
300
4:1
140
4.0
141
1.0
290
     0
  0
SCALE
  5
4A
102
{ACAD_REACTORS
330
3B
102
}
330
3B
100
AcDbScale
 70
     0
300
8:1
140
8.0
141
1.0
290
     0
  0
SCALE
  5
4B
102
{ACAD_REACTORS
330
3B
102
}
330
3B
100
AcDbScale
 70
     0
300
10:1
140
10.0
141
1.0
290
     0
  0
SCALE
  5
4C
102
{ACAD_REACTORS
330
3B
102
}
330
3B
100
AcDbScale
 70
     0
300
100:1
140
100.0
141
1.0
290
     0
  0
SCALE
  5
4D
102
{ACAD_REACTORS
330
3B
102
}
330
3B
100
AcDbScale
 70
     0
300
1/128" = 1'-0"
140
0.0078125
141
12.0
290
     0
  0
SCALE
  5
4E
102
{ACAD_REACTORS
330
3B
102
}
330
3B
100
AcDbScale
 70
     0
300
1/64" = 1'-0"
140
0.015625
141
12.0
290
     0
  0
SCALE
  5
4F
102
{ACAD_REACTORS
330
3B
102
}
330
3B
100
AcDbScale
 70
     0
300
1/32" = 1'-0"
140
0.03125
141
12.0
290
     0
  0
SCALE
  5
50
102
{ACAD_REACTORS
330
3B
102
}
330
3B
100
AcDbScale
 70
     0
300
1/16" = 1'-0"
140
0.0625
141
12.0
290
     0
  0
SCALE
  5
51
102
{ACAD_REACTORS
330
3B
102
}
330
3B
100
AcDbScale
 70
     0
300
3/32" = 1'-0"
140
0.09375
141
12.0
290
     0
  0
SCALE
  5
52
102
{ACAD_REACTORS
330
3B
102
}
330
3B
100
AcDbScale
 70
     0
300
1/8" = 1'-0"
140
0.125
141
12.0
290
     0
  0
SCALE
  5
53
102
{ACAD_REACTORS
330
3B
102
}
330
3B
100
AcDbScale
 70
     0
300
3/16" = 1'-0"
140
0.1875
141
12.0
290
     0
  0
SCALE
  5
54
102
{ACAD_REACTORS
330
3B
102
}
330
3B
100
AcDbScale
 70
     0
300
1/4" = 1'-0"
140
0.25
141
12.0
290
     0
  0
SCALE
  5
55
102
{ACAD_REACTORS
330
3B
102
}
330
3B
100
AcDbScale
 70
     0
300
3/8" = 1'-0"
140
0.375
141
12.0
290
     0
  0
SCALE
  5
56
102
{ACAD_REACTORS
330
3B
102
}
330
3B
100
AcDbScale
 70
     0
300
1/2" = 1'-0"
140
0.5
141
12.0
290
     0
  0
SCALE
  5
57
102
{ACAD_REACTORS
330
3B
102
}
330
3B
100
AcDbScale
 70
     0
300
3/4" = 1'-0"
140
0.75
141
12.0
290
     0
  0
SCALE
  5
58
102
{ACAD_REACTORS
330
3B
102
}
330
3B
100
AcDbScale
 70
     0
300
1" = 1'-0"
140
1.0
141
12.0
290
     0
  0
SCALE
  5
59
102
{ACAD_REACTORS
330
3B
102
}
330
3B
100
AcDbScale
 70
     0
300
1-1/2" = 1'-0"
140
1.5
141
12.0
290
     0
  0
SCALE
  5
5A
102
{ACAD_REACTORS
330
3B
102
}
330
3B
100
AcDbScale
 70
     0
300
3" = 1'-0"
140
3.0
141
12.0
290
     0
  0
SCALE
  5
5B
102
{ACAD_REACTORS
330
3B
102
}
330
3B
100
AcDbScale
 70
     0
300
6" = 1'-0"
140
6.0
141
12.0
290
     0
  0
SCALE
  5
5C
102
{ACAD_REACTORS
330
3B
102
}
330
3B
100
AcDbScale
 70
     0
300
1'-0" = 1'-0"
140
12.0
141
12.0
290
     0
  0
VISUALSTYLE
  5
2F
102
{ACAD_REACTORS
330
2A
102
}
330
2A
100
AcDbVisualStyle
  2
2dWireframe
 70
     4
 71
     0
 72
     2
 73
     0
 90
        0
 40
-0.6
 41
-30.0
 62
     5
 63
     7
421
 16777215
 74
     1
 91
        4
 64
     7
 65
   257
 75
     1
175
     1
 42
1.0
 92
        0
 66
   257
 43
1.0
 76
     1
 77
     6
 78
     2
 67
     7
 79
     5
170
     0
171
     0
290
     0
174
     0
 93
        1
 44
0.0
173
     0
291
     0
 45
0.0
1001
ACAD
1000
AcDbSavedByObjectVersion
1070
     0
  0
VISUALSTYLE
  5
31
102
{ACAD_REACTORS
330
2A
102
}
330
2A
100
AcDbVisualStyle
  2
3D Hidden
 70
     6
 71
     1
 72
     2
 73
     2
 90
        0
 40
-0.6
 41
-30.0
 62
     5
 63
     7
421
 16777215
 74
     2
 91
        2
 64
     7
 65
   257
 75
     2
175
     1
 42
40.0
 92
        0
 66
   257
 43
1.0
 76
     1
 77
     6
 78
     2
 67
     7
 79
     3
170
     0
171
     0
290
     0
174
     0
 93
        1
 44
0.0
173
     0
291
     0
 45
0.0
1001
ACAD
1000
AcDbSavedByObjectVersion
1070
     0
  0
VISUALSTYLE
  5
30
102
{ACAD_REACTORS
330
2A
102
}
330
2A
100
AcDbVisualStyle
  2
3dWireframe
 70
     5
 71
     0
 72
     2
 73
     0
 90
        0
 40
-0.6
 41
-30.0
 62
     5
 63
     7
421
 16777215
 74
     1
 91
        4
 64
     7
 65
   257
 75
     1
175
     1
 42
1.0
 92
        0
 66
   257
 43
1.0
 76
     1
 77
     6
 78
     2
 67
     7
 79
     5
170
     0
171
     0
290
     0
174
     0
 93
        1
 44
0.0
173
     0
291
     0
 45
0.0
1001
ACAD
1000
AcDbSavedByObjectVersion
1070
     0
  0
VISUALSTYLE
  5
32
102
{ACAD_REACTORS
330
2A
102
}
330
2A
100
AcDbVisualStyle
  2
Basic
 70
     7
 71
     1
 72
     0
 73
     1
 90
        0
 40
-0.6
 41
-30.0
 62
     5
 63
     7
421
 16777215
 74
     0
 91
        4
 64
     7
 65
   257
 75
     1
175
     1
 42
1.0
 92
        8
 66
     7
 43
1.0
 76
     1
 77
     6
 78
     2
 67
     7
 79
     5
170
     0
171
     0
290
     0
174
     0
 93
        1
 44
0.0
173
     0
291
     1
 45
0.0
1001
ACAD
1000
AcDbSavedByObjectVersion
1070
     0
  0
VISUALSTYLE
  5
36
102
{ACAD_REACTORS
330
2A
102
}
330
2A
100
AcDbVisualStyle
  2
Brighten
 70
    12
 71
     2
 72
     2
 73
     0
 90
        0
 40
-0.6
 41
-30.0
 62
     5
 63
     7
421
 16777215
 74
     1
 91
        4
 64
     7
 65
   257
 75
     1
175
     1
 42
1.0
 92
        8
 66
     7
 43
1.0
 76
     1
 77
     6
 78
     2
 67
     7
 79
     5
170
     0
171
     0
290
     0
174
     0
 93
        1
 44
50.0
173
     0
291
     1
 45
0.0
1001
ACAD
1000
AcDbSavedByObjectVersion
1070
     0
  0
VISUALSTYLE
  5
3A
102
{ACAD_REACTORS
330
2A
102
}
330
2A
100
AcDbVisualStyle
  2
ColorChange
 70
    16
 71
     2
 72
     2
 73
     3
 90
        0
 40
-0.6
 41
-30.0
 62
     5
 63
     8
421
  8421504
 74
     1
 91
        4
 64
     7
 65
   257
 75
     1
175
     1
 42
1.0
 92
        8
 66
     8
424
  8421504
 43
1.0
 76
     1
 77
     6
 78
     2
 67
     7
 79
     5
170
     0
171
     0
290
     0
174
     0
 93
        1
 44
0.0
173
     0
291
     1
 45
0.0
1001
ACAD
1000
AcDbSavedByObjectVersion
1070
     0
  0
VISUALSTYLE
  5
34
102
{ACAD_REACTORS
330
2A
102
}
330
2A
100
AcDbVisualStyle
  2
Conceptual
 70
     9
 71
     3
 72
     2
 73
     0
 90
        0
 40
-0.6
 41
-30.0
 62
     5
 63
     7
421
 16777215
 74
     2
 91
        2
 64
     7
 65
   257
 75
     1
175
     1
 42
40.0
 92
        8
 66
     7
 43
1.0
 76
     1
 77
     6
 78
     2
 67
     7
 79
     3
170
     0
171
     0
290
     0
174
     0
 93
        1
 44
0.0
173
     0
291
     0
 45
0.0
1001
ACAD
1000
AcDbSavedByObjectVersion
1070
     0
  0
VISUALSTYLE
  5
35
102
{ACAD_REACTORS
330
2A
102
}
330
2A
100
AcDbVisualStyle
  2
Dim
 70
    11
 71
     2
 72
     2
 73
     0
 90
        0
 40
-0.6
 41
-30.0
 62
     5
 63
     7
421
 16777215
 74
     1
 91
        4
 64
     7
 65
   257
 75
     1
175
     1
 42
1.0
 92
        8
 66
     7
 43
1.0
 76
     1
 77
     6
 78
     2
 67
     7
 79
     5
170
     0
171
     0
290
     0
174
     0
 93
        1
 44
-50.0
173
     0
291
     1
 45
0.0
1001
ACAD
1000
AcDbSavedByObjectVersion
1070
     0
  0
VISUALSTYLE
  5
39
102
{ACAD_REACTORS
330
2A
102
}
330
2A
100
AcDbVisualStyle
  2
Facepattern
 70
    15
 71
     2
 72
     2
 73
     0
 90
        0
 40
-0.6
 41
-30.0
 62
     5
 63
     7
421
 16777215
 74
     1
 91
        4
 64
     7
 65
   257
 75
     1
175
     1
 42
1.0
 92
        8
 66
     7
 43
1.0
 76
     1
 77
     6
 78
     2
 67
     7
 79
     5
170
     0
171
     0
290
     0
174
     0
 93
        1
 44
0.0
173
     0
291
     1
 45
0.0
1001
ACAD
1000
AcDbSavedByObjectVersion
1070
     0
  0
VISUALSTYLE
  5
2B
102
{ACAD_REACTORS
330
2A
102
}
330
2A
100
AcDbVisualStyle
  2
Flat
 70
     0
 71
     2
 72
     1
 73
     1
 90
        2
 40
-0.6
 41
30.0
 62
     5
 63
     7
421
 16777215
 74
     0
 91
        4
 64
     7
 65
   257
 75
     1
175
     1
 42
1.0
 92
        8
 66
     7
 43
1.0
 76
     1
 77
     6
 78
     2
 67
     7
 79
     5
170
     0
171
     0
290
     0
174
     0
 93
       13
 44
0.0
173
     0
291
     1
 45
0.0
1001
ACAD
1000
AcDbSavedByObjectVersion
1070
     0
  0
VISUALSTYLE
  5
2C
102
{ACAD_REACTORS
330
2A
102
}
330
2A
100
AcDbVisualStyle
  2
FlatWithEdges
 70
     1
 71
     2
 72
     1
 73
     1
 90
        2
 40
-0.6
 41
30.0
 62
     5
 63
     7
421
 16777215
 74
     1
 91
        4
 64
     7
 65
   257
 75
     1
175
     1
 42
1.0
 92
        0
 66
   257
 43
1.0
 76
     1
 77
     6
 78
     2
 67
     7
 79
     5
170
     0
171
     0
290
     0
174
     0
 93
       13
 44
0.0
173
     0
291
     1
 45
0.0
1001
ACAD
1000
AcDbSavedByObjectVersion
1070
     0
  0
VISUALSTYLE
  5
2D
102
{ACAD_REACTORS
330
2A
102
}
330
2A
100
AcDbVisualStyle
  2
Gouraud
 70
     2
 71
     2
 72
     2
 73
     1
 90
        2
 40
-0.6
 41
30.0
 62
     5
 63
     7
421
 16777215
 74
     0
 91
        4
 64
     7
 65
   257
 75
     1
175
     1
 42
1.0
 92
        0
 66
     7
 43
1.0
 76
     1
 77
     6
 78
     2
 67
     7
 79
     5
170
     0
171
     0
290
     0
174
     0
 93
       13
 44
0.0
173
     0
291
     1
 45
0.0
1001
ACAD
1000
AcDbSavedByObjectVersion
1070
     0
  0
VISUALSTYLE
  5
2E
102
{ACAD_REACTORS
330
2A
102
}
330
2A
100
AcDbVisualStyle
  2
GouraudWithEdges
 70
     3
 71
     2
 72
     2
 73
     1
 90
        2
 40
-0.6
 41
30.0
 62
     5
 63
     7
421
 16777215
 74
     1
 91
        4
 64
     7
 65
   257
 75
     1
175
     1
 42
1.0
 92
        0
 66
   257
 43
1.0
 76
     1
 77
     6
 78
     2
 67
     7
 79
     5
170
     0
171
     0
290
     0
174
     0
 93
       13
 44
0.0
173
     0
291
     1
 45
0.0
1001
ACAD
1000
AcDbSavedByObjectVersion
1070
     0
  0
VISUALSTYLE
  5
38
102
{ACAD_REACTORS
330
2A
102
}
330
2A
100
AcDbVisualStyle
  2
Linepattern
 70
    14
 71
     2
 72
     2
 73
     0
 90
        0
 40
-0.6
 41
-30.0
 62
     5
 63
     7
421
 16777215
 74
     1
 91
        4
 64
     7
 65
   257
 75
     7
175
     7
 42
1.0
 92
        8
 66
     7
 43
1.0
 76
     1
 77
     6
 78
     2
 67
     7
 79
     5
170
     0
171
     0
290
     0
174
     0
 93
        1
 44
0.0
173
     0
291
     1
 45
0.0
1001
ACAD
1000
AcDbSavedByObjectVersion
1070
     0
  0
VISUALSTYLE
  5
33
102
{ACAD_REACTORS
330
2A
102
}
330
2A
100
AcDbVisualStyle
  2
Realistic
 70
     8
 71
     2
 72
     2
 73
     0
 90
        0
 40
-0.6
 41
-30.0
 62
     5
 63
     7
421
 16777215
 74
     1
 91
        0
 64
     7
 65
   257
 75
     1
175
     1
 42
1.0
 92
        8
 66
     8
424
  7895160
 43
1.0
 76
     1
 77
     6
 78
     2
 67
     7
 79
     5
170
     0
171
     0
290
     0
174
     0
 93
       13
 44
0.0
173
     0
291
     0
 45
0.0
1001
ACAD
1000
AcDbSavedByObjectVersion
1070
     0
  0
VISUALSTYLE
  5
37
102
{ACAD_REACTORS
330
2A
102
}
330
2A
100
AcDbVisualStyle
  2
Thicken
 70
    13
 71
     2
 72
     2
 73
     0
 90
        0
 40
-0.6
 41
-30.0
 62
     5
 63
     7
421
 16777215
 74
     1
 91
        4
 64
     7
 65
   257
 75
     1
175
     1
 42
1.0
 92
       12
 66
     7
 43
1.0
 76
     1
 77
     6
 78
     2
 67
     7
 79
     5
170
     0
171
     0
290
     0
174
     0
 93
        1
 44
0.0
173
     0
291
     1
 45
0.0
1001
ACAD
1000
AcDbSavedByObjectVersion
1070
     0
  0
ENDSEC
  0
EOF
