  0
SECTION
  2
HEADER
  9
$ACADVER
  1
AC1018
  9
$ACADMAINTVER
 70
     0
  9
$DWGCODEPAGE
  3
ANSI_1252
  9
$INSBASE
 10
0.0
 20
0.0
 30
0.0
  9
$EXTMIN
 10
0.0
 20
0.0
 30
0.0
  9
$EXTMAX
 10
1624.476696157423
 20
2819.815625625411
 30
0.0
  9
$LIMMIN
 10
0.0
 20
0.0
  9
$LIMMAX
 10
12.0
 20
9.0
  9
$ORTHOMODE
 70
     0
  9
$REGENMODE
 70
     1
  9
$FILLMODE
 70
     1
  9
$QTEXTMODE
 70
     0
  9
$MIRRTEXT
 70
     1
  9
$LTSCALE
 40
1.0
  9
$ATTMODE
 70
     1
  9
$TEXTSIZE
 40
0.2
  9
$TRACEWID
 40
0.05
  9
$TEXTSTYLE
  7
Standard
  9
$CLAYER
  8
Predefinito
  9
$CELTYPE
  6
ByLayer
  9
$CECOLOR
 62
   256
  9
$CELTSCALE
 40
1.0
  9
$DISPSILH
 70
     0
  9
$DIMSCALE
 40
1.0
  9
$DIMASZ
 40
0.18
  9
$DIMEXO
 40
0.0625
  9
$DIMDLI
 40
0.38
  9
$DIMRND
 40
0.0
  9
$DIMDLE
 40
0.0
  9
$DIMEXE
 40
0.18
  9
$DIMTP
 40
0.0
  9
$DIMTM
 40
0.0
  9
$DIMTXT
 40
0.18
  9
$DIMCEN
 40
0.09
  9
$DIMTSZ
 40
0.0
  9
$DIMTOL
 70
     0
  9
$DIMLIM
 70
     0
  9
$DIMTIH
 70
     1
  9
$DIMTOH
 70
     1
  9
$DIMSE1
 70
     0
  9
$DIMSE2
 70
     0
  9
$DIMTAD
 70
     0
  9
$DIMZIN
 70
     0
  9
$DIMBLK
  1

  9
$DIMASO
 70
     1
  9
$DIMSHO
 70
     1
  9
$DIMPOST
  1

  9
$DIMAPOST
  1

  9
$DIMALT
 70
     0
  9
$DIMALTD
 70
     2
  9
$DIMALTF
 40
25.4
  9
$DIMLFAC
 40
1.0
  9
$DIMTOFL
 70
     0
  9
$DIMTVP
 40
0.0
  9
$DIMTIX
 70
     0
  9
$DIMSOXD
 70
     0
  9
$DIMSAH
 70
     0
  9
$DIMBLK1
  1

  9
$DIMBLK2
  1

  9
$DIMSTYLE
  2
Standard
  9
$DIMCLRD
 70
     0
  9
$DIMCLRE
 70
     0
  9
$DIMCLRT
 70
     0
  9
$DIMTFAC
 40
1.0
  9
$DIMGAP
 40
0.09
  9
$DIMJUST
 70
     0
  9
$DIMSD1
 70
     0
  9
$DIMSD2
 70
     0
  9
$DIMTOLJ
 70
     1
  9
$DIMTZIN
 70
     0
  9
$DIMALTZ
 70
     0
  9
$DIMALTTZ
 70
     0
  9
$DIMUPT
 70
     0
  9
$DIMDEC
 70
     4
  9
$DIMTDEC
 70
     4
  9
$DIMALTU
 70
     2
  9
$DIMALTTD
 70
     2
  9
$DIMTXSTY
  7
Standard
  9
$DIMAUNIT
 70
     0
  9
$DIMADEC
 70
     0
  9
$DIMALTRND
 40
0.0
  9
$DIMAZIN
 70
     0
  9
$DIMDSEP
 70
    46
  9
$DIMATFIT
 70
     3
  9
$DIMFRAC
 70
     0
  9
$DIMLDRBLK
  1

  9
$DIMLUNIT
 70
     2
  9
$DIMLWD
 70
    -2
  9
$DIMLWE
 70
    -2
  9
$DIMTMOVE
 70
     2
  9
$LUNITS
 70
     2
  9
$LUPREC
 70
     3
  9
$SKETCHINC
 40
0.1
  9
$FILLETRAD
 40
0.5
  9
$AUNITS
 70
     0
  9
$AUPREC
 70
     0
  9
$MENU
  1
.
  9
$ELEVATION
 40
0.0
  9
$PELEVATION
 40
0.0
  9
$THICKNESS
 40
0.0
  9
$LIMCHECK
 70
     0
  9
$CHAMFERA
 40
0.5
  9
$CHAMFERB
 40
0.5
  9
$CHAMFERC
 40
1.0
  9
$CHAMFERD
 40
0.0
  9
$SKPOLY
 70
     0
  9
$TDCREATE
 40
2458304.793400104
  9
$TDUCREATE
 40
2458304.710066771
  9
$TDUPDATE
 40
2458304.793400116
  9
$TDUUPDATE
 40
2458304.710066782
  9
$TDINDWG
 40
0.0000000116
  9
$TDUSRTIMER
 40
0.0000000116
  9
$USRTIMER
 70
     1
  9
$ANGBASE
 50
0.0
  9
$ANGDIR
 70
     0
  9
$PDMODE
 70
     0
  9
$PDSIZE
 40
0.0
  9
$PLINEWID
 40
0.0
  9
$SPLFRAME
 70
     0
  9
$SPLINETYPE
 70
     6
  9
$SPLINESEGS
 70
     8
  9
$HANDSEED
  5
1A4
  9
$SURFTAB1
 70
     6
  9
$SURFTAB2
 70
     6
  9
$SURFTYPE
 70
     6
  9
$SURFU
 70
     6
  9
$SURFV
 70
     6
  9
$UCSBASE
  2

  9
$UCSNAME
  2

  9
$UCSORG
 10
0.0
 20
0.0
 30
0.0
  9
$UCSXDIR
 10
1.0
 20
0.0
 30
0.0
  9
$UCSYDIR
 10
0.0
 20
1.0
 30
0.0
  9
$UCSORTHOREF
  2

  9
$UCSORTHOVIEW
 70
     0
  9
$UCSORGTOP
 10
0.0
 20
0.0
 30
0.0
  9
$UCSORGBOTTOM
 10
0.0
 20
0.0
 30
0.0
  9
$UCSORGLEFT
 10
0.0
 20
0.0
 30
0.0
  9
$UCSORGRIGHT
 10
0.0
 20
0.0
 30
0.0
  9
$UCSORGFRONT
 10
0.0
 20
0.0
 30
0.0
  9
$UCSORGBACK
 10
0.0
 20
0.0
 30
0.0
  9
$PUCSBASE
  2

  9
$PUCSNAME
  2

  9
$PUCSORG
 10
0.0
 20
0.0
 30
0.0
  9
$PUCSXDIR
 10
1.0
 20
0.0
 30
0.0
  9
$PUCSYDIR
 10
0.0
 20
1.0
 30
0.0
  9
$PUCSORTHOREF
  2

  9
$PUCSORTHOVIEW
 70
     0
  9
$PUCSORGTOP
 10
0.0
 20
0.0
 30
0.0
  9
$PUCSORGBOTTOM
 10
0.0
 20
0.0
 30
0.0
  9
$PUCSORGLEFT
 10
0.0
 20
0.0
 30
0.0
  9
$PUCSORGRIGHT
 10
0.0
 20
0.0
 30
0.0
  9
$PUCSORGFRONT
 10
0.0
 20
0.0
 30
0.0
  9
$PUCSORGBACK
 10
0.0
 20
0.0
 30
0.0
  9
$USERI1
 70
     0
  9
$USERI2
 70
     0
  9
$USERI3
 70
     0
  9
$USERI4
 70
     0
  9
$USERI5
 70
     0
  9
$USERR1
 40
0.0
  9
$USERR2
 40
0.0
  9
$USERR3
 40
0.0
  9
$USERR4
 40
0.0
  9
$USERR5
 40
0.0
  9
$WORLDVIEW
 70
     1
  9
$SHADEDGE
 70
     3
  9
$SHADEDIF
 70
    70
  9
$TILEMODE
 70
     1
  9
$MAXACTVP
 70
    64
  9
$PINSBASE
 10
0.0
 20
0.0
 30
0.0
  9
$PLIMCHECK
 70
     0
  9
$PEXTMIN
 10
1.000000000000000E+20
 20
1.000000000000000E+20
 30
1.000000000000000E+20
  9
$PEXTMAX
 10
-1.000000000000000E+20
 20
-1.000000000000000E+20
 30
-1.000000000000000E+20
  9
$PLIMMIN
 10
0.0
 20
0.0
  9
$PLIMMAX
 10
12.0
 20
9.0
  9
$UNITMODE
 70
     0
  9
$VISRETAIN
 70
     1
  9
$PLINEGEN
 70
     0
  9
$PSLTSCALE
 70
     1
  9
$TREEDEPTH
 70
  3020
  9
$CMLSTYLE
  2
Standard
  9
$CMLJUST
 70
     0
  9
$CMLSCALE
 40
1.0
  9
$PROXYGRAPHICS
 70
     1
  9
$MEASUREMENT
 70
     0
  9
$CELWEIGHT
370
    -1
  9
$ENDCAPS
280
     0
  9
$JOINSTYLE
280
     0
  9
$LWDISPLAY
290
     0
  9
$INSUNITS
 70
     4
  9
$HYPERLINKBASE
  1

  9
$STYLESHEET
  1

  9
$XEDIT
290
     1
  9
$CEPSNTYPE
380
     0
  9
$PSTYLEMODE
290
     1
  9
$FINGERPRINTGUID
  2
{C06EEF23-4DD5-451C-B06E-076BBF204EFB}
  9
$VERSIONGUID
  2
{FAEB1C32-E019-11D5-929B-00C0DF256EC4}
  9
$EXTNAMES
290
     1
  9
$PSVPSCALE
 40
0.0
  9
$OLESTARTUP
290
     0
  9
$SORTENTS
280
   127
  9
$INDEXCTL
280
     0
  9
$HIDETEXT
280
     1
  9
$XCLIPFRAME
290
     0
  9
$HALOGAP
280
     0
  9
$OBSCOLOR
 70
   257
  9
$OBSLTYPE
280
     0
  9
$INTERSECTIONDISPLAY
280
     0
  9
$INTERSECTIONCOLOR
 70
   257
  9
$DIMASSOC
280
     2
  9
$PROJECTNAME
  1

  0
ENDSEC
  0
SECTION
  2
CLASSES
  0
CLASS
  1
ACDBDICTIONARYWDFLT
  2
AcDbDictionaryWithDefault
  3
ObjectDBX Classes
 90
        0
 91
        4
280
     0
281
     0
  0
CLASS
  1
VISUALSTYLE
  2
AcDbVisualStyle
  3
ObjectDBX Classes
 90
     4095
 91
        4
280
     0
281
     0
  0
ENDSEC
  0
SECTION
  2
TABLES
  0
TABLE
  2
VPORT
  5
8
330
0
100
AcDbSymbolTable
 70
     1
  0
VPORT
  5
29
330
8
100
AcDbSymbolTableRecord
100
AcDbViewportTableRecord
  2
*Active
 70
     0
 10
0.0
 20
0.0
 11
1.0
 21
1.0
 12
812.2383480787116
 22
1409.907812812706
 13
0.0
 23
0.0
 14
0.5
 24
0.5
 15
0.5
 25
0.5
 16
0.0
 26
0.0
 36
1.0
 17
0.0
 27
0.0
 37
0.0
 40
2876.21193813792
 41
0.5760932315555659
 42
50.0
 43
0.0
 44
0.0
 50
0.0
 51
0.0
 71
     0
 72
   100
 73
     1
 74
     3
 75
     0
 76
     0
 77
     0
 78
     0
281
     0
 65
     1
110
0.0
120
0.0
130
0.0
111
1.0
121
0.0
131
0.0
112
0.0
122
1.0
132
0.0
 79
     0
146
0.0
  0
ENDTAB
  0
TABLE
  2
LTYPE
  5
5
330
0
100
AcDbSymbolTable
 70
     1
  0
LTYPE
  5
14
330
5
100
AcDbSymbolTableRecord
100
AcDbLinetypeTableRecord
  2
ByBlock
 70
     0
  3

 72
    65
 73
     0
 40
0.0
  0
LTYPE
  5
15
330
5
100
AcDbSymbolTableRecord
100
AcDbLinetypeTableRecord
  2
ByLayer
 70
     0
  3

 72
    65
 73
     0
 40
0.0
  0
LTYPE
  5
16
330
5
100
AcDbSymbolTableRecord
100
AcDbLinetypeTableRecord
  2
Continuous
 70
     0
  3
Solid line
 72
    65
 73
     0
 40
0.0
  0
ENDTAB
  0
TABLE
  2
LAYER
  5
2
330
0
100
AcDbSymbolTable
 70
     2
  0
LAYER
  5
10
330
2
100
AcDbSymbolTableRecord
100
AcDbLayerTableRecord
  2
0
 70
     0
 62
     7
  6
Continuous
370
    -3
390
F
  0
LAYER
  5
3B
330
2
100
AcDbSymbolTableRecord
100
AcDbLayerTableRecord
  2
Predefinito
 70
     0
 62
     7
  6
Continuous
370
    -3
390
F
  0
ENDTAB
  0
TABLE
  2
STYLE
  5
3
330
0
100
AcDbSymbolTable
 70
     1
  0
STYLE
  5
11
330
3
100
AcDbSymbolTableRecord
100
AcDbTextStyleTableRecord
  2
Standard
 70
     0
 40
0.0
 41
1.0
 50
0.0
 71
     0
 42
0.2
  3
txt
  4

  0
ENDTAB
  0
TABLE
  2
VIEW
  5
6
330
0
100
AcDbSymbolTable
 70
     0
  0
ENDTAB
  0
TABLE
  2
UCS
  5
7
330
0
100
AcDbSymbolTable
 70
     0
  0
ENDTAB
  0
TABLE
  2
APPID
  5
9
330
0
100
AcDbSymbolTable
 70
     1
  0
APPID
  5
12
330
9
100
AcDbSymbolTableRecord
100
AcDbRegAppTableRecord
  2
ACAD
 70
     0
  0
ENDTAB
  0
TABLE
  2
DIMSTYLE
  5
A
330
0
100
AcDbSymbolTable
 70
     1
100
AcDbDimStyleTable
  0
DIMSTYLE
105
27
330
A
100
AcDbSymbolTableRecord
100
AcDbDimStyleTableRecord
  2
Standard
 70
     0
340
11
  0
ENDTAB
  0
TABLE
  2
BLOCK_RECORD
  5
1
330
0
100
AcDbSymbolTable
 70
     1
  0
BLOCK_RECORD
  5
1F
330
1
100
AcDbSymbolTableRecord
100
AcDbBlockTableRecord
  2
*Model_Space
340
22
  0
BLOCK_RECORD
  5
1B
330
1
100
AcDbSymbolTableRecord
100
AcDbBlockTableRecord
  2
*Paper_Space
340
1E
  0
BLOCK_RECORD
  5
23
330
1
100
AcDbSymbolTableRecord
100
AcDbBlockTableRecord
  2
*Paper_Space0
340
26
  0
ENDTAB
  0
ENDSEC
  0
SECTION
  2
BLOCKS
  0
BLOCK
  5
20
330
1F
100
AcDbEntity
  8
0
100
AcDbBlockBegin
  2
*Model_Space
 70
     0
 10
0.0
 20
0.0
 30
0.0
  3
*Model_Space
  1

  0
ENDBLK
  5
21
330
1F
100
AcDbEntity
  8
0
100
AcDbBlockEnd
  0
BLOCK
  5
1C
330
1B
100
AcDbEntity
 67
     1
  8
0
100
AcDbBlockBegin
  2
*Paper_Space
 70
     0
 10
0.0
 20
0.0
 30
0.0
  3
*Paper_Space
  1

  0
ENDBLK
  5
1D
330
1B
100
AcDbEntity
 67
     1
  8
0
100
AcDbBlockEnd
  0
BLOCK
  5
24
330
23
100
AcDbEntity
  8
0
100
AcDbBlockBegin
  2
*Paper_Space0
 70
     0
 10
0.0
 20
0.0
 30
0.0
  3
*Paper_Space0
  1

  0
ENDBLK
  5
25
330
23
100
AcDbEntity
  8
0
100
AcDbBlockEnd
  0
ENDSEC
  0
SECTION
  2
ENTITIES
  0
LINE
  5
3C
330
1F
100
AcDbEntity
  8
Predefinito
100
AcDbLine
 10
347.996127258074
 20
2819.815625625411
 30
0.0
 11
385.7448133864393
 21
2819.815625625411
 31
0.0
  0
LINE
  5
3D
330
1F
100
AcDbEntity
  8
Predefinito
100
AcDbLine
 10
1248.846613371511
 20
2819.815625625411
 30
0.0
 11
1389.726625543862
 21
2819.815625625411
 31
0.0
  0
SPLINE
  5
3E
330
1F
100
AcDbEntity
  8
Predefinito
100
AcDbSpline
210
0.0
220
0.0
230
1.0
 70
    12
 71
     3
 72
    11
 73
     7
 74
     0
 42
0.0000000001
 43
0.0000000001
 40
0.0
 40
0.0
 40
0.0
 40
0.0
 40
33.6935812097506
 40
33.6935812097506
 40
33.92527366795276
 40
34.17230018160581
 40
34.17230018160581
 40
34.17230018160581
 40
34.17230018160581
 10
234.7441555048858
 20
2785.815625625411
 30
0.0
 41
1.0
 10
234.6461470457791
 20
2797.046391720858
 30
0.0
 41
1.0
 10
234.5481385866697
 20
2808.277157816264
 30
0.0
 41
1.0
 10
234.4494561766234
 20
2819.585151790494
 30
0.0
 41
1.0
 10
234.5102210129065
 20
2819.745244064665
 30
0.0
 41
1.0
 10
234.6677284420623
 20
2819.815625391072
 30
0.0
 41
1.0
 10
234.7500706135611
 20
2819.815625625411
 30
0.0
 41
1.0
  0
SPLINE
  5
3F
330
1F
100
AcDbEntity
  8
Predefinito
100
AcDbSpline
210
0.0
220
0.0
230
1.0
 70
    24
 71
     2
 72
     6
 73
     3
 74
     0
 42
0.0000000001
 43
0.0000000001
 40
0.0
 40
0.0
 40
0.0
 40
113.2460557749676
 40
113.2460557749676
 40
113.2460557749676
 10
234.7500714831064
 20
2819.815625625411
 30
0.0
 10
291.3730993705902
 20
2819.815625625411
 30
0.0
 10
347.996127258074
 20
2819.815625625411
 30
0.0
  0
SPLINE
  5
40
330
1F
100
AcDbEntity
  8
Predefinito
100
AcDbSpline
210
0.0
220
0.0
230
1.0
 70
    12
 71
     3
 72
    11
 73
     7
 74
     0
 42
0.0000000001
 43
0.0000000001
 40
0.0
 40
0.0
 40
0.0
 40
0.0
 40
0.2273915595681189
 40
0.4787189718552014
 40
0.4787189718552014
 40
34.1723001816057
 40
34.1723001816057
 40
34.1723001816057
 40
34.1723001816057
 10
385.7448133864393
 20
2819.815625625411
 30
0.0
 41
1.0
 10
385.8206105720482
 20
2819.815625408603
 30
0.0
 41
1.0
 10
385.9785151307515
 20
2819.751610479731
 30
0.0
 41
1.0
 10
386.0454849378633
 20
2819.591696525981
 30
0.0
 41
1.0
 10
385.9467454133406
 20
2808.277157816264
 30
0.0
 41
1.0
 10
385.8487369542207
 20
2797.046391720858
 30
0.0
 41
1.0
 10
385.7507284951141
 20
2785.815625625411
 30
0.0
 41
1.0
  0
SPLINE
  5
41
330
1F
100
AcDbEntity
  8
Predefinito
100
AcDbSpline
210
0.0
220
0.0
230
1.0
 70
    12
 71
     2
 72
     6
 73
     3
 74
     0
 42
0.0000000001
 43
0.0000000001
 40
0.0
 40
0.0
 40
0.0
 40
1.298507323145312
 40
1.298507323145312
 40
1.298507323145312
 10
289.7002972174436
 20
1832.850693727545
 30
0.0
 41
1.0
 10
290.0240951378591
 20
1833.463380530111
 30
0.0
 41
0.9079718347394883
 10
290.7003996441118
 20
1833.614517640466
 30
0.0
 41
1.0
  0
SPLINE
  5
42
330
1F
100
AcDbEntity
  8
Predefinito
100
AcDbSpline
210
0.0
220
0.0
230
1.0
 70
    12
 71
     2
 72
     6
 73
     3
 74
     0
 42
0.0000000001
 43
0.0000000001
 40
0.0
 40
0.0
 40
0.0
 40
84.68527079963117
 40
84.68527079963117
 40
84.68527079963117
 10
223.7751311931872
 20
1785.012438768469
 30
0.0
 41
1.0
 10
269.2915968957256
 20
1791.593885026683
 30
0.0
 41
0.8851803427895919
 10
289.6826066815404
 20
1832.816097543905
 30
0.0
 41
1.0
  0
SPLINE
  5
43
330
1F
100
AcDbEntity
  8
Predefinito
100
AcDbSpline
210
0.0
220
0.0
230
1.0
 70
    24
 71
     2
 72
     6
 73
     3
 74
     0
 42
0.0000000001
 43
0.0000000001
 40
0.0
 40
0.0
 40
0.0
 40
217.2009544977933
 40
217.2009544977933
 40
217.2009544977933
 10
8.343875460730267
 20
1754.734849636306
 30
0.0
 10
115.8874603406436
 20
1769.849114747948
 30
0.0
 10
223.4310452205569
 20
1784.96337985959
 30
0.0
  0
SPLINE
  5
44
330
1F
100
AcDbEntity
  8
Predefinito
100
AcDbSpline
210
0.0
220
0.0
230
1.0
 70
    12
 71
     2
 72
     6
 73
     3
 74
     0
 42
0.0000000001
 43
0.0000000001
 40
0.0
 40
0.0
 40
0.0
 40
12.88047688594713
 40
12.88047688594713
 40
12.88047688594713
 10
0.0
 20
1745.738613774468
 30
0.0
 41
1.0
 10
0.0001303294005695
 20
1753.562081142647
 30
0.0
 41
0.7547205083685874
 10
7.747442115559974
 20
1754.651026396543
 30
0.0
 41
1.0
  0
SPLINE
  5
45
330
1F
100
AcDbEntity
  8
Predefinito
100
AcDbSpline
210
0.0
220
0.0
230
1.0
 70
    24
 71
     2
 72
     6
 73
     3
 74
     0
 42
0.0000000001
 43
0.0000000001
 40
0.0
 40
0.0
 40
0.0
 40
1.087586999999985
 40
1.087586999999985
 40
1.087586999999985
 10
0.0
 20
1744.651026774468
 30
0.0
 10
0.0
 20
1745.194820274468
 30
0.0
 10
0.0
 20
1745.738613774468
 30
0.0
  0
SPLINE
  5
46
330
1F
100
AcDbEntity
  8
Predefinito
100
AcDbSpline
210
0.0
220
0.0
230
1.0
 70
    12
 71
     2
 72
     6
 73
     3
 74
     0
 42
0.0000000001
 43
0.0000000001
 40
0.0
 40
0.0
 40
0.0
 40
10.73373096651151
 40
10.73373096651151
 40
10.73373096651151
 10
1.5
 20
1745.738613774468
 30
0.0
 41
1.0
 10
1.500108788585811
 20
1752.258170022375
 30
0.0
 41
0.7547205133594446
 10
7.956202061782958
 20
1753.16562433486
 30
0.0
 41
1.0
  0
SPLINE
  5
47
330
1F
100
AcDbEntity
  8
Predefinito
100
AcDbSpline
210
0.0
220
0.0
230
1.0
 70
    12
 71
     2
 72
     6
 73
     3
 74
     0
 42
0.0000000001
 43
0.0000000001
 40
0.0
 40
0.0
 40
0.0
 40
1.298341251289129
 40
1.298341251289129
 40
1.298341251289129
 10
329.7944858787793
 20
1833.614445135383
 30
0.0
 41
1.0
 10
330.4705077544771
 20
1833.463008694663
 30
0.0
 41
0.9082053724307111
 10
330.7945776483634
 20
1832.850703806657
 30
0.0
 41
1.0
  0
SPLINE
  5
48
330
1F
100
AcDbEntity
  8
Predefinito
100
AcDbSpline
210
0.0
220
0.0
230
1.0
 70
    12
 71
     2
 72
     6
 73
     3
 74
     0
 42
0.0000000001
 43
0.0000000001
 40
0.0
 40
0.0
 40
0.0
 40
84.68525385723994
 40
84.68525385723994
 40
84.68525385723994
 10
330.81227731846
 20
1832.816097543905
 30
0.0
 41
1.0
 10
351.2033239268039
 20
1791.593936408148
 30
0.0
 41
0.8851809168976312
 10
396.7197519474863
 20
1785.012437283781
 30
0.0
 41
1.0
  0
SPLINE
  5
49
330
1F
100
AcDbEntity
  8
Predefinito
100
AcDbSpline
210
0.0
220
0.0
230
1.0
 70
    24
 71
     2
 72
     6
 73
     3
 74
     0
 42
0.0000000001
 43
0.0000000001
 40
0.0
 40
0.0
 40
0.0
 40
0.0373079425900214
 40
0.0373079425900214
 40
0.0373079425900214
 10
612.6374164940411
 20
1754.666489456672
 30
0.0
 10
612.6558889261714
 20
1754.663893325654
 30
0.0
 10
612.6743613583019
 20
1754.661297194636
 30
0.0
  0
SPLINE
  5
4A
330
1F
100
AcDbEntity
  8
Predefinito
100
AcDbSpline
210
0.0
220
0.0
230
1.0
 70
    24
 71
     2
 72
     6
 73
     3
 74
     0
 42
0.0000000001
 43
0.0000000001
 40
0.0
 40
0.0
 40
0.0
 40
217.2009544977934
 40
217.2009544977934
 40
217.2009544977934
 10
397.063838779443
 20
1784.96337985959
 30
0.0
 10
504.6074236593563
 20
1769.849114747948
 30
0.0
 10
612.1510085392697
 20
1754.734849636306
 30
0.0
  0
SPLINE
  5
4B
330
1F
100
AcDbEntity
  8
Predefinito
100
AcDbSpline
210
0.0
220
0.0
230
1.0
 70
    12
 71
     2
 72
     6
 73
     3
 74
     0
 42
0.0000000001
 43
0.0000000001
 40
0.0
 40
0.0
 40
0.0
 40
12.88051957466913
 40
12.88051957466913
 40
12.88051957466913
 10
612.7474418844399
 20
1754.651026396543
 30
0.0
 41
1.0
 10
620.4948586080484
 20
1753.56217236338
 30
0.0
 41
0.754711708617285
 10
620.4948839999998
 20
1745.738613774468
 30
0.0
 41
1.0
  0
SPLINE
  5
4C
330
1F
100
AcDbEntity
  8
Predefinito
100
AcDbSpline
210
0.0
220
0.0
230
1.0
 70
    24
 71
     2
 72
     6
 73
     3
 74
     0
 42
0.0000000001
 43
0.0000000001
 40
0.0
 40
0.0
 40
0.0
 40
1.087586999999985
 40
1.087586999999985
 40
1.087586999999985
 10
620.494884
 20
1745.738613774468
 30
0.0
 10
620.494884
 20
1745.194820274468
 30
0.0
 10
620.494884
 20
1744.651026774468
 30
0.0
  0
SPLINE
  5
4D
330
1F
100
AcDbEntity
  8
Predefinito
100
AcDbSpline
210
0.0
220
0.0
230
1.0
 70
    12
 71
     2
 72
     6
 73
     3
 74
     0
 42
0.0000000001
 43
0.0000000001
 40
0.0
 40
0.0
 40
0.0
 40
10.73376660796746
 40
10.73376660796746
 40
10.73376660796746
 10
612.538681938217
 20
1753.16562433486
 30
0.0
 41
1.0
 10
618.9948628252665
 20
1752.258246183939
 30
0.0
 41
0.7547116969060872
 10
618.9948840000002
 20
1745.738613774468
 30
0.0
 41
1.0
  0
SPLINE
  5
4E
330
1F
100
AcDbEntity
  8
Predefinito
100
AcDbSpline
210
0.0
220
0.0
230
1.0
 70
    12
 71
     2
 72
     6
 73
     3
 74
     0
 42
0.0000000001
 43
0.0000000001
 40
0.0
 40
0.0
 40
0.0
 40
635.0417899520712
 40
635.0417899520712
 40
635.0417899520712
 10
307.400146484375
 20
2150.773835673357
 30
0.0
 41
1.0
 10
307.4001539743951
 20
2468.294730649392
 30
0.0
 41
0.9999999999999994
 10
307.4001398881912
 20
2785.815625625428
 30
0.0
 41
1.0
  0
SPLINE
  5
4F
330
1F
100
AcDbEntity
  8
Predefinito
100
AcDbSpline
210
0.0
220
0.0
230
1.0
 70
    12
 71
     2
 72
     6
 73
     3
 74
     0
 42
0.0000000001
 43
0.0000000001
 40
0.0
 40
0.0
 40
0.0
 40
256.122807890754
 40
256.122807890754
 40
256.122807890754
 10
307.3978664875031
 20
1894.651027750441
 30
0.0
 41
1.0
 10
307.3977393533439
 20
2022.712431695765
 30
0.0
 41
0.9999999999998895
 10
307.3977325681419
 20
2150.773835641151
 30
0.0
 41
1.0
  0
SPLINE
  5
50
330
1F
100
AcDbEntity
  8
Predefinito
100
AcDbSpline
210
0.0
220
0.0
230
1.0
 70
    12
 71
     2
 72
     6
 73
     3
 74
     0
 42
0.0000000001
 43
0.0000000001
 40
0.0
 40
0.0
 40
0.0
 40
0.3110753440582647
 40
0.3110753440582647
 40
0.3110753440582647
 10
290.6127696978416
 20
1833.651027728524
 30
0.0
 41
1.0
 10
290.4199183807715
 20
1833.658176411453
 30
0.0
 41
0.7328147788994367
 10
290.4127696978414
 20
1833.851027728524
 30
0.0
 41
1.0
  0
SPLINE
  5
51
330
1F
100
AcDbEntity
  8
Predefinito
100
AcDbSpline
210
0.0
220
0.0
230
1.0
 70
    12
 71
     2
 72
     6
 73
     3
 74
     0
 42
0.0000000001
 43
0.0000000001
 40
0.0
 40
0.0
 40
0.0
 40
0.311076984606824
 40
0.311076984606824
 40
0.311076984606824
 10
330.082114302158
 20
1833.851027728524
 30
0.0
 41
1.0
 10
330.0749701160217
 20
1833.658172212621
 30
0.0
 41
0.7327989122215052
 10
329.8821146111572
 20
1833.651027728524
 30
0.0
 41
1.0
  0
SPLINE
  5
52
330
1F
100
AcDbEntity
  8
Predefinito
100
AcDbSpline
210
0.0
220
0.0
230
1.0
 70
    12
 71
     2
 72
     6
 73
     3
 74
     0
 42
0.0000000001
 43
0.0000000001
 40
0.0
 40
0.0
 40
0.0
 40
60.37111514644775
 40
60.37111514644775
 40
60.37111514644775
 10
291.4700039427568
 20
1836.521481087793
 30
0.0
 41
1.0
 10
303.7609263913487
 20
1864.367279083998
 30
0.0
 41
0.9876190437321684
 10
306.8186720835279
 20
1894.651027728524
 30
0.0
 41
1.0
  0
SPLINE
  5
53
330
1F
100
AcDbEntity
  8
Predefinito
100
AcDbSpline
210
0.0
220
0.0
230
1.0
 70
    12
 71
     2
 72
     6
 73
     3
 74
     0
 42
0.0000000001
 43
0.0000000001
 40
0.0
 40
0.0
 40
0.0
 40
0.2494916791113228
 40
0.2494916791113228
 40
0.2494916791113228
 10
291.406473848671
 20
1836.251027728524
 30
0.0
 41
1.0
 10
291.4065683433068
 20
1836.377589454995
 30
0.0
 41
0.978616142040345
 10
291.4576077016737
 20
1836.493403372268
 30
0.0
 41
1.0
  0
SPLINE
  5
54
330
1F
100
AcDbEntity
  8
Predefinito
100
AcDbSpline
210
0.0
220
0.0
230
1.0
 70
    12
 71
     2
 72
     6
 73
     3
 74
     0
 42
0.0000000001
 43
0.0000000001
 40
0.0
 40
0.0
 40
0.0
 40
0.9416663967801305
 40
0.9416663967801305
 40
0.9416663967801305
 10
292.0064729216733
 20
1835.651027728524
 30
0.0
 41
1.0
 10
291.4083611695044
 20
1835.652915973438
 30
0.0
 41
0.7093350451454122
 10
291.4064738486712
 20
1836.251027728524
 30
0.0
 41
1.0
  0
SPLINE
  5
55
330
1F
100
AcDbEntity
  8
Predefinito
100
AcDbSpline
210
0.0
220
0.0
230
1.0
 70
    24
 71
     2
 72
     6
 73
     3
 74
     0
 42
0.0000000001
 43
0.0000000001
 40
0.0
 40
0.0
 40
0.0
 40
1.760253383670166
 40
1.760253383670166
 40
1.760253383670166
 10
290.4512556686504
 20
1833.974489111863
 30
0.0
 10
290.8516748445563
 20
1834.758254049359
 30
0.0
 10
291.2520940204622
 20
1835.542018986855
 30
0.0
  0
SPLINE
  5
56
330
1F
100
AcDbEntity
  8
Predefinito
100
AcDbSpline
210
0.0
220
0.0
230
1.0
 70
    12
 71
     2
 72
     6
 73
     3
 74
     0
 42
0.0000000001
 43
0.0000000001
 40
0.0
 40
0.0
 40
0.0
 40
0.1663733044784974
 40
0.1663733044784974
 40
0.1663733044784974
 10
291.2823669664232
 20
1835.585159451353
 30
0.0
 41
1.0
 10
291.3421225089719
 20
1835.649870629396
 30
0.0
 41
0.9186970680772876
 10
291.4301959019489
 20
1835.651027728522
 30
0.0
 41
1.0
  0
SPLINE
  5
57
330
1F
100
AcDbEntity
  8
Predefinito
100
AcDbSpline
210
0.0
220
0.0
230
1.0
 70
    12
 71
     2
 72
     6
 73
     3
 74
     0
 42
0.0000000001
 43
0.0000000001
 40
0.0
 40
0.0
 40
0.0
 40
60.3711413299262
 40
60.3711413299262
 40
60.3711413299262
 10
313.676211916472
 20
1894.651027728524
 30
0.0
 41
1.0
 10
316.7337117769754
 20
1864.367214180496
 30
0.0
 41
0.9876177495393812
 10
329.0248800497118
 20
1836.521481098031
 30
0.0
 41
1.0
  0
SPLINE
  5
58
330
1F
100
AcDbEntity
  8
Predefinito
100
AcDbSpline
210
0.0
220
0.0
230
1.0
 70
    12
 71
     2
 72
     6
 73
     3
 74
     0
 42
0.0000000001
 43
0.0000000001
 40
0.0
 40
0.0
 40
0.0
 40
0.2494916791113996
 40
0.2494916791113996
 40
0.2494916791113996
 10
329.037276298326
 20
1836.493403372268
 30
0.0
 41
1.0
 10
329.088315656693
 20
1836.377589454995
 30
0.0
 41
0.97861614204051
 10
329.088410151329
 20
1836.251027728524
 30
0.0
 41
1.0
  0
SPLINE
  5
59
330
1F
100
AcDbEntity
  8
Predefinito
100
AcDbSpline
210
0.0
220
0.0
230
1.0
 70
    12
 71
     2
 72
     6
 73
     3
 74
     0
 42
0.0000000001
 43
0.0000000001
 40
0.0
 40
0.0
 40
0.0
 40
0.6946164973740491
 40
0.6946164973740491
 40
0.6946164973740491
 10
329.088410151329
 20
1836.251027728524
 30
0.0
 41
1.0
 10
329.0872344610726
 20
1835.859111447547
 30
0.0
 41
0.8376910599713909
 10
328.7281565187265
 20
1835.702067552848
 30
0.0
 41
1.0
  0
SPLINE
  5
5A
330
1F
100
AcDbEntity
  8
Predefinito
100
AcDbSpline
210
0.0
220
0.0
230
1.0
 70
    24
 71
     2
 72
     6
 73
     3
 74
     0
 42
0.0000000001
 43
0.0000000001
 40
0.0
 40
0.0
 40
0.0
 40
1.760253383670295
 40
1.760253383670295
 40
1.760253383670295
 10
329.242789979538
 20
1835.542018986855
 30
0.0
 10
329.643209155444
 20
1834.758254049359
 30
0.0
 10
330.04362833135
 20
1833.974489111863
 30
0.0
  0
SPLINE
  5
5B
330
1F
100
AcDbEntity
  8
Predefinito
100
AcDbSpline
210
0.0
220
0.0
230
1.0
 70
    12
 71
     2
 72
     6
 73
     3
 74
     0
 42
0.0000000001
 43
0.0000000001
 40
0.0
 40
0.0
 40
0.0
 40
0.1663732918381439
 40
0.1663732918381439
 40
0.1663732918381439
 10
329.0646880980511
 20
1835.651027728522
 30
0.0
 41
1.0
 10
329.1527614808173
 20
1835.649870618168
 30
0.0
 41
0.9186971196467892
 10
329.2125170250914
 20
1835.585159455415
 30
0.0
 41
1.0
  0
SPLINE
  5
5C
330
1F
100
AcDbEntity
  8
Predefinito
100
AcDbSpline
210
0.0
220
0.0
230
1.0
 70
    24
 71
     2
 72
     6
 73
     3
 74
     0
 42
0.0000000001
 43
0.0000000001
 40
0.0
 40
0.0
 40
0.0
 40
113.1736740282445
 40
113.1736740282445
 40
113.1736740282445
 10
347.999085247557
 20
2785.815625625411
 30
0.0
 10
291.4122482334348
 20
2785.815625625411
 30
0.0
 10
234.8254112193125
 20
2785.815625625411
 30
0.0
  0
SPLINE
  5
5D
330
1F
100
AcDbEntity
  8
Predefinito
100
AcDbSpline
210
0.0
220
0.0
230
1.0
 70
    28
 71
     2
 72
     6
 73
     3
 74
     0
 42
0.0000000001
 43
0.0000000001
 40
2.061670178918303
 40
2.061670178918303
 40
2.061670178918303
 40
3.14159265358979
 40
3.14159265358979
 40
3.14159265358979
 10
385.669472780687
 20
2785.815625625412
 30
0.0
 41
0.8741474450410949
 10
387.8011275730002
 20
2785.815625625411
 30
0.0
 41
0.7986359120657517
 10
347.999085247557
 20
2785.815625625411
 30
0.0
 41
1.0
  0
SPLINE
  5
5E
330
1F
100
AcDbEntity
  8
Predefinito
100
AcDbSpline
210
0.0
220
0.0
230
1.0
 70
    12
 71
     2
 72
     6
 73
     3
 74
     0
 42
0.0000000001
 43
0.0000000001
 40
0.0
 40
0.0
 40
0.0
 40
148.4319036720495
 40
148.4319036720495
 40
148.4319036720495
 10
406.0716364672377
 20
1601.975581057151
 30
0.0
 41
1.0
 10
349.459617771697
 20
1654.218098706132
 30
0.0
 41
0.9460239616603565
 10
336.7759504087283
 20
1730.200503862286
 30
0.0
 41
1.0
  0
SPLINE
  5
5F
330
1F
100
AcDbEntity
  8
Predefinito
100
AcDbSpline
210
0.0
220
0.0
230
1.0
 70
    12
 71
     2
 72
     6
 73
     3
 74
     0
 42
0.0000000001
 43
0.0000000001
 40
0.0
 40
0.0
 40
0.0
 40
147.8806449528744
 40
147.8806449528744
 40
147.8806449528744
 10
404.6158516615784
 20
1601.975581057172
 30
0.0
 41
1.0
 10
348.7255131496522
 20
1654.502371807095
 30
0.0
 41
0.9469048346951973
 10
336.3729227808741
 20
1730.200503862285
 30
0.0
 41
1.0
  0
SPLINE
  5
60
330
1F
100
AcDbEntity
  8
Predefinito
100
AcDbSpline
210
0.0
220
0.0
230
1.0
 70
    12
 71
     3
 72
     9
 73
     5
 74
     0
 42
0.0000000001
 43
0.0000000001
 40
16.23760534156854
 40
16.23760534156854
 40
16.23760534156854
 40
16.23760534156854
 40
100.464900703579
 40
167.1757034953041
 40
167.1757034953041
 40
167.1757034953041
 40
167.1757034953041
 10
400.2927305293268
 20
1601.975581057147
 30
0.0
 41
1.0
 10
381.3203786611002
 20
1620.581533059574
 30
0.0
 41
1.0
 10
353.0575241006615
 20
1660.7697896613
 30
0.0
 41
1.0
 10
338.6012350685334
 20
1708.514582234724
 30
0.0
 41
1.0
 10
335.176085687844
 20
1730.200503862285
 30
0.0
 41
1.0
  0
SPLINE
  5
61
330
1F
100
AcDbEntity
  8
Predefinito
100
AcDbSpline
210
0.0
220
0.0
230
1.0
 70
    12
 71
     3
 72
     9
 73
     5
 74
     0
 42
0.0000000001
 43
0.0000000001
 40
16.23760534156385
 40
16.23760534156385
 40
16.23760534156385
 40
16.23760534156385
 40
100.46490070358
 40
167.1757034953051
 40
167.1757034953051
 40
167.1757034953051
 40
167.1757034953051
 10
383.6530340592603
 20
1601.975581057142
 30
0.0
 41
1.0
 10
368.1866311099655
 20
1620.58153305957
 30
0.0
 41
1.0
 10
345.1465409743221
 20
1660.769789661298
 30
0.0
 41
1.0
 10
333.3616661799219
 20
1708.514582234724
 30
0.0
 41
1.0
 10
330.5694588220152
 20
1730.200503862284
 30
0.0
 41
1.0
  0
SPLINE
  5
62
330
1F
100
AcDbEntity
  8
Predefinito
100
AcDbSpline
210
0.0
220
0.0
230
1.0
 70
     8
 71
     3
 72
    12
 73
     8
 74
     0
 42
0.0000000001
 43
0.0000000001
 40
0.0
 40
0.0
 40
0.0
 40
0.0
 40
17.15774040601577
 40
32.82624071831683
 40
66.06910772797733
 40
100.2603096418212
 40
137.3252532461849
 40
137.3252532461849
 40
137.3252532461849
 40
137.3252532461849
 10
373.1205078893194
 20
1601.972475405362
 30
0.0
 10
369.8937479273578
 20
1606.692759233108
 30
0.0
 10
364.047129094093
 20
1615.955169791446
 30
0.0
 10
353.6410076804474
 20
1635.3726548215
 30
0.0
 10
342.8363814963768
 20
1660.941231824668
 30
0.0
 10
333.232626733457
 20
1694.47934965736
 30
0.0
 10
329.1887919103722
 20
1717.921725394081
 30
0.0
 10
327.8120153637325
 20
1730.200503862284
 30
0.0
  0
SPLINE
  5
63
330
1F
100
AcDbEntity
  8
Predefinito
100
AcDbSpline
210
0.0
220
0.0
230
1.0
 70
    12
 71
     3
 72
     9
 73
     5
 74
     0
 42
0.0000000001
 43
0.0000000001
 40
16.23760534157314
 40
16.23760534157314
 40
16.23760534157314
 40
16.23760534157314
 40
100.46490070358
 40
167.1757034953036
 40
167.1757034953036
 40
167.1757034953036
 40
167.1757034953036
 10
371.8420474785983
 20
1601.975581057153
 30
0.0
 41
1.0
 10
358.8641944682091
 20
1620.581533059579
 30
0.0
 41
1.0
 10
339.5312633331051
 20
1660.769789661304
 30
0.0
 41
1.0
 10
329.6425792396567
 20
1708.514582234724
 30
0.0
 41
1.0
 10
327.299639075468
 20
1730.200503862284
 30
0.0
 41
1.0
  0
SPLINE
  5
64
330
1F
100
AcDbEntity
  8
Predefinito
100
AcDbSpline
210
0.0
220
0.0
230
1.0
 70
     8
 71
     3
 72
    12
 73
     8
 74
     0
 42
0.0000000001
 43
0.0000000001
 40
0.0
 40
0.0
 40
0.0
 40
0.0
 40
16.30094343334082
 40
31.35497650077184
 40
63.71568001713885
 40
97.44654139622388
 40
134.3224632159063
 40
134.3224632159063
 40
134.3224632159063
 40
134.3224632159063
 10
361.2475317271093
 20
1601.972475405349
 30
0.0
 10
358.6127140304613
 20
1606.723673265372
 30
0.0
 10
353.8499028346105
 20
1616.035737636547
 30
0.0
 10
345.3834506655687
 20
1635.520876178912
 30
0.0
 10
336.6259947970103
 20
1661.154633248308
 30
0.0
 10
328.8614901087194
 20
1694.624302605485
 30
0.0
 10
325.6068871001454
 20
1717.958535182679
 30
0.0
 10
324.4946957039591
 20
1730.200503862284
 30
0.0
  0
SPLINE
  5
65
330
1F
100
AcDbEntity
  8
Predefinito
100
AcDbSpline
210
0.0
220
0.0
230
1.0
 70
    12
 71
     3
 72
     9
 73
     5
 74
     0
 42
0.0000000001
 43
0.0000000001
 40
16.23760534157088
 40
16.23760534157088
 40
16.23760534157088
 40
16.23760534157088
 40
100.46490070358
 40
167.1757034953029
 40
167.1757034953029
 40
167.1757034953029
 40
167.1757034953029
 10
358.1595400270842
 20
1601.975581057151
 30
0.0
 41
1.0
 10
348.0645624522056
 20
1620.581533059577
 30
0.0
 41
1.0
 10
333.0262116472383
 20
1660.769789661302
 30
0.0
 41
1.0
 10
325.3341809170008
 20
1708.514582234724
 30
0.0
 41
1.0
 10
323.5116969978322
 20
1730.200503862284
 30
0.0
 41
1.0
  0
SPLINE
  5
66
330
1F
100
AcDbEntity
  8
Predefinito
100
AcDbSpline
210
0.0
220
0.0
230
1.0
 70
     8
 71
     3
 72
    12
 73
     8
 74
     0
 42
0.0000000001
 43
0.0000000001
 40
0.0
 40
0.0
 40
0.0
 40
0.0
 40
15.50805305616977
 40
29.9999733966622
 40
61.56409036798684
 40
94.8842795872068
 40
131.5932260486418
 40
131.5932260486418
 40
131.5932260486418
 40
131.5932260486418
 10
347.8249436940413
 20
1601.97247540538
 30
0.0
 10
345.8695421718635
 20
1606.757442963908
 30
0.0
 10
342.3450187760369
 20
1616.120329565792
 30
0.0
 10
336.0884077318597
 20
1635.669635116951
 30
0.0
 10
329.6460019150314
 20
1661.355596893578
 30
0.0
 10
323.9387826652661
 20
1694.755942373105
 30
0.0
 10
321.5603867191405
 20
1717.991270682135
 30
0.0
 10
320.7444805179677
 20
1730.200503862284
 30
0.0
  0
SPLINE
  5
67
330
1F
100
AcDbEntity
  8
Predefinito
100
AcDbSpline
210
0.0
220
0.0
230
1.0
 70
    12
 71
     3
 72
     9
 73
     5
 74
     0
 42
0.0000000001
 43
0.0000000001
 40
16.23760534156974
 40
16.23760534156974
 40
16.23760534156974
 40
16.23760534156974
 40
100.464900703579
 40
167.1757034974499
 40
167.1757034974499
 40
167.1757034974499
 40
167.1757034974499
 10
343.0212477699234
 20
1601.975581057149
 30
0.0
 41
1.0
 10
336.1158764158646
 20
1620.581533059576
 30
0.0
 41
1.0
 10
325.8290386203241
 20
1660.769789661873
 30
0.0
 41
1.0
 10
320.5673797146781
 20
1708.514582236082
 30
0.0
 41
1.0
 10
319.3207272922218
 20
1730.200503864378
 30
0.0
 41
1.0
  0
SPLINE
  5
68
330
1F
100
AcDbEntity
  8
Predefinito
100
AcDbSpline
210
0.0
220
0.0
230
1.0
 70
     8
 71
     3
 72
    12
 73
     8
 74
     0
 42
0.0000000001
 43
0.0000000001
 40
0.0
 40
0.0
 40
0.0
 40
0.0
 40
14.89193161740983
 40
28.95187986255516
 40
59.91126150694964
 40
95.07607127473209
 40
129.5073988171006
 40
129.5073988171006
 40
129.5073988171006
 40
129.5073988171006
 10
333.2605823353831
 20
1601.972475405404
 30
0.0
 10
332.054966377456
 20
1606.787842907345
 30
0.0
 10
329.8890445604665
 20
1616.193810644559
 30
0.0
 10
326.0456441990434
 20
1635.79333147639
 30
0.0
 10
322.003931827647
 20
1662.223124036346
 30
0.0
 10
318.5581786861026
 20
1695.572805604483
 30
0.0
 10
317.1424461408382
 20
1718.732842580723
 30
0.0
 10
316.6753181777038
 20
1730.200503862284
 30
0.0
  0
SPLINE
  5
69
330
1F
100
AcDbEntity
  8
Predefinito
100
AcDbSpline
210
0.0
220
0.0
230
1.0
 70
    12
 71
     3
 72
     9
 73
     5
 74
     0
 42
0.0000000001
 43
0.0000000001
 40
16.23760534157396
 40
16.23760534157396
 40
16.23760534157396
 40
16.23760534157396
 40
100.464900703579
 40
167.1757034953023
 40
167.1757034953023
 40
167.1757034953023
 40
167.1757034953023
 10
326.8871400570105
 20
1601.975581057155
 30
0.0
 41
1.0
 10
323.3811911380783
 20
1620.581533059581
 30
0.0
 41
1.0
 10
318.1584267132786
 20
1660.769789661304
 30
0.0
 41
1.0
 10
315.4870124755492
 20
1708.514582234724
 30
0.0
 41
1.0
 10
314.8540704527667
 20
1730.200503862284
 30
0.0
 41
1.0
  0
SPLINE
  5
6A
330
1F
100
AcDbEntity
  8
Predefinito
100
AcDbSpline
210
0.0
220
0.0
230
1.0
 70
    12
 71
     3
 72
     9
 73
     5
 74
     0
 42
0.0000000001
 43
0.0000000001
 40
16.23760534158069
 40
16.23760534158069
 40
16.23760534158069
 40
16.23760534158069
 40
100.464900703579
 40
167.1757034953018
 40
167.1757034953018
 40
167.1757034953018
 40
167.1757034953018
 10
293.6077471168668
 20
1601.975581057163
 30
0.0
 41
1.0
 10
297.1136960357988
 20
1620.581533059587
 30
0.0
 41
1.0
 10
302.3364604605972
 20
1660.769789661308
 30
0.0
 41
1.0
 10
305.0078746983254
 20
1708.514582234725
 30
0.0
 41
1.0
 10
305.6408167211078
 20
1730.200503862284
 30
0.0
 41
1.0
  0
SPLINE
  5
6B
330
1F
100
AcDbEntity
  8
Predefinito
100
AcDbSpline
210
0.0
220
0.0
230
1.0
 70
     8
 71
     3
 72
    12
 73
     8
 74
     0
 42
0.0000000001
 43
0.0000000001
 40
0.0
 40
0.0
 40
0.0
 40
0.0
 40
13.18666875149573
 40
28.94969343227454
 40
60.86632757128704
 40
95.0727079809134
 40
129.505353687502
 40
129.505353687502
 40
129.505353687502
 40
129.505353687502
 10
287.2343048384957
 20
1601.972475405384
 30
0.0
 10
288.2994868995283
 20
1606.236587701918
 30
0.0
 10
290.4883994868761
 20
1615.637353984164
 30
0.0
 10
294.4028457538349
 20
1635.54650895442
 30
0.0
 10
298.5473734102992
 20
1662.536360874965
 30
0.0
 10
301.9096826534578
 20
1695.894207132714
 30
0.0
 10
303.3424525904755
 20
1718.732432738191
 30
0.0
 10
303.8162772064933
 20
1730.200503862284
 30
0.0
  0
SPLINE
  5
6C
330
1F
100
AcDbEntity
  8
Predefinito
100
AcDbSpline
210
0.0
220
0.0
230
1.0
 70
    12
 71
     3
 72
     9
 73
     5
 74
     0
 42
0.0000000001
 43
0.0000000001
 40
16.23760534157853
 40
16.23760534157853
 40
16.23760534157853
 40
16.23760534157853
 40
100.464900703579
 40
167.1757034974492
 40
167.1757034974492
 40
167.1757034974492
 40
167.1757034974492
 10
277.4736394039558
 20
1601.975581057161
 30
0.0
 41
1.0
 10
284.3790107580131
 20
1620.581533059585
 30
0.0
 41
1.0
 10
294.6658485535518
 20
1660.769789661879
 30
0.0
 41
1.0
 10
299.9275074591966
 20
1708.514582236083
 30
0.0
 41
1.0
 10
301.1741598816526
 20
1730.200503864378
 30
0.0
 41
1.0
  0
SPLINE
  5
6D
330
1F
100
AcDbEntity
  8
Predefinito
100
AcDbSpline
210
0.0
220
0.0
230
1.0
 70
     8
 71
     3
 72
    12
 73
     8
 74
     0
 42
0.0000000001
 43
0.0000000001
 40
0.0
 40
0.0
 40
0.0
 40
0.0
 40
13.74104721850965
 40
29.9967426180456
 40
62.53187333957533
 40
97.04483727238647
 40
131.5901987212352
 40
131.5901987212352
 40
131.5901987212352
 40
131.5901987212352
 10
272.6699434798113
 20
1601.972475405373
 30
0.0
 10
274.4002169148581
 20
1606.212475838311
 30
0.0
 10
277.9574848007857
 20
1615.562849691128
 30
0.0
 10
284.3424590368801
 20
1635.409121161486
 30
0.0
 10
291.103531780668
 20
1662.369118326563
 30
0.0
 10
296.6382130707078
 20
1695.800222075861
 30
0.0
 10
298.9742204863826
 20
1718.710707626085
 30
0.0
 10
299.7473180386551
 20
1730.200503862284
 30
0.0
  0
SPLINE
  5
6E
330
1F
100
AcDbEntity
  8
Predefinito
100
AcDbSpline
210
0.0
220
0.0
230
1.0
 70
    12
 71
     3
 72
     9
 73
     5
 74
     0
 42
0.0000000001
 43
0.0000000001
 40
16.23760534156499
 40
16.23760534156499
 40
16.23760534156499
 40
16.23760534156499
 40
100.46490070358
 40
167.1757034953041
 40
167.1757034953041
 40
167.1757034953041
 40
167.1757034953041
 10
262.3353471467843
 20
1601.975581057144
 30
0.0
 41
1.0
 10
272.4303247216639
 20
1620.581533059571
 30
0.0
 41
1.0
 10
287.4686755266333
 20
1660.769789661299
 30
0.0
 41
1.0
 10
295.1607062568721
 20
1708.514582234723
 30
0.0
 41
1.0
 10
296.9831901760412
 20
1730.200503862284
 30
0.0
 41
1.0
  0
SPLINE
  5
6F
330
1F
100
AcDbEntity
  8
Predefinito
100
AcDbSpline
210
0.0
220
0.0
230
1.0
 70
     8
 71
     3
 72
    12
 73
     8
 74
     0
 42
0.0000000001
 43
0.0000000001
 40
0.0
 40
0.0
 40
0.0
 40
0.0
 40
14.45436151119956
 40
31.35117542101103
 40
64.70058292236813
 40
99.62257489949647
 40
134.3189053353927
 40
134.3189053353927
 40
134.3189053353927
 40
134.3189053353927
 10
259.247355446755
 20
1601.972475405352
 30
0.0
 10
261.5814099141398
 20
1606.18580536138
 30
0.0
 10
266.3829241391379
 20
1615.477432712371
 30
0.0
 10
275.0271756159966
 20
1635.243169252856
 30
0.0
 10
284.2045289382841
 20
1662.156876803949
 30
0.0
 10
291.7669314812642
 20
1695.675806013495
 30
0.0
 10
294.9465890365404
 20
1718.681830629637
 30
0.0
 10
295.9973998548037
 20
1730.200503862284
 30
0.0
  0
SPLINE
  5
70
330
1F
100
AcDbEntity
  8
Predefinito
100
AcDbSpline
210
0.0
220
0.0
230
1.0
 70
    12
 71
     3
 72
     9
 73
     5
 74
     0
 42
0.0000000001
 43
0.0000000001
 40
16.23760534156288
 40
16.23760534156288
 40
16.23760534156288
 40
16.23760534156288
 40
100.46490070358
 40
167.1757034953045
 40
167.1757034953045
 40
167.1757034953045
 40
167.1757034953045
 10
248.6528396952563
 20
1601.975581057141
 30
0.0
 41
1.0
 10
261.6306927056498
 20
1620.581533059569
 30
0.0
 41
1.0
 10
280.9636238407599
 20
1660.769789661297
 30
0.0
 41
1.0
 10
290.8523079342132
 20
1708.514582234723
 30
0.0
 41
1.0
 10
293.1952480984037
 20
1730.200503862284
 30
0.0
 41
1.0
  0
SPLINE
  5
71
330
1F
100
AcDbEntity
  8
Predefinito
100
AcDbSpline
210
0.0
220
0.0
230
1.0
 70
     8
 71
     3
 72
    12
 73
     8
 74
     0
 42
0.0000000001
 43
0.0000000001
 40
0.0
 40
0.0
 40
0.0
 40
0.0
 40
15.22489888493931
 40
32.82238024255548
 40
67.07331584017979
 40
102.4547101024752
 40
137.321632241163
 40
137.321632241163
 40
137.321632241163
 40
137.321632241163
 10
247.374379284592
 20
1601.972475405371
 30
0.0
 10
250.2354878103086
 20
1606.161453392807
 30
0.0
 10
256.1235620428675
 20
1615.396504982756
 30
0.0
 10
266.7483389078439
 20
1635.077270816073
 30
0.0
 10
278.0637743717019
 20
1661.931995751214
 30
0.0
 10
287.4442344031582
 20
1695.537708662481
 30
0.0
 10
291.3820155518011
 20
1718.649485492681
 30
0.0
 10
292.6804620544653
 20
1730.200503862284
 30
0.0
  0
SPLINE
  5
72
330
1F
100
AcDbEntity
  8
Predefinito
100
AcDbSpline
210
0.0
220
0.0
230
1.0
 70
    12
 71
     3
 72
     9
 73
     5
 74
     0
 42
0.0000000001
 43
0.0000000001
 40
16.23760534156742
 40
16.23760534156742
 40
16.23760534156742
 40
16.23760534156742
 40
100.46490070358
 40
167.1757034953049
 40
167.1757034953049
 40
167.1757034953049
 40
167.1757034953049
 10
236.8418531146164
 20
1601.975581057147
 30
0.0
 41
1.0
 10
252.3082560639106
 20
1620.581533059573
 30
0.0
 41
1.0
 10
275.3483461995522
 20
1660.7697896613
 30
0.0
 41
1.0
 10
287.1332209939523
 20
1708.514582234724
 30
0.0
 41
1.0
 10
289.9254283518593
 20
1730.200503862284
 30
0.0
 41
1.0
  0
SPLINE
  5
73
330
1F
100
AcDbEntity
  8
Predefinito
100
AcDbSpline
210
0.0
220
0.0
230
1.0
 70
    12
 71
     3
 72
     9
 73
     5
 74
     0
 42
0.0000000001
 43
0.0000000001
 40
16.2376053415862
 40
16.2376053415862
 40
16.2376053415862
 40
16.2376053415862
 40
100.46490070358
 40
167.1757034953033
 40
167.1757034953033
 40
167.1757034953033
 40
167.1757034953033
 10
220.2021566445688
 20
1601.975581057169
 30
0.0
 41
1.0
 10
239.1745085127887
 20
1620.581533059592
 30
0.0
 41
1.0
 10
267.43736307322
 20
1660.769789661312
 30
0.0
 41
1.0
 10
281.8936521053436
 20
1708.514582234726
 30
0.0
 41
1.0
 10
285.3188014860316
 20
1730.200503862285
 30
0.0
 41
1.0
  0
SPLINE
  5
74
330
1F
100
AcDbEntity
  8
Predefinito
100
AcDbSpline
210
0.0
220
0.0
230
1.0
 70
    12
 71
     2
 72
     6
 73
     3
 74
     0
 42
0.0000000001
 43
0.0000000001
 40
0.0
 40
0.0
 40
0.0
 40
147.880644952875
 40
147.880644952875
 40
147.880644952875
 10
215.8790355122961
 20
1601.975581057171
 30
0.0
 41
1.0
 10
271.7693740242231
 20
1654.502371807094
 30
0.0
 41
0.9469048346951932
 10
284.1219643929999
 20
1730.200503862284
 30
0.0
 41
1.0
  0
SPLINE
  5
75
330
1F
100
AcDbEntity
  8
Predefinito
100
AcDbSpline
210
0.0
220
0.0
230
1.0
 70
    12
 71
     2
 72
     6
 73
     3
 74
     0
 42
0.0000000001
 43
0.0000000001
 40
0.0
 40
0.0
 40
0.0
 40
148.4319036720485
 40
148.4319036720485
 40
148.4319036720485
 10
214.4232507066374
 20
1601.975581057151
 30
0.0
 41
1.0
 10
271.0352694021771
 20
1654.218098706133
 30
0.0
 41
0.9460239616603582
 10
283.7189367651456
 20
1730.200503862286
 30
0.0
 41
1.0
  0
SPLINE
  5
76
330
1F
100
AcDbEntity
  8
Predefinito
100
AcDbSpline
210
0.0
220
0.0
230
1.0
 70
     8
 71
     3
 72
    11
 73
     7
 74
     0
 42
0.0000000001
 43
0.0000000001
 40
0.0
 40
0.0
 40
0.0
 40
0.0
 40
15.87306313840321
 40
33.16205093663795
 40
71.68621409629529
 40
143.6411287094215
 40
143.6411287094215
 40
143.6411287094215
 40
143.6411287094215
 10
286.3894106503347
 20
1730.200503864261
 30
0.0
 10
286.0141869704618
 20
1724.922555076447
 30
0.0
 10
284.6033115562577
 20
1713.938216348263
 30
0.0
 10
278.8548279888946
 20
1690.719141377938
 30
0.0
 10
264.2122619488298
 20
1650.609338953522
 30
0.0
 10
243.6797585582726
 20
1619.471741909497
 30
0.0
 10
227.2612595877937
 20
1601.975581699901
 30
0.0
  0
SPLINE
  5
77
330
1F
100
AcDbEntity
  8
Predefinito
100
AcDbSpline
210
0.0
220
0.0
230
1.0
 70
    12
 71
     2
 72
     6
 73
     3
 74
     0
 42
0.0000000001
 43
0.0000000001
 40
0.0
 40
0.0
 40
0.0
 40
78.65718372188293
 40
78.65718372188293
 40
78.65718372188293
 10
260.2386932621894
 20
1636.773575338647
 30
0.0
 41
1.0
 10
278.8973667901033
 20
1671.718585724976
 30
0.0
 41
0.9892133171977355
 10
286.6281128853904
 20
1710.571325828243
 30
0.0
 41
1.0
  0
SPLINE
  5
78
330
1F
100
AcDbEntity
  8
Predefinito
100
AcDbSpline
210
0.0
220
0.0
230
1.0
 70
     8
 71
     3
 72
    11
 73
     7
 74
     0
 42
0.0000000001
 43
0.0000000001
 40
0.0
 40
0.0
 40
0.0
 40
0.0
 40
10.80509851632322
 40
20.67416043759398
 40
63.70867505472521
 40
128.3727206536646
 40
128.3727206536646
 40
128.3727206536646
 40
128.3727206536646
 10
307.7358382430687
 20
1730.200503862284
 30
0.0
 10
307.7913624374232
 20
1726.599956506392
 30
0.0
 10
307.9254317006356
 20
1719.707430552354
 30
0.0
 10
307.4943386100237
 20
1698.475100034277
 30
0.0
 10
306.2961925365317
 20
1659.303556850195
 30
0.0
 10
304.2962554349633
 20
1623.453179869651
 30
0.0
 10
302.4979092834396
 20
1601.972473985031
 30
0.0
  0
SPLINE
  5
79
330
1F
100
AcDbEntity
  8
Predefinito
100
AcDbSpline
210
0.0
220
0.0
230
1.0
 70
    24
 71
     2
 72
     6
 73
     3
 74
     0
 42
0.0000000001
 43
0.0000000001
 40
0.0
 40
0.0
 40
0.0
 40
128.2249221625045
 40
128.2249221625045
 40
128.2249221625045
 10
310.2474435870482
 20
1730.200503862403
 30
0.0
 10
310.2474435869926
 20
1666.08804278115
 30
0.0
 10
310.247443586937
 20
1601.975581699898
 30
0.0
  0
SPLINE
  5
7A
330
1F
100
AcDbEntity
  8
Predefinito
100
AcDbSpline
210
0.0
220
0.0
230
1.0
 70
     8
 71
     3
 72
    12
 73
     8
 74
     0
 42
0.0000000001
 43
0.0000000001
 40
0.0
 40
0.0
 40
0.0
 40
0.0
 40
13.04862345674477
 40
30.49974397808095
 40
64.64822908200416
 40
107.6992714542932
 40
128.3727189955356
 40
128.3727189955356
 40
128.3727189955356
 40
128.3727189955356
 10
317.9969778169323
 20
1601.97247485289
 30
0.0
 10
317.6233443219345
 20
1606.306439365118
 30
0.0
 10
316.85430966654
 20
1616.442855056379
 30
0.0
 10
315.4054130956146
 20
1637.945576405187
 30
0.0
 10
313.916463861101
 20
1669.460598580851
 30
0.0
 10
312.8544650190386
 20
1702.06977041231
 30
0.0
 10
312.5519858970126
 20
1723.309655311294
 30
0.0
 10
312.7590350570708
 20
1730.200503862284
 30
0.0
  0
SPLINE
  5
7B
330
1F
100
AcDbEntity
  8
Predefinito
100
AcDbSpline
210
0.0
220
0.0
230
1.0
 70
    12
 71
     2
 72
     6
 73
     3
 74
     0
 42
0.0000000001
 43
0.0000000001
 40
0.0
 40
0.0
 40
0.0
 40
78.65553124705113
 40
78.65553124705113
 40
78.65553124705113
 10
333.8671266237342
 20
1710.569716481339
 30
0.0
 41
1.0
 10
341.5979330995631
 20
1671.717848339573
 30
0.0
 41
0.9892137344329293
 10
360.2562126488396
 20
1636.773583700967
 30
0.0
 41
1.0
  0
SPLINE
  5
7C
330
1F
100
AcDbEntity
  8
Predefinito
100
AcDbSpline
210
0.0
220
0.0
230
1.0
 70
     8
 71
     3
 72
    11
 73
     7
 74
     0
 42
0.0000000001
 43
0.0000000001
 40
0.0
 40
0.0
 40
0.0
 40
0.0
 40
15.82822756607922
 40
33.12305737448396
 40
71.66011140252728
 40
143.6365300237786
 40
143.6365300237786
 40
143.6365300237786
 40
143.6365300237786
 10
334.1071853148477
 20
1730.200503864093
 30
0.0
 10
334.4824233229614
 20
1724.937519872234
 30
0.0
 10
335.8936817486307
 20
1713.966489115335
 30
0.0
 10
341.6383177433768
 20
1690.755466539805
 30
0.0
 10
356.2813697539659
 20
1650.631601946208
 30
0.0
 10
376.8140795321441
 20
1619.480641499507
 30
0.0
 10
393.2336275860814
 20
1601.975581699898
 30
0.0
  0
SPLINE
  5
7D
330
1F
100
AcDbEntity
  8
Predefinito
100
AcDbSpline
210
0.0
220
0.0
230
1.0
 70
    12
 71
     2
 72
     6
 73
     3
 74
     0
 42
0.0000000001
 43
0.0000000001
 40
0.0
 40
0.0
 40
0.0
 40
1.455784665831574
 40
1.455784665831574
 40
1.455784665831574
 10
215.8790352361543
 20
1601.97495106596
 30
0.0
 41
1.0
 10
215.151142971069
 20
1601.975265306148
 30
0.0
 41
0.9999999999994615
 10
214.4232507066374
 20
1601.97558105714
 30
0.0
 41
1.0
  0
SPLINE
  5
7E
330
1F
100
AcDbEntity
  8
Predefinito
100
AcDbSpline
210
0.0
220
0.0
230
1.0
 70
    24
 71
     2
 72
     6
 73
     3
 74
     0
 42
0.0000000001
 43
0.0000000001
 40
0.0
 40
0.0
 40
0.0
 40
1.452529047257997
 40
1.452529047257997
 40
1.452529047257997
 10
214.6375543801111
 20
1601.651276891419
 30
0.0
 10
215.3638189037401
 20
1601.651276891419
 30
0.0
 10
216.0900834273691
 20
1601.651276891419
 30
0.0
  0
SPLINE
  5
7F
330
1F
100
AcDbEntity
  8
Predefinito
100
AcDbSpline
210
0.0
220
0.0
230
1.0
 70
    12
 71
     2
 72
     8
 73
     5
 74
     0
 42
0.0000000001
 43
0.0000000001
 40
0.0
 40
0.0
 40
0.0
 40
0.2611099080159515
 40
0.2611099080159515
 40
0.5222198160319029
 40
0.5222198160319029
 40
0.5222198160319029
 10
214.4232507066374
 20
1601.975581057151
 30
0.0
 41
1.0
 10
214.3242542268073
 20
1601.85979631682
 30
0.0
 41
0.7986998447522021
 10
214.4082393617164
 20
1601.732702232668
 30
0.0
 41
1.0
 10
214.4922244966255
 20
1601.605608148515
 30
0.0
 41
0.7986998447522021
 10
214.6375543801111
 20
1601.651276891419
 30
0.0
 41
1.0
  0
SPLINE
  5
80
330
1F
100
AcDbEntity
  8
Predefinito
100
AcDbSpline
210
0.0
220
0.0
230
1.0
 70
    12
 71
     2
 72
     6
 73
     3
 74
     0
 42
0.0000000001
 43
0.0000000001
 40
0.0
 40
0.0
 40
0.0
 40
4.323120841690146
 40
4.323120841690146
 40
4.323120841690146
 10
220.2021560608276
 20
1601.973988985992
 30
0.0
 41
1.0
 10
218.0405957848214
 20
1601.97478029546
 30
0.0
 41
0.9999999999976098
 10
215.8790355122962
 20
1601.975581057173
 30
0.0
 41
1.0
  0
SPLINE
  5
81
330
1F
100
AcDbEntity
  8
Predefinito
100
AcDbSpline
210
0.0
220
0.0
230
1.0
 70
    24
 71
     2
 72
     6
 73
     3
 74
     0
 42
0.0000000001
 43
0.0000000001
 40
0.0
 40
0.0
 40
0.0
 40
4.313452792835108
 40
4.313452792835108
 40
4.313452792835108
 10
216.0900834314274
 20
1601.651276891419
 30
0.0
 10
218.246809827845
 20
1601.651276891419
 30
0.0
 10
220.4035362242626
 20
1601.651276891419
 30
0.0
  0
SPLINE
  5
82
330
1F
100
AcDbEntity
  8
Predefinito
100
AcDbSpline
210
0.0
220
0.0
230
1.0
 70
    12
 71
     2
 72
     8
 73
     5
 74
     0
 42
0.0000000001
 43
0.0000000001
 40
0.0
 40
0.0
 40
0.0
 40
0.2586803929007741
 40
0.2586803929007741
 40
0.5173607858015482
 40
0.5173607858015482
 40
0.5173607858015482
 10
215.8790355122961
 20
1601.975581057171
 30
0.0
 41
1.0
 10
215.7815298119392
 20
1601.860900372433
 30
0.0
 41
0.8016330678593635
 10
215.8636348554451
 20
1601.734734676282
 30
0.0
 41
1.0
 10
215.945739898951
 20
1601.608568980132
 30
0.0
 41
0.8016330678593635
 10
216.0900834314275
 20
1601.651276891419
 30
0.0
 41
1.0
  0
SPLINE
  5
83
330
1F
100
AcDbEntity
  8
Predefinito
100
AcDbSpline
210
0.0
220
0.0
230
1.0
 70
    12
 71
     2
 72
     6
 73
     3
 74
     0
 42
0.0000000001
 43
0.0000000001
 40
0.0
 40
0.0
 40
0.0
 40
7.059102566558003
 40
7.059102566558003
 40
7.059102566558003
 10
227.2612588281254
 20
1601.973255726742
 30
0.0
 41
1.0
 10
223.7317077330775
 20
1601.974408466181
 30
0.0
 41
0.9999999999960458
 10
220.2021566445688
 20
1601.975581057192
 30
0.0
 41
1.0
  0
SPLINE
  5
84
330
1F
100
AcDbEntity
  8
Predefinito
100
AcDbSpline
210
0.0
220
0.0
230
1.0
 70
    24
 71
     2
 72
     6
 73
     3
 74
     0
 42
0.0000000001
 43
0.0000000001
 40
0.0
 40
0.0
 40
0.0
 40
7.043311910158138
 40
7.043311910158138
 40
7.043311910158138
 10
220.4035362251682
 20
1601.651276891419
 30
0.0
 10
223.9251921802472
 20
1601.651276891419
 30
0.0
 10
227.4468481353263
 20
1601.651276891419
 30
0.0
  0
SPLINE
  5
85
330
1F
100
AcDbEntity
  8
Predefinito
100
AcDbSpline
210
0.0
220
0.0
230
1.0
 70
    12
 71
     2
 72
     8
 73
     5
 74
     0
 42
0.0000000001
 43
0.0000000001
 40
0.0
 40
0.0
 40
0.0
 40
0.2524133617631498
 40
0.2524133617631498
 40
0.5048267235262996
 40
0.5048267235262996
 40
0.5048267235262996
 10
220.2021566445688
 20
1601.975581057169
 30
0.0
 41
1.0
 10
220.1077916001322
 20
1601.864170470286
 30
0.0
 41
0.8084869702986406
 10
220.1848126422449
 20
1601.740134832049
 30
0.0
 41
1.0
 10
220.2618336843576
 20
1601.616099193812
 30
0.0
 41
0.8084869702986406
 10
220.4035362251681
 20
1601.651276891419
 30
0.0
 41
1.0
  0
SPLINE
  5
86
330
1F
100
AcDbEntity
  8
Predefinito
100
AcDbSpline
210
0.0
220
0.0
230
1.0
 70
    12
 71
     2
 72
     6
 73
     3
 74
     0
 42
0.0000000001
 43
0.0000000001
 40
0.0
 40
0.0
 40
0.0
 40
9.580593115893363
 40
9.580593115893363
 40
9.580593115893363
 10
236.8418522518751
 20
1601.972639424261
 30
0.0
 41
1.0
 10
232.0515559155222
 20
1601.974096521097
 30
0.0
 41
0.9999999999957042
 10
227.2612595877935
 20
1601.975581699992
 30
0.0
 41
1.0
  0
SPLINE
  5
87
330
1F
100
AcDbEntity
  8
Predefinito
100
AcDbSpline
210
0.0
220
0.0
230
1.0
 70
    24
 71
     2
 72
     6
 73
     3
 74
     0
 42
0.0000000001
 43
0.0000000001
 40
0.0
 40
0.0
 40
0.0
 40
9.559171111691626
 40
9.559171111691626
 40
9.559171111691626
 10
227.4468481353865
 20
1601.65127689146
 30
0.0
 10
232.2264336912323
 20
1601.65127689144
 30
0.0
 10
237.0060192470781
 20
1601.651276891421
 30
0.0
  0
SPLINE
  5
88
330
1F
100
AcDbEntity
  8
Predefinito
100
AcDbSpline
210
0.0
220
0.0
230
1.0
 70
    12
 71
     2
 72
     8
 73
     5
 74
     0
 42
0.0000000001
 43
0.0000000001
 40
0.0
 40
0.0
 40
0.0
 40
0.2421119121091204
 40
0.2421119121091204
 40
0.4842238242182409
 40
0.4842238242182409
 40
0.4842238242182409
 10
227.2612595877935
 20
1601.9755816999
 30
0.0
 41
1.0
 10
227.1725790728208
 20
1601.869172743207
 30
0.0
 41
0.8212058353205477
 10
227.2413788652957
 20
1601.748949249847
 30
0.0
 41
1.0
 10
227.3101786577707
 20
1601.628725756486
 30
0.0
 41
0.8212058353205477
 10
227.4468481353865
 20
1601.65127689146
 30
0.0
 41
1.0
  0
SPLINE
  5
89
330
1F
100
AcDbEntity
  8
Predefinito
100
AcDbSpline
210
0.0
220
0.0
230
1.0
 70
    12
 71
     2
 72
     6
 73
     3
 74
     0
 42
0.0000000001
 43
0.0000000001
 40
0.0
 40
0.0
 40
0.0
 40
10.53252662786517
 40
10.53252662786517
 40
10.53252662786517
 10
247.3743792845921
 20
1601.97247540555
 30
0.0
 41
1.0
 10
242.1081161945301
 20
1601.974011023059
 30
0.0
 41
0.9999999999946612
 10
236.8418531146164
 20
1601.975581057261
 30
0.0
 41
1.0
  0
SPLINE
  5
8A
330
1F
100
AcDbEntity
  8
Predefinito
100
AcDbSpline
210
0.0
220
0.0
230
1.0
 70
    24
 71
     2
 72
     6
 73
     3
 74
     0
 42
0.0000000001
 43
0.0000000001
 40
0.0
 40
0.0
 40
0.0
 40
10.51143913773711
 40
10.51143913773711
 40
10.51143913773711
 10
237.0060192528252
 20
1601.651276891419
 30
0.0
 10
242.2617388216938
 20
1601.651276891419
 30
0.0
 10
247.5174583905624
 20
1601.651276891419
 30
0.0
  0
SPLINE
  5
8B
330
1F
100
AcDbEntity
  8
Predefinito
100
AcDbSpline
210
0.0
220
0.0
230
1.0
 70
    12
 71
     2
 72
     8
 73
     5
 74
     0
 42
0.0000000001
 43
0.0000000001
 40
0.0
 40
0.0
 40
0.0
 40
0.2284804986755445
 40
0.2284804986755445
 40
0.456960997351089
 40
0.456960997351089
 40
0.456960997351089
 10
236.8418531146164
 20
1601.975581057147
 30
0.0
 41
1.0
 10
236.7613700425773
 20
1601.875276710974
 30
0.0
 41
0.8406036168461747
 10
236.8194519783416
 20
1601.76053798393
 30
0.0
 41
1.0
 10
236.8775339141058
 20
1601.645799256885
 30
0.0
 41
0.8406036168461747
 10
237.0060192528252
 20
1601.651276891419
 30
0.0
 41
1.0
  0
SPLINE
  5
8C
330
1F
100
AcDbEntity
  8
Predefinito
100
AcDbSpline
210
0.0
220
0.0
230
1.0
 70
    12
 71
     2
 72
     6
 73
     3
 74
     0
 42
0.0000000001
 43
0.0000000001
 40
0.0
 40
0.0
 40
0.0
 40
1.278464182802656
 40
1.278464182802656
 40
1.278464182802656
 10
248.6528396952563
 20
1601.975581057079
 30
0.0
 41
1.0
 10
248.0136094921547
 20
1601.974027312983
 30
0.0
 41
0.9999999999989684
 10
247.3743792845922
 20
1601.972475405336
 30
0.0
 41
1.0
  0
SPLINE
  5
8D
330
1F
100
AcDbEntity
  8
Predefinito
100
AcDbSpline
210
0.0
220
0.0
230
1.0
 70
    24
 71
     2
 72
     6
 73
     3
 74
     0
 42
0.0000000001
 43
0.0000000001
 40
0.0
 40
0.0
 40
0.0
 40
1.273133050722862
 40
1.273133050722862
 40
1.273133050722862
 10
247.5174583905624
 20
1601.651276891419
 30
0.0
 10
248.1540249159238
 20
1601.651276891419
 30
0.0
 10
248.7905914412852
 20
1601.651276891419
 30
0.0
  0
SPLINE
  5
8E
330
1F
100
AcDbEntity
  8
Predefinito
100
AcDbSpline
210
0.0
220
0.0
230
1.0
 70
    12
 71
     2
 72
     8
 73
     5
 74
     0
 42
0.0000000001
 43
0.0000000001
 40
0.0
 40
0.0
 40
0.0
 40
0.213048120564399
 40
0.213048120564399
 40
0.426096241128798
 40
0.426096241128798
 40
0.426096241128798
 10
247.374379284592
 20
1601.972475405371
 30
0.0
 41
1.0
 10
247.3047410325868
 20
1601.877720053423
 30
0.0
 41
0.8646085361086912
 10
247.3525905088565
 20
1601.770302687575
 30
0.0
 41
1.0
 10
247.4004399851262
 20
1601.662885321727
 30
0.0
 41
0.8646085361086912
 10
247.5174583905623
 20
1601.651276891418
 30
0.0
 41
1.0
  0
SPLINE
  5
8F
330
1F
100
AcDbEntity
  8
Predefinito
100
AcDbSpline
210
0.0
220
0.0
230
1.0
 70
    12
 71
     2
 72
     6
 73
     3
 74
     0
 42
0.0000000001
 43
0.0000000001
 40
0.0
 40
0.0
 40
0.0
 40
10.59451620670842
 40
10.59451620670842
 40
10.59451620670842
 10
259.247355446755
 20
1601.972475405317
 30
0.0
 41
1.0
 10
253.9500975660615
 20
1601.974011365192
 30
0.0
 41
0.9999999999949314
 10
248.6528396952562
 20
1601.975581057037
 30
0.0
 41
1.0
  0
SPLINE
  5
90
330
1F
100
AcDbEntity
  8
Predefinito
100
AcDbSpline
210
0.0
220
0.0
230
1.0
 70
    24
 71
     2
 72
     6
 73
     3
 74
     0
 42
0.0000000001
 43
0.0000000001
 40
0.0
 40
0.0
 40
0.0
 40
10.57282399233438
 40
10.57282399233438
 40
10.57282399233438
 10
248.7905914412852
 20
1601.651276891419
 30
0.0
 10
254.0770034374524
 20
1601.651276891419
 30
0.0
 10
259.3634154336196
 20
1601.651276891419
 30
0.0
  0
SPLINE
  5
91
330
1F
100
AcDbEntity
  8
Predefinito
100
AcDbSpline
210
0.0
220
0.0
230
1.0
 70
    12
 71
     2
 72
     8
 73
     5
 74
     0
 42
0.0000000001
 43
0.0000000001
 40
0.0
 40
0.0
 40
0.0
 40
0.2129226412072805
 40
0.2129226412072805
 40
0.4258452824145609
 40
0.4258452824145609
 40
0.4258452824145609
 10
248.6528396952563
 20
1601.975581057141
 30
0.0
 41
1.0
 10
248.5823581860994
 20
1601.881743056324
 30
0.0
 41
0.8663567416700477
 10
248.6282403194149
 20
1601.773724338628
 30
0.0
 41
1.0
 10
248.6741224527305
 20
1601.665705620932
 30
0.0
 41
0.8663567416700477
 10
248.7905914412852
 20
1601.651276891419
 30
0.0
 41
1.0
  0
SPLINE
  5
92
330
1F
100
AcDbEntity
  8
Predefinito
100
AcDbSpline
210
0.0
220
0.0
230
1.0
 70
    12
 71
     2
 72
     6
 73
     3
 74
     0
 42
0.0000000001
 43
0.0000000001
 40
0.0
 40
0.0
 40
0.0
 40
3.087993261759474
 40
3.087993261759474
 40
3.087993261759474
 10
262.3353471467843
 20
1601.975581057137
 30
0.0
 41
1.0
 10
260.7913513073971
 20
1601.97401766425
 30
0.0
 41
0.9999999999765803
 10
259.247355446755
 20
1601.97247540534
 30
0.0
 41
1.0
  0
SPLINE
  5
93
330
1F
100
AcDbEntity
  8
Predefinito
100
AcDbSpline
210
0.0
220
0.0
230
1.0
 70
    24
 71
     2
 72
     6
 73
     3
 74
     0
 42
0.0000000001
 43
0.0000000001
 40
0.0
 40
0.0
 40
0.0
 40
3.079083549899451
 40
3.079083549899451
 40
3.079083549899451
 10
259.3634154336196
 20
1601.651276891419
 30
0.0
 10
260.9029572085693
 20
1601.651276891419
 30
0.0
 10
262.442498983519
 20
1601.651276891419
 30
0.0
  0
SPLINE
  5
94
330
1F
100
AcDbEntity
  8
Predefinito
100
AcDbSpline
210
0.0
220
0.0
230
1.0
 70
    12
 71
     2
 72
     8
 73
     5
 74
     0
 42
0.0000000001
 43
0.0000000001
 40
0.0
 40
0.0
 40
0.0
 40
0.1984738359089984
 40
0.1984738359089984
 40
0.3969476718179967
 40
0.3969476718179967
 40
0.3969476718179967
 10
259.247355446755
 20
1601.972475405352
 30
0.0
 41
1.0
 10
259.1878350162822
 20
1601.883353085387
 30
0.0
 41
0.8925718983507311
 10
259.2242546947154
 20
1601.782560840732
 30
0.0
 41
1.0
 10
259.2606743731486
 20
1601.681768596078
 30
0.0
 41
0.8925718983507311
 10
259.3634154336197
 20
1601.651276891419
 30
0.0
 41
1.0
  0
SPLINE
  5
95
330
1F
100
AcDbEntity
  8
Predefinito
100
AcDbSpline
210
0.0
220
0.0
230
1.0
 70
    12
 71
     2
 72
     6
 73
     3
 74
     0
 42
0.0000000001
 43
0.0000000001
 40
0.0
 40
0.0
 40
0.0
 40
10.33459679968467
 40
10.33459679968467
 40
10.33459679968467
 10
272.6699434798113
 20
1601.972475405317
 30
0.0
 41
1.0
 10
267.502645308334
 20
1601.974011713188
 30
0.0
 41
0.9999999999948908
 10
262.3353471467843
 20
1601.975581057184
 30
0.0
 41
1.0
  0
SPLINE
  5
96
330
1F
100
AcDbEntity
  8
Predefinito
100
AcDbSpline
210
0.0
220
0.0
230
1.0
 70
    24
 71
     2
 72
     6
 73
     3
 74
     0
 42
0.0000000001
 43
0.0000000001
 40
0.0
 40
0.0
 40
0.0
 40
10.31295894004768
 40
10.31295894004768
 40
10.31295894004768
 10
262.442498983519
 20
1601.651276891419
 30
0.0
 10
267.5989784535429
 20
1601.651276891419
 30
0.0
 10
272.7554579235667
 20
1601.651276891419
 30
0.0
  0
SPLINE
  5
97
330
1F
100
AcDbEntity
  8
Predefinito
100
AcDbSpline
210
0.0
220
0.0
230
1.0
 70
    12
 71
     2
 72
     8
 73
     5
 74
     0
 42
0.0000000001
 43
0.0000000001
 40
0.0
 40
0.0
 40
0.0
 40
0.196311051147652
 40
0.196311051147652
 40
0.392622102295304
 40
0.392622102295304
 40
0.392622102295304
 10
262.3353471467843
 20
1601.975581057144
 30
0.0
 41
1.0
 10
262.277367595109
 20
1601.887568232559
 30
0.0
 41
0.9000936990260482
 10
262.310432264571
 20
1601.787495192548
 30
0.0
 41
1.0
 10
262.3434969340329
 20
1601.687422152537
 30
0.0
 41
0.9000936990260482
 10
262.442498983519
 20
1601.651276891418
 30
0.0
 41
1.0
  0
SPLINE
  5
98
330
1F
100
AcDbEntity
  8
Predefinito
100
AcDbSpline
210
0.0
220
0.0
230
1.0
 70
    12
 71
     2
 72
     6
 73
     3
 74
     0
 42
0.0000000001
 43
0.0000000001
 40
0.0
 40
0.0
 40
0.0
 40
4.803696928090388
 40
4.803696928090388
 40
4.803696928090388
 10
277.4736394039558
 20
1601.975581057137
 30
0.0
 41
1.0
 10
275.0717914503746
 20
1601.974015097703
 30
0.0
 41
0.99999999998505
 10
272.6699434798114
 20
1601.972475405337
 30
0.0
 41
1.0
  0
SPLINE
  5
99
330
1F
100
AcDbEntity
  8
Predefinito
100
AcDbSpline
210
0.0
220
0.0
230
1.0
 70
    24
 71
     2
 72
     6
 73
     3
 74
     0
 42
0.0000000001
 43
0.0000000001
 40
0.0
 40
0.0
 40
0.0
 40
4.791477653515017
 40
4.791477653515017
 40
4.791477653515017
 10
272.7554579235667
 20
1601.651276891419
 30
0.0
 10
275.1511967503242
 20
1601.651276891419
 30
0.0
 10
277.5469355770817
 20
1601.651276891419
 30
0.0
  0
SPLINE
  5
9A
330
1F
100
AcDbEntity
  8
Predefinito
100
AcDbSpline
210
0.0
220
0.0
230
1.0
 70
    12
 71
     2
 72
     6
 73
     3
 74
     0
 42
0.0000000001
 43
0.0000000001
 40
0.0
 40
0.0
 40
0.0
 40
0.3671675811700226
 40
0.3671675811700226
 40
0.3671675811700226
 10
272.6699434798113
 20
1601.972475405373
 30
0.0
 41
1.0
 10
272.5585187296558
 20
1601.770827435519
 30
0.0
 41
0.7213723189239458
 10
272.7554579235666
 20
1601.651276891418
 30
0.0
 41
1.0
  0
SPLINE
  5
9B
330
1F
100
AcDbEntity
  8
Predefinito
100
AcDbSpline
210
0.0
220
0.0
230
1.0
 70
    12
 71
     2
 72
     6
 73
     3
 74
     0
 42
0.0000000001
 43
0.0000000001
 40
0.0
 40
0.0
 40
0.0
 40
9.760665928636394
 40
9.760665928636394
 40
9.760665928636394
 10
287.2343048384957
 20
1601.972475405317
 30
0.0
 41
1.0
 10
282.3539721160903
 20
1601.974012091124
 30
0.0
 41
0.9999999999945313
 10
277.4736394039558
 20
1601.975581057192
 30
0.0
 41
1.0
  0
SPLINE
  5
9C
330
1F
100
AcDbEntity
  8
Predefinito
100
AcDbSpline
210
0.0
220
0.0
230
1.0
 70
    24
 71
     2
 72
     6
 73
     3
 74
     0
 42
0.0000000001
 43
0.0000000001
 40
0.0
 40
0.0
 40
0.0
 40
9.739739848961165
 40
9.739739848961165
 40
9.739739848961165
 10
277.5469355770817
 20
1601.651276891419
 30
0.0
 10
282.4168055015623
 20
1601.651276891419
 30
0.0
 10
287.2866754260429
 20
1601.651276891419
 30
0.0
  0
SPLINE
  5
9D
330
1F
100
AcDbEntity
  8
Predefinito
100
AcDbSpline
210
0.0
220
0.0
230
1.0
 70
    12
 71
     2
 72
     6
 73
     3
 74
     0
 42
0.0000000001
 43
0.0000000001
 40
0.0
 40
0.0
 40
0.0
 40
0.3606749429600128
 40
0.3606749429600128
 40
0.3606749429600128
 10
277.4736394039558
 20
1601.975581057161
 30
0.0
 41
1.0
 10
277.3756119419444
 20
1601.782990875224
 30
0.0
 41
0.7692729444808586
 10
277.5469355770817
 20
1601.651276891419
 30
0.0
 41
1.0
  0
SPLINE
  5
9E
330
1F
100
AcDbEntity
  8
Predefinito
100
AcDbSpline
210
0.0
220
0.0
230
1.0
 70
    12
 71
     2
 72
     6
 73
     3
 74
     0
 42
0.0000000001
 43
0.0000000001
 40
0.0
 40
0.0
 40
0.0
 40
6.373443035053786
 40
6.373443035053786
 40
6.373443035053786
 10
293.6077471168668
 20
1601.975581057137
 30
0.0
 41
1.0
 10
290.4210259846872
 20
1601.974013853799
 30
0.0
 41
0.9999999999898225
 10
287.2343048384958
 20
1601.972475405369
 30
0.0
 41
1.0
  0
SPLINE
  5
9F
330
1F
100
AcDbEntity
  8
Predefinito
100
AcDbSpline
210
0.0
220
0.0
230
1.0
 70
    24
 71
     2
 72
     6
 73
     3
 74
     0
 42
0.0000000001
 43
0.0000000001
 40
0.0
 40
0.0
 40
0.0
 40
6.358285133195409
 40
6.358285133195409
 40
6.358285133195409
 10
287.2866754260429
 20
1601.651276891419
 30
0.0
 10
290.4658179926406
 20
1601.651276891419
 30
0.0
 10
293.6449605592383
 20
1601.651276891419
 30
0.0
  0
SPLINE
  5
A0
330
1F
100
AcDbEntity
  8
Predefinito
100
AcDbSpline
210
0.0
220
0.0
230
1.0
 70
    12
 71
     2
 72
     6
 73
     3
 74
     0
 42
0.0000000001
 43
0.0000000001
 40
0.0
 40
0.0
 40
0.0
 40
0.3405885199512402
 40
0.3405885199512402
 40
0.3405885199512402
 10
287.2343048384957
 20
1601.972475405384
 30
0.0
 41
1.0
 10
287.1685164680644
 20
1601.796880080163
 30
0.0
 41
0.8677710400155365
 10
287.2866754260428
 20
1601.651276891419
 30
0.0
 41
1.0
  0
SPLINE
  5
A1
330
1F
100
AcDbEntity
  8
Predefinito
100
AcDbSpline
210
0.0
220
0.0
230
1.0
 70
    12
 71
     2
 72
     6
 73
     3
 74
     0
 42
0.0000000001
 43
0.0000000001
 40
0.0
 40
0.0
 40
0.0
 40
8.890162709545171
 40
8.890162709545171
 40
8.890162709545171
 10
302.4979092834395
 20
1601.97247398505
 30
0.0
 41
1.0
 10
298.0528281946661
 20
1601.974011821088
 30
0.0
 41
0.9999999999937624
 10
293.6077471168668
 20
1601.975581057216
 30
0.0
 41
1.0
  0
SPLINE
  5
A2
330
1F
100
AcDbEntity
  8
Predefinito
100
AcDbSpline
210
0.0
220
0.0
230
1.0
 70
    24
 71
     2
 72
     6
 73
     3
 74
     0
 42
0.0000000001
 43
0.0000000001
 40
0.0
 40
0.0
 40
0.0
 40
8.870583676804358
 40
8.870583676804358
 40
8.870583676804358
 10
293.6449605592383
 20
1601.651276891419
 30
0.0
 10
298.0802523976405
 20
1601.651276891419
 30
0.0
 10
302.5155442360427
 20
1601.651276891419
 30
0.0
  0
SPLINE
  5
A3
330
1F
100
AcDbEntity
  8
Predefinito
100
AcDbSpline
210
0.0
220
0.0
230
1.0
 70
    12
 71
     2
 72
     6
 73
     3
 74
     0
 42
0.0000000001
 43
0.0000000001
 40
0.0
 40
0.0
 40
0.0
 40
0.3346486441046812
 40
0.3346486441046812
 40
0.3346486441046812
 10
293.6077471168668
 20
1601.975581057163
 30
0.0
 41
1.0
 10
293.5606007246209
 20
1601.805883897921
 30
0.0
 41
0.9267078597676843
 10
293.6449605592384
 20
1601.651276891419
 30
0.0
 41
1.0
  0
SPLINE
  5
A4
330
1F
100
AcDbEntity
  8
Predefinito
100
AcDbSpline
210
0.0
220
0.0
230
1.0
 70
    12
 71
     2
 72
     6
 73
     3
 74
     0
 42
0.0000000001
 43
0.0000000001
 40
0.0
 40
0.0
 40
0.0
 40
7.749534926681442
 40
7.749534926681442
 40
7.749534926681442
 10
310.247443586937
 20
1601.975581699866
 30
0.0
 41
1.0
 10
306.3726764454977
 20
1601.974002134293
 30
0.0
 41
0.9999999999779899
 10
302.4979092834396
 20
1601.972473985023
 30
0.0
 41
1.0
  0
SPLINE
  5
A5
330
1F
100
AcDbEntity
  8
Predefinito
100
AcDbSpline
210
0.0
220
0.0
230
1.0
 70
    24
 71
     2
 72
     6
 73
     3
 74
     0
 42
0.0000000001
 43
0.0000000001
 40
0.0
 40
0.0
 40
0.0
 40
7.731899350894309
 40
7.731899350894309
 40
7.731899350894309
 10
302.5155442360427
 20
1601.651276891419
 30
0.0
 10
306.3814939114898
 20
1601.651276891439
 30
0.0
 10
310.247443586937
 20
1601.65127689146
 30
0.0
  0
SPLINE
  5
A6
330
1F
100
AcDbEntity
  8
Predefinito
100
AcDbSpline
210
0.0
220
0.0
230
1.0
 70
    12
 71
     2
 72
     6
 73
     3
 74
     0
 42
0.0000000001
 43
0.0000000001
 40
0.0
 40
0.0
 40
0.0
 40
0.3235950894888198
 40
0.3235950894888198
 40
0.3235950894888198
 10
302.4979092834396
 20
1601.972473985031
 30
0.0
 41
1.0
 10
302.476079490187
 20
1601.810192785558
 30
0.0
 41
0.982274348815178
 10
302.5155442360427
 20
1601.651276891419
 30
0.0
 41
1.0
  0
SPLINE
  5
A7
330
1F
100
AcDbEntity
  8
Predefinito
100
AcDbSpline
210
0.0
220
0.0
230
1.0
 70
    12
 71
     2
 72
     6
 73
     3
 74
     0
 42
0.0000000001
 43
0.0000000001
 40
0.0
 40
0.0
 40
0.0
 40
7.749534852831331
 40
7.749534852831331
 40
7.749534852831331
 10
317.9969778169323
 20
1601.972474852926
 30
0.0
 41
1.0
 10
314.1222106916281
 20
1601.97400256809
 30
0.0
 41
0.9999999999779897
 10
310.247443586937
 20
1601.975581699901
 30
0.0
 41
1.0
  0
SPLINE
  5
A8
330
1F
100
AcDbEntity
  8
Predefinito
100
AcDbSpline
210
0.0
220
0.0
230
1.0
 70
    24
 71
     2
 72
     6
 73
     3
 74
     0
 42
0.0000000001
 43
0.0000000001
 40
0.0
 40
0.0
 40
0.0
 40
7.731899350891979
 40
7.731899350891979
 40
7.731899350891979
 10
310.247443586937
 20
1601.65127689146
 30
0.0
 10
314.1133932623829
 20
1601.651276891439
 30
0.0
 10
317.979342937829
 20
1601.651276891419
 30
0.0
  0
SPLINE
  5
A9
330
1F
100
AcDbEntity
  8
Predefinito
100
AcDbSpline
210
0.0
220
0.0
230
1.0
 70
    12
 71
     2
 72
     6
 73
     3
 74
     0
 42
0.0000000001
 43
0.0000000001
 40
0.0
 40
0.0
 40
0.0
 40
0.3243048342732993
 40
0.3243048342732993
 40
0.3243048342732993
 10
310.247443586937
 20
1601.975581699898
 30
0.0
 41
1.0
 10
310.2473314803749
 20
1601.813429295679
 30
0.0
 41
0.9999997610070263
 10
310.247443586937
 20
1601.65127689146
 30
0.0
 41
1.0
  0
SPLINE
  5
AA
330
1F
100
AcDbEntity
  8
Predefinito
100
AcDbSpline
210
0.0
220
0.0
230
1.0
 70
    12
 71
     2
 72
     6
 73
     3
 74
     0
 42
0.0000000001
 43
0.0000000001
 40
0.0
 40
0.0
 40
0.0
 40
8.890162782747407
 40
8.890162782747407
 40
8.890162782747407
 10
326.8871400570105
 20
1601.975581057137
 30
0.0
 41
1.0
 10
322.4420589424572
 20
1601.974012254144
 30
0.0
 41
0.9999999999937619
 10
317.9969778169323
 20
1601.972474852836
 30
0.0
 41
1.0
  0
SPLINE
  5
AB
330
1F
100
AcDbEntity
  8
Predefinito
100
AcDbSpline
210
0.0
220
0.0
230
1.0
 70
    24
 71
     2
 72
     6
 73
     3
 74
     0
 42
0.0000000001
 43
0.0000000001
 40
0.0
 40
0.0
 40
0.0
 40
8.870583676831927
 40
8.870583676831927
 40
8.870583676831927
 10
317.979342937829
 20
1601.651276891419
 30
0.0
 10
322.414634776245
 20
1601.651276891419
 30
0.0
 10
326.8499266146609
 20
1601.651276891419
 30
0.0
  0
SPLINE
  5
AC
330
1F
100
AcDbEntity
  8
Predefinito
100
AcDbSpline
210
0.0
220
0.0
230
1.0
 70
    12
 71
     2
 72
     6
 73
     3
 74
     0
 42
0.0000000001
 43
0.0000000001
 40
0.0
 40
0.0
 40
0.0
 40
0.3235818944369386
 40
0.3235818944369386
 40
0.3235818944369386
 10
317.9969778169323
 20
1601.97247485289
 30
0.0
 41
1.0
 10
318.0186927224306
 20
1601.8101995408
 30
0.0
 41
0.9824036496611369
 10
317.979342937829
 20
1601.651276891419
 30
0.0
 41
1.0
  0
SPLINE
  5
AD
330
1F
100
AcDbEntity
  8
Predefinito
100
AcDbSpline
210
0.0
220
0.0
230
1.0
 70
    12
 71
     2
 72
     6
 73
     3
 74
     0
 42
0.0000000001
 43
0.0000000001
 40
0.0
 40
0.0
 40
0.0
 40
6.373443035055303
 40
6.373443035055303
 40
6.373443035055303
 10
333.2605823353831
 20
1601.972475405433
 30
0.0
 41
1.0
 10
330.0738611891908
 20
1601.974013853508
 30
0.0
 41
0.9999999999898219
 10
326.8871400570105
 20
1601.975581057123
 30
0.0
 41
1.0
  0
SPLINE
  5
AE
330
1F
100
AcDbEntity
  8
Predefinito
100
AcDbSpline
210
0.0
220
0.0
230
1.0
 70
    24
 71
     2
 72
     6
 73
     3
 74
     0
 42
0.0000000001
 43
0.0000000001
 40
0.0
 40
0.0
 40
0.0
 40
6.35828513317341
 40
6.35828513317341
 40
6.35828513317341
 10
326.8499266146609
 20
1601.651276891419
 30
0.0
 10
330.0290691812476
 20
1601.651276891419
 30
0.0
 10
333.2082117478343
 20
1601.651276891419
 30
0.0
  0
SPLINE
  5
AF
330
1F
100
AcDbEntity
  8
Predefinito
100
AcDbSpline
210
0.0
220
0.0
230
1.0
 70
    12
 71
     2
 72
     6
 73
     3
 74
     0
 42
0.0000000001
 43
0.0000000001
 40
0.0
 40
0.0
 40
0.0
 40
0.3347533822728409
 40
0.3347533822728409
 40
0.3347533822728409
 10
326.8871400570105
 20
1601.975581057155
 30
0.0
 41
1.0
 10
326.9347409978199
 20
1601.805831739121
 30
0.0
 41
0.9258014156000486
 10
326.8499266146609
 20
1601.651276891419
 30
0.0
 41
1.0
  0
SPLINE
  5
B0
330
1F
100
AcDbEntity
  8
Predefinito
100
AcDbSpline
210
0.0
220
0.0
230
1.0
 70
    12
 71
     2
 72
     6
 73
     3
 74
     0
 42
0.0000000001
 43
0.0000000001
 40
0.0
 40
0.0
 40
0.0
 40
9.760665928636788
 40
9.760665928636788
 40
9.760665928636788
 10
343.0212477699234
 20
1601.975581057137
 30
0.0
 41
1.0
 10
338.1409150577885
 20
1601.974012091666
 30
0.0
 41
0.9999999999945316
 10
333.260582335383
 20
1601.972475405451
 30
0.0
 41
1.0
  0
SPLINE
  5
B1
330
1F
100
AcDbEntity
  8
Predefinito
100
AcDbSpline
210
0.0
220
0.0
230
1.0
 70
    24
 71
     2
 72
     6
 73
     3
 74
     0
 42
0.0000000001
 43
0.0000000001
 40
0.0
 40
0.0
 40
0.0
 40
9.739739848964632
 40
9.739739848964632
 40
9.739739848964632
 10
333.2082117478343
 20
1601.651276891419
 30
0.0
 10
338.0780816723166
 20
1601.651276891419
 30
0.0
 10
342.9479515967989
 20
1601.651276891419
 30
0.0
  0
SPLINE
  5
B2
330
1F
100
AcDbEntity
  8
Predefinito
100
AcDbSpline
210
0.0
220
0.0
230
1.0
 70
    12
 71
     2
 72
     6
 73
     3
 74
     0
 42
0.0000000001
 43
0.0000000001
 40
0.0
 40
0.0
 40
0.0
 40
0.3404558391232413
 40
0.3404558391232413
 40
0.3404558391232413
 10
333.2605823353831
 20
1601.972475405404
 30
0.0
 41
1.0
 10
333.3258996448516
 20
1601.796956885447
 30
0.0
 41
0.8688679684129527
 10
333.2082117478342
 20
1601.651276891419
 30
0.0
 41
1.0
  0
SPLINE
  5
B3
330
1F
100
AcDbEntity
  8
Predefinito
100
AcDbSpline
210
0.0
220
0.0
230
1.0
 70
    12
 71
     2
 72
     6
 73
     3
 74
     0
 42
0.0000000001
 43
0.0000000001
 40
0.0
 40
0.0
 40
0.0
 40
4.803696928063762
 40
4.803696928063762
 40
4.803696928063762
 10
347.8249436940413
 20
1601.972475405433
 30
0.0
 41
1.0
 10
345.4230957234916
 20
1601.974015098093
 30
0.0
 41
0.9999999999850506
 10
343.0212477699234
 20
1601.975581057166
 30
0.0
 41
1.0
  0
SPLINE
  5
B4
330
1F
100
AcDbEntity
  8
Predefinito
100
AcDbSpline
210
0.0
220
0.0
230
1.0
 70
    24
 71
     2
 72
     6
 73
     3
 74
     0
 42
0.0000000001
 43
0.0000000001
 40
0.0
 40
0.0
 40
0.0
 40
4.791477653503023
 40
4.791477653503023
 40
4.791477653503023
 10
342.9479515967989
 20
1601.651276891419
 30
0.0
 10
345.3436904235505
 20
1601.651276891419
 30
0.0
 10
347.739429250302
 20
1601.651276891419
 30
0.0
  0
SPLINE
  5
B5
330
1F
100
AcDbEntity
  8
Predefinito
100
AcDbSpline
210
0.0
220
0.0
230
1.0
 70
    12
 71
     2
 72
     6
 73
     3
 74
     0
 42
0.0000000001
 43
0.0000000001
 40
0.0
 40
0.0
 40
0.0
 40
0.36073319748037
 40
0.36073319748037
 40
0.36073319748037
 10
343.0212477699234
 20
1601.975581057149
 30
0.0
 41
1.0
 10
343.1194605636389
 20
1601.782948988292
 30
0.0
 41
0.768840861166668
 10
342.9479515967988
 20
1601.651276891419
 30
0.0
 41
1.0
  0
SPLINE
  5
B6
330
1F
100
AcDbEntity
  8
Predefinito
100
AcDbSpline
210
0.0
220
0.0
230
1.0
 70
    12
 71
     2
 72
     6
 73
     3
 74
     0
 42
0.0000000001
 43
0.0000000001
 40
0.0
 40
0.0
 40
0.0
 40
10.33459679970059
 40
10.33459679970059
 40
10.33459679970059
 10
358.1595400270842
 20
1601.975581057137
 30
0.0
 41
1.0
 10
352.9922418655269
 20
1601.974011712635
 30
0.0
 41
0.9999999999948904
 10
347.8249436940413
 20
1601.972475405438
 30
0.0
 41
1.0
  0
SPLINE
  5
B7
330
1F
100
AcDbEntity
  8
Predefinito
100
AcDbSpline
210
0.0
220
0.0
230
1.0
 70
    24
 71
     2
 72
     6
 73
     3
 74
     0
 42
0.0000000001
 43
0.0000000001
 40
0.0
 40
0.0
 40
0.0
 40
10.31295894002335
 40
10.31295894002335
 40
10.31295894002335
 10
347.739429250302
 20
1601.651276891419
 30
0.0
 10
352.8959087203136
 20
1601.651276891419
 30
0.0
 10
358.0523881903253
 20
1601.651276891419
 30
0.0
  0
SPLINE
  5
B8
330
1F
100
AcDbEntity
  8
Predefinito
100
AcDbSpline
210
0.0
220
0.0
230
1.0
 70
    12
 71
     2
 72
     6
 73
     3
 74
     0
 42
0.0000000001
 43
0.0000000001
 40
0.0
 40
0.0
 40
0.0
 40
0.3670733558668984
 40
0.3670733558668984
 40
0.3670733558668984
 10
347.8249436940413
 20
1601.97247540538
 30
0.0
 41
1.0
 10
347.9360702199347
 20
1601.770906833417
 30
0.0
 41
0.7220418211070174
 10
347.7394292503019
 20
1601.651276891419
 30
0.0
 41
1.0
  0
SPLINE
  5
B9
330
1F
100
AcDbEntity
  8
Predefinito
100
AcDbSpline
210
0.0
220
0.0
230
1.0
 70
    12
 71
     2
 72
     6
 73
     3
 74
     0
 42
0.0000000001
 43
0.0000000001
 40
0.0
 40
0.0
 40
0.0
 40
3.087993261755301
 40
3.087993261755301
 40
3.087993261755301
 10
361.2475317271093
 20
1601.972475405346
 30
0.0
 41
1.0
 10
359.7035358664703
 20
1601.974017665214
 30
0.0
 41
0.9999999999765845
 10
358.1595400270841
 20
1601.97558105711
 30
0.0
 41
1.0
  0
SPLINE
  5
BA
330
1F
100
AcDbEntity
  8
Predefinito
100
AcDbSpline
210
0.0
220
0.0
230
1.0
 70
    24
 71
     2
 72
     6
 73
     3
 74
     0
 42
0.0000000001
 43
0.0000000001
 40
0.0
 40
0.0
 40
0.0
 40
3.079083549920654
 40
3.079083549920654
 40
3.079083549920654
 10
358.0523881903253
 20
1601.651276891419
 30
0.0
 10
359.5919299652857
 20
1601.651276891419
 30
0.0
 10
361.131471740246
 20
1601.651276891419
 30
0.0
  0
SPLINE
  5
BB
330
1F
100
AcDbEntity
  8
Predefinito
100
AcDbSpline
210
0.0
220
0.0
230
1.0
 70
    12
 71
     2
 72
     8
 73
     5
 74
     0
 42
0.0000000001
 43
0.0000000001
 40
0.0
 40
0.0
 40
0.0
 40
0.1965061805556824
 40
0.1965061805556824
 40
0.3930123611113648
 40
0.3930123611113648
 40
0.3930123611113648
 10
358.1595400270842
 20
1601.975581057151
 30
0.0
 41
1.0
 10
358.2178816691721
 20
1601.887616484207
 30
0.0
 41
0.899413757712146
 10
358.1847669881644
 20
1601.78739208001
 30
0.0
 41
1.0
 10
358.1516523071566
 20
1601.687167675813
 30
0.0
 41
0.899413757712146
 10
358.0523881903253
 20
1601.651276891419
 30
0.0
 41
1.0
  0
SPLINE
  5
BC
330
1F
100
AcDbEntity
  8
Predefinito
100
AcDbSpline
210
0.0
220
0.0
230
1.0
 70
    12
 71
     2
 72
     6
 73
     3
 74
     0
 42
0.0000000001
 43
0.0000000001
 40
0.0
 40
0.0
 40
0.0
 40
10.59451620669869
 40
10.59451620669869
 40
10.59451620669869
 10
371.8420474785984
 20
1601.97558105737
 30
0.0
 41
1.0
 10
366.5447896077982
 20
1601.974011364168
 30
0.0
 41
0.9999999999949306
 10
361.2475317271093
 20
1601.972475405548
 30
0.0
 41
1.0
  0
SPLINE
  5
BD
330
1F
100
AcDbEntity
  8
Predefinito
100
AcDbSpline
210
0.0
220
0.0
230
1.0
 70
    24
 71
     2
 72
     6
 73
     3
 74
     0
 42
0.0000000001
 43
0.0000000001
 40
0.0
 40
0.0
 40
0.0
 40
10.57282399229882
 40
10.57282399229882
 40
10.57282399229882
 10
361.131471740246
 20
1601.651276891419
 30
0.0
 10
366.4178837363954
 20
1601.651276891419
 30
0.0
 10
371.7042957325448
 20
1601.651276891419
 30
0.0
  0
SPLINE
  5
BE
330
1F
100
AcDbEntity
  8
Predefinito
100
AcDbSpline
210
0.0
220
0.0
230
1.0
 70
    12
 71
     2
 72
     8
 73
     5
 74
     0
 42
0.0000000001
 43
0.0000000001
 40
0.0
 40
0.0
 40
0.0
 40
0.198508608212956
 40
0.198508608212956
 40
0.397017216425912
 40
0.397017216425912
 40
0.397017216425912
 10
361.2475317271093
 20
1601.972475405349
 30
0.0
 41
1.0
 10
361.3071150957163
 20
1601.883360749458
 30
0.0
 41
0.8924528397726265
 10
361.2706856994269
 20
1601.782541610427
 30
0.0
 41
1.0
 10
361.2342563031374
 20
1601.681722471396
 30
0.0
 41
0.8924528397726265
 10
361.131471740246
 20
1601.651276891419
 30
0.0
 41
1.0
  0
SPLINE
  5
BF
330
1F
100
AcDbEntity
  8
Predefinito
100
AcDbSpline
210
0.0
220
0.0
230
1.0
 70
    12
 71
     2
 72
     6
 73
     3
 74
     0
 42
0.0000000001
 43
0.0000000001
 40
0.0
 40
0.0
 40
0.0
 40
1.278464182859889
 40
1.278464182859889
 40
1.278464182859889
 10
373.1205078893195
 20
1601.972475405317
 30
0.0
 41
1.0
 10
372.481277681728
 20
1601.974027312921
 30
0.0
 41
0.9999999999989682
 10
371.8420474785983
 20
1601.975581057092
 30
0.0
 41
1.0
  0
SPLINE
  5
C0
330
1F
100
AcDbEntity
  8
Predefinito
100
AcDbSpline
210
0.0
220
0.0
230
1.0
 70
    24
 71
     2
 72
     6
 73
     3
 74
     0
 42
0.0000000001
 43
0.0000000001
 40
0.0
 40
0.0
 40
0.0
 40
1.273133050776835
 40
1.273133050776835
 40
1.273133050776835
 10
371.7042957325448
 20
1601.651276891419
 30
0.0
 10
372.3408622579332
 20
1601.651276891419
 30
0.0
 10
372.9774287833216
 20
1601.651276891419
 30
0.0
  0
SPLINE
  5
C1
330
1F
100
AcDbEntity
  8
Predefinito
100
AcDbSpline
210
0.0
220
0.0
230
1.0
 70
    12
 71
     2
 72
     8
 73
     5
 74
     0
 42
0.0000000001
 43
0.0000000001
 40
0.0
 40
0.0
 40
0.0
 40
0.2131170662934449
 40
0.2131170662934449
 40
0.4262341325868899
 40
0.4262341325868899
 40
0.4262341325868899
 10
371.8420474785983
 20
1601.975581057153
 30
0.0
 41
1.0
 10
371.9128543916822
 20
1601.881782911527
 30
0.0
 41
0.8657524082517217
 10
371.8669081804907
 20
1601.773613337521
 30
0.0
 41
1.0
 10
371.8209619692992
 20
1601.665443763515
 30
0.0
 41
0.8657524082517217
 10
371.7042957325448
 20
1601.651276891419
 30
0.0
 41
1.0
  0
SPLINE
  5
C2
330
1F
100
AcDbEntity
  8
Predefinito
100
AcDbSpline
210
0.0
220
0.0
230
1.0
 70
    12
 71
     2
 72
     6
 73
     3
 74
     0
 42
0.0000000001
 43
0.0000000001
 40
0.0
 40
0.0
 40
0.0
 40
10.53252616491615
 40
10.53252616491615
 40
10.53252616491615
 10
383.6530335963461
 20
1601.975581056904
 30
0.0
 41
1.0
 10
378.3867707479064
 20
1601.97401102386
 30
0.0
 41
0.9999999999946619
 10
373.1205078893194
 20
1601.972475405273
 30
0.0
 41
1.0
  0
SPLINE
  5
C3
330
1F
100
AcDbEntity
  8
Predefinito
100
AcDbSpline
210
0.0
220
0.0
230
1.0
 70
    24
 71
     2
 72
     6
 73
     3
 74
     0
 42
0.0000000001
 43
0.0000000001
 40
0.0
 40
0.0
 40
0.0
 40
10.5114391377391
 40
10.5114391377391
 40
10.5114391377391
 10
372.9774287833216
 20
1601.651276891419
 30
0.0
 10
378.2331483521912
 20
1601.651276891419
 30
0.0
 10
383.4888679210607
 20
1601.651276891419
 30
0.0
  0
SPLINE
  5
C4
330
1F
100
AcDbEntity
  8
Predefinito
100
AcDbSpline
210
0.0
220
0.0
230
1.0
 70
    12
 71
     2
 72
     8
 73
     5
 74
     0
 42
0.0000000001
 43
0.0000000001
 40
0.0
 40
0.0
 40
0.0
 40
0.2129632794502925
 40
0.2129632794502925
 40
0.425926558900585
 40
0.425926558900585
 40
0.425926558900585
 10
373.1205078893194
 20
1601.972475405362
 30
0.0
 41
1.0
 10
373.1900043688594
 20
1601.877704811755
 30
0.0
 41
0.8648719192627982
 10
373.1421840317552
 20
1601.77035286049
 30
0.0
 41
1.0
 10
373.0943636946511
 20
1601.663000909225
 30
0.0
 41
0.8648719192627982
 10
372.9774287833216
 20
1601.651276891419
 30
0.0
 41
1.0
  0
SPLINE
  5
C5
330
1F
100
AcDbEntity
  8
Predefinito
100
AcDbSpline
210
0.0
220
0.0
230
1.0
 70
    12
 71
     2
 72
     8
 73
     5
 74
     0
 42
0.0000000001
 43
0.0000000001
 40
0.0
 40
0.0
 40
0.0
 40
0.2280593088199138
 40
0.2280593088199138
 40
0.4561186176398276
 40
0.4561186176398276
 40
0.4561186176398276
 10
383.6537991173296
 20
1601.974652928835
 30
0.0
 41
1.0
 10
383.7336824927832
 20
1601.874218757958
 30
0.0
 41
0.8409400536926048
 10
383.6753765608739
 20
1601.759899928984
 30
0.0
 41
1.0
 10
383.6170706289647
 20
1601.645581100011
 30
0.0
 41
0.8409400536926048
 10
383.4888679210607
 20
1601.651276891419
 30
0.0
 41
1.0
  0
SPLINE
  5
C6
330
1F
100
AcDbEntity
  8
Predefinito
100
AcDbSpline
210
0.0
220
0.0
230
1.0
 70
    12
 71
     2
 72
     6
 73
     3
 74
     0
 42
0.0000000001
 43
0.0000000001
 40
0.0
 40
0.0
 40
0.0
 40
9.580593106614911
 40
9.580593106614911
 40
9.580593106614911
 10
393.2336271245083
 20
1601.975581699749
 30
0.0
 41
1.0
 10
388.4433308015461
 20
1601.974096110412
 30
0.0
 41
0.9999999999957037
 10
383.6530344699568
 20
1601.972638604806
 30
0.0
 41
1.0
  0
SPLINE
  5
C7
330
1F
100
AcDbEntity
  8
Predefinito
100
AcDbSpline
210
0.0
220
0.0
230
1.0
 70
    24
 71
     2
 72
     6
 73
     3
 74
     0
 42
0.0000000001
 43
0.0000000001
 40
0.0
 40
0.0
 40
0.0
 40
9.559171111680541
 40
9.559171111680541
 40
9.559171111680541
 10
383.4888679268075
 20
1601.651276891421
 30
0.0
 10
388.2684534826477
 20
1601.651276891441
 30
0.0
 10
393.048039038488
 20
1601.651276891461
 30
0.0
  0
SPLINE
  5
C8
330
1F
100
AcDbEntity
  8
Predefinito
100
AcDbSpline
210
0.0
220
0.0
230
1.0
 70
    24
 71
     2
 72
     6
 73
     3
 74
     0
 42
0.0000000001
 43
0.0000000001
 40
0.0
 40
0.0
 40
0.0
 40
1.452529047340931
 40
1.452529047340931
 40
1.452529047340931
 10
404.4048037489927
 20
1601.651276891419
 30
0.0
 10
405.1310682726631
 20
1601.651276891419
 30
0.0
 10
405.8573327963336
 20
1601.651276891419
 30
0.0
  0
SPLINE
  5
C9
330
1F
100
AcDbEntity
  8
Predefinito
100
AcDbSpline
210
0.0
220
0.0
230
1.0
 70
    12
 71
     2
 72
     6
 73
     3
 74
     0
 42
0.0000000001
 43
0.0000000001
 40
0.0
 40
0.0
 40
0.0
 40
1.455784665831877
 40
1.455784665831877
 40
1.455784665831877
 10
406.0716364672377
 20
1601.975581057137
 30
0.0
 41
1.0
 10
405.343744202806
 20
1601.975265306311
 30
0.0
 41
0.9999999999994618
 10
404.6158519377205
 20
1601.974951066083
 30
0.0
 41
1.0
  0
SPLINE
  5
CA
330
1F
100
AcDbEntity
  8
Predefinito
100
AcDbSpline
210
0.0
220
0.0
230
1.0
 70
    12
 71
     2
 72
     8
 73
     5
 74
     0
 42
0.0000000001
 43
0.0000000001
 40
0.0
 40
0.0
 40
0.0
 40
0.2611099134409836
 40
0.2611099134409836
 40
0.5222198268819672
 40
0.5222198268819672
 40
0.5222198268819672
 10
405.8573327963336
 20
1601.651276891419
 30
0.0
 41
1.0
 10
406.0026626827388
 20
1601.605608140477
 30
0.0
 41
0.7986998296769252
 10
406.0866478198114
 20
1601.732702229427
 30
0.0
 41
1.0
 10
406.170632956884
 20
1601.859796318377
 30
0.0
 41
0.7986998296769252
 10
406.0716364672377
 20
1601.975581057151
 30
0.0
 41
1.0
  0
SPLINE
  5
CB
330
1F
100
AcDbEntity
  8
Predefinito
100
AcDbSpline
210
0.0
220
0.0
230
1.0
 70
    12
 71
     2
 72
     8
 73
     5
 74
     0
 42
0.0000000001
 43
0.0000000001
 40
0.0
 40
0.0
 40
0.0
 40
0.2414651544363814
 40
0.2414651544363814
 40
0.4829303088727628
 40
0.4829303088727628
 40
0.4829303088727628
 10
393.2344050659004
 20
1601.974748121925
 30
0.0
 41
1.0
 10
393.3220345018368
 20
1601.868121431546
 30
0.0
 41
0.8223294641455429
 10
393.2531351630904
 20
1601.748534432822
 30
0.0
 41
1.0
 10
393.1842358243439
 20
1601.628947434097
 30
0.0
 41
0.8223294641455429
 10
393.048039038488
 20
1601.651276891461
 30
0.0
 41
1.0
  0
SPLINE
  5
CC
330
1F
100
AcDbEntity
  8
Predefinito
100
AcDbSpline
210
0.0
220
0.0
230
1.0
 70
    12
 71
     2
 72
     6
 73
     3
 74
     0
 42
0.0000000001
 43
0.0000000001
 40
0.0
 40
0.0
 40
0.0
 40
7.059103073755496
 40
7.059103073755496
 40
7.059103073755496
 10
400.2927305293268
 20
1601.975581057137
 30
0.0
 41
1.0
 10
396.7631791871115
 20
1601.974408791295
 30
0.0
 41
0.9999999999960464
 10
393.233627838359
 20
1601.973256375558
 30
0.0
 41
1.0
  0
SPLINE
  5
CD
330
1F
100
AcDbEntity
  8
Predefinito
100
AcDbSpline
210
0.0
220
0.0
230
1.0
 70
    24
 71
     2
 72
     6
 73
     3
 74
     0
 42
0.0000000001
 43
0.0000000001
 40
0.0
 40
0.0
 40
0.0
 40
7.043311910219984
 40
7.043311910219984
 40
7.043311910219984
 10
393.0480390385483
 20
1601.651276891419
 30
0.0
 10
396.5696949936582
 20
1601.651276891419
 30
0.0
 10
400.0913509487683
 20
1601.651276891419
 30
0.0
  0
SPLINE
  5
CE
330
1F
100
AcDbEntity
  8
Predefinito
100
AcDbSpline
210
0.0
220
0.0
230
1.0
 70
    24
 71
     2
 72
     6
 73
     3
 74
     0
 42
0.0000000001
 43
0.0000000001
 40
0.0
 40
0.0
 40
0.0
 40
4.313452795260218
 40
4.313452795260218
 40
4.313452795260218
 10
400.0913509496739
 20
1601.651276891419
 30
0.0
 10
402.248077347304
 20
1601.651276891419
 30
0.0
 10
404.4048037449341
 20
1601.651276891419
 30
0.0
  0
SPLINE
  5
CF
330
1F
100
AcDbEntity
  8
Predefinito
100
AcDbSpline
210
0.0
220
0.0
230
1.0
 70
    12
 71
     2
 72
     6
 73
     3
 74
     0
 42
0.0000000001
 43
0.0000000001
 40
0.0
 40
0.0
 40
0.0
 40
4.32312084166885
 40
4.32312084166885
 40
4.32312084166885
 10
404.6158516615784
 20
1601.975581057253
 30
0.0
 41
1.0
 10
402.4542913890636
 20
1601.974780296074
 30
0.0
 41
0.9999999999976099
 10
400.2927311130679
 20
1601.973988986805
 30
0.0
 41
1.0
  0
SPLINE
  5
D0
330
1F
100
AcDbEntity
  8
Predefinito
100
AcDbSpline
210
0.0
220
0.0
230
1.0
 70
    12
 71
     2
 72
     8
 73
     5
 74
     0
 42
0.0000000001
 43
0.0000000001
 40
0.0
 40
0.0
 40
0.0
 40
0.2586803910182827
 40
0.2586803910182827
 40
0.5173607820365653
 40
0.5173607820365653
 40
0.5173607820365653
 10
404.4048037449341
 20
1601.651276891419
 30
0.0
 41
1.0
 10
404.5491472766272
 20
1601.608568982437
 30
0.0
 41
0.8016330701959586
 10
404.631252318687
 20
1601.734734677852
 30
0.0
 41
1.0
 10
404.7133573607468
 20
1601.860900373267
 30
0.0
 41
0.8016330701959586
 10
404.6158516615785
 20
1601.975581057172
 30
0.0
 41
1.0
  0
SPLINE
  5
D1
330
1F
100
AcDbEntity
  8
Predefinito
100
AcDbSpline
210
0.0
220
0.0
230
1.0
 70
    12
 71
     2
 72
     8
 73
     5
 74
     0
 42
0.0000000001
 43
0.0000000001
 40
0.0
 40
0.0
 40
0.0
 40
0.2523870778437604
 40
0.2523870778437604
 40
0.5047741556875207
 40
0.5047741556875207
 40
0.5047741556875207
 10
400.2927305293268
 20
1601.975581057147
 30
0.0
 41
1.0
 10
400.3870558142501
 20
1601.864167543629
 30
0.0
 41
0.8085519338632704
 10
400.3100471482545
 20
1601.740151836026
 30
0.0
 41
1.0
 10
400.2330384822588
 20
1601.616136128424
 30
0.0
 41
0.8085519338632704
 10
400.0913509487682
 20
1601.651276891418
 30
0.0
 41
1.0
  0
SPLINE
  5
D2
330
1F
100
AcDbEntity
  8
Predefinito
100
AcDbSpline
210
0.0
220
0.0
230
1.0
 70
    24
 71
     2
 72
     6
 73
     3
 74
     0
 42
0.0000000001
 43
0.0000000001
 40
0.0
 40
0.0
 40
0.0
 40
20.48164868023531
 40
20.48164868023531
 40
20.48164868023531
 10
310.247442
 20
1832.816097543905
 30
0.0
 10
300.0066176598823
 20
1832.816097543905
 30
0.0
 10
289.7657933197647
 20
1832.816097543905
 30
0.0
  0
SPLINE
  5
D3
330
1F
100
AcDbEntity
  8
Predefinito
100
AcDbSpline
210
0.0
220
0.0
230
1.0
 70
    24
 71
     2
 72
     6
 73
     3
 74
     0
 42
0.0000000001
 43
0.0000000001
 40
0.0
 40
0.0
 40
0.0
 40
86.8163967794431
 40
86.8163967794431
 40
86.8163967794431
 10
310.247442
 20
1784.963380293051
 30
0.0
 10
266.8392436102785
 20
1784.963380293051
 30
0.0
 10
223.4310452205569
 20
1784.963380293051
 30
0.0
  0
SPLINE
  5
D4
330
1F
100
AcDbEntity
  8
Predefinito
100
AcDbSpline
210
0.0
220
0.0
230
1.0
 70
    24
 71
     2
 72
     6
 73
     3
 74
     0
 42
0.0000000001
 43
0.0000000001
 40
0.0
 40
0.0
 40
0.0
 40
302.4254758917721
 40
302.4254758917721
 40
302.4254758917721
 10
310.247442
 20
1754.651026396543
 30
0.0
 10
159.0347040541139
 20
1754.651026396543
 30
0.0
 10
7.821966108227935
 20
1754.651026396542
 30
0.0
  0
SPLINE
  5
D5
330
1F
100
AcDbEntity
  8
Predefinito
100
AcDbSpline
210
0.0
220
0.0
230
1.0
 70
    24
 71
     2
 72
     6
 73
     3
 74
     0
 42
0.0000000001
 43
0.0000000001
 40
0.0
 40
0.0
 40
0.0
 40
310.1710093451184
 40
310.1710093451184
 40
310.1710093451184
 10
310.247442
 20
1745.738613774468
 30
0.0
 10
155.1619373274408
 20
1745.738613774468
 30
0.0
 10
0.0764326548816249
 20
1745.738613774468
 30
0.0
  0
SPLINE
  5
D6
330
1F
100
AcDbEntity
  8
Predefinito
100
AcDbSpline
210
0.0
220
0.0
230
1.0
 70
    28
 71
     2
 72
     8
 73
     5
 74
     0
 42
0.0000000001
 43
0.0000000001
 40
-165.218196563912
 40
-165.218196563912
 40
-165.218196563912
 40
-155.499479118976
 40
-155.499479118976
 40
0.0
 40
0.0
 40
0.0
 10
330.7290906802357
 20
1832.816097543904
 30
0.0
 41
0.9656765759202985
 10
330.81227731846
 20
1832.816097543905
 30
0.0
 41
0.9816941738241592
 10
330.81227731846
 20
1832.816097543905
 30
0.0
 41
1.0
 10
330.81227731846
 20
1832.816097543905
 30
0.0
 41
0.707106781186548
 10
310.247442
 20
1832.816097543905
 30
0.0
 41
1.0
  0
SPLINE
  5
D7
330
1F
100
AcDbEntity
  8
Predefinito
100
AcDbSpline
210
0.0
220
0.0
230
1.0
 70
    24
 71
     2
 72
     6
 73
     3
 74
     0
 42
0.0000000001
 43
0.0000000001
 40
0.0
 40
0.0
 40
0.0
 40
86.81639677944298
 40
86.81639677944298
 40
86.81639677944298
 10
397.063838779443
 20
1784.963380293051
 30
0.0
 10
353.6556403897215
 20
1784.963380293051
 30
0.0
 10
310.247442
 20
1784.963380293051
 30
0.0
  0
SPLINE
  5
D8
330
1F
100
AcDbEntity
  8
Predefinito
100
AcDbSpline
210
0.0
220
0.0
230
1.0
 70
    12
 71
     2
 72
     8
 73
     5
 74
     0
 42
0.0000000001
 43
0.0000000001
 40
0.0
 40
0.0
 40
0.0
 40
0.0745239926679915
 40
0.0745239926679915
 40
473.2728991989472
 40
473.2728991989472
 40
473.2728991989472
 10
612.6729178917719
 20
1754.651026248932
 30
0.0
 41
1.0
 10
612.7101798881059
 20
1754.651026248931
 30
0.0
 41
1.0
 10
612.7474418844399
 20
1754.651026248931
 30
0.0
 41
1.0
 10
612.7474418844399
 20
1754.651026396543
 30
0.0
 41
0.7071067812754808
 10
310.247442129895
 20
1754.651026396543
 30
0.0
 41
0.9999999998221345
  0
SPLINE
  5
D9
330
1F
100
AcDbEntity
  8
Predefinito
100
AcDbSpline
210
0.0
220
0.0
230
1.0
 70
    12
 71
     2
 72
     8
 73
     5
 74
     0
 42
0.0000000001
 43
0.0000000001
 40
0.0
 40
0.0
 40
0.0
 40
0.076432654881728
 40
0.076432654881728
 40
487.4119749459947
 40
487.4119749459947
 40
487.4119749459947
 10
620.4184513451182
 20
1745.738613128662
 30
0.0
 41
1.0
 10
620.4566676725591
 20
1745.738613128662
 30
0.0
 41
1.0
 10
620.494884
 20
1745.738613128663
 30
0.0
 41
1.0
 10
620.494884
 20
1745.738613774467
 30
0.0
 41
0.707106781186548
 10
310.247442
 20
1745.738613774468
 30
0.0
 41
1.0
  0
SPLINE
  5
DA
330
1F
100
AcDbEntity
  8
Predefinito
100
AcDbSpline
210
0.0
220
0.0
230
1.0
 70
    24
 71
     2
 72
     6
 73
     3
 74
     0
 42
0.0000000001
 43
0.0000000001
 40
0.0
 40
0.0
 40
0.0
 40
310.1710093451184
 40
310.1710093451184
 40
310.1710093451184
 10
310.247442
 20
1744.651026774468
 30
0.0
 10
155.1619373274408
 20
1744.651026774468
 30
0.0
 10
0.0764326548816249
 20
1744.651026774468
 30
0.0
  0
SPLINE
  5
DB
330
1F
100
AcDbEntity
  8
Predefinito
100
AcDbSpline
210
0.0
220
0.0
230
1.0
 70
    28
 71
     2
 72
     8
 73
     5
 74
     0
 42
0.0000000001
 43
0.0000000001
 40
-494.9501601394117
 40
-494.9501601394117
 40
-494.9501601394117
 40
-487.335542291113
 40
-487.335542291113
 40
0.0
 40
0.0
 40
0.0
 10
620.4184513451182
 20
1744.651026774468
 30
0.0
 41
0.9909901011790784
 10
620.494884
 20
1744.651026774468
 30
0.0
 41
0.9954235434560398
 10
620.494884
 20
1744.651026774468
 30
0.0
 41
1.0
 10
620.494884
 20
1744.651026774468
 30
0.0
 41
0.707106781186548
 10
310.247442
 20
1744.651026774468
 30
0.0
 41
1.0
  0
SPLINE
  5
DC
330
1F
100
AcDbEntity
  8
Predefinito
100
AcDbSpline
210
0.0
220
0.0
230
1.0
 70
    12
 71
     2
 72
    16
 73
    13
 74
     0
 42
0.0000000001
 43
0.0000000001
 40
0.0
 40
0.0
 40
0.0
 40
13.91141628535821
 40
13.91141628535821
 40
32.5688936617945
 40
32.5688936617945
 40
51.8333073748875
 40
51.8333073748875
 40
132.9177027883605
 40
132.9177027883605
 40
306.7505631151081
 40
306.7505631151081
 40
635.041786236356
 40
635.041786236356
 40
635.041786236356
 10
313.0706356857554
 20
2785.815625625411
 30
0.0
 41
1.0
 10
313.0710337661391
 20
2778.85991749243
 30
0.0
 41
0.9999999996347877
 10
313.0710558714638
 20
2771.904209348093
 30
0.0
 41
1.0
 10
313.0710792078903
 20
2762.575470659611
 30
0.0
 41
0.9999999999530383
 10
313.0709217272863
 20
2753.246731972431
 30
0.0
 41
1.0
 10
313.0707971537599
 20
2743.614525116685
 30
0.0
 41
0.9999999999993767
 10
313.0706940887205
 20
2733.982318260686
 30
0.0
 41
1.0
 10
313.070272100418
 20
2693.440120555993
 30
0.0
 41
0.9999999999943202
 10
313.0701233989657
 20
2652.897922849375
 30
0.0
 41
1.0
 10
313.0698436819529
 20
2565.981492686164
 30
0.0
 41
0.9999999999950336
 10
313.0701118251476
 20
2479.065062522916
 30
0.0
 41
1.0
 10
313.0709486932163
 20
2314.919450963285
 30
0.0
 41
0.9999999999895832
 10
313.0702871015975
 20
2150.773839402855
 30
0.0
 41
1.0
  0
SPLINE
  5
DD
330
1F
100
AcDbEntity
  8
Predefinito
100
AcDbSpline
210
0.0
220
0.0
230
1.0
 70
    12
 71
     2
 72
    10
 73
     7
 74
     0
 42
0.0000000001
 43
0.0000000001
 40
0.0
 40
0.0
 40
0.0
 40
213.1858789912407
 40
213.1858789912407
 40
251.5691212600224
 40
251.5691212600224
 40
256.1228081370359
 40
256.1228081370359
 40
256.1228081370359
 10
313.070287104696
 20
2150.77383910651
 30
0.0
 41
1.0
 10
313.069803674957
 20
2044.180899596566
 30
0.0
 41
0.9999999997830097
 10
313.0648791134518
 20
1937.587960199282
 30
0.0
 41
1.0
 10
313.0639361602755
 20
1918.396339087845
 30
0.0
 41
0.9999999999834541
 10
313.0627724053397
 20
1899.204717988527
 30
0.0
 41
1.0
 10
313.0626342784405
 20
1896.92787455421
 30
0.0
 41
0.9999999999997755
 10
313.0624930994545
 20
1894.65103112008
 30
0.0
 41
1.0
  0
SPLINE
  5
DE
330
1F
100
AcDbEntity
  8
Predefinito
100
AcDbSpline
210
0.0
220
0.0
230
1.0
 70
    24
 71
     2
 72
     6
 73
     3
 74
     0
 42
0.0000000001
 43
0.0000000001
 40
0.0
 40
0.0
 40
0.0
 40
19.75443924006254
 40
19.75443924006254
 40
19.75443924006254
 10
310.247442
 20
1833.851027728524
 30
0.0
 10
300.3702223799687
 20
1833.851027728524
 30
0.0
 10
290.4930027599374
 20
1833.851027728524
 30
0.0
  0
SPLINE
  5
DF
330
1F
100
AcDbEntity
  8
Predefinito
100
AcDbSpline
210
0.0
220
0.0
230
1.0
 70
    24
 71
     2
 72
     6
 73
     3
 74
     0
 42
0.0000000001
 43
0.0000000001
 40
0.0
 40
0.0
 40
0.0
 40
19.55524825833993
 40
19.55524825833993
 40
19.55524825833993
 10
310.247442
 20
1833.651027728524
 30
0.0
 10
300.46981787083
 20
1833.651027728524
 30
0.0
 10
290.69219374166
 20
1833.651027728524
 30
0.0
  0
SPLINE
  5
E0
330
1F
100
AcDbEntity
  8
Predefinito
100
AcDbSpline
210
0.0
220
0.0
230
1.0
 70
    12
 71
     2
 72
     8
 73
     5
 74
     0
 42
0.0000000001
 43
0.0000000001
 40
0.0
 40
0.0
 40
0.0
 40
0.0802330620958287
 40
0.0802330620958287
 40
30.92230419214773
 40
30.92230419214773
 40
30.92230419214773
 10
330.0018812400622
 20
1833.851028442383
 30
0.0
 41
1.0
 10
330.0419977711101
 20
1833.851028442383
 30
0.0
 41
1.0
 10
330.082114302158
 20
1833.851028442382
 30
0.0
 41
1.0
 10
330.0821143021579
 20
1833.851027728524
 30
0.0
 41
0.707106781186548
 10
310.247442
 20
1833.851027728524
 30
0.0
 41
1.0
  0
SPLINE
  5
E1
330
1F
100
AcDbEntity
  8
Predefinito
100
AcDbSpline
210
0.0
220
0.0
230
1.0
 70
    24
 71
     2
 72
     6
 73
     3
 74
     0
 42
0.0000000001
 43
0.0000000001
 40
0.0
 40
0.0
 40
0.0
 40
19.55524825833959
 40
19.55524825833959
 40
19.55524825833959
 10
310.247442
 20
1833.651027728524
 30
0.0
 10
320.0250661291698
 20
1833.651027728524
 30
0.0
 10
329.8026902583396
 20
1833.651027728524
 30
0.0
  0
SPLINE
  5
E2
330
1F
100
AcDbEntity
  8
Predefinito
100
AcDbSpline
210
0.0
220
0.0
230
1.0
 70
    24
 71
     2
 72
     6
 73
     3
 74
     0
 42
0.0000000001
 43
0.0000000001
 40
0.0
 40
0.0
 40
0.0
 40
3.371527865932137
 40
3.371527865932137
 40
3.371527865932137
 10
310.247442
 20
1894.651027728524
 30
0.0
 10
308.5616780670339
 20
1894.651027728524
 30
0.0
 10
306.8759141340678
 20
1894.651027728524
 30
0.0
  0
SPLINE
  5
E3
330
1F
100
AcDbEntity
  8
Predefinito
100
AcDbSpline
210
0.0
220
0.0
230
1.0
 70
    24
 71
     2
 72
     6
 73
     3
 74
     0
 42
0.0000000001
 43
0.0000000001
 40
0.0
 40
0.0
 40
0.0
 40
18.71382770144066
 40
18.71382770144066
 40
18.71382770144066
 10
310.247442
 20
1836.493403372268
 30
0.0
 10
300.8905281492796
 20
1836.493403372268
 30
0.0
 10
291.5336142985593
 20
1836.493403372268
 30
0.0
  0
SPLINE
  5
E4
330
1F
100
AcDbEntity
  8
Predefinito
100
AcDbSpline
210
0.0
220
0.0
230
1.0
 70
    24
 71
     2
 72
     6
 73
     3
 74
     0
 42
0.0000000001
 43
0.0000000001
 40
0.0
 40
0.0
 40
0.0
 40
18.76475471333498
 40
18.76475471333498
 40
18.76475471333498
 10
310.247442
 20
1836.251027728524
 30
0.0
 10
300.8650646433325
 20
1836.251027728524
 30
0.0
 10
291.482687286665
 20
1836.251027728524
 30
0.0
  0
SPLINE
  5
E5
330
1F
100
AcDbEntity
  8
Predefinito
100
AcDbSpline
210
0.0
220
0.0
230
1.0
 70
    12
 71
     2
 72
     8
 73
     5
 74
     0
 42
0.0000000001
 43
0.0000000001
 40
0.0
 40
0.0
 40
0.0
 40
0.0801444857337401
 40
0.0801444857337401
 40
1.65094081252864
 40
1.65094081252864
 40
1.65094081252864
 10
290.5148114297862
 20
1833.942018985748
 30
0.0
 41
1.0
 10
290.4747391869194
 20
1833.942018985748
 30
0.0
 41
1.0
 10
290.4346669440525
 20
1833.942018985747
 30
0.0
 41
1.0
 10
290.4346669440525
 20
1833.942018986855
 30
0.0
 41
0.707106781186548
 10
310.247442
 20
1833.942018986855
 30
0.0
 41
1.0
  0
SPLINE
  5
E6
330
1F
100
AcDbEntity
  8
Predefinito
100
AcDbSpline
210
0.0
220
0.0
230
1.0
 70
    12
 71
     2
 72
     8
 73
     5
 74
     0
 42
0.0000000001
 43
0.0000000001
 40
0.0
 40
0.0
 40
0.0
 40
0.0768379185074082
 40
0.0768379185074082
 40
29.6348975995118
 40
29.6348975995118
 40
29.6348975995118
 10
291.3289319389694
 20
1835.542018890381
 30
0.0
 41
1.0
 10
291.2905129797157
 20
1835.54201889038
 30
0.0
 41
1.0
 10
291.252094020462
 20
1835.54201889038
 30
0.0
 41
1.0
 10
291.252094020462
 20
1835.542018986855
 30
0.0
 41
0.707106781186548
 10
310.247442
 20
1835.542018986855
 30
0.0
 41
1.0
  0
SPLINE
  5
E7
330
1F
100
AcDbEntity
  8
Predefinito
100
AcDbSpline
210
0.0
220
0.0
230
1.0
 70
    12
 71
     2
 72
     8
 73
     5
 74
     0
 42
0.0000000001
 43
0.0000000001
 40
0.0
 40
0.0
 40
0.0
 40
0.0572420505398554
 40
0.0572420505398554
 40
304.9133867374069
 40
304.9133867374069
 40
304.9133867374069
 10
313.6189698659321
 20
1894.651027679443
 30
0.0
 41
1.0
 10
313.6475908912021
 20
1894.651027679443
 30
0.0
 41
1.0
 10
313.676211916472
 20
1894.651027679443
 30
0.0
 41
1.0
 10
313.676211916472
 20
1894.651027728524
 30
0.0
 41
0.707106781186548
 10
310.247442
 20
1894.651027728524
 30
0.0
 41
1.0
  0
SPLINE
  5
E8
330
1F
100
AcDbEntity
  8
Predefinito
100
AcDbSpline
210
0.0
220
0.0
230
1.0
 70
    12
 71
     2
 72
     8
 73
     5
 74
     0
 42
0.0000000001
 43
0.0000000001
 40
0.0
 40
0.0
 40
0.0
 40
0.076006596885577
 40
0.076006596885577
 40
28.72885236617588
 40
28.72885236617588
 40
28.72885236617588
 10
328.9612697014404
 20
1836.493402481079
 30
0.0
 41
1.0
 10
328.9992729998832
 20
1836.493402481079
 30
0.0
 41
1.0
 10
329.037276298326
 20
1836.493402481079
 30
0.0
 41
1.0
 10
329.037276298326
 20
1836.493403372268
 30
0.0
 41
0.707106781186548
 10
310.247442
 20
1836.493403372268
 30
0.0
 41
1.0
  0
SPLINE
  5
E9
330
1F
100
AcDbEntity
  8
Predefinito
100
AcDbSpline
210
0.0
220
0.0
230
1.0
 70
    12
 71
     2
 72
     8
 73
     5
 74
     0
 42
0.0000000001
 43
0.0000000001
 40
0.0
 40
0.0
 40
0.0
 40
0.0762134379939994
 40
0.0762134379939994
 40
28.7290592072843
 40
28.7290592072843
 40
28.7290592072843
 10
329.012196713335
 20
1836.251027584076
 30
0.0
 41
1.0
 10
329.050303432332
 20
1836.251027584077
 30
0.0
 41
1.0
 10
329.088410151329
 20
1836.251027584077
 30
0.0
 41
1.0
 10
329.088410151329
 20
1836.251027728524
 30
0.0
 41
0.707106781186548
 10
310.247442
 20
1836.251027728524
 30
0.0
 41
1.0
  0
SPLINE
  5
EA
330
1F
100
AcDbEntity
  8
Predefinito
100
AcDbSpline
210
0.0
220
0.0
230
1.0
 70
    12
 71
     2
 72
     8
 73
     5
 74
     0
 42
0.0000000001
 43
0.0000000001
 40
0.0
 40
0.0
 40
0.0
 40
0.0761174765920032
 40
0.0761174765920032
 40
29.6341771575964
 40
29.6341771575964
 40
29.6341771575964
 10
291.5063142508433
 20
1835.651027679443
 30
0.0
 41
1.0
 10
291.4682555125473
 20
1835.651027679443
 30
0.0
 41
1.0
 10
291.4301967742513
 20
1835.651027679443
 30
0.0
 41
1.0
 10
291.4301967742513
 20
1835.651027728524
 30
0.0
 41
0.707106781186548
 10
310.247442
 20
1835.651027728524
 30
0.0
 41
1.0
  0
SPLINE
  5
EB
330
1F
100
AcDbEntity
  8
Predefinito
100
AcDbSpline
210
0.0
220
0.0
230
1.0
 70
    24
 71
     2
 72
     6
 73
     3
 74
     0
 42
0.0000000001
 43
0.0000000001
 40
0.0
 40
0.0
 40
0.0
 40
19.73263057021421
 40
19.73263057021421
 40
19.73263057021421
 10
310.247442
 20
1833.942018986855
 30
0.0
 10
320.1137572851071
 20
1833.942018986855
 30
0.0
 10
329.9800725702142
 20
1833.942018986855
 30
0.0
  0
SPLINE
  5
EC
330
1F
100
AcDbEntity
  8
Predefinito
100
AcDbSpline
210
0.0
220
0.0
230
1.0
 70
    28
 71
     2
 72
     8
 73
     5
 74
     0
 42
0.0000000001
 43
0.0000000001
 40
-31.4054384110677
 40
-31.4054384110677
 40
-31.4054384110677
 40
-29.5580596810049
 40
-29.5580596810049
 40
0.0
 40
0.0
 40
0.0
 10
328.988569749157
 20
1835.651027728524
 30
0.0
 41
0.9656765759202987
 10
329.064687225749
 20
1835.651027728524
 30
0.0
 41
0.9816941738241592
 10
329.064687225749
 20
1835.651027728524
 30
0.0
 41
1.0
 10
329.0646872257489
 20
1835.651027728524
 30
0.0
 41
0.707106781186548
 10
310.247442
 20
1835.651027728524
 30
0.0
 41
1.0
  0
SPLINE
  5
ED
330
1F
100
AcDbEntity
  8
Predefinito
100
AcDbSpline
210
0.0
220
0.0
230
1.0
 70
    24
 71
     2
 72
     6
 73
     3
 74
     0
 42
0.0000000001
 43
0.0000000001
 40
0.0
 40
0.0
 40
0.0
 40
18.91851006103059
 40
18.91851006103059
 40
18.91851006103059
 10
310.247442
 20
1835.542018986855
 30
0.0
 10
319.7066970305153
 20
1835.542018986855
 30
0.0
 10
329.1659520610306
 20
1835.542018986855
 30
0.0
  0
SPLINE
  5
EE
330
1F
100
AcDbEntity
  8
Predefinito
100
AcDbSpline
210
0.0
220
0.0
230
1.0
 70
    24
 71
     2
 72
     6
 73
     3
 74
     0
 42
0.0000000001
 43
0.0000000001
 40
0.0
 40
0.0
 40
0.0
 40
32.55719506130811
 40
32.55719506130811
 40
32.55719506130811
 10
310.247442
 20
1730.200503862284
 30
0.0
 10
293.9688444693459
 20
1730.200503862284
 30
0.0
 10
277.6902469386919
 20
1730.200503862284
 30
0.0
  0
SPLINE
  5
EF
330
1F
100
AcDbEntity
  8
Predefinito
100
AcDbSpline
210
0.0
220
0.0
230
1.0
 70
    24
 71
     2
 72
     6
 73
     3
 74
     0
 42
0.0000000001
 43
0.0000000001
 40
0.0
 40
0.0
 40
0.0
 40
32.55719506130799
 40
32.55719506130799
 40
32.55719506130799
 10
342.804637061308
 20
1730.200503862284
 30
0.0
 10
326.526039530654
 20
1730.200503862284
 30
0.0
 10
310.247442
 20
1730.200503862284
 30
0.0
  0
SPLINE
  5
F0
330
1F
100
AcDbEntity
  8
Predefinito
100
AcDbSpline
210
0.0
220
0.0
230
1.0
 70
    12
 71
     2
 72
     6
 73
     3
 74
     0
 42
0.0000000001
 43
0.0000000001
 40
0.0
 40
0.0
 40
0.0
 40
15.60299759046547
 40
15.60299759046547
 40
15.60299759046547
 10
271.8449401827297
 20
1744.651026774468
 30
0.0
 41
1.0
 10
275.3177388542945
 20
1737.648301763658
 30
0.0
 41
0.9971137478030502
 10
277.6902469386919
 20
1730.200503862284
 30
0.0
 41
1.0
  0
SPLINE
  5
F1
330
1F
100
AcDbEntity
  8
Predefinito
100
AcDbSpline
210
0.0
220
0.0
230
1.0
 70
    12
 71
     2
 72
     6
 73
     3
 74
     0
 42
0.0000000001
 43
0.0000000001
 40
0.0
 40
0.0
 40
0.0
 40
15.60299759046569
 40
15.60299759046569
 40
15.60299759046569
 10
342.804637061308
 20
1730.200503862284
 30
0.0
 41
1.0
 10
345.177145145705
 20
1737.648301763658
 30
0.0
 41
0.9971137478030454
 10
348.6499438172706
 20
1744.651026774468
 30
0.0
 41
1.0
  0
SPLINE
  5
F2
330
1F
100
AcDbEntity
  8
Predefinito
100
AcDbSpline
210
0.0
220
0.0
230
1.0
 70
    12
 71
     3
 72
    11
 73
     7
 74
     0
 42
0.0000000001
 43
0.0000000001
 40
0.0
 40
0.0
 40
0.0
 40
0.0
 40
0.2273915595681189
 40
0.4787189718552014
 40
0.4787189718552014
 40
34.17230018160581
 40
34.17230018160581
 40
34.17230018160581
 40
34.17230018160581
 10
1389.726625543862
 20
2819.815625625411
 30
0.0
 41
1.0
 10
1389.802422709609
 20
2819.815625409708
 30
0.0
 41
1.0
 10
1389.960327295548
 20
2819.751610479347
 30
0.0
 41
1.0
 10
1390.027297095287
 20
2819.591696525982
 30
0.0
 41
1.0
 10
1389.928557570764
 20
2808.277157816264
 30
0.0
 41
1.0
 10
1389.830549111644
 20
2797.046391720858
 30
0.0
 41
1.0
 10
1389.732540652538
 20
2785.815625625411
 30
0.0
 41
1.0
  0
SPLINE
  5
F3
330
1F
100
AcDbEntity
  8
Predefinito
100
AcDbSpline
210
0.0
220
0.0
230
1.0
 70
    12
 71
     3
 72
    11
 73
     7
 74
     0
 42
0.0000000001
 43
0.0000000001
 40
0.0
 40
0.0
 40
0.0
 40
0.0
 40
33.6935812097505
 40
33.6935812097505
 40
33.92527366795265
 40
34.1723001816057
 40
34.1723001816057
 40
34.1723001816057
 40
34.1723001816057
 10
1238.725967662309
 20
2785.815625625411
 30
0.0
 41
1.0
 10
1238.627959203203
 20
2797.046391720858
 30
0.0
 41
1.0
 10
1238.529950744083
 20
2808.277157816264
 30
0.0
 41
1.0
 10
1238.431268334047
 20
2819.585151790495
 30
0.0
 41
1.0
 10
1238.492033170314
 20
2819.745244064675
 30
0.0
 41
1.0
 10
1238.649540600405
 20
2819.815625391072
 30
0.0
 41
1.0
 10
1238.731882770985
 20
2819.815625625411
 30
0.0
 41
1.0
  0
SPLINE
  5
F4
330
1F
100
AcDbEntity
  8
Predefinito
100
AcDbSpline
210
0.0
220
0.0
230
1.0
 70
    24
 71
     2
 72
     6
 73
     3
 74
     0
 42
0.0000000001
 43
0.0000000001
 40
0.0
 40
0.0
 40
0.0
 40
8.268256553129504
 40
8.268256553129504
 40
8.268256553129504
 10
1240.578356818382
 20
2819.815625625411
 30
0.0
 10
1244.712485094946
 20
2819.815625625411
 30
0.0
 10
1248.846613371511
 20
2819.815625625411
 30
0.0
  0
SPLINE
  5
F5
330
1F
100
AcDbEntity
  8
Predefinito
100
AcDbSpline
210
0.0
220
0.0
230
1.0
 70
    12
 71
     2
 72
     6
 73
     3
 74
     0
 42
0.0000000001
 43
0.0000000001
 40
0.0
 40
0.0
 40
0.0
 40
635.0417899038323
 40
635.0417899038323
 40
635.0417899038323
 10
1317.076507091522
 20
2785.815625625427
 30
0.0
 41
1.0
 10
1317.076609480037
 20
2468.294730673521
 30
0.0
 41
0.9999999999999674
 10
1317.076549497823
 20
2150.773835721604
 30
0.0
 41
1.0
  0
SPLINE
  5
F6
330
1F
100
AcDbEntity
  8
Predefinito
100
AcDbSpline
210
0.0
220
0.0
230
1.0
 70
    12
 71
     2
 72
     6
 73
     3
 74
     0
 42
0.0000000001
 43
0.0000000001
 40
0.0
 40
0.0
 40
0.0
 40
256.122804012319
 40
256.122804012319
 40
256.122804012319
 10
1317.078963190317
 20
2150.773835145443
 30
0.0
 41
1.0
 10
1317.079017535161
 20
2022.712433138843
 30
0.0
 41
0.9999999999947085
 10
1317.07990508598
 20
1894.651031135308
 30
0.0
 41
1.0
  0
SPLINE
  5
F7
330
1F
100
AcDbEntity
  8
Predefinito
100
AcDbSpline
210
0.0
220
0.0
230
1.0
 70
    12
 71
     2
 72
     6
 73
     3
 74
     0
 42
0.0000000001
 43
0.0000000001
 40
0.0
 40
0.0
 40
0.0
 40
635.0417898983518
 40
635.0417898983518
 40
635.0417898983518
 10
1311.381958961487
 20
2150.773835727106
 30
0.0
 41
1.0
 10
1311.381968871953
 20
2468.294730676282
 30
0.0
 41
0.9999999999999991
 10
1311.381952076541
 20
2785.815625625458
 30
0.0
 41
1.0
  0
SPLINE
  5
F8
330
1F
100
AcDbEntity
  8
Predefinito
100
AcDbSpline
210
0.0
220
0.0
230
1.0
 70
    12
 71
     2
 72
     6
 73
     3
 74
     0
 42
0.0000000001
 43
0.0000000001
 40
0.0
 40
0.0
 40
0.0
 40
256.1228074992429
 40
256.1228074992429
 40
256.1228074992429
 10
1311.379702359438
 20
1894.651027753933
 30
0.0
 41
1.0
 10
1311.37955413838
 20
2022.712431503481
 30
0.0
 41
0.9999999999998527
 10
1311.379544959612
 20
2150.773835253115
 30
0.0
 41
1.0
  0
SPLINE
  5
F9
330
1F
100
AcDbEntity
  8
Predefinito
100
AcDbSpline
210
0.0
220
0.0
230
1.0
 70
    12
 71
     2
 72
     6
 73
     3
 74
     0
 42
0.0000000001
 43
0.0000000001
 40
0.0
 40
0.0
 40
0.0
 40
15.60294021720324
 40
15.60294021720324
 40
15.60294021720324
 10
1281.672059096116
 20
1730.200503862284
 30
0.0
 41
1.0
 10
1279.299487052356
 20
1737.648243718103
 30
0.0
 41
0.9971151151977339
 10
1275.826886221813
 20
1744.651026774467
 30
0.0
 41
1.0
  0
SPLINE
  5
FA
330
1F
100
AcDbEntity
  8
Predefinito
100
AcDbSpline
210
0.0
220
0.0
230
1.0
 70
    12
 71
     2
 72
     6
 73
     3
 74
     0
 42
0.0000000001
 43
0.0000000001
 40
0.0
 40
0.0
 40
0.0
 40
15.60299505301178
 40
15.60299505301178
 40
15.60299505301178
 10
1352.63166249497
 20
1744.651026774467
 30
0.0
 41
1.0
 10
1349.158312646949
 20
1737.648540060984
 30
0.0
 41
0.9971074978516296
 10
1346.786449218733
 20
1730.200503862284
 30
0.0
 41
1.0
  0
SPLINE
  5
FB
330
1F
100
AcDbEntity
  8
Predefinito
100
AcDbSpline
210
0.0
220
0.0
230
1.0
 70
    28
 71
     2
 72
     8
 73
     5
 74
     0
 42
0.0000000001
 43
0.0000000001
 40
3.632466505713189
 40
3.632466505713189
 40
3.632466505713189
 40
4.71238898038469
 40
4.71238898038469
 40
6.28318530717959
 40
6.28318530717959
 40
6.28318530717959
 10
1389.651284938111
 20
2785.815625625411
 30
0.0
 41
0.874147445041094
 10
1391.782939730424
 20
2785.815625625412
 30
0.0
 41
0.7986359120657504
 10
1351.98089740498
 20
2785.815625625411
 30
0.0
 41
1.0
 10
1286.593133230997
 20
2785.815625625412
 30
0.0
 41
0.707106781186546
 10
1248.84148998344
 20
2785.815625625411
 30
0.0
 41
1.0
  0
SPLINE
  5
FC
330
1F
100
AcDbEntity
  8
Predefinito
100
AcDbSpline
210
0.0
220
0.0
230
1.0
 70
    24
 71
     2
 72
     6
 73
     3
 74
     0
 42
0.0000000001
 43
0.0000000001
 40
0.0
 40
0.0
 40
0.0
 40
10.0342666067038
 40
10.0342666067038
 40
10.0342666067038
 10
1248.84148998344
 20
2785.815625625411
 30
0.0
 10
1243.824356680088
 20
2785.815625625411
 30
0.0
 10
1238.807223376736
 20
2785.815625625411
 30
0.0
  0
SPLINE
  5
FD
330
1F
100
AcDbEntity
  8
Predefinito
100
AcDbSpline
210
0.0
220
0.0
230
1.0
 70
    12
 71
     2
 72
     6
 73
     3
 74
     0
 42
0.0000000001
 43
0.0000000001
 40
0.0
 40
0.0
 40
0.0
 40
147.8806449528855
 40
147.8806449528855
 40
147.8806449528855
 10
1408.597664523015
 20
1601.975581057163
 30
0.0
 41
1.0
 10
1352.707326011083
 20
1654.502371807088
 30
0.0
 41
0.9469048346951895
 10
1340.354735642306
 20
1730.200503862285
 30
0.0
 41
1.0
  0
SPLINE
  5
FE
330
1F
100
AcDbEntity
  8
Predefinito
100
AcDbSpline
210
0.0
220
0.0
230
1.0
 70
    12
 71
     3
 72
     9
 73
     5
 74
     0
 42
0.0000000001
 43
0.0000000001
 40
16.23760534157853
 40
16.23760534157853
 40
16.23760534157853
 40
16.23760534157853
 40
100.464900703579
 40
167.1757034953432
 40
167.1757034953432
 40
167.1757034953432
 40
167.1757034953432
 10
1404.274543390746
 20
1601.975581057161
 30
0.0
 41
1.0
 10
1385.302191522523
 20
1620.581533059585
 30
0.0
 41
1.0
 10
1357.039336962081
 20
1660.769789661318
 30
0.0
 41
1.0
 10
1342.583047929955
 20
1708.514582234751
 30
0.0
 41
1.0
 10
1339.157898549268
 20
1730.200503862324
 30
0.0
 41
1.0
  0
SPLINE
  5
FF
330
1F
100
AcDbEntity
  8
Predefinito
100
AcDbSpline
210
0.0
220
0.0
230
1.0
 70
    12
 71
     3
 72
     9
 73
     5
 74
     0
 42
0.0000000001
 43
0.0000000001
 40
16.23760534156499
 40
16.23760534156499
 40
16.23760534156499
 40
16.23760534156499
 40
100.46490070358
 40
167.175703495446
 40
167.175703495446
 40
167.175703495446
 40
167.175703495446
 10
1397.215441779853
 20
1601.975581057144
 30
0.0
 41
1.0
 10
1379.730427718893
 20
1620.581533059571
 30
0.0
 41
1.0
 10
1353.683240062617
 20
1660.769789661337
 30
0.0
 41
1.0
 10
1340.360252024462
 20
1708.514582234813
 30
0.0
 41
1.0
 10
1337.203617280489
 20
1730.200503862422
 30
0.0
 41
1.0
  0
SPLINE
  5
100
330
1F
100
AcDbEntity
  8
Predefinito
100
AcDbSpline
210
0.0
220
0.0
230
1.0
 70
    12
 71
     3
 72
    12
 73
     8
 74
     0
 42
0.0000000001
 43
0.0000000001
 40
-0.7119900062807191
 40
-0.7119900062807191
 40
-0.7119900062807191
 40
-0.7119900062807191
 40
-0.5810346039266348
 40
-0.5810346039266348
 40
-0.4445248822665498
 40
-0.4445248822665498
 40
-0.2541216495872228
 40
-0.2541216495872228
 40
-0.2541216495872228
 40
-0.2541216495872228
 10
1364.237075612721
 20
1636.773405148371
 30
0.0
 41
1.0
 10
1361.179804248762
 20
1642.452268799316
 30
0.0
 41
1.0
 10
1358.314686307987
 20
1648.302371596496
 30
0.0
 41
1.0
 10
1352.882798619828
 20
1660.564164414704
 30
0.0
 41
1.0
 10
1350.452765589222
 20
1666.612325326352
 30
0.0
 41
1.0
 10
1344.265276955322
 20
1684.308366382872
 30
0.0
 41
1.0
 10
1340.63515459564
 20
1697.058654617825
 30
0.0
 41
1.0
 10
1337.918281508663
 20
1710.249861951998
 30
0.0
 41
1.0
  0
SPLINE
  5
101
330
1F
100
AcDbEntity
  8
Predefinito
100
AcDbSpline
210
0.0
220
0.0
230
1.0
 70
    12
 71
     3
 72
     9
 73
     5
 74
     0
 42
0.0000000001
 43
0.0000000001
 40
16.23760534156288
 40
16.23760534156288
 40
16.23760534156288
 40
16.23760534156288
 40
100.46490070358
 40
167.1757034953044
 40
167.1757034953044
 40
167.1757034953044
 40
167.1757034953044
 10
1387.634846920685
 20
1601.975581057141
 30
0.0
 41
1.0
 10
1372.16844397139
 20
1620.581533059569
 30
0.0
 41
1.0
 10
1349.12835383575
 20
1660.769789661297
 30
0.0
 41
1.0
 10
1337.343479041351
 20
1708.514582234723
 30
0.0
 41
1.0
 10
1334.551271683445
 20
1730.200503862284
 30
0.0
 41
1.0
  0
SPLINE
  5
102
330
1F
100
AcDbEntity
  8
Predefinito
100
AcDbSpline
210
0.0
220
0.0
230
1.0
 70
     8
 71
     3
 72
    12
 73
     8
 74
     0
 42
0.0000000001
 43
0.0000000001
 40
0.0
 40
0.0
 40
0.0
 40
0.0
 40
17.15774130720298
 40
32.82624246285643
 40
66.0691112872771
 40
100.2603128975145
 40
137.325253249916
 40
137.325253249916
 40
137.325253249916
 40
137.325253249916
 10
1377.102320750764
 20
1601.972475405371
 30
0.0
 10
1373.875560616735
 20
1606.692759480332
 30
0.0
 10
1368.028941498172
 20
1615.955170545335
 30
0.0
 10
1357.622819615999
 20
1635.372656674982
 30
0.0
 10
1346.818193393972
 20
1660.941234518394
 30
0.0
 10
1337.214439136297
 20
1694.47935188963
 30
0.0
 10
1333.170604643251
 20
1717.921726472448
 30
0.0
 10
1331.793828210961
 20
1730.200503862284
 30
0.0
  0
SPLINE
  5
103
330
1F
100
AcDbEntity
  8
Predefinito
100
AcDbSpline
210
0.0
220
0.0
230
1.0
 70
    12
 71
     3
 72
     9
 73
     5
 74
     0
 42
0.0000000001
 43
0.0000000001
 40
16.23760534156742
 40
16.23760534156742
 40
16.23760534156742
 40
16.23760534156742
 40
100.46490070358
 40
167.1757034953041
 40
167.1757034953041
 40
167.1757034953041
 40
167.1757034953041
 10
1375.823860340037
 20
1601.975581057147
 30
0.0
 41
1.0
 10
1362.846007329646
 20
1620.581533059573
 30
0.0
 41
1.0
 10
1343.51307619454
 20
1660.769789661299
 30
0.0
 41
1.0
 10
1333.62439210109
 20
1708.514582234723
 30
0.0
 41
1.0
 10
1331.2814519369
 20
1730.200503862284
 30
0.0
 41
1.0
  0
SPLINE
  5
104
330
1F
100
AcDbEntity
  8
Predefinito
100
AcDbSpline
210
0.0
220
0.0
230
1.0
 70
    12
 71
     3
 72
     9
 73
     5
 74
     0
 42
0.0000000001
 43
0.0000000001
 40
16.2376053415862
 40
16.2376053415862
 40
16.2376053415862
 40
16.2376053415862
 40
100.46490070358
 40
167.1757034974496
 40
167.1757034974496
 40
167.1757034974496
 40
167.1757034974496
 10
1347.003060631354
 20
1601.975581057169
 30
0.0
 41
1.0
 10
1340.097689277296
 20
1620.581533059592
 30
0.0
 41
1.0
 10
1329.810851481757
 20
1660.769789661883
 30
0.0
 41
1.0
 10
1324.54919257611
 20
1708.514582236084
 30
0.0
 41
1.0
 10
1323.302540153654
 20
1730.200503864378
 30
0.0
 41
1.0
  0
SPLINE
  5
105
330
1F
100
AcDbEntity
  8
Predefinito
100
AcDbSpline
210
0.0
220
0.0
230
1.0
 70
     8
 71
     3
 72
    11
 73
     7
 74
     0
 42
0.0000000001
 43
0.0000000001
 40
0.0
 40
0.0
 40
0.0
 40
0.0
 40
16.56805591741108
 40
34.42726939810049
 40
68.62986025207552
 40
129.5053537550532
 40
129.5053537550532
 40
129.5053537550532
 40
129.5053537550532
 10
1320.660415730459
 20
1730.200503862284
 30
0.0
 10
1320.882840783244
 20
1724.681243944729
 30
0.0
 10
1321.491463560737
 20
1713.224119668058
 30
0.0
 10
1323.102947409071
 20
1690.398544492307
 30
0.0
 10
1326.933938350824
 20
1652.946747327397
 30
0.0
 10
1332.361392653747
 20
1621.672965791965
 30
0.0
 10
1337.242395196811
 20
1601.972475405328
 30
0.0
  0
SPLINE
  5
106
330
1F
100
AcDbEntity
  8
Predefinito
100
AcDbSpline
210
0.0
220
0.0
230
1.0
 70
    12
 71
     3
 72
     9
 73
     5
 74
     0
 42
0.0000000001
 43
0.0000000001
 40
16.23760534158765
 40
16.23760534158765
 40
16.23760534158765
 40
16.23760534158765
 40
100.464900703579
 40
167.1757034953011
 40
167.1757034953011
 40
167.1757034953011
 40
167.1757034953011
 10
1330.868952918429
 20
1601.975581057171
 30
0.0
 41
1.0
 10
1327.363003999499
 20
1620.581533059594
 30
0.0
 41
1.0
 10
1322.140239574703
 20
1660.769789661312
 30
0.0
 41
1.0
 10
1319.468825336978
 20
1708.514582234725
 30
0.0
 41
1.0
 10
1318.835883314196
 20
1730.200503862284
 30
0.0
 41
1.0
  0
SPLINE
  5
107
330
1F
100
AcDbEntity
  8
Predefinito
100
AcDbSpline
210
0.0
220
0.0
230
1.0
 70
     8
 71
     3
 72
    11
 73
     7
 74
     0
 42
0.0000000001
 43
0.0000000001
 40
0.0
 40
0.0
 40
0.0
 40
0.0
 40
14.5531703290235
 40
28.37752970756111
 40
59.01036736306455
 40
128.3744221364383
 40
128.3744221364383
 40
128.3744221364383
 40
128.3744221364383
 10
1321.978791262465
 20
1601.972475405396
 30
0.0
 10
1321.570887917804
 20
1606.80637049141
 30
0.0
 10
1320.839300444731
 20
1616.237351651279
 30
0.0
 10
1319.538351775054
 20
1635.864757006204
 30
0.0
 10
1317.605734303718
 20
1673.75740337623
 30
0.0
 10
1316.701911917289
 20
1707.081311782372
 30
0.0
 10
1316.392660974196
 20
1730.200503862284
 30
0.0
  0
SPLINE
  5
108
330
1F
100
AcDbEntity
  8
Predefinito
100
AcDbSpline
210
0.0
220
0.0
230
1.0
 70
    24
 71
     2
 72
     6
 73
     3
 74
     0
 42
0.0000000001
 43
0.0000000001
 40
0.0
 40
0.0
 40
0.0
 40
128.2249227982777
 40
128.2249227982777
 40
128.2249227982777
 10
1314.229256448377
 20
1601.975581057151
 30
0.0
 10
1314.229256448373
 20
1666.08804245629
 30
0.0
 10
1314.22925644837
 20
1730.200503855429
 30
0.0
  0
SPLINE
  5
109
330
1F
100
AcDbEntity
  8
Predefinito
100
AcDbSpline
210
0.0
220
0.0
230
1.0
 70
     8
 71
     3
 72
    11
 73
     7
 74
     0
 42
0.0000000001
 43
0.0000000001
 40
0.0
 40
0.0
 40
0.0
 40
0.0
 40
12.88208442697068
 40
28.37675836550353
 40
59.95889157562164
 40
128.3736979782574
 40
128.3736979782574
 40
128.3736979782574
 40
128.3736979782574
 10
1306.479721634235
 20
1601.972475405368
 30
0.0
 10
1306.842407087973
 20
1606.25121585348
 30
0.0
 10
1307.57238762433
 20
1615.681976639457
 30
0.0
 10
1308.899530871927
 20
1635.624557033179
 30
0.0
 10
1310.874405504186
 20
1674.072768676832
 30
0.0
 10
1311.715065675098
 20
1707.398759190047
 30
0.0
 10
1312.062456971897
 20
1730.200503862284
 30
0.0
  0
SPLINE
  5
10A
330
1F
100
AcDbEntity
  8
Predefinito
100
AcDbSpline
210
0.0
220
0.0
230
1.0
 70
    12
 71
     3
 72
     9
 73
     5
 74
     0
 42
0.0000000001
 43
0.0000000001
 40
16.23760534158312
 40
16.23760534158312
 40
16.23760534158312
 40
16.23760534158312
 40
100.464900703579
 40
167.1757034953016
 40
167.1757034953016
 40
167.1757034953016
 40
167.1757034953016
 10
1297.589559978299
 20
1601.975581057166
 30
0.0
 41
1.0
 10
1301.095508897231
 20
1620.581533059589
 30
0.0
 41
1.0
 10
1306.318273322028
 20
1660.769789661309
 30
0.0
 41
1.0
 10
1308.989687559757
 20
1708.514582234725
 30
0.0
 41
1.0
 10
1309.622629582539
 20
1730.200503862284
 30
0.0
 41
1.0
  0
SPLINE
  5
10B
330
1F
100
AcDbEntity
  8
Predefinito
100
AcDbSpline
210
0.0
220
0.0
230
1.0
 70
     8
 71
     3
 72
    12
 73
     8
 74
     0
 42
0.0000000001
 43
0.0000000001
 40
0.0
 40
0.0
 40
0.0
 40
0.0
 40
13.18666875149783
 40
28.94969343227875
 40
60.86632757129303
 40
95.07270798092692
 40
129.5053536875467
 40
129.5053536875467
 40
129.5053536875467
 40
129.5053536875467
 10
1291.216117699924
 20
1601.972475405339
 30
0.0
 10
1292.281299760959
 20
1606.236587701876
 30
0.0
 10
1294.470212348304
 20
1615.637353984119
 30
0.0
 10
1298.384658615263
 20
1635.546508954381
 30
0.0
 10
1302.529186271727
 20
1662.53636087493
 30
0.0
 10
1305.891495514887
 20
1695.894207132692
 30
0.0
 10
1307.324265451907
 20
1718.732432738184
 30
0.0
 10
1307.798090067923
 20
1730.200503862284
 30
0.0
  0
SPLINE
  5
10C
330
1F
100
AcDbEntity
  8
Predefinito
100
AcDbSpline
210
0.0
220
0.0
230
1.0
 70
    12
 71
     2
 72
     6
 73
     3
 74
     0
 42
0.0000000001
 43
0.0000000001
 40
0.0
 40
0.0
 40
0.0
 40
9.760665928632086
 40
9.760665928632086
 40
9.760665928632086
 10
1281.455452265388
 20
1601.975581057137
 30
0.0
 41
1.0
 10
1286.33578497752
 20
1601.97401208989
 30
0.0
 41
0.9999999999945305
 10
1291.216117699924
 20
1601.972475405204
 30
0.0
 41
1.0
  0
SPLINE
  5
10D
330
1F
100
AcDbEntity
  8
Predefinito
100
AcDbSpline
210
0.0
220
0.0
230
1.0
 70
    12
 71
     3
 72
     9
 73
     5
 74
     0
 42
0.0000000001
 43
0.0000000001
 40
16.237605341572
 40
16.237605341572
 40
16.237605341572
 40
16.237605341572
 40
100.46490070358
 40
167.1757034974508
 40
167.1757034974508
 40
167.1757034974508
 40
167.1757034974508
 10
1281.455452265388
 20
1601.975581057152
 30
0.0
 41
1.0
 10
1288.360823619446
 20
1620.581533059578
 30
0.0
 41
1.0
 10
1298.647661414984
 20
1660.769789661875
 30
0.0
 41
1.0
 10
1303.909320320629
 20
1708.514582236082
 30
0.0
 41
1.0
 10
1305.155972743084
 20
1730.200503864378
 30
0.0
 41
1.0
  0
SPLINE
  5
10E
330
1F
100
AcDbEntity
  8
Predefinito
100
AcDbSpline
210
0.0
220
0.0
230
1.0
 70
    12
 71
     3
 72
     9
 73
     5
 74
     0
 42
0.0000000001
 43
0.0000000001
 40
16.23760534158524
 40
16.23760534158524
 40
16.23760534158524
 40
16.23760534158524
 40
100.46490070358
 40
167.1757034953023
 40
167.1757034953023
 40
167.1757034953023
 40
167.1757034953023
 10
1252.634652556716
 20
1601.975581057168
 30
0.0
 41
1.0
 10
1265.612505567102
 20
1620.581533059591
 30
0.0
 41
1.0
 10
1284.945436702202
 20
1660.769789661311
 30
0.0
 41
1.0
 10
1294.834120795649
 20
1708.514582234725
 30
0.0
 41
1.0
 10
1297.177060959837
 20
1730.200503862284
 30
0.0
 41
1.0
  0
SPLINE
  5
10F
330
1F
100
AcDbEntity
  8
Predefinito
100
AcDbSpline
210
0.0
220
0.0
230
1.0
 70
     8
 71
     3
 72
    12
 73
     8
 74
     0
 42
0.0000000001
 43
0.0000000001
 40
0.0
 40
0.0
 40
0.0
 40
0.0
 40
15.2248980873387
 40
32.82237850043276
 40
67.07331223004795
 40
102.4547069861379
 40
137.3216322494152
 40
137.3216322494152
 40
137.3216322494152
 40
137.3216322494152
 10
1251.356192146012
 20
1601.972475405372
 30
0.0
 10
1254.217300522472
 20
1606.161453173143
 30
0.0
 10
1260.105374458046
 20
1615.396504261736
 30
0.0
 10
1270.730150859036
 20
1635.077268976456
 30
0.0
 10
1282.04558627858
 20
1661.931993083949
 30
0.0
 10
1291.426046851537
 20
1695.537706452493
 30
0.0
 10
1295.363828354281
 20
1718.649484453008
 30
0.0
 10
1296.662274943259
 20
1730.200503862284
 30
0.0
  0
SPLINE
  5
110
330
1F
100
AcDbEntity
  8
Predefinito
100
AcDbSpline
210
0.0
220
0.0
230
1.0
 70
    12
 71
     3
 72
     9
 73
     5
 74
     0
 42
0.0000000001
 43
0.0000000001
 40
16.23760534158877
 40
16.23760534158877
 40
16.23760534158877
 40
16.23760534158877
 40
100.46490070358
 40
167.175703495302
 40
167.175703495302
 40
167.175703495302
 40
167.175703495302
 10
1240.823665976068
 20
1601.975581057173
 30
0.0
 41
1.0
 10
1256.290068925355
 20
1620.581533059595
 30
0.0
 41
1.0
 10
1279.330159060989
 20
1660.769789661313
 30
0.0
 41
1.0
 10
1291.115033855385
 20
1708.514582234726
 30
0.0
 41
1.0
 10
1293.907241213291
 20
1730.200503862284
 30
0.0
 41
1.0
  0
SPLINE
  5
111
330
1F
100
AcDbEntity
  8
Predefinito
100
AcDbSpline
210
0.0
220
0.0
230
1.0
 70
    12
 71
     3
 72
    12
 73
     8
 74
     0
 42
0.0000000001
 43
0.0000000001
 40
-0.7119701035435149
 40
-0.7119701035435149
 40
-0.7119701035435149
 40
-0.7119701035435149
 40
-0.5810346039259013
 40
-0.5810346039259013
 40
-0.4445248822657474
 40
-0.4445248822657474
 40
-0.2541093323083118
 40
-0.2541093323083118
 40
-0.2541093323083118
 40
-0.2541093323083118
 10
1264.216640633978
 20
1636.775994398853
 30
0.0
 41
1.0
 10
1267.274037056324
 20
1642.454047012145
 30
0.0
 41
1.0
 10
1270.140541357024
 20
1648.303284026621
 30
0.0
 41
1.0
 10
1275.575423781374
 20
1660.564164414711
 30
0.0
 41
1.0
 10
1278.008273221272
 20
1666.612325326345
 30
0.0
 41
1.0
 10
1284.179323353716
 20
1684.309033126289
 30
0.0
 41
1.0
 10
1287.804451849672
 20
1697.060304272839
 30
0.0
 41
1.0
 10
1290.527931013679
 20
1710.252421994546
 30
0.0
 41
1.0
  0
SPLINE
  5
112
330
1F
100
AcDbEntity
  8
Predefinito
100
AcDbSpline
210
0.0
220
0.0
230
1.0
 70
    12
 71
     3
 72
     9
 73
     5
 74
     0
 42
0.0000000001
 43
0.0000000001
 40
16.23760534157397
 40
16.23760534157397
 40
16.23760534157397
 40
16.23760534157397
 40
100.464900703579
 40
167.1757034954444
 40
167.1757034954444
 40
167.1757034954444
 40
167.1757034954444
 10
1231.243071116898
 20
1601.975581057154
 30
0.0
 41
1.0
 10
1248.728085177854
 20
1620.58153305958
 30
0.0
 41
1.0
 10
1274.775272834125
 20
1660.769789661342
 30
0.0
 41
1.0
 10
1288.098260872277
 20
1708.514582234814
 30
0.0
 41
1.0
 10
1291.254895616249
 20
1730.200503862422
 30
0.0
 41
1.0
  0
SPLINE
  5
113
330
1F
100
AcDbEntity
  8
Predefinito
100
AcDbSpline
210
0.0
220
0.0
230
1.0
 70
    12
 71
     3
 72
     9
 73
     5
 74
     0
 42
0.0000000001
 43
0.0000000001
 40
16.23760534160459
 40
16.23760534160459
 40
16.23760534160459
 40
16.23760534160459
 40
100.46490070358
 40
167.1757034953429
 40
167.1757034953429
 40
167.1757034953429
 40
167.1757034953429
 10
1224.183969506018
 20
1601.975581057191
 30
0.0
 41
1.0
 10
1243.156321374232
 20
1620.581533059611
 30
0.0
 41
1.0
 10
1271.419175934664
 20
1660.769789661334
 30
0.0
 41
1.0
 10
1285.875464966784
 20
1708.514582234754
 30
0.0
 41
1.0
 10
1289.30061434747
 20
1730.200503862325
 30
0.0
 41
1.0
  0
SPLINE
  5
114
330
1F
100
AcDbEntity
  8
Predefinito
100
AcDbSpline
210
0.0
220
0.0
230
1.0
 70
    12
 71
     2
 72
     6
 73
     3
 74
     0
 42
0.0000000001
 43
0.0000000001
 40
0.0
 40
0.0
 40
0.0
 40
147.8806449528931
 40
147.8806449528931
 40
147.8806449528931
 10
1219.860848373717
 20
1601.975581057157
 30
0.0
 41
1.0
 10
1275.751186885652
 20
1654.502371807085
 30
0.0
 41
0.9469048346951895
 10
1288.103777254431
 20
1730.200503862284
 30
0.0
 41
1.0
  0
SPLINE
  5
115
330
1F
100
AcDbEntity
  8
Predefinito
100
AcDbSpline
210
0.0
220
0.0
230
1.0
 70
    24
 71
     2
 72
     6
 73
     3
 74
     0
 42
0.0000000001
 43
0.0000000001
 40
0.0
 40
0.0
 40
0.0
 40
9.73973984983013
 40
9.73973984983013
 40
9.73973984983013
 10
1291.268488287469
 20
1601.651276891419
 30
0.0
 10
1286.398618362554
 20
1601.651276891419
 30
0.0
 10
1281.528748437639
 20
1601.651276891419
 30
0.0
  0
SPLINE
  5
116
330
1F
100
AcDbEntity
  8
Predefinito
100
AcDbSpline
210
0.0
220
0.0
230
1.0
 70
     8
 71
     3
 72
    11
 73
     7
 74
     0
 42
0.0000000001
 43
0.0000000001
 40
0.0
 40
0.0
 40
0.0
 40
0.0
 40
15.91741410794631
 40
33.36350137512269
 40
72.65442805062898
 40
148.2548193382439
 40
148.2548193382439
 40
148.2548193382439
 40
148.2548193382439
 10
1286.680372971558
 20
1730.200503862284
 30
0.0
 10
1286.248214368301
 20
1724.913215143478
 30
0.0
 10
1284.603989094919
 20
1713.883241842805
 30
0.0
 10
1277.936743268467
 20
1690.574800844094
 30
0.0
 10
1260.684205415704
 20
1649.802637897311
 30
0.0
 10
1236.926113981443
 20
1619.054319166243
 30
0.0
 10
1218.405065106517
 20
1601.9755816999
 30
0.0
  0
SPLINE
  5
117
330
1F
100
AcDbEntity
  8
Predefinito
100
AcDbSpline
210
0.0
220
0.0
230
1.0
 70
     8
 71
     3
 72
    11
 73
     7
 74
     0
 42
0.0000000001
 43
0.0000000001
 40
0.0
 40
0.0
 40
0.0
 40
0.0
 40
14.45672450389057
 40
32.30477322034225
 40
68.80340446839446
 40
134.2885830998826
 40
134.2885830998826
 40
134.2885830998826
 40
134.2885830998826
 10
1299.616007244616
 20
1730.200503862284
 30
0.0
 10
1299.394723193152
 20
1725.38411339691
 30
0.0
 10
1298.409502021037
 20
1714.659060134002
 30
0.0
 10
1294.907047488667
 20
1691.980154748088
 30
0.0
 10
1286.205111055607
 20
1652.965672016829
 30
0.0
 10
1273.793071789306
 20
1621.088746158946
 30
0.0
 10
1263.229168556461
 20
1601.97247398503
 30
0.0
  0
SPLINE
  5
118
330
1F
100
AcDbEntity
  8
Predefinito
100
AcDbSpline
210
0.0
220
0.0
230
1.0
 70
     8
 71
     3
 72
    12
 73
     8
 74
     0
 42
0.0000000001
 43
0.0000000001
 40
0.0
 40
0.0
 40
0.0
 40
0.0
 40
15.78390494209477
 40
32.7541292113902
 40
69.69400775833931
 40
103.286706368833
 40
133.6823331197426
 40
133.6823331197426
 40
133.6823331197426
 40
133.6823331197426
 10
1300.454814710144
 20
1730.200503864133
 30
0.0
 10
1300.235541813077
 20
1724.944560341824
 30
0.0
 10
1299.440344496327
 20
1714.046553288111
 30
0.0
 10
1296.147400573742
 20
1691.0436752591
 30
0.0
 10
1290.189432842544
 20
1662.459030276546
 30
0.0
 10
1279.92566940567
 20
1630.364355561525
 30
0.0
 10
1271.152287376396
 20
1610.883487527677
 30
0.0
 10
1266.317160777443
 20
1601.9755816999
 30
0.0
  0
SPLINE
  5
119
330
1F
100
AcDbEntity
  8
Predefinito
100
AcDbSpline
210
0.0
220
0.0
230
1.0
 70
     8
 71
     3
 72
    13
 73
     9
 74
     0
 42
0.0000000001
 43
0.0000000001
 40
0.0
 40
0.0
 40
0.0
 40
0.0
 40
13.91776338735755
 40
28.47426513354898
 40
59.29340439429797
 40
93.10926480856473
 40
108.7477540598243
 40
131.6133201369963
 40
131.6133201369963
 40
131.6133201369963
 40
131.6133201369963
 10
1276.651756060304
 20
1601.972474852895
 30
0.0
 10
1278.413856020715
 20
1606.265678627097
 30
0.0
 10
1281.76402427694
 20
1615.145447577069
 30
0.0
 10
1287.908197159827
 20
1633.941380085216
 30
0.0
 10
1294.410127813693
 20
1659.542263234279
 30
0.0
 10
1299.106888983305
 20
1685.904893827659
 30
0.0
 10
1302.057334316227
 20
1709.831931789526
 30
0.0
 10
1303.271644415971
 20
1722.610895745129
 30
0.0
 10
1303.966260593739
 20
1730.200503862284
 30
0.0
  0
SPLINE
  5
11A
330
1F
100
AcDbEntity
  8
Predefinito
100
AcDbSpline
210
0.0
220
0.0
230
1.0
 70
     8
 71
     3
 72
    11
 73
     7
 74
     0
 42
0.0000000001
 43
0.0000000001
 40
0.0
 40
0.0
 40
0.0
 40
0.0
 40
22.86448161156746
 40
38.49133843450115
 40
72.30580215445215
 40
131.6133153882074
 40
131.6133153882074
 40
131.6133153882074
 40
131.6133153882074
 10
1324.492277588312
 20
1730.200503862284
 30
0.0
 10
1325.187173204378
 20
1722.610499168067
 30
0.0
 10
1326.400181624673
 20
1709.837998940146
 30
0.0
 10
1329.351204878732
 20
1685.91172839195
 30
0.0
 10
1335.708720898051
 20
1650.208154023821
 30
0.0
 10
1344.33359055015
 20
1620.290222570877
 30
0.0
 10
1351.80675719162
 20
1601.972473985031
 30
0.0
  0
SPLINE
  5
11B
330
1F
100
AcDbEntity
  8
Predefinito
100
AcDbSpline
210
0.0
220
0.0
230
1.0
 70
     8
 71
     3
 72
    12
 73
     8
 74
     0
 42
0.0000000001
 43
0.0000000001
 40
0.0
 40
0.0
 40
0.0
 40
0.0
 40
15.78390494895738
 40
32.75412921826042
 40
69.69400776522586
 40
103.2867063757002
 40
133.6823331264721
 40
133.6823331264721
 40
133.6823331264721
 40
133.6823331264721
 10
1328.003698186469
 20
1730.200503870986
 30
0.0
 10
1328.222971083549
 20
1724.944560346386
 30
0.0
 10
1329.018168400342
 20
1714.046553290377
 30
0.0
 10
1332.31111232332
 20
1691.043675259097
 30
0.0
 10
1338.269080054582
 20
1662.459030276566
 30
0.0
 10
1348.532843491406
 20
1630.364355561574
 30
0.0
 10
1357.306225520524
 20
1610.883487527728
 30
0.0
 10
1362.141352119294
 20
1601.975581699901
 30
0.0
  0
SPLINE
  5
11C
330
1F
100
AcDbEntity
  8
Predefinito
100
AcDbSpline
210
0.0
220
0.0
230
1.0
 70
     8
 71
     3
 72
    13
 73
     9
 74
     0
 42
0.0000000001
 43
0.0000000001
 40
0.0
 40
0.0
 40
0.0
 40
0.0
 40
14.63945517920564
 40
29.7773422173552
 40
65.46980676007759
 40
101.9746732225894
 40
119.8380442720837
 40
134.2885872826553
 40
134.2885872826553
 40
134.2885872826553
 40
134.2885872826553
 10
1365.229343857759
 20
1601.972474852866
 30
0.0
 10
1362.865836937232
 20
1606.239551550778
 30
0.0
 10
1358.304917024671
 20
1615.066070050761
 30
0.0
 10
1349.498533950453
 20
1635.036820245311
 30
0.0
 10
1340.071829052283
 20
1662.64109426391
 30
0.0
 10
1333.562916410406
 20
1691.979796559402
 30
0.0
 10
1330.042979408815
 20
1714.654805100741
 30
0.0
 10
1329.066789728526
 20
1725.387873802933
 30
0.0
 10
1328.842456337123
 20
1730.200503862284
 30
0.0
  0
SPLINE
  5
11D
330
1F
100
AcDbEntity
  8
Predefinito
100
AcDbSpline
210
0.0
220
0.0
230
1.0
 70
     8
 71
     3
 72
    11
 73
     7
 74
     0
 42
0.0000000001
 43
0.0000000001
 40
0.0
 40
0.0
 40
0.0
 40
0.0
 40
15.91741410794678
 40
33.36350137512336
 40
72.6544280506302
 40
148.2548193382455
 40
148.2548193382455
 40
148.2548193382455
 40
148.2548193382455
 10
1341.778139925179
 20
1730.200503862284
 30
0.0
 10
1342.210298528435
 20
1724.913215143476
 30
0.0
 10
1343.854523801818
 20
1713.883241842803
 30
0.0
 10
1350.521769628268
 20
1690.574800844093
 30
0.0
 10
1367.774307481032
 20
1649.802637897309
 30
0.0
 10
1391.532398915297
 20
1619.054319166243
 30
0.0
 10
1410.05344779022
 20
1601.975581699898
 30
0.0
  0
SPLINE
  5
11E
330
1F
100
AcDbEntity
  8
Predefinito
100
AcDbSpline
210
0.0
220
0.0
230
1.0
 70
    12
 71
     2
 72
     6
 73
     3
 74
     0
 42
0.0000000001
 43
0.0000000001
 40
0.0
 40
0.0
 40
0.0
 40
6.373443035057371
 40
6.373443035057371
 40
6.373443035057371
 10
1297.589559978299
 20
1601.975581057137
 30
0.0
 41
1.0
 10
1294.402838846117
 20
1601.974013853313
 30
0.0
 41
0.9999999999898217
 10
1291.216117699924
 20
1601.972475405322
 30
0.0
 41
1.0
  0
SPLINE
  5
11F
330
1F
100
AcDbEntity
  8
Predefinito
100
AcDbSpline
210
0.0
220
0.0
230
1.0
 70
    24
 71
     2
 72
     6
 73
     3
 74
     0
 42
0.0000000001
 43
0.0000000001
 40
0.0
 40
0.0
 40
0.0
 40
6.358285133204618
 40
6.358285133204618
 40
6.358285133204618
 10
1291.268488287469
 20
1601.651276891419
 30
0.0
 10
1294.447630854072
 20
1601.651276891419
 30
0.0
 10
1297.626773420674
 20
1601.651276891419
 30
0.0
  0
SPLINE
  5
120
330
1F
100
AcDbEntity
  8
Predefinito
100
AcDbSpline
210
0.0
220
0.0
230
1.0
 70
    12
 71
     2
 72
     6
 73
     3
 74
     0
 42
0.0000000001
 43
0.0000000001
 40
0.0
 40
0.0
 40
0.0
 40
0.3405151518977456
 40
0.3405151518977456
 40
0.3405151518977456
 10
1291.216117699924
 20
1601.972475405339
 30
0.0
 41
1.0
 10
1291.150589677291
 20
1601.796922529175
 30
0.0
 41
0.8683774770769261
 10
1291.268488287469
 20
1601.651276891418
 30
0.0
 41
1.0
  0
SPLINE
  5
121
330
1F
100
AcDbEntity
  8
Predefinito
100
AcDbSpline
210
0.0
220
0.0
230
1.0
 70
    24
 71
     2
 72
     6
 73
     3
 74
     0
 42
0.0000000001
 43
0.0000000001
 40
0.0
 40
0.0
 40
0.0
 40
4.791477624680738
 40
4.791477624680738
 40
4.791477624680738
 10
1276.737270812958
 20
1601.651276891419
 30
0.0
 10
1279.133009625299
 20
1601.651276891419
 30
0.0
 10
1281.528748437639
 20
1601.651276891419
 30
0.0
  0
SPLINE
  5
122
330
1F
100
AcDbEntity
  8
Predefinito
100
AcDbSpline
210
0.0
220
0.0
230
1.0
 70
    12
 71
     2
 72
     6
 73
     3
 74
     0
 42
0.0000000001
 43
0.0000000001
 40
0.0
 40
0.0
 40
0.0
 40
4.803697209387281
 40
4.803697209387281
 40
4.803697209387281
 10
1281.455452265388
 20
1601.975581057137
 30
0.0
 41
1.0
 10
1279.053604171338
 20
1601.974014823374
 30
0.0
 41
0.9999999999850543
 10
1276.651756060304
 20
1601.972474852885
 30
0.0
 41
1.0
  0
SPLINE
  5
123
330
1F
100
AcDbEntity
  8
Predefinito
100
AcDbSpline
210
0.0
220
0.0
230
1.0
 70
    12
 71
     2
 72
     6
 73
     3
 74
     0
 42
0.0000000001
 43
0.0000000001
 40
0.0
 40
0.0
 40
0.0
 40
0.3607331961337271
 40
0.3607331961337271
 40
0.3607331961337271
 10
1281.528748437639
 20
1601.651276891419
 30
0.0
 41
1.0
 10
1281.357239474863
 20
1601.782948989477
 30
0.0
 41
0.7688408696252926
 10
1281.455452265389
 20
1601.975581057152
 30
0.0
 41
1.0
  0
SPLINE
  5
124
330
1F
100
AcDbEntity
  8
Predefinito
100
AcDbSpline
210
0.0
220
0.0
230
1.0
 70
    12
 71
     2
 72
     6
 73
     3
 74
     0
 42
0.0000000001
 43
0.0000000001
 40
0.0
 40
0.0
 40
0.0
 40
8.89016219841263
 40
8.89016219841263
 40
8.89016219841263
 10
1306.479721634235
 20
1601.972475405317
 30
0.0
 41
1.0
 10
1302.034640800782
 20
1601.974012531146
 30
0.0
 41
0.9999999999937625
 10
1297.589559978299
 20
1601.975581057119
 30
0.0
 41
1.0
  0
SPLINE
  5
125
330
1F
100
AcDbEntity
  8
Predefinito
100
AcDbSpline
210
0.0
220
0.0
230
1.0
 70
    24
 71
     2
 72
     6
 73
     3
 74
     0
 42
0.0000000001
 43
0.0000000001
 40
0.0
 40
0.0
 40
0.0
 40
8.870583691118327
 40
8.870583691118327
 40
8.870583691118327
 10
1297.626773420674
 20
1601.651276891419
 30
0.0
 10
1302.062065266233
 20
1601.651276891419
 30
0.0
 10
1306.497357111792
 20
1601.651276891419
 30
0.0
  0
SPLINE
  5
126
330
1F
100
AcDbEntity
  8
Predefinito
100
AcDbSpline
210
0.0
220
0.0
230
1.0
 70
    12
 71
     2
 72
     6
 73
     3
 74
     0
 42
0.0000000001
 43
0.0000000001
 40
0.0
 40
0.0
 40
0.0
 40
0.3348081054254756
 40
0.3348081054254756
 40
0.3348081054254756
 10
1297.589559978299
 20
1601.975581057166
 30
0.0
 41
1.0
 10
1297.541722391374
 20
1601.805804584314
 30
0.0
 41
0.9253280917255544
 10
1297.626773420674
 20
1601.651276891419
 30
0.0
 41
1.0
  0
SPLINE
  5
127
330
1F
100
AcDbEntity
  8
Predefinito
100
AcDbSpline
210
0.0
220
0.0
230
1.0
 70
    24
 71
     2
 72
     6
 73
     3
 74
     0
 42
0.0000000001
 43
0.0000000001
 40
0.0
 40
0.0
 40
0.0
 40
10.31296043760403
 40
10.31296043760403
 40
10.31296043760403
 10
1266.424310375354
 20
1601.65127689146
 30
0.0
 10
1271.580790594156
 20
1601.651276891439
 30
0.0
 10
1276.737270812958
 20
1601.651276891419
 30
0.0
  0
SPLINE
  5
128
330
1F
100
AcDbEntity
  8
Predefinito
100
AcDbSpline
210
0.0
220
0.0
230
1.0
 70
    12
 71
     2
 72
     6
 73
     3
 74
     0
 42
0.0000000001
 43
0.0000000001
 40
0.0
 40
0.0
 40
0.0
 40
10.33459539496435
 40
10.33459539496435
 40
10.33459539496435
 10
1276.651755705361
 20
1601.972474853159
 30
0.0
 41
1.0
 10
1271.484458233266
 20
1601.974001213186
 30
0.0
 41
0.9999999999862846
 10
1266.317160777443
 20
1601.975581700016
 30
0.0
 41
1.0
  0
SPLINE
  5
129
330
1F
100
AcDbEntity
  8
Predefinito
100
AcDbSpline
210
0.0
220
0.0
230
1.0
 70
    12
 71
     2
 72
     6
 73
     3
 74
     0
 42
0.0000000001
 43
0.0000000001
 40
0.0
 40
0.0
 40
0.0
 40
0.3670715371104869
 40
0.3670715371104869
 40
0.3670715371104869
 10
1276.737270812958
 20
1601.651276891419
 30
0.0
 41
1.0
 10
1276.540631747976
 20
1601.770906219389
 30
0.0
 41
0.7220453165128892
 10
1276.651755704961
 20
1601.972473985095
 30
0.0
 41
1.0
  0
SPLINE
  5
12A
330
1F
100
AcDbEntity
  8
Predefinito
100
AcDbSpline
210
0.0
220
0.0
230
1.0
 70
    12
 71
     2
 72
     6
 73
     3
 74
     0
 42
0.0000000001
 43
0.0000000001
 40
0.0
 40
0.0
 40
0.0
 40
7.74953543646181
 40
7.74953543646181
 40
7.74953543646181
 10
1314.229256448377
 20
1601.975581057137
 30
0.0
 41
1.0
 10
1310.354489047377
 20
1601.974013082014
 30
0.0
 41
0.9999999999923571
 10
1306.479721634235
 20
1601.972475405411
 30
0.0
 41
1.0
  0
SPLINE
  5
12B
330
1F
100
AcDbEntity
  8
Predefinito
100
AcDbSpline
210
0.0
220
0.0
230
1.0
 70
    24
 71
     2
 72
     6
 73
     3
 74
     0
 42
0.0000000001
 43
0.0000000001
 40
0.0
 40
0.0
 40
0.0
 40
7.73189933661638
 40
7.73189933661638
 40
7.73189933661638
 10
1306.497357111792
 20
1601.651276891419
 30
0.0
 10
1310.3633067801
 20
1601.651276891419
 30
0.0
 10
1314.229256448408
 20
1601.651276891419
 30
0.0
  0
SPLINE
  5
12C
330
1F
100
AcDbEntity
  8
Predefinito
100
AcDbSpline
210
0.0
220
0.0
230
1.0
 70
    12
 71
     2
 72
     6
 73
     3
 74
     0
 42
0.0000000001
 43
0.0000000001
 40
0.0
 40
0.0
 40
0.0
 40
0.3235627248641172
 40
0.3235627248641172
 40
0.3235627248641172
 10
1306.479721634235
 20
1601.972475405368
 30
0.0
 41
1.0
 10
1306.458169234499
 20
1601.810208669022
 30
0.0
 41
0.982585334053448
 10
1306.497357111792
 20
1601.651276891419
 30
0.0
 41
1.0
  0
SPLINE
  5
12D
330
1F
100
AcDbEntity
  8
Predefinito
100
AcDbSpline
210
0.0
220
0.0
230
1.0
 70
    24
 71
     2
 72
     6
 73
     3
 74
     0
 42
0.0000000001
 43
0.0000000001
 40
0.0
 40
0.0
 40
0.0
 40
3.079082077158091
 40
3.079082077158091
 40
3.079082077158091
 10
1263.345228298196
 20
1601.651276891419
 30
0.0
 10
1264.884769336775
 20
1601.651276891439
 30
0.0
 10
1266.424310375354
 20
1601.65127689146
 30
0.0
  0
SPLINE
  5
12E
330
1F
100
AcDbEntity
  8
Predefinito
100
AcDbSpline
210
0.0
220
0.0
230
1.0
 70
    12
 71
     2
 72
     6
 73
     3
 74
     0
 42
0.0000000001
 43
0.0000000001
 40
0.0
 40
0.0
 40
0.0
 40
3.087993301539958
 40
3.087993301539958
 40
3.087993301539958
 10
1266.317160777443
 20
1601.975581699895
 30
0.0
 41
1.0
 10
1264.773164929933
 20
1601.97400665741
 30
0.0
 41
0.999999999905866
 10
1263.229169039781
 20
1601.972473985493
 30
0.0
 41
1.0
  0
SPLINE
  5
12F
330
1F
100
AcDbEntity
  8
Predefinito
100
AcDbSpline
210
0.0
220
0.0
230
1.0
 70
    12
 71
     2
 72
     8
 73
     5
 74
     0
 42
0.0000000001
 43
0.0000000001
 40
0.0
 40
0.0
 40
0.0
 40
0.1965057580616938
 40
0.1965057580616938
 40
0.3930115161233877
 40
0.3930115161233877
 40
0.3930115161233877
 10
1266.424310375354
 20
1601.65127689146
 30
0.0
 41
1.0
 10
1266.325047025111
 20
1601.687168824239
 30
0.0
 41
0.8994150441901876
 10
1266.291933130735
 20
1601.787393140349
 30
0.0
 41
1.0
 10
1266.25881923636
 20
1601.887617456458
 30
0.0
 41
0.8994150441901876
 10
1266.317160777443
 20
1601.9755816999
 30
0.0
 41
1.0
  0
SPLINE
  5
130
330
1F
100
AcDbEntity
  8
Predefinito
100
AcDbSpline
210
0.0
220
0.0
230
1.0
 70
    12
 71
     2
 72
     6
 73
     3
 74
     0
 42
0.0000000001
 43
0.0000000001
 40
0.0
 40
0.0
 40
0.0
 40
7.749535436407449
 40
7.749535436407449
 40
7.749535436407449
 10
1321.978791262465
 20
1601.972475405433
 30
0.0
 41
1.0
 10
1318.10402384935
 20
1601.974013082498
 30
0.0
 41
0.9999999999923576
 10
1314.229256448377
 20
1601.975581057276
 30
0.0
 41
1.0
  0
SPLINE
  5
131
330
1F
100
AcDbEntity
  8
Predefinito
100
AcDbSpline
210
0.0
220
0.0
230
1.0
 70
    24
 71
     2
 72
     6
 73
     3
 74
     0
 42
0.0000000001
 43
0.0000000001
 40
0.0
 40
0.0
 40
0.0
 40
7.73189933652543
 40
7.73189933652543
 40
7.73189933652543
 10
1314.229256448408
 20
1601.651276891419
 30
0.0
 10
1318.095206116671
 20
1601.651276891419
 30
0.0
 10
1321.961155784934
 20
1601.651276891419
 30
0.0
  0
SPLINE
  5
132
330
1F
100
AcDbEntity
  8
Predefinito
100
AcDbSpline
210
0.0
220
0.0
230
1.0
 70
    12
 71
     2
 72
     6
 73
     3
 74
     0
 42
0.0000000001
 43
0.0000000001
 40
0.0
 40
0.0
 40
0.0
 40
0.3243041915719038
 40
0.3243041915719038
 40
0.3243041915719038
 10
1314.229256448377
 20
1601.975581057151
 30
0.0
 41
1.0
 10
1314.22914433436
 20
1601.813428974285
 30
0.0
 41
0.9999997609742245
 10
1314.229256448408
 20
1601.651276891419
 30
0.0
 41
1.0
  0
SPLINE
  5
133
330
1F
100
AcDbEntity
  8
Predefinito
100
AcDbSpline
210
0.0
220
0.0
230
1.0
 70
    24
 71
     2
 72
     6
 73
     3
 74
     0
 42
0.0000000001
 43
0.0000000001
 40
0.0
 40
0.0
 40
0.0
 40
10.57282399707447
 40
10.57282399707447
 40
10.57282399707447
 10
1252.772404301122
 20
1601.651276891419
 30
0.0
 10
1258.058816299659
 20
1601.651276891419
 30
0.0
 10
1263.345228298196
 20
1601.651276891419
 30
0.0
  0
SPLINE
  5
134
330
1F
100
AcDbEntity
  8
Predefinito
100
AcDbSpline
210
0.0
220
0.0
230
1.0
 70
    12
 71
     2
 72
     6
 73
     3
 74
     0
 42
0.0000000001
 43
0.0000000001
 40
0.0
 40
0.0
 40
0.0
 40
10.59451645537175
 40
10.59451645537175
 40
10.59451645537175
 10
1263.229168556461
 20
1601.97247398505
 30
0.0
 41
1.0
 10
1257.931910551642
 20
1601.974010655067
 30
0.0
 41
0.9999999999949313
 10
1252.634652556716
 20
1601.97558105703
 30
0.0
 41
1.0
  0
SPLINE
  5
135
330
1F
100
AcDbEntity
  8
Predefinito
100
AcDbSpline
210
0.0
220
0.0
230
1.0
 70
    12
 71
     2
 72
     8
 73
     5
 74
     0
 42
0.0000000001
 43
0.0000000001
 40
0.0
 40
0.0
 40
0.0
 40
0.1985057694597832
 40
0.1985057694597832
 40
0.3970115389195665
 40
0.3970115389195665
 40
0.3970115389195665
 10
1263.345228298196
 20
1601.651276891419
 30
0.0
 41
1.0
 10
1263.24244665863
 20
1601.681724940216
 30
0.0
 41
0.8924597343931266
 10
1263.206017902144
 20
1601.782542075706
 30
0.0
 41
1.0
 10
1263.169589145657
 20
1601.883359211195
 30
0.0
 41
0.8924597343931266
 10
1263.229168556461
 20
1601.97247398503
 30
0.0
 41
1.0
  0
SPLINE
  5
136
330
1F
100
AcDbEntity
  8
Predefinito
100
AcDbSpline
210
0.0
220
0.0
230
1.0
 70
    12
 71
     2
 72
     6
 73
     3
 74
     0
 42
0.0000000001
 43
0.0000000001
 40
0.0
 40
0.0
 40
0.0
 40
8.890162198440626
 40
8.890162198440626
 40
8.890162198440626
 10
1330.868952918429
 20
1601.975581057137
 30
0.0
 41
1.0
 10
1326.423872095932
 20
1601.974012530256
 30
0.0
 41
0.9999999999937617
 10
1321.978791262465
 20
1601.972475405443
 30
0.0
 41
1.0
  0
SPLINE
  5
137
330
1F
100
AcDbEntity
  8
Predefinito
100
AcDbSpline
210
0.0
220
0.0
230
1.0
 70
    24
 71
     2
 72
     6
 73
     3
 74
     0
 42
0.0000000001
 43
0.0000000001
 40
0.0
 40
0.0
 40
0.0
 40
8.870583691113097
 40
8.870583691113097
 40
8.870583691113097
 10
1321.961155784934
 20
1601.651276891419
 30
0.0
 10
1326.39644763049
 20
1601.651276891419
 30
0.0
 10
1330.831739476047
 20
1601.651276891419
 30
0.0
  0
SPLINE
  5
138
330
1F
100
AcDbEntity
  8
Predefinito
100
AcDbSpline
210
0.0
220
0.0
230
1.0
 70
    12
 71
     2
 72
     6
 73
     3
 74
     0
 42
0.0000000001
 43
0.0000000001
 40
0.0
 40
0.0
 40
0.0
 40
0.3235833135433887
 40
0.3235833135433887
 40
0.3235833135433887
 10
1321.978791262465
 20
1601.972475405396
 30
0.0
 41
1.0
 10
1322.000512729853
 20
1601.810199386341
 30
0.0
 41
0.9823960070126996
 10
1321.961155784934
 20
1601.651276891419
 30
0.0
 41
1.0
  0
SPLINE
  5
139
330
1F
100
AcDbEntity
  8
Predefinito
100
AcDbSpline
210
0.0
220
0.0
230
1.0
 70
    24
 71
     2
 72
     6
 73
     3
 74
     0
 42
0.0000000001
 43
0.0000000001
 40
0.0
 40
0.0
 40
0.0
 40
1.273133049129001
 40
1.273133049129001
 40
1.273133049129001
 10
1251.499271251993
 20
1601.651276891419
 30
0.0
 10
1252.135837776557
 20
1601.651276891419
 30
0.0
 10
1252.772404301122
 20
1601.651276891419
 30
0.0
  0
SPLINE
  5
13A
330
1F
100
AcDbEntity
  8
Predefinito
100
AcDbSpline
210
0.0
220
0.0
230
1.0
 70
    12
 71
     2
 72
     6
 73
     3
 74
     0
 42
0.0000000001
 43
0.0000000001
 40
0.0
 40
0.0
 40
0.0
 40
1.27846418284202
 40
1.27846418284202
 40
1.27846418284202
 10
1252.634652556716
 20
1601.975581057253
 30
0.0
 41
1.0
 10
1251.99542235359
 20
1601.974027314879
 30
0.0
 41
0.9999999999989723
 10
1251.356192146012
 20
1601.972475405444
 30
0.0
 41
1.0
  0
SPLINE
  5
13B
330
1F
100
AcDbEntity
  8
Predefinito
100
AcDbSpline
210
0.0
220
0.0
230
1.0
 70
    12
 71
     2
 72
     8
 73
     5
 74
     0
 42
0.0000000001
 43
0.0000000001
 40
0.0
 40
0.0
 40
0.0
 40
0.2131170649038726
 40
0.2131170649038726
 40
0.4262341298077451
 40
0.4262341298077451
 40
0.4262341298077451
 10
1252.772404301122
 20
1601.651276891419
 30
0.0
 41
1.0
 10
1252.655738065659
 20
1601.665443765352
 30
0.0
 41
0.8657524113830908
 10
1252.609791855349
 20
1601.77361333858
 30
0.0
 41
1.0
 10
1252.563845645039
 20
1601.881782911808
 30
0.0
 41
0.8657524113830908
 10
1252.634652556716
 20
1601.975581057168
 30
0.0
 41
1.0
  0
SPLINE
  5
13C
330
1F
100
AcDbEntity
  8
Predefinito
100
AcDbSpline
210
0.0
220
0.0
230
1.0
 70
    12
 71
     2
 72
     6
 73
     3
 74
     0
 42
0.0000000001
 43
0.0000000001
 40
0.0
 40
0.0
 40
0.0
 40
6.373443035064838
 40
6.373443035064838
 40
6.373443035064838
 10
1337.242395196811
 20
1601.972475405433
 30
0.0
 41
1.0
 10
1334.055674050614
 20
1601.974013854152
 30
0.0
 41
0.9999999999898227
 10
1330.868952918429
 20
1601.975581057297
 30
0.0
 41
1.0
  0
SPLINE
  5
13D
330
1F
100
AcDbEntity
  8
Predefinito
100
AcDbSpline
210
0.0
220
0.0
230
1.0
 70
    24
 71
     2
 72
     6
 73
     3
 74
     0
 42
0.0000000001
 43
0.0000000001
 40
0.0
 40
0.0
 40
0.0
 40
6.358285133220306
 40
6.358285133220306
 40
6.358285133220306
 10
1330.831739476047
 20
1601.651276891419
 30
0.0
 10
1334.010882042657
 20
1601.651276891419
 30
0.0
 10
1337.190024609267
 20
1601.651276891419
 30
0.0
  0
SPLINE
  5
13E
330
1F
100
AcDbEntity
  8
Predefinito
100
AcDbSpline
210
0.0
220
0.0
230
1.0
 70
    12
 71
     2
 72
     6
 73
     3
 74
     0
 42
0.0000000001
 43
0.0000000001
 40
0.0
 40
0.0
 40
0.0
 40
0.3348693182192054
 40
0.3348693182192054
 40
0.3348693182192054
 10
1330.868952918429
 20
1601.975581057171
 30
0.0
 41
1.0
 10
1330.917054539168
 20
1601.80577428681
 30
0.0
 41
0.9247988563841779
 10
1330.831739476047
 20
1601.651276891419
 30
0.0
 41
1.0
  0
SPLINE
  5
13F
330
1F
100
AcDbEntity
  8
Predefinito
100
AcDbSpline
210
0.0
220
0.0
230
1.0
 70
    24
 71
     2
 72
     6
 73
     3
 74
     0
 42
0.0000000001
 43
0.0000000001
 40
0.0
 40
0.0
 40
0.0
 40
10.51143913965643
 40
10.51143913965643
 40
10.51143913965643
 10
1240.987832112336
 20
1601.651276891419
 30
0.0
 10
1246.243551682164
 20
1601.651276891419
 30
0.0
 10
1251.499271251993
 20
1601.651276891419
 30
0.0
  0
SPLINE
  5
140
330
1F
100
AcDbEntity
  8
Predefinito
100
AcDbSpline
210
0.0
220
0.0
230
1.0
 70
    12
 71
     2
 72
     6
 73
     3
 74
     0
 42
0.0000000001
 43
0.0000000001
 40
0.0
 40
0.0
 40
0.0
 40
10.53252662783407
 40
10.53252662783407
 40
10.53252662783407
 10
1251.356192146012
 20
1601.97247540555
 30
0.0
 41
1.0
 10
1246.089929055966
 20
1601.974011023985
 30
0.0
 41
0.9999999999946618
 10
1240.823665976068
 20
1601.975581057346
 30
0.0
 41
1.0
  0
SPLINE
  5
141
330
1F
100
AcDbEntity
  8
Predefinito
100
AcDbSpline
210
0.0
220
0.0
230
1.0
 70
    12
 71
     2
 72
     8
 73
     5
 74
     0
 42
0.0000000001
 43
0.0000000001
 40
0.0
 40
0.0
 40
0.0
 40
0.2130683730499365
 40
0.2130683730499365
 40
0.426136746099873
 40
0.426136746099873
 40
0.426136746099873
 10
1251.499271251993
 20
1601.651276891419
 30
0.0
 41
1.0
 10
1251.382232932607
 20
1601.662857734402
 30
0.0
 41
0.8645456895104391
 10
1251.334376499418
 20
1601.770290717844
 30
0.0
 41
1.0
 10
1251.286520066228
 20
1601.877723701285
 30
0.0
 41
0.8645456895104391
 10
1251.356192146012
 20
1601.972475405372
 30
0.0
 41
1.0
  0
SPLINE
  5
142
330
1F
100
AcDbEntity
  8
Predefinito
100
AcDbSpline
210
0.0
220
0.0
230
1.0
 70
    12
 71
     2
 72
     6
 73
     3
 74
     0
 42
0.0000000001
 43
0.0000000001
 40
0.0
 40
0.0
 40
0.0
 40
9.76066592863918
 40
9.76066592863918
 40
9.76066592863918
 10
1347.003060631354
 20
1601.975581057137
 30
0.0
 41
1.0
 10
1342.122727919218
 20
1601.974012090608
 30
0.0
 41
0.9999999999945309
 10
1337.242395196811
 20
1601.972475405249
 30
0.0
 41
1.0
  0
SPLINE
  5
143
330
1F
100
AcDbEntity
  8
Predefinito
100
AcDbSpline
210
0.0
220
0.0
230
1.0
 70
    24
 71
     2
 72
     6
 73
     3
 74
     0
 42
0.0000000001
 43
0.0000000001
 40
0.0
 40
0.0
 40
0.0
 40
9.739739848957925
 40
9.739739848957925
 40
9.739739848957925
 10
1337.190024609267
 20
1601.651276891419
 30
0.0
 10
1342.059894533746
 20
1601.651276891419
 30
0.0
 10
1346.929764458225
 20
1601.651276891419
 30
0.0
  0
SPLINE
  5
144
330
1F
100
AcDbEntity
  8
Predefinito
100
AcDbSpline
210
0.0
220
0.0
230
1.0
 70
    12
 71
     2
 72
     6
 73
     3
 74
     0
 42
0.0000000001
 43
0.0000000001
 40
0.0
 40
0.0
 40
0.0
 40
0.3405668403918424
 40
0.3405668403918424
 40
0.3405668403918424
 10
1337.242395196811
 20
1601.972475405329
 30
0.0
 41
1.0
 10
1337.308106671145
 20
1601.796892617844
 30
0.0
 41
0.8679502032937862
 10
1337.190024609267
 20
1601.651276891419
 30
0.0
 41
1.0
  0
SPLINE
  5
145
330
1F
100
AcDbEntity
  8
Predefinito
100
AcDbSpline
210
0.0
220
0.0
230
1.0
 70
    12
 71
     2
 72
     8
 73
     5
 74
     0
 42
0.0000000001
 43
0.0000000001
 40
0.0
 40
0.0
 40
0.0
 40
0.2286709487399803
 40
0.2286709487399803
 40
0.4573418974799606
 40
0.4573418974799606
 40
0.4573418974799606
 10
1240.987832112336
 20
1601.651276891419
 30
0.0
 41
1.0
 10
1240.859193443256
 20
1601.645537141904
 30
0.0
 41
0.8400661513064722
 10
1240.801037163974
 20
1601.760422733199
 30
0.0
 41
1.0
 10
1240.742880884692
 20
1601.875308324495
 30
0.0
 41
0.8400661513064722
 10
1240.823665976068
 20
1601.975581057173
 30
0.0
 41
1.0
  0
SPLINE
  5
146
330
1F
100
AcDbEntity
  8
Predefinito
100
AcDbSpline
210
0.0
220
0.0
230
1.0
 70
    12
 71
     2
 72
     6
 73
     3
 74
     0
 42
0.0000000001
 43
0.0000000001
 40
0.0
 40
0.0
 40
0.0
 40
4.80369720936381
 40
4.80369720936381
 40
4.80369720936381
 10
1351.806756835854
 20
1601.972473985283
 30
0.0
 41
1.0
 10
1349.40490872511
 20
1601.97401438977
 30
0.0
 41
0.9999999999850546
 10
1347.003060631354
 20
1601.975581057222
 30
0.0
 41
1.0
  0
SPLINE
  5
147
330
1F
100
AcDbEntity
  8
Predefinito
100
AcDbSpline
210
0.0
220
0.0
230
1.0
 70
    24
 71
     2
 72
     6
 73
     3
 74
     0
 42
0.0000000001
 43
0.0000000001
 40
0.0
 40
0.0
 40
0.0
 40
4.791477625558628
 40
4.791477625558628
 40
4.791477625558628
 10
1346.929764458225
 20
1601.651276891419
 30
0.0
 10
1349.325503271004
 20
1601.651276891419
 30
0.0
 10
1351.721242083784
 20
1601.651276891419
 30
0.0
  0
SPLINE
  5
148
330
1F
100
AcDbEntity
  8
Predefinito
100
AcDbSpline
210
0.0
220
0.0
230
1.0
 70
    12
 71
     2
 72
     6
 73
     3
 74
     0
 42
0.0000000001
 43
0.0000000001
 40
0.0
 40
0.0
 40
0.0
 40
0.3605892713882924
 40
0.3605892713882924
 40
0.3605892713882924
 10
1347.003060631354
 20
1601.975581057169
 30
0.0
 41
1.0
 10
1347.100815509551
 20
1601.783052482055
 30
0.0
 41
0.7699086902987038
 10
1346.929764458225
 20
1601.651276891419
 30
0.0
 41
1.0
  0
SPLINE
  5
149
330
1F
100
AcDbEntity
  8
Predefinito
100
AcDbSpline
210
0.0
220
0.0
230
1.0
 70
    24
 71
     2
 72
     6
 73
     3
 74
     0
 42
0.0000000001
 43
0.0000000001
 40
0.0
 40
0.0
 40
0.0
 40
9.559168566157496
 40
9.559168566157496
 40
9.559168566157496
 10
1231.428663540059
 20
1601.651276891419
 30
0.0
 10
1236.208247823138
 20
1601.651276891419
 30
0.0
 10
1240.987832106217
 20
1601.651276891419
 30
0.0
  0
SPLINE
  5
14A
330
1F
100
AcDbEntity
  8
Predefinito
100
AcDbSpline
210
0.0
220
0.0
230
1.0
 70
    12
 71
     2
 72
     6
 73
     3
 74
     0
 42
0.0000000001
 43
0.0000000001
 40
0.0
 40
0.0
 40
0.0
 40
9.58059441375032
 40
9.58059441375032
 40
9.58059441375032
 10
1240.823665081629
 20
1601.972647897899
 30
0.0
 41
1.0
 10
1236.033368094482
 20
1601.974098857791
 30
0.0
 41
0.9999999999946838
 10
1231.243071116898
 20
1601.975581057072
 30
0.0
 41
1.0
  0
SPLINE
  5
14B
330
1F
100
AcDbEntity
  8
Predefinito
100
AcDbSpline
210
0.0
220
0.0
230
1.0
 70
    12
 71
     2
 72
     6
 73
     3
 74
     0
 42
0.0000000001
 43
0.0000000001
 40
0.0
 40
0.0
 40
0.0
 40
10.3345953949811
 40
10.3345953949811
 40
10.3345953949811
 10
1362.141352119294
 20
1601.975581699749
 30
0.0
 41
1.0
 10
1356.974054663594
 20
1601.974000781117
 30
0.0
 41
0.9999999999862869
 10
1351.80675719162
 20
1601.97247398486
 30
0.0
 41
1.0
  0
SPLINE
  5
14C
330
1F
100
AcDbEntity
  8
Predefinito
100
AcDbSpline
210
0.0
220
0.0
230
1.0
 70
    24
 71
     2
 72
     6
 73
     3
 74
     0
 42
0.0000000001
 43
0.0000000001
 40
0.0
 40
0.0
 40
0.0
 40
10.31296043759835
 40
10.31296043759835
 40
10.31296043759835
 10
1351.721242083784
 20
1601.651276891419
 30
0.0
 10
1356.877722302583
 20
1601.651276891439
 30
0.0
 10
1362.034202521382
 20
1601.65127689146
 30
0.0
  0
SPLINE
  5
14D
330
1F
100
AcDbEntity
  8
Predefinito
100
AcDbSpline
210
0.0
220
0.0
230
1.0
 70
    12
 71
     2
 72
     6
 73
     3
 74
     0
 42
0.0000000001
 43
0.0000000001
 40
0.0
 40
0.0
 40
0.0
 40
0.3670715362642579
 40
0.3670715362642579
 40
0.3670715362642579
 10
1351.80675719162
 20
1601.972473985031
 30
0.0
 41
1.0
 10
1351.917881146338
 20
1601.770906220051
 30
0.0
 41
0.7220453217178311
 10
1351.721242083784
 20
1601.651276891419
 30
0.0
 41
1.0
  0
SPLINE
  5
14E
330
1F
100
AcDbEntity
  8
Predefinito
100
AcDbSpline
210
0.0
220
0.0
230
1.0
 70
    12
 71
     2
 72
     8
 73
     5
 74
     0
 42
0.0000000001
 43
0.0000000001
 40
0.0
 40
0.0
 40
0.0
 40
0.242018383794016
 40
0.242018383794016
 40
0.4840367675880319
 40
0.4840367675880319
 40
0.4840367675880319
 10
1231.428663540059
 20
1601.651276891419
 30
0.0
 41
1.0
 10
1231.292056407485
 20
1601.628855993773
 30
0.0
 41
0.8214524912697588
 10
1231.223296489713
 20
1601.749007061307
 30
0.0
 41
1.0
 10
1231.154536571942
 20
1601.869158128841
 30
0.0
 41
0.8214524912697588
 10
1231.243071116899
 20
1601.975581057154
 30
0.0
 41
1.0
  0
SPLINE
  5
14F
330
1F
100
AcDbEntity
  8
Predefinito
100
AcDbSpline
210
0.0
220
0.0
230
1.0
 70
    12
 71
     2
 72
     6
 73
     3
 74
     0
 42
0.0000000001
 43
0.0000000001
 40
0.0
 40
0.0
 40
0.0
 40
3.087993301471171
 40
3.087993301471171
 40
3.087993301471171
 10
1365.229343857759
 20
1601.972474852868
 30
0.0
 41
1.0
 10
1363.68534796721
 20
1601.974007088462
 30
0.0
 41
0.9999999999058425
 10
1362.141352119294
 20
1601.975581699908
 30
0.0
 41
1.0
  0
SPLINE
  5
150
330
1F
100
AcDbEntity
  8
Predefinito
100
AcDbSpline
210
0.0
220
0.0
230
1.0
 70
    24
 71
     2
 72
     6
 73
     3
 74
     0
 42
0.0000000001
 43
0.0000000001
 40
0.0
 40
0.0
 40
0.0
 40
3.079082077160137
 40
3.079082077160137
 40
3.079082077160137
 10
1362.034202521382
 20
1601.65127689146
 30
0.0
 10
1363.573743559962
 20
1601.651276891439
 30
0.0
 10
1365.113284598542
 20
1601.651276891419
 30
0.0
  0
SPLINE
  5
151
330
1F
100
AcDbEntity
  8
Predefinito
100
AcDbSpline
210
0.0
220
0.0
230
1.0
 70
    12
 71
     2
 72
     8
 73
     5
 74
     0
 42
0.0000000001
 43
0.0000000001
 40
0.0
 40
0.0
 40
0.0
 40
0.1964487689790682
 40
0.1964487689790682
 40
0.3928975379581364
 40
0.3928975379581364
 40
0.3928975379581364
 10
1362.141352119294
 20
1601.9755816999
 30
0.0
 41
1.0
 10
1362.199588013316
 20
1601.887603318349
 30
0.0
 41
0.8996135112580649
 10
1362.166488728087
 20
1601.787423219077
 30
0.0
 41
1.0
 10
1362.133389442857
 20
1601.687243119804
 30
0.0
 41
0.8996135112580649
 10
1362.034202521382
 20
1601.65127689146
 30
0.0
 41
1.0
  0
SPLINE
  5
152
330
1F
100
AcDbEntity
  8
Predefinito
100
AcDbSpline
210
0.0
220
0.0
230
1.0
 70
    24
 71
     2
 72
     6
 73
     3
 74
     0
 42
0.0000000001
 43
0.0000000001
 40
0.0
 40
0.0
 40
0.0
 40
7.043314455688687
 40
7.043314455688687
 40
7.043314455688687
 10
1224.385349084255
 20
1601.651276891419
 30
0.0
 10
1227.907006312099
 20
1601.651276891419
 30
0.0
 10
1231.428663539944
 20
1601.651276891419
 30
0.0
  0
SPLINE
  5
153
330
1F
100
AcDbEntity
  8
Predefinito
100
AcDbSpline
210
0.0
220
0.0
230
1.0
 70
    12
 71
     2
 72
     6
 73
     3
 74
     0
 42
0.0000000001
 43
0.0000000001
 40
0.0
 40
0.0
 40
0.0
 40
7.059101234747592
 40
7.059101234747592
 40
7.059101234747592
 10
1231.243070358114
 20
1601.973256786587
 30
0.0
 41
1.0
 10
1227.713519928798
 20
1601.974408996703
 30
0.0
 41
0.9999999999960463
 10
1224.183969506018
 20
1601.975581057323
 30
0.0
 41
1.0
  0
SPLINE
  5
154
330
1F
100
AcDbEntity
  8
Predefinito
100
AcDbSpline
210
0.0
220
0.0
230
1.0
 70
    12
 71
     2
 72
     6
 73
     3
 74
     0
 42
0.0000000001
 43
0.0000000001
 40
0.0
 40
0.0
 40
0.0
 40
10.59451645537698
 40
10.59451645537698
 40
10.59451645537698
 10
1375.823860340037
 20
1601.975581057137
 30
0.0
 41
1.0
 10
1370.52660234498
 20
1601.97401108784
 30
0.0
 41
0.9999999999949306
 10
1365.229344340032
 20
1601.972474853041
 30
0.0
 41
1.0
  0
SPLINE
  5
155
330
1F
100
AcDbEntity
  8
Predefinito
100
AcDbSpline
210
0.0
220
0.0
230
1.0
 70
    24
 71
     2
 72
     6
 73
     3
 74
     0
 42
0.0000000001
 43
0.0000000001
 40
0.0
 40
0.0
 40
0.0
 40
10.5728239954658
 40
10.5728239954658
 40
10.5728239954658
 10
1365.113284598542
 20
1601.651276891419
 30
0.0
 10
1370.399696596275
 20
1601.651276891419
 30
0.0
 10
1375.686108594008
 20
1601.651276891419
 30
0.0
  0
SPLINE
  5
156
330
1F
100
AcDbEntity
  8
Predefinito
100
AcDbSpline
210
0.0
220
0.0
230
1.0
 70
    12
 71
     2
 72
     8
 73
     5
 74
     0
 42
0.0000000001
 43
0.0000000001
 40
0.0
 40
0.0
 40
0.0
 40
0.1985057677930057
 40
0.1985057677930057
 40
0.3970115355860113
 40
0.3970115355860113
 40
0.3970115355860113
 10
1365.229344340084
 20
1601.972473984909
 30
0.0
 41
1.0
 10
1365.288923748066
 20
1601.8833592108
 30
0.0
 41
0.8924597397417375
 10
1365.252494992077
 20
1601.782542076558
 30
0.0
 41
1.0
 10
1365.216066236087
 20
1601.681724942315
 30
0.0
 41
0.8924597397417375
 10
1365.113284598542
 20
1601.651276891419
 30
0.0
 41
1.0
  0
SPLINE
  5
157
330
1F
100
AcDbEntity
  8
Predefinito
100
AcDbSpline
210
0.0
220
0.0
230
1.0
 70
    12
 71
     2
 72
     8
 73
     5
 74
     0
 42
0.0000000001
 43
0.0000000001
 40
0.0
 40
0.0
 40
0.0
 40
0.2522823384829735
 40
0.2522823384829735
 40
0.5045646769659471
 40
0.5045646769659471
 40
0.5045646769659471
 10
1224.385349084255
 20
1601.651276891419
 30
0.0
 41
1.0
 10
1224.243721406704
 20
1601.616283324348
 30
0.0
 41
0.8088109190776843
 10
1224.166762050803
 20
1601.74021962381
 30
0.0
 41
1.0
 10
1224.089802694903
 20
1601.864155923271
 30
0.0
 41
0.8088109190776843
 10
1224.183969506018
 20
1601.975581057191
 30
0.0
 41
1.0
  0
SPLINE
  5
158
330
1F
100
AcDbEntity
  8
Predefinito
100
AcDbSpline
210
0.0
220
0.0
230
1.0
 70
    12
 71
     2
 72
     6
 73
     3
 74
     0
 42
0.0000000001
 43
0.0000000001
 40
0.0
 40
0.0
 40
0.0
 40
1.278464182865295
 40
1.278464182865295
 40
1.278464182865295
 10
1377.102320750764
 20
1601.972475405375
 30
0.0
 41
1.0
 10
1376.463090543167
 20
1601.974027311677
 30
0.0
 41
0.9999999999989652
 10
1375.823860340038
 20
1601.975581057175
 30
0.0
 41
1.0
  0
SPLINE
  5
159
330
1F
100
AcDbEntity
  8
Predefinito
100
AcDbSpline
210
0.0
220
0.0
230
1.0
 70
    24
 71
     2
 72
     6
 73
     3
 74
     0
 42
0.0000000001
 43
0.0000000001
 40
0.0
 40
0.0
 40
0.0
 40
1.273133050752222
 40
1.273133050752222
 40
1.273133050752222
 10
1375.686108594008
 20
1601.651276891419
 30
0.0
 10
1376.322675119384
 20
1601.651276891419
 30
0.0
 10
1376.95924164476
 20
1601.651276891419
 30
0.0
  0
SPLINE
  5
15A
330
1F
100
AcDbEntity
  8
Predefinito
100
AcDbSpline
210
0.0
220
0.0
230
1.0
 70
    12
 71
     2
 72
     8
 73
     5
 74
     0
 42
0.0000000001
 43
0.0000000001
 40
0.0
 40
0.0
 40
0.0
 40
0.2131170662837246
 40
0.2131170662837246
 40
0.4262341325674492
 40
0.4262341325674492
 40
0.4262341325674492
 10
1375.823860340037
 20
1601.975581057147
 30
0.0
 41
1.0
 10
1375.894667253123
 20
1601.881782911528
 30
0.0
 41
0.8657524082524054
 10
1375.84872104194
 20
1601.773613337525
 30
0.0
 41
1.0
 10
1375.802774830756
 20
1601.665443763522
 30
0.0
 41
0.8657524082524054
 10
1375.686108594008
 20
1601.651276891419
 30
0.0
 41
1.0
  0
SPLINE
  5
15B
330
1F
100
AcDbEntity
  8
Predefinito
100
AcDbSpline
210
0.0
220
0.0
230
1.0
 70
    24
 71
     2
 72
     6
 73
     3
 74
     0
 42
0.0000000001
 43
0.0000000001
 40
0.0
 40
0.0
 40
0.0
 40
4.313452792903718
 40
4.313452792903718
 40
4.313452792903718
 10
1220.071896290357
 20
1601.651276891419
 30
0.0
 10
1222.228622686809
 20
1601.651276891419
 30
0.0
 10
1224.385349083261
 20
1601.651276891419
 30
0.0
  0
SPLINE
  5
15C
330
1F
100
AcDbEntity
  8
Predefinito
100
AcDbSpline
210
0.0
220
0.0
230
1.0
 70
    12
 71
     2
 72
     6
 73
     3
 74
     0
 42
0.0000000001
 43
0.0000000001
 40
0.0
 40
0.0
 40
0.0
 40
4.323120841697962
 40
4.323120841697962
 40
4.323120841697962
 10
1224.183968922256
 20
1601.973988985759
 30
0.0
 41
1.0
 10
1222.022408646246
 20
1601.974780294702
 30
0.0
 41
0.999999999997609
 10
1219.860848373717
 20
1601.975581057206
 30
0.0
 41
1.0
  0
SPLINE
  5
15D
330
1F
100
AcDbEntity
  8
Predefinito
100
AcDbSpline
210
0.0
220
0.0
230
1.0
 70
    12
 71
     2
 72
     6
 73
     3
 74
     0
 42
0.0000000001
 43
0.0000000001
 40
0.0
 40
0.0
 40
0.0
 40
10.53252662781042
 40
10.53252662781042
 40
10.53252662781042
 10
1387.634846920685
 20
1601.975581057137
 30
0.0
 41
1.0
 10
1382.368583840798
 20
1601.974011024307
 30
0.0
 41
0.999999999994662
 10
1377.102320750764
 20
1601.972475405311
 30
0.0
 41
1.0
  0
SPLINE
  5
15E
330
1F
100
AcDbEntity
  8
Predefinito
100
AcDbSpline
210
0.0
220
0.0
230
1.0
 70
    24
 71
     2
 72
     6
 73
     3
 74
     0
 42
0.0000000001
 43
0.0000000001
 40
0.0
 40
0.0
 40
0.0
 40
10.51143913770557
 40
10.51143913770557
 40
10.51143913770557
 10
1376.95924164476
 20
1601.651276891419
 30
0.0
 10
1382.214961213613
 20
1601.651276891419
 30
0.0
 10
1387.470680782466
 20
1601.651276891419
 30
0.0
  0
SPLINE
  5
15F
330
1F
100
AcDbEntity
  8
Predefinito
100
AcDbSpline
210
0.0
220
0.0
230
1.0
 70
    12
 71
     2
 72
     8
 73
     5
 74
     0
 42
0.0000000001
 43
0.0000000001
 40
0.0
 40
0.0
 40
0.0
 40
0.2129632794525636
 40
0.2129632794525636
 40
0.4259265589051272
 40
0.4259265589051272
 40
0.4259265589051272
 10
1377.102320750764
 20
1601.972475405371
 30
0.0
 41
1.0
 10
1377.171817230298
 20
1601.877704811759
 30
0.0
 41
0.8648719192761561
 10
1377.123996893194
 20
1601.770352860495
 30
0.0
 41
1.0
 10
1377.076176556089
 20
1601.66300090923
 30
0.0
 41
0.8648719192761561
 10
1376.95924164476
 20
1601.651276891419
 30
0.0
 41
1.0
  0
SPLINE
  5
160
330
1F
100
AcDbEntity
  8
Predefinito
100
AcDbSpline
210
0.0
220
0.0
230
1.0
 70
    12
 71
     2
 72
     8
 73
     5
 74
     0
 42
0.0000000001
 43
0.0000000001
 40
0.0
 40
0.0
 40
0.0
 40
0.2587357600478491
 40
0.2587357600478491
 40
0.5174715200956982
 40
0.5174715200956982
 40
0.5174715200956982
 10
1220.071896290357
 20
1601.651276891419
 30
0.0
 41
1.0
 10
1219.927523975695
 20
1601.608490858025
 30
0.0
 41
0.8015005520571129
 10
1219.845391781299
 20
1601.734698276737
 30
0.0
 41
1.0
 10
1219.763259586904
 20
1601.86090569545
 30
0.0
 41
0.8015005520571129
 10
1219.860848373717
 20
1601.975581057157
 30
0.0
 41
1.0
  0
SPLINE
  5
161
330
1F
100
AcDbEntity
  8
Predefinito
100
AcDbSpline
210
0.0
220
0.0
230
1.0
 70
    12
 71
     2
 72
     8
 73
     5
 74
     0
 42
0.0000000001
 43
0.0000000001
 40
0.0
 40
0.0
 40
0.0
 40
0.2286583296519973
 40
0.2286583296519973
 40
0.4573166593039946
 40
0.4573166593039946
 40
0.4573166593039946
 10
1387.634846920685
 20
1601.975581057141
 30
0.0
 41
1.0
 10
1387.715612009758
 20
1601.875306220834
 30
0.0
 41
0.8401017417479804
 10
1387.657460657197
 20
1601.760430363471
 30
0.0
 41
1.0
 10
1387.599309304637
 20
1601.645554506108
 30
0.0
 41
0.8401017417479804
 10
1387.470680782466
 20
1601.651276891418
 30
0.0
 41
1.0
  0
SPLINE
  5
162
330
1F
100
AcDbEntity
  8
Predefinito
100
AcDbSpline
210
0.0
220
0.0
230
1.0
 70
    24
 71
     2
 72
     6
 73
     3
 74
     0
 42
0.0000000001
 43
0.0000000001
 40
0.0
 40
0.0
 40
0.0
 40
1.45253198402952
 40
1.45253198402952
 40
1.45253198402952
 10
1218.61936430234
 20
1601.65127689146
 30
0.0
 10
1219.345630294355
 20
1601.651276891456
 30
0.0
 10
1220.07189628637
 20
1601.651276891452
 30
0.0
  0
SPLINE
  5
163
330
1F
100
AcDbEntity
  8
Predefinito
100
AcDbSpline
210
0.0
220
0.0
230
1.0
 70
    12
 71
     2
 72
     6
 73
     3
 74
     0
 42
0.0000000001
 43
0.0000000001
 40
0.0
 40
0.0
 40
0.0
 40
1.455783127131809
 40
1.455783127131809
 40
1.455783127131809
 10
1219.86084810179
 20
1601.974962127642
 30
0.0
 41
1.0
 10
1219.132956606666
 20
1601.975277817629
 30
0.0
 41
0.9999999999671066
 10
1218.405065106517
 20
1601.9755816999
 30
0.0
 41
1.0
  0
SPLINE
  5
164
330
1F
100
AcDbEntity
  8
Predefinito
100
AcDbSpline
210
0.0
220
0.0
230
1.0
 70
    12
 71
     2
 72
     6
 73
     3
 74
     0
 42
0.0000000001
 43
0.0000000001
 40
0.0
 40
0.0
 40
0.0
 40
9.58059441376253
 40
9.58059441376253
 40
9.58059441376253
 10
1397.215441779853
 20
1601.975581057137
 30
0.0
 41
1.0
 10
1392.425144802264
 20
1601.974098858287
 30
0.0
 41
0.9999999999946843
 10
1387.63484781511
 20
1601.9726478979
 30
0.0
 41
1.0
  0
SPLINE
  5
165
330
1F
100
AcDbEntity
  8
Predefinito
100
AcDbSpline
210
0.0
220
0.0
230
1.0
 70
    24
 71
     2
 72
     6
 73
     3
 74
     0
 42
0.0000000001
 43
0.0000000001
 40
0.0
 40
0.0
 40
0.0
 40
9.559168565939444
 40
9.559168565939444
 40
9.559168565939444
 10
1387.470680788556
 20
1601.651276891419
 30
0.0
 10
1392.250265071526
 20
1601.651276891419
 30
0.0
 10
1397.029849354496
 20
1601.651276891419
 30
0.0
  0
SPLINE
  5
166
330
1F
100
AcDbEntity
  8
Predefinito
100
AcDbSpline
210
0.0
220
0.0
230
1.0
 70
    12
 71
     2
 72
     8
 73
     5
 74
     0
 42
0.0000000001
 43
0.0000000001
 40
0.0
 40
0.0
 40
0.0
 40
0.2609196465449992
 40
0.2609196465449992
 40
0.5218392930899984
 40
0.5218392930899984
 40
0.5218392930899984
 10
1218.61936430234
 20
1601.65127689146
 30
0.0
 41
1.0
 10
1218.474129545005
 20
1601.605876800054
 30
0.0
 41
0.7991468250531903
 10
1218.390240086087
 20
1601.732829002557
 30
0.0
 41
1.0
 10
1218.30635062717
 20
1601.85978120506
 30
0.0
 41
0.7991468250531903
 10
1218.405065106517
 20
1601.9755816999
 30
0.0
 41
1.0
  0
SPLINE
  5
167
330
1F
100
AcDbEntity
  8
Predefinito
100
AcDbSpline
210
0.0
220
0.0
230
1.0
 70
    12
 71
     2
 72
     8
 73
     5
 74
     0
 42
0.0000000001
 43
0.0000000001
 40
0.0
 40
0.0
 40
0.0
 40
0.2420183852821671
 40
0.2420183852821671
 40
0.4840367705643342
 40
0.4840367705643342
 40
0.4840367705643342
 10
1397.215441779853
 20
1601.975581057144
 30
0.0
 41
1.0
 10
1397.303976325734
 20
1601.869158128175
 30
0.0
 41
0.8214524892126156
 10
1397.235216406804
 20
1601.749007060043
 30
0.0
 41
1.0
 10
1397.166456487874
 20
1601.628855991912
 30
0.0
 41
0.8214524892126156
 10
1397.029849354496
 20
1601.651276891419
 30
0.0
 41
1.0
  0
SPLINE
  5
168
330
1F
100
AcDbEntity
  8
Predefinito
100
AcDbSpline
210
0.0
220
0.0
230
1.0
 70
    12
 71
     2
 72
     6
 73
     3
 74
     0
 42
0.0000000001
 43
0.0000000001
 40
0.0
 40
0.0
 40
0.0
 40
7.05910123478512
 40
7.05910123478512
 40
7.05910123478512
 10
1404.274543390746
 20
1601.97558105737
 30
0.0
 41
1.0
 10
1400.744992967947
 20
1601.974408997125
 30
0.0
 41
0.9999999999960462
 10
1397.215442538613
 20
1601.973256787091
 30
0.0
 41
1.0
  0
SPLINE
  5
169
330
1F
100
AcDbEntity
  8
Predefinito
100
AcDbSpline
210
0.0
220
0.0
230
1.0
 70
    24
 71
     2
 72
     6
 73
     3
 74
     0
 42
0.0000000001
 43
0.0000000001
 40
0.0
 40
0.0
 40
0.0
 40
7.043314455594327
 40
7.043314455594327
 40
7.043314455594327
 10
1397.029849354564
 20
1601.651276891419
 30
0.0
 10
1400.551506582362
 20
1601.651276891419
 30
0.0
 10
1404.073163810159
 20
1601.651276891419
 30
0.0
  0
SPLINE
  5
16A
330
1F
100
AcDbEntity
  8
Predefinito
100
AcDbSpline
210
0.0
220
0.0
230
1.0
 70
    12
 71
     2
 72
     8
 73
     5
 74
     0
 42
0.0000000001
 43
0.0000000001
 40
0.0
 40
0.0
 40
0.0
 40
0.2523870778560995
 40
0.2523870778560995
 40
0.504774155712199
 40
0.504774155712199
 40
0.504774155712199
 10
1404.274543390746
 20
1601.975581057161
 30
0.0
 41
1.0
 10
1404.368868675663
 20
1601.864167543629
 30
0.0
 41
0.8085519338751447
 10
1404.291860009659
 20
1601.740151836026
 30
0.0
 41
1.0
 10
1404.214851343655
 20
1601.616136128422
 30
0.0
 41
0.8085519338751447
 10
1404.073163810159
 20
1601.651276891419
 30
0.0
 41
1.0
  0
SPLINE
  5
16B
330
1F
100
AcDbEntity
  8
Predefinito
100
AcDbSpline
210
0.0
220
0.0
230
1.0
 70
    12
 71
     2
 72
     6
 73
     3
 74
     0
 42
0.0000000001
 43
0.0000000001
 40
0.0
 40
0.0
 40
0.0
 40
4.323120841679004
 40
4.323120841679004
 40
4.323120841679004
 10
1408.597664523015
 20
1601.975581057253
 30
0.0
 41
1.0
 10
1406.436104250495
 20
1601.974780294891
 30
0.0
 41
0.999999999997609
 10
1404.274543974494
 20
1601.973988985989
 30
0.0
 41
1.0
  0
SPLINE
  5
16C
330
1F
100
AcDbEntity
  8
Predefinito
100
AcDbSpline
210
0.0
220
0.0
230
1.0
 70
    24
 71
     2
 72
     6
 73
     3
 74
     0
 42
0.0000000001
 43
0.0000000001
 40
0.0
 40
0.0
 40
0.0
 40
4.313452792756379
 40
4.313452792756379
 40
4.313452792756379
 10
1404.073163811097
 20
1601.651276891419
 30
0.0
 10
1406.229890207475
 20
1601.651276891419
 30
0.0
 10
1408.386616603853
 20
1601.651276891419
 30
0.0
  0
SPLINE
  5
16D
330
1F
100
AcDbEntity
  8
Predefinito
100
AcDbSpline
210
0.0
220
0.0
230
1.0
 70
    12
 71
     2
 72
     8
 73
     5
 74
     0
 42
0.0000000001
 43
0.0000000001
 40
0.0
 40
0.0
 40
0.0
 40
0.2587357617325428
 40
0.2587357617325428
 40
0.5174715234650855
 40
0.5174715234650855
 40
0.5174715234650855
 10
1408.597664523015
 20
1601.975581057163
 30
0.0
 41
1.0
 10
1408.695253310694
 20
1601.860905694588
 30
0.0
 41
0.8015005502340671
 10
1408.613121114943
 20
1601.734698275299
 30
0.0
 41
1.0
 10
1408.530988919192
 20
1601.60849085601
 30
0.0
 41
0.8015005502340671
 10
1408.386616603853
 20
1601.651276891419
 30
0.0
 41
1.0
  0
SPLINE
  5
16E
330
1F
100
AcDbEntity
  8
Predefinito
100
AcDbSpline
210
0.0
220
0.0
230
1.0
 70
    12
 71
     2
 72
     6
 73
     3
 74
     0
 42
0.0000000001
 43
0.0000000001
 40
0.0
 40
0.0
 40
0.0
 40
1.455783127059704
 40
1.455783127059704
 40
1.455783127059704
 10
1410.05344779022
 20
1601.97558169988
 30
0.0
 41
1.0
 10
1409.325556290144
 20
1601.975277730636
 30
0.0
 41
0.9999999999671058
 10
1408.597664795094
 20
1601.974961953527
 30
0.0
 41
1.0
  0
SPLINE
  5
16F
330
1F
100
AcDbEntity
  8
Predefinito
100
AcDbSpline
210
0.0
220
0.0
230
1.0
 70
    24
 71
     2
 72
     6
 73
     3
 74
     0
 42
0.0000000001
 43
0.0000000001
 40
0.0
 40
0.0
 40
0.0
 40
1.452531986605663
 40
1.452531986605663
 40
1.452531986605663
 10
1408.386616607791
 20
1601.651276891452
 30
0.0
 10
1409.112882601094
 20
1601.651276891456
 30
0.0
 10
1409.839148594396
 20
1601.65127689146
 30
0.0
  0
SPLINE
  5
170
330
1F
100
AcDbEntity
  8
Predefinito
100
AcDbSpline
210
0.0
220
0.0
230
1.0
 70
    12
 71
     2
 72
     8
 73
     5
 74
     0
 42
0.0000000001
 43
0.0000000001
 40
0.0
 40
0.0
 40
0.0
 40
0.2611092072574311
 40
0.2611092072574311
 40
0.5222184145148622
 40
0.5222184145148622
 40
0.5222184145148622
 10
1410.05344779022
 20
1601.975581699898
 30
0.0
 41
1.0
 10
1410.152445889559
 20
1601.859798632015
 30
0.0
 41
0.7986984328372234
 10
1410.068462212504
 20
1601.732703846641
 30
0.0
 41
1.0
 10
1409.984478535449
 20
1601.605609061266
 30
0.0
 41
0.7986984328372234
 10
1409.839148594396
 20
1601.65127689146
 30
0.0
 41
1.0
  0
SPLINE
  5
171
330
1F
100
AcDbEntity
  8
Predefinito
100
AcDbSpline
210
0.0
220
0.0
230
1.0
 70
    24
 71
     2
 72
     6
 73
     3
 74
     0
 42
0.0000000001
 43
0.0000000001
 40
0.0
 40
0.0
 40
0.0
 40
41.12967063691895
 40
41.12967063691895
 40
41.12967063691895
 10
1334.794089475883
 20
1832.816097543905
 30
0.0
 10
1314.229254157423
 20
1832.816097543905
 30
0.0
 10
1293.664418838964
 20
1832.816097543905
 30
0.0
  0
SPLINE
  5
172
330
1F
100
AcDbEntity
  8
Predefinito
100
AcDbSpline
210
0.0
220
0.0
230
1.0
 70
    24
 71
     2
 72
     6
 73
     3
 74
     0
 42
0.0000000001
 43
0.0000000001
 40
0.0
 40
0.0
 40
0.0
 40
173.6327936807243
 40
173.6327936807243
 40
173.6327936807243
 10
1401.045650997786
 20
1784.963380293051
 30
0.0
 10
1314.229254157423
 20
1784.963380293051
 30
0.0
 10
1227.412857317061
 20
1784.963380293051
 30
0.0
  0
SPLINE
  5
173
330
1F
100
AcDbEntity
  8
Predefinito
100
AcDbSpline
210
0.0
220
0.0
230
1.0
 70
    24
 71
     2
 72
     6
 73
     3
 74
     0
 42
0.0000000001
 43
0.0000000001
 40
0.0
 40
0.0
 40
0.0
 40
604.9254757763495
 40
604.9254757763495
 40
604.9254757763495
 10
1616.654730049333
 20
1754.651026396543
 30
0.0
 10
1314.191992161158
 20
1754.651026396543
 30
0.0
 10
1011.729254272983
 20
1754.651026396543
 30
0.0
  0
SPLINE
  5
174
330
1F
100
AcDbEntity
  8
Predefinito
100
AcDbSpline
210
0.0
220
0.0
230
1.0
 70
    24
 71
     2
 72
     6
 73
     3
 74
     0
 42
0.0000000001
 43
0.0000000001
 40
0.0
 40
0.0
 40
0.0
 40
620.4184513452591
 40
620.4184513452591
 40
620.4184513452591
 10
1624.400263502682
 20
1745.738613774468
 30
0.0
 10
1314.191037830053
 20
1745.738613774468
 30
0.0
 10
1003.981812157423
 20
1745.738613774468
 30
0.0
  0
SPLINE
  5
175
330
1F
100
AcDbEntity
  8
Predefinito
100
AcDbSpline
210
0.0
220
0.0
230
1.0
 70
    12
 71
     2
 72
     6
 73
     3
 74
     0
 42
0.0000000001
 43
0.0000000001
 40
0.0
 40
0.0
 40
0.0
 40
1.262888299726991
 40
1.262888299726991
 40
1.262888299726991
 10
1333.848970050855
 20
1833.596882007044
 30
0.0
 41
1.0
 10
1334.496319222877
 20
1833.41806790141
 30
0.0
 41
0.9126959390581322
 10
1334.794089475883
 20
1832.816097543905
 30
0.0
 41
1.0
  0
SPLINE
  5
176
330
1F
100
AcDbEntity
  8
Predefinito
100
AcDbSpline
210
0.0
220
0.0
230
1.0
 70
    12
 71
     2
 72
     6
 73
     3
 74
     0
 42
0.0000000001
 43
0.0000000001
 40
0.0
 40
0.0
 40
0.0
 40
1.276210771187275
 40
1.276210771187275
 40
1.276210771187275
 10
1293.664418838964
 20
1832.816097543905
 30
0.0
 41
1.0
 10
1293.965741687494
 20
1833.425249804829
 30
0.0
 41
0.910872250053672
 10
1294.622395415627
 20
1833.600372097427
 30
0.0
 41
1.0
  0
SPLINE
  5
177
330
1F
100
AcDbEntity
  8
Predefinito
100
AcDbSpline
210
0.0
220
0.0
230
1.0
 70
    12
 71
     2
 72
     6
 73
     3
 74
     0
 42
0.0000000001
 43
0.0000000001
 40
0.0
 40
0.0
 40
0.0
 40
84.68528661296358
 40
84.68528661296358
 40
84.68528661296358
 10
1227.756944748777
 20
1785.012435713147
 30
0.0
 41
1.0
 10
1273.273443799529
 20
1791.593838032062
 30
0.0
 41
0.885179835757861
 10
1293.664418838964
 20
1832.816097543905
 30
0.0
 41
1.0
  0
SPLINE
  5
178
330
1F
100
AcDbEntity
  8
Predefinito
100
AcDbSpline
210
0.0
220
0.0
230
1.0
 70
    12
 71
     2
 72
     6
 73
     3
 74
     0
 42
0.0000000001
 43
0.0000000001
 40
0.0
 40
0.0
 40
0.0
 40
84.68528661296384
 40
84.68528661296384
 40
84.68528661296384
 10
1334.794089475883
 20
1832.816097543905
 30
0.0
 41
1.0
 10
1355.185064515318
 20
1791.593838032062
 30
0.0
 41
0.8851798357578587
 10
1400.70156356607
 20
1785.012435713147
 30
0.0
 41
1.0
  0
SPLINE
  5
179
330
1F
100
AcDbEntity
  8
Predefinito
100
AcDbSpline
210
0.0
220
0.0
230
1.0
 70
    24
 71
     2
 72
     6
 73
     3
 74
     0
 42
0.0000000001
 43
0.0000000001
 40
0.0
 40
0.0
 40
0.0
 40
217.5054326782845
 40
217.5054326782845
 40
217.5054326782845
 10
1012.024172598273
 20
1754.692474464549
 30
0.0
 10
1119.718514957667
 20
1769.8279273788
 30
0.0
 10
1227.412857317061
 20
1784.963380293051
 30
0.0
  0
SPLINE
  5
17A
330
1F
100
AcDbEntity
  8
Predefinito
100
AcDbSpline
210
0.0
220
0.0
230
1.0
 70
    24
 71
     2
 72
     6
 73
     3
 74
     0
 42
0.0000000001
 43
0.0000000001
 40
0.0
 40
0.0
 40
0.0
 40
217.2009544976297
 40
217.2009544976297
 40
217.2009544976297
 10
1401.045650997786
 20
1784.963380293051
 30
0.0
 10
1508.589235847242
 20
1769.849114965289
 30
0.0
 10
1616.1328206967
 20
1754.734849637527
 30
0.0
  0
SPLINE
  5
17B
330
1F
100
AcDbEntity
  8
Predefinito
100
AcDbSpline
210
0.0
220
0.0
230
1.0
 70
    12
 71
     2
 72
     6
 73
     3
 74
     0
 42
0.0000000001
 43
0.0000000001
 40
0.0
 40
0.0
 40
0.0
 40
12.88052990415664
 40
12.88052990415664
 40
12.88052990415664
 10
1616.729254041863
 20
1754.651026396543
 30
0.0
 41
1.0
 10
1624.476696157423
 20
1753.562194436267
 30
0.0
 41
0.7547095793320383
 10
1624.476696157423
 20
1745.738613774468
 30
0.0
 41
1.0
  0
SPLINE
  5
17C
330
1F
100
AcDbEntity
  8
Predefinito
100
AcDbSpline
210
0.0
220
0.0
230
1.0
 70
    12
 71
     2
 72
     6
 73
     3
 74
     0
 42
0.0000000001
 43
0.0000000001
 40
0.0
 40
0.0
 40
0.0
 40
12.88052990415654
 40
12.88052990415654
 40
12.88052990415654
 10
1003.981812157423
 20
1745.738613774468
 30
0.0
 41
1.0
 10
1003.981812157423
 20
1753.562194436267
 30
0.0
 41
0.7547095793320129
 10
1011.729254272983
 20
1754.651026396543
 30
0.0
 41
1.0
  0
SPLINE
  5
17D
330
1F
100
AcDbEntity
  8
Predefinito
100
AcDbSpline
210
0.0
220
0.0
230
1.0
 70
    24
 71
     2
 72
     6
 73
     3
 74
     0
 42
0.0000000001
 43
0.0000000001
 40
0.0
 40
0.0
 40
0.0
 40
1.087586999999985
 40
1.087586999999985
 40
1.087586999999985
 10
1624.476696157423
 20
1745.738613774468
 30
0.0
 10
1624.476696157423
 20
1745.194820274468
 30
0.0
 10
1624.476696157423
 20
1744.651026774468
 30
0.0
  0
SPLINE
  5
17E
330
1F
100
AcDbEntity
  8
Predefinito
100
AcDbSpline
210
0.0
220
0.0
230
1.0
 70
    24
 71
     2
 72
     6
 73
     3
 74
     0
 42
0.0000000001
 43
0.0000000001
 40
0.0
 40
0.0
 40
0.0
 40
1.087586999999985
 40
1.087586999999985
 40
1.087586999999985
 10
1003.981812157423
 20
1744.651026774468
 30
0.0
 10
1003.981812157423
 20
1745.194820274468
 30
0.0
 10
1003.981812157423
 20
1745.738613774468
 30
0.0
  0
SPLINE
  5
17F
330
1F
100
AcDbEntity
  8
Predefinito
100
AcDbSpline
210
0.0
220
0.0
230
1.0
 70
    24
 71
     2
 72
     6
 73
     3
 74
     0
 42
0.0000000001
 43
0.0000000001
 40
0.0
 40
0.0
 40
0.0
 40
620.4184513452591
 40
620.4184513452591
 40
620.4184513452591
 10
1624.400263502682
 20
1744.651026774468
 30
0.0
 10
1314.191037830053
 20
1744.651026774468
 30
0.0
 10
1003.981812157423
 20
1744.651026774468
 30
0.0
  0
SPLINE
  5
180
330
1F
100
AcDbEntity
  8
Predefinito
100
AcDbSpline
210
0.0
220
0.0
230
1.0
 70
    24
 71
     2
 72
     6
 73
     3
 74
     0
 42
0.0000000001
 43
0.0000000001
 40
0.0
 40
0.0
 40
0.0
 40
39.58911154222119
 40
39.58911154222119
 40
39.58911154222119
 10
1333.983693397486
 20
1833.851027728524
 30
0.0
 10
1314.189137626376
 20
1833.851027728524
 30
0.0
 10
1294.394581855265
 20
1833.851027728524
 30
0.0
  0
SPLINE
  5
181
330
1F
100
AcDbEntity
  8
Predefinito
100
AcDbSpline
210
0.0
220
0.0
230
1.0
 70
    24
 71
     2
 72
     6
 73
     3
 74
     0
 42
0.0000000001
 43
0.0000000001
 40
0.0
 40
0.0
 40
0.0
 40
39.18992056049819
 40
39.18992056049819
 40
39.18992056049819
 10
1333.863926459582
 20
1833.651027728524
 30
0.0
 10
1314.268966179333
 20
1833.651027728524
 30
0.0
 10
1294.674005899084
 20
1833.651027728524
 30
0.0
  0
SPLINE
  5
182
330
1F
100
AcDbEntity
  8
Predefinito
100
AcDbSpline
210
0.0
220
0.0
230
1.0
 70
    12
 71
     2
 72
     6
 73
     3
 74
     0
 42
0.0000000001
 43
0.0000000001
 40
0.0
 40
0.0
 40
0.0
 40
0.3141592653587258
 40
0.3141592653587258
 40
0.3141592653587258
 10
1334.063926459582
 20
1833.851027728524
 30
0.0
 41
1.0
 10
1334.063926459582
 20
1833.651027728524
 30
0.0
 41
0.7071067811877534
 10
1333.863926459582
 20
1833.651027728524
 30
0.0
 41
1.0
  0
SPLINE
  5
183
330
1F
100
AcDbEntity
  8
Predefinito
100
AcDbSpline
210
0.0
220
0.0
230
1.0
 70
    12
 71
     2
 72
     6
 73
     3
 74
     0
 42
0.0000000001
 43
0.0000000001
 40
0.0
 40
0.0
 40
0.0
 40
0.3141592653589532
 40
0.3141592653589532
 40
0.3141592653589532
 10
1294.594581855265
 20
1833.651027728524
 30
0.0
 41
1.0
 10
1294.394581855265
 20
1833.651027728524
 30
0.0
 41
0.7071067811873515
 10
1294.394581855265
 20
1833.851027728524
 30
0.0
 41
1.0
  0
SPLINE
  5
184
330
1F
100
AcDbEntity
  8
Predefinito
100
AcDbSpline
210
0.0
220
0.0
230
1.0
 70
    24
 71
     2
 72
     6
 73
     3
 74
     0
 42
0.0000000001
 43
0.0000000001
 40
0.0
 40
0.0
 40
0.0
 40
6.857539832943985
 40
6.857539832943985
 40
6.857539832943985
 10
1317.658024073895
 20
1894.651027728524
 30
0.0
 10
1314.229254157423
 20
1894.651027728524
 30
0.0
 10
1310.800484240951
 20
1894.651027728524
 30
0.0
  0
SPLINE
  5
185
330
1F
100
AcDbEntity
  8
Predefinito
100
AcDbSpline
210
0.0
220
0.0
230
1.0
 70
    24
 71
     2
 72
     6
 73
     3
 74
     0
 42
0.0000000001
 43
0.0000000001
 40
0.0
 40
0.0
 40
0.0
 40
37.50366199976679
 40
37.50366199976679
 40
37.50366199976679
 10
1332.943081858864
 20
1836.493403372268
 30
0.0
 10
1314.191250858981
 20
1836.493403372268
 30
0.0
 10
1295.439419859097
 20
1836.493403372268
 30
0.0
  0
SPLINE
  5
186
330
1F
100
AcDbEntity
  8
Predefinito
100
AcDbSpline
210
0.0
220
0.0
230
1.0
 70
    24
 71
     2
 72
     6
 73
     3
 74
     0
 42
0.0000000001
 43
0.0000000001
 40
0.0
 40
0.0
 40
0.0
 40
37.60572286469937
 40
37.60572286469937
 40
37.60572286469937
 10
1332.994008870794
 20
1836.251027728523
 30
0.0
 10
1314.191147438444
 20
1836.251027728524
 30
0.0
 10
1295.388286006094
 20
1836.251027728524
 30
0.0
  0
SPLINE
  5
187
330
1F
100
AcDbEntity
  8
Predefinito
100
AcDbSpline
210
0.0
220
0.0
230
1.0
 70
    24
 71
     2
 72
     6
 73
     3
 74
     0
 42
0.0000000001
 43
0.0000000001
 40
0.0
 40
0.0
 40
0.0
 40
39.54540562616125
 40
39.54540562616125
 40
39.54540562616125
 10
1294.49662358721
 20
1833.942018986855
 30
0.0
 10
1314.269326400291
 20
1833.942018986855
 30
0.0
 10
1334.042029213371
 20
1833.942018986855
 30
0.0
  0
SPLINE
  5
188
330
1F
100
AcDbEntity
  8
Predefinito
100
AcDbSpline
210
0.0
220
0.0
230
1.0
 70
    24
 71
     2
 72
     6
 73
     3
 74
     0
 42
0.0000000001
 43
0.0000000001
 40
0.0
 40
0.0
 40
0.0
 40
37.91385804060405
 40
37.91385804060405
 40
37.91385804060405
 10
1295.310744096357
 20
1835.542018986855
 30
0.0
 10
1314.267673116659
 20
1835.542018986855
 30
0.0
 10
1333.224602136961
 20
1835.542018986855
 30
0.0
  0
SPLINE
  5
189
330
1F
100
AcDbEntity
  8
Predefinito
100
AcDbSpline
210
0.0
220
0.0
230
1.0
 70
    12
 71
     2
 72
     6
 73
     3
 74
     0
 42
0.0000000001
 43
0.0000000001
 40
0.0
 40
0.0
 40
0.0
 40
60.40183308591295
 40
60.40183308591295
 40
60.40183308591295
 10
1295.439419859097
 20
1836.493403372268
 30
0.0
 41
1.0
 10
1307.741397531324
 20
1864.351561812193
 30
0.0
 41
0.9876052159212865
 10
1310.800484240951
 20
1894.651027728524
 30
0.0
 41
1.0
  0
SPLINE
  5
18A
330
1F
100
AcDbEntity
  8
Predefinito
100
AcDbSpline
210
0.0
220
0.0
230
1.0
 70
    12
 71
     2
 72
     6
 73
     3
 74
     0
 42
0.0000000001
 43
0.0000000001
 40
0.0
 40
0.0
 40
0.0
 40
60.37114064397519
 40
60.37114064397519
 40
60.37114064397519
 10
1317.658024073895
 20
1894.651027728524
 30
0.0
 41
1.0
 10
1320.71553032265
 20
1864.36721587005
 30
0.0
 41
0.9876177831788697
 10
1333.006692203781
 20
1836.521481102361
 30
0.0
 41
1.0
  0
SPLINE
  5
18B
330
1F
100
AcDbEntity
  8
Predefinito
100
AcDbSpline
210
0.0
220
0.0
230
1.0
 70
    12
 71
     2
 72
     6
 73
     3
 74
     0
 42
0.0000000001
 43
0.0000000001
 40
0.0
 40
0.0
 40
0.0
 40
0.2495046037411756
 40
0.2495046037411756
 40
0.2495046037411756
 10
1295.388286006094
 20
1836.251027728524
 30
0.0
 41
1.0
 10
1295.388286006095
 20
1836.377609390475
 30
0.0
 41
0.9784622914710538
 10
1295.439419859097
 20
1836.493403372268
 30
0.0
 41
1.0
  0
SPLINE
  5
18C
330
1F
100
AcDbEntity
  8
Predefinito
100
AcDbSpline
210
0.0
220
0.0
230
1.0
 70
    12
 71
     2
 72
     6
 73
     3
 74
     0
 42
0.0000000001
 43
0.0000000001
 40
0.0
 40
0.0
 40
0.0
 40
0.249504603741135
 40
0.249504603741135
 40
0.249504603741135
 10
1333.01908845575
 20
1836.493403372268
 30
0.0
 41
1.0
 10
1333.070222308752
 20
1836.377609390475
 30
0.0
 41
0.9784622914717632
 10
1333.070222308752
 20
1836.251027728524
 30
0.0
 41
1.0
  0
SPLINE
  5
18D
330
1F
100
AcDbEntity
  8
Predefinito
100
AcDbSpline
210
0.0
220
0.0
230
1.0
 70
    12
 71
     2
 72
     6
 73
     3
 74
     0
 42
0.0000000001
 43
0.0000000001
 40
0.0
 40
0.0
 40
0.0
 40
0.6953420765489744
 40
0.6953420765489744
 40
0.6953420765489744
 10
1295.748079246356
 20
1835.701208928758
 30
0.0
 41
1.0
 10
1295.388286006094
 20
1835.858396657617
 30
0.0
 41
0.8367629890123235
 10
1295.388286006094
 20
1836.251027728524
 30
0.0
 41
1.0
  0
SPLINE
  5
18E
330
1F
100
AcDbEntity
  8
Predefinito
100
AcDbSpline
210
0.0
220
0.0
230
1.0
 70
    12
 71
     2
 72
     6
 73
     3
 74
     0
 42
0.0000000001
 43
0.0000000001
 40
0.0
 40
0.0
 40
0.0
 40
0.6953420765490721
 40
0.6953420765490721
 40
0.6953420765490721
 10
1333.070222308752
 20
1836.251027728524
 30
0.0
 41
1.0
 10
1333.070222308753
 20
1835.858396657616
 30
0.0
 41
0.8367629890123148
 10
1332.710429068491
 20
1835.701208928758
 30
0.0
 41
1.0
  0
SPLINE
  5
18F
330
1F
100
AcDbEntity
  8
Predefinito
100
AcDbSpline
210
0.0
220
0.0
230
1.0
 70
    24
 71
     2
 72
     6
 73
     3
 74
     0
 42
0.0000000001
 43
0.0000000001
 40
0.0
 40
0.0
 40
0.0
 40
37.55837297490507
 40
37.55837297490507
 40
37.55837297490507
 10
1295.412008931675
 20
1835.651027728524
 30
0.0
 10
1314.191195419127
 20
1835.651027728524
 30
0.0
 10
1332.97038190658
 20
1835.651027728524
 30
0.0
  0
SPLINE
  5
190
330
1F
100
AcDbEntity
  8
Predefinito
100
AcDbSpline
210
0.0
220
0.0
230
1.0
 70
    24
 71
     2
 72
     6
 73
     3
 74
     0
 42
0.0000000001
 43
0.0000000001
 40
0.0
 40
0.0
 40
0.0
 40
1.76025338366986
 40
1.76025338366986
 40
1.76025338366986
 10
1294.433067826074
 20
1833.974489111864
 30
0.0
 10
1294.83348700198
 20
1834.758254049359
 30
0.0
 10
1295.233906177886
 20
1835.542018986855
 30
0.0
  0
SPLINE
  5
191
330
1F
100
AcDbEntity
  8
Predefinito
100
AcDbSpline
210
0.0
220
0.0
230
1.0
 70
    24
 71
     2
 72
     6
 73
     3
 74
     0
 42
0.0000000001
 43
0.0000000001
 40
0.0
 40
0.0
 40
0.0
 40
1.79671562169631
 40
1.79671562169631
 40
1.79671562169631
 10
1333.224602136961
 20
1835.542018986855
 30
0.0
 10
1333.633315675166
 20
1834.742018986855
 30
0.0
 10
1334.042029213371
 20
1833.942018986855
 30
0.0
  0
SPLINE
  5
192
330
1F
100
AcDbEntity
  8
Predefinito
100
AcDbSpline
210
0.0
220
0.0
230
1.0
 70
    12
 71
     2
 72
     6
 73
     3
 74
     0
 42
0.0000000001
 43
0.0000000001
 40
0.0
 40
0.0
 40
0.0
 40
0.21969463908958
 40
0.21969463908958
 40
0.21969463908958
 10
1333.046499383172
 20
1835.651027728524
 30
0.0
 41
1.0
 10
1333.168910451333
 20
1835.651027728523
 30
0.0
 41
0.8529232942232916
 10
1333.224602136961
 20
1835.542018986855
 30
0.0
 41
1.0
  0
SPLINE
  5
193
330
1F
100
AcDbEntity
  8
Predefinito
100
AcDbSpline
210
0.0
220
0.0
230
1.0
 70
    12
 71
     2
 72
     6
 73
     3
 74
     0
 42
0.0000000001
 43
0.0000000001
 40
0.0
 40
0.0
 40
0.0
 40
0.1677568650478792
 40
0.1677568650478792
 40
0.1677568650478792
 10
1295.263242701231
 20
1835.584701243774
 30
0.0
 41
1.0
 10
1295.322840194185
 20
1835.651027728524
 30
0.0
 41
0.9133366236656799
 10
1295.412008931675
 20
1835.651027728524
 30
0.0
 41
1.0
  0
SPLINE
  5
194
330
1F
100
AcDbEntity
  8
Predefinito
100
AcDbSpline
210
0.0
220
0.0
230
1.0
 70
    24
 71
     2
 72
     6
 73
     3
 74
     0
 42
0.0000000001
 43
0.0000000001
 40
0.0
 40
0.0
 40
0.0
 40
32.55719506130822
 40
32.55719506130822
 40
32.55719506130822
 10
1314.229254157424
 20
1730.200503862284
 30
0.0
 10
1297.95065662677
 20
1730.200503862284
 30
0.0
 10
1281.672059096116
 20
1730.200503862284
 30
0.0
  0
SPLINE
  5
195
330
1F
100
AcDbEntity
  8
Predefinito
100
AcDbSpline
210
0.0
220
0.0
230
1.0
 70
    24
 71
     2
 72
     6
 73
     3
 74
     0
 42
0.0000000001
 43
0.0000000001
 40
0.0
 40
0.0
 40
0.0
 40
32.55719506130822
 40
32.55719506130822
 40
32.55719506130822
 10
1346.786449218733
 20
1730.200503862284
 30
0.0
 10
1330.507851688079
 20
1730.200503862284
 30
0.0
 10
1314.229254157424
 20
1730.200503862284
 30
0.0
  0
SPLINE
  5
196
330
1F
100
AcDbEntity
  8
Predefinito
100
AcDbSpline
210
0.0
220
0.0
230
1.0
 70
    12
 71
     2
 72
     8
 73
     5
 74
     0
 42
0.0000000001
 43
0.0000000001
 40
0.0
 40
0.0
 40
0.0
 40
119.0621802033366
 40
119.0621802033366
 40
238.1243604066732
 40
238.1243604066732
 40
238.1243604066732
 10
1379.871695145066
 20
348.1461229744801
 30
0.0
 41
1.0
 10
1417.770324856941
 20
282.5036957226178
 30
0.0
 41
0.7071069562288189
 10
1352.127916368485
 20
244.6050335115521
 30
0.0
 41
1.0
 10
1286.485507880028
 20
206.7063713004864
 30
0.0
 41
0.7071069562288189
 10
1248.586813169781
 20
272.3487610255202
 30
0.0
 41
1.0
  0
SPLINE
  5
197
330
1F
100
AcDbEntity
  8
Predefinito
100
AcDbSpline
210
0.0
220
0.0
230
1.0
 70
    12
 71
     2
 72
     8
 73
     5
 74
     0
 42
0.0000000001
 43
0.0000000001
 40
0.0
 40
0.0
 40
0.0
 40
119.0621801540959
 40
119.0621801540959
 40
238.1243603081917
 40
238.1243603081917
 40
238.1243603081917
 10
1248.586813137709
 20
272.348761081071
 30
0.0
 41
1.0
 10
1210.688183506005
 20
337.9911883223614
 30
0.0
 41
0.7071069564584977
 10
1276.330591959269
 20
375.8898504959002
 30
0.0
 41
1.0
 10
1341.973000412533
 20
413.7885126694389
 30
0.0
 41
0.7071069564584977
 10
1379.871695127897
 20
348.1461230042171
 30
0.0
 41
1.0
  0
SPLINE
  5
198
330
1F
100
AcDbEntity
  8
Predefinito
100
AcDbSpline
210
0.0
220
0.0
230
1.0
 70
    24
 71
     2
 72
     6
 73
     3
 74
     0
 42
0.0000000001
 43
0.0000000001
 40
0.0
 40
0.0
 40
0.0
 40
0.2940754537233788
 40
0.2940754537233788
 40
0.2940754537233788
 10
1379.617018331407
 20
347.9990852475574
 30
0.0
 10
1379.744356738184
 20
348.0726041109882
 30
0.0
 10
1379.871695144961
 20
348.146122974419
 30
0.0
  0
SPLINE
  5
199
330
1F
100
AcDbEntity
  8
Predefinito
100
AcDbSpline
210
0.0
220
0.0
230
1.0
 70
    24
 71
     2
 72
     6
 73
     3
 74
     0
 42
0.0000000001
 43
0.0000000001
 40
0.0
 40
0.0
 40
0.0
 40
1.497370516147354
 40
1.497370516147354
 40
1.497370516147354
 10
1378.315134037472
 20
347.247442
 30
0.0
 10
1378.963514490402
 20
347.621784629037
 30
0.0
 10
1379.611894943333
 20
347.996127258074
 30
0.0
  0
SPLINE
  5
19A
330
1F
100
AcDbEntity
  8
Predefinito
100
AcDbSpline
210
0.0
220
0.0
230
1.0
 70
    12
 71
     2
 72
     8
 73
     5
 74
     0
 42
0.0000000001
 43
0.0000000001
 40
0.0
 40
0.0
 40
0.0
 40
136.3708772145632
 40
136.3708772145632
 40
272.7417544291264
 40
272.7417544291264
 40
272.7417544291264
 10
1401.045650997786
 20
310.247442
 30
0.0
 41
1.0
 10
1401.045650967326
 20
223.4310451900973
 30
0.0
 41
0.7071067811865466
 10
1314.229254157423
 20
223.4310452205569
 30
0.0
 41
1.0
 10
1227.412857347521
 20
223.4310451900974
 30
0.0
 41
0.7071067811865482
 10
1227.412857317061
 20
310.247442
 30
0.0
 41
1.0
  0
SPLINE
  5
19B
330
1F
100
AcDbEntity
  8
Predefinito
100
AcDbSpline
210
0.0
220
0.0
230
1.0
 70
    12
 71
     2
 72
     8
 73
     5
 74
     0
 42
0.0000000001
 43
0.0000000001
 40
0.0
 40
0.0
 40
0.0
 40
475.1658886739353
 40
475.1658886739353
 40
950.3317773478705
 40
950.3317773478705
 40
950.3317773478705
 10
1616.729254041863
 20
310.247442
 30
0.0
 41
1.0
 10
1616.729254041864
 20
7.747442115559491
 30
0.0
 41
0.7071067811865465
 10
1314.229254157423
 20
7.74744211555992
 30
0.0
 41
1.0
 10
1011.729254272983
 20
7.747442115559971
 30
0.0
 41
0.7071067811865476
 10
1011.729254272983
 20
310.247442
 30
0.0
 41
1.0
  0
SPLINE
  5
19C
330
1F
100
AcDbEntity
  8
Predefinito
100
AcDbSpline
210
0.0
220
0.0
230
1.0
 70
    12
 71
     2
 72
     8
 73
     5
 74
     0
 42
0.0000000001
 43
0.0000000001
 40
0.0
 40
0.0
 40
0.0
 40
487.3355422911126
 40
487.3355422911126
 40
974.6710845822251
 40
974.6710845822251
 40
974.6710845822251
 10
1624.476696157423
 20
310.247442
 30
0.0
 41
1.0
 10
1624.476696157423
 20
-0.0000000000000671
 30
0.0
 41
0.7071067811865474
 10
1314.229254157423
 20
0.0
 30
0.0
 41
1.0
 10
1003.981812157424
 20
0.0000000000002079
 30
0.0
 41
0.707106781186548
 10
1003.981812157424
 20
310.2474419999999
 30
0.0
 41
1.0
  0
SPLINE
  5
19D
330
1F
100
AcDbEntity
  8
Predefinito
100
AcDbSpline
210
0.0
220
0.0
230
1.0
 70
    12
 71
     2
 72
     8
 73
     5
 74
     0
 42
0.0000000001
 43
0.0000000001
 40
0.0
 40
0.0
 40
0.0
 40
136.3708772145633
 40
136.3708772145633
 40
272.7417544291264
 40
272.7417544291264
 40
272.7417544291264
 10
1227.412857317061
 20
310.247442
 30
0.0
 41
1.0
 10
1227.412857347521
 20
397.0638388099026
 30
0.0
 41
0.7071067811865478
 10
1314.229254157423
 20
397.0638387794432
 30
0.0
 41
1.0
 10
1401.045650967326
 20
397.0638388099027
 30
0.0
 41
0.7071067811865468
 10
1401.045650997786
 20
310.247442
 30
0.0
 41
1.0
  0
SPLINE
  5
19E
330
1F
100
AcDbEntity
  8
Predefinito
100
AcDbSpline
210
0.0
220
0.0
230
1.0
 70
    12
 71
     2
 72
     8
 73
     5
 74
     0
 42
0.0000000001
 43
0.0000000001
 40
0.0
 40
0.0
 40
0.0
 40
475.1658886739349
 40
475.1658886739349
 40
950.3317773478702
 40
950.3317773478702
 40
950.3317773478702
 10
1011.729254272983
 20
310.247442
 30
0.0
 41
1.0
 10
1011.729254272984
 20
612.7474418844398
 30
0.0
 41
0.7071067811865478
 10
1314.229254157423
 20
612.7474418844398
 30
0.0
 41
1.0
 10
1616.729254041864
 20
612.7474418844405
 30
0.0
 41
0.707106781186546
 10
1616.729254041863
 20
310.247442
 30
0.0
 41
1.0
  0
SPLINE
  5
19F
330
1F
100
AcDbEntity
  8
Predefinito
100
AcDbSpline
210
0.0
220
0.0
230
1.0
 70
    12
 71
     2
 72
     8
 73
     5
 74
     0
 42
0.0000000001
 43
0.0000000001
 40
0.0
 40
0.0
 40
0.0
 40
487.3355422911126
 40
487.3355422911126
 40
974.6710845822253
 40
974.6710845822253
 40
974.6710845822253
 10
1003.981812157423
 20
310.247442
 30
0.0
 41
1.0
 10
1003.981812157424
 20
620.4948839999996
 30
0.0
 41
0.707106781186548
 10
1314.229254157423
 20
620.494884
 30
0.0
 41
1.0
 10
1624.476696157423
 20
620.494884
 30
0.0
 41
0.7071067811865474
 10
1624.476696157423
 20
310.247442
 30
0.0
 41
1.0
  0
SPLINE
  5
1A0
330
1F
100
AcDbEntity
  8
Predefinito
100
AcDbSpline
210
0.0
220
0.0
230
1.0
 70
    12
 71
     2
 72
     8
 73
     5
 74
     0
 42
0.0000000001
 43
0.0000000001
 40
0.0
 40
0.0
 40
0.0
 40
116.2389281828219
 40
116.2389281828219
 40
232.4778563656443
 40
232.4778563656443
 40
232.4778563656443
 10
1378.315134037472
 20
347.2474419999997
 30
0.0
 41
1.0
 10
1415.315134037471
 20
283.1615621199515
 30
0.0
 41
0.7071067811865508
 10
1351.229254157423
 20
246.1615621199516
 30
0.0
 41
1.0
 10
1287.143374277375
 20
209.1615621199515
 30
0.0
 41
0.7071067811865474
 10
1250.143374277375
 20
273.247442
 30
0.0
 41
1.0
  0
SPLINE
  5
1A1
330
1F
100
AcDbEntity
  8
Predefinito
100
AcDbSpline
210
0.0
220
0.0
230
1.0
 70
    12
 71
     2
 72
     8
 73
     5
 74
     0
 42
0.0000000001
 43
0.0000000001
 40
0.0
 40
0.0
 40
0.0
 40
116.2389281828226
 40
116.2389281828226
 40
232.4778563656454
 40
232.4778563656454
 40
232.4778563656454
 10
1250.143374277375
 20
273.247442
 30
0.0
 41
1.0
 10
1213.143374277376
 20
337.3333218800484
 30
0.0
 41
0.7071067811865566
 10
1277.229254157423
 20
374.333321880049
 30
0.0
 41
1.0
 10
1341.315134037472
 20
411.3333218800491
 30
0.0
 41
0.7071067811865442
 10
1378.315134037472
 20
347.2474419999997
 30
0.0
 41
1.0
  0
ENDSEC
  0
SECTION
  2
OBJECTS
  0
DICTIONARY
  5
C
330
0
100
AcDbDictionary
281
     1
  3
ACAD_GROUP
350
D
  3
ACAD_LAYOUT
350
1A
  3
ACAD_MLEADERSTYLE
350
1A3
  3
ACAD_MLINESTYLE
350
17
  3
ACAD_PLOTSETTINGS
350
19
  3
ACAD_PLOTSTYLENAME
350
E
  3
ACAD_TABLESTYLE
350
1A2
  3
ACAD_VISUALSTYLE
350
2A
  0
DICTIONARY
  5
D
102
{ACAD_REACTORS
330
C
102
}
330
C
100
AcDbDictionary
281
     1
  0
DICTIONARY
  5
1A
102
{ACAD_REACTORS
330
C
102
}
330
C
100
AcDbDictionary
281
     1
  3
Layout1
350
1E
  3
Layout2
350
26
  3
Model
350
22
  0
DICTIONARY
  5
1A3
102
{ACAD_REACTORS
330
C
102
}
330
C
100
AcDbDictionary
281
     1
  0
DICTIONARY
  5
17
102
{ACAD_REACTORS
330
C
102
}
330
C
100
AcDbDictionary
281
     1
  3
Standard
350
18
  0
DICTIONARY
  5
19
102
{ACAD_REACTORS
330
C
102
}
330
C
100
AcDbDictionary
281
     1
  0
ACDBDICTIONARYWDFLT
  5
E
102
{ACAD_REACTORS
330
C
102
}
330
C
100
AcDbDictionary
281
     1
  3
Normal
350
F
100
AcDbDictionaryWithDefault
340
F
  0
DICTIONARY
  5
1A2
102
{ACAD_REACTORS
330
C
102
}
330
C
100
AcDbDictionary
281
     1
  0
DICTIONARY
  5
2A
102
{ACAD_REACTORS
330
C
102
}
330
C
100
AcDbDictionary
281
     1
  3
2dWireframe
350
2F
  3
3D Hidden
350
31
  3
3dWireframe
350
30
  3
Basic
350
32
  3
Brighten
350
36
  3
ColorChange
350
3A
  3
Conceptual
350
34
  3
Dim
350
35
  3
Facepattern
350
39
  3
Flat
350
2B
  3
FlatWithEdges
350
2C
  3
Gouraud
350
2D
  3
GouraudWithEdges
350
2E
  3
Linepattern
350
38
  3
Realistic
350
33
  3
Thicken
350
37
  0
LAYOUT
  5
1E
102
{ACAD_REACTORS
330
1A
102
}
330
1A
100
AcDbPlotSettings
  1

  2
none_device
  4

  6

 40
0.0
 41
0.0
 42
0.0
 43
0.0
 44
0.0
 45
0.0
 46
0.0
 47
0.0
 48
0.0
 49
0.0
140
0.0
141
0.0
142
1.0
143
1.0
 70
   688
 72
     0
 73
     0
 74
     5
  7

 75
    16
 76
     0
 77
     2
 78
   300
147
1.0
148
0.0
149
0.0
100
AcDbLayout
  1
Layout1
 70
     1
 71
     1
 10
0.0
 20
0.0
 11
12.0
 21
9.0
 12
0.0
 22
0.0
 32
0.0
 14
1.000000000000000E+20
 24
1.000000000000000E+20
 34
1.000000000000000E+20
 15
-1.000000000000000E+20
 25
-1.000000000000000E+20
 35
-1.000000000000000E+20
146
0.0
 13
0.0
 23
0.0
 33
0.0
 16
1.0
 26
0.0
 36
0.0
 17
0.0
 27
1.0
 37
0.0
 76
     0
330
1B
  0
LAYOUT
  5
26
102
{ACAD_REACTORS
330
1A
102
}
330
1A
100
AcDbPlotSettings
  1

  2
none_device
  4

  6

 40
0.0
 41
0.0
 42
0.0
 43
0.0
 44
0.0
 45
0.0
 46
0.0
 47
0.0
 48
0.0
 49
0.0
140
0.0
141
0.0
142
1.0
143
1.0
 70
   688
 72
     0
 73
     0
 74
     5
  7

 75
    16
 76
     0
 77
     2
 78
   300
147
1.0
148
0.0
149
0.0
100
AcDbLayout
  1
Layout2
 70
     1
 71
     2
 10
0.0
 20
0.0
 11
0.0
 21
0.0
 12
0.0
 22
0.0
 32
0.0
 14
0.0
 24
0.0
 34
0.0
 15
0.0
 25
0.0
 35
0.0
146
0.0
 13
0.0
 23
0.0
 33
0.0
 16
1.0
 26
0.0
 36
0.0
 17
0.0
 27
1.0
 37
0.0
 76
     0
330
23
  0
LAYOUT
  5
22
102
{ACAD_REACTORS
330
1A
102
}
330
1A
100
AcDbPlotSettings
  1

  2
none_device
  4

  6

 40
0.0
 41
0.0
 42
0.0
 43
0.0
 44
0.0
 45
0.0
 46
0.0
 47
0.0
 48
0.0
 49
0.0
140
0.0
141
0.0
142
1.0
143
1.0
 70
  1712
 72
     0
 73
     0
 74
     0
  7

 75
     0
 76
     0
 77
     2
 78
   300
147
1.0
148
0.0
149
0.0
100
AcDbLayout
  1
Model
 70
     1
 71
     0
 10
0.0
 20
0.0
 11
12.0
 21
9.0
 12
0.0
 22
0.0
 32
0.0
 14
0.0
 24
0.0
 34
0.0
 15
1624.476696157423
 25
2819.815625625411
 35
0.0
146
0.0
 13
0.0
 23
0.0
 33
0.0
 16
1.0
 26
0.0
 36
0.0
 17
0.0
 27
1.0
 37
0.0
 76
     0
330
1F
331
29
  0
MLINESTYLE
  5
18
102
{ACAD_REACTORS
330
17
102
}
330
17
100
AcDbMlineStyle
  2
Standard
 70
     0
  3

 62
   256
 51
90.0
 52
90.0
 71
     2
 49
0.5
 62
   256
  6
BYLAYER
 49
-0.5
 62
   256
  6
BYLAYER
  0
ACDBPLACEHOLDER
  5
F
102
{ACAD_REACTORS
330
E
102
}
330
E
  0
VISUALSTYLE
  5
2F
102
{ACAD_REACTORS
330
2A
102
}
330
2A
100
AcDbVisualStyle
  2
2dWireframe
 70
     4
 71
     0
 72
     2
 73
     0
 90
        0
 40
-0.6
 41
-30.0
 62
     5
 63
     7
421
 16777215
 74
     1
 91
        4
 64
     7
 65
   257
 75
     1
175
     1
 42
1.0
 92
        0
 66
   257
 43
1.0
 76
     1
 77
     6
 78
     2
 67
     7
 79
     5
170
     0
171
     0
290
     0
174
     0
 93
        1
 44
0.0
173
     0
291
     0
 45
0.0
1001
ACAD
1000
AcDbSavedByObjectVersion
1070
     0
  0
VISUALSTYLE
  5
31
102
{ACAD_REACTORS
330
2A
102
}
330
2A
100
AcDbVisualStyle
  2
3D Hidden
 70
     6
 71
     1
 72
     2
 73
     2
 90
        0
 40
-0.6
 41
-30.0
 62
     5
 63
     7
421
 16777215
 74
     2
 91
        2
 64
     7
 65
   257
 75
     2
175
     1
 42
40.0
 92
        0
 66
   257
 43
1.0
 76
     1
 77
     6
 78
     2
 67
     7
 79
     3
170
     0
171
     0
290
     0
174
     0
 93
        1
 44
0.0
173
     0
291
     0
 45
0.0
1001
ACAD
1000
AcDbSavedByObjectVersion
1070
     0
  0
VISUALSTYLE
  5
30
102
{ACAD_REACTORS
330
2A
102
}
330
2A
100
AcDbVisualStyle
  2
3dWireframe
 70
     5
 71
     0
 72
     2
 73
     0
 90
        0
 40
-0.6
 41
-30.0
 62
     5
 63
     7
421
 16777215
 74
     1
 91
        4
 64
     7
 65
   257
 75
     1
175
     1
 42
1.0
 92
        0
 66
   257
 43
1.0
 76
     1
 77
     6
 78
     2
 67
     7
 79
     5
170
     0
171
     0
290
     0
174
     0
 93
        1
 44
0.0
173
     0
291
     0
 45
0.0
1001
ACAD
1000
AcDbSavedByObjectVersion
1070
     0
  0
VISUALSTYLE
  5
32
102
{ACAD_REACTORS
330
2A
102
}
330
2A
100
AcDbVisualStyle
  2
Basic
 70
     7
 71
     1
 72
     0
 73
     1
 90
        0
 40
-0.6
 41
-30.0
 62
     5
 63
     7
421
 16777215
 74
     0
 91
        4
 64
     7
 65
   257
 75
     1
175
     1
 42
1.0
 92
        8
 66
     7
 43
1.0
 76
     1
 77
     6
 78
     2
 67
     7
 79
     5
170
     0
171
     0
290
     0
174
     0
 93
        1
 44
0.0
173
     0
291
     1
 45
0.0
1001
ACAD
1000
AcDbSavedByObjectVersion
1070
     0
  0
VISUALSTYLE
  5
36
102
{ACAD_REACTORS
330
2A
102
}
330
2A
100
AcDbVisualStyle
  2
Brighten
 70
    12
 71
     2
 72
     2
 73
     0
 90
        0
 40
-0.6
 41
-30.0
 62
     5
 63
     7
421
 16777215
 74
     1
 91
        4
 64
     7
 65
   257
 75
     1
175
     1
 42
1.0
 92
        8
 66
     7
 43
1.0
 76
     1
 77
     6
 78
     2
 67
     7
 79
     5
170
     0
171
     0
290
     0
174
     0
 93
        1
 44
50.0
173
     0
291
     1
 45
0.0
1001
ACAD
1000
AcDbSavedByObjectVersion
1070
     0
  0
VISUALSTYLE
  5
3A
102
{ACAD_REACTORS
330
2A
102
}
330
2A
100
AcDbVisualStyle
  2
ColorChange
 70
    16
 71
     2
 72
     2
 73
     3
 90
        0
 40
-0.6
 41
-30.0
 62
     5
 63
     8
421
  8421504
 74
     1
 91
        4
 64
     7
 65
   257
 75
     1
175
     1
 42
1.0
 92
        8
 66
     8
424
  8421504
 43
1.0
 76
     1
 77
     6
 78
     2
 67
     7
 79
     5
170
     0
171
     0
290
     0
174
     0
 93
        1
 44
0.0
173
     0
291
     1
 45
0.0
1001
ACAD
1000
AcDbSavedByObjectVersion
1070
     0
  0
VISUALSTYLE
  5
34
102
{ACAD_REACTORS
330
2A
102
}
330
2A
100
AcDbVisualStyle
  2
Conceptual
 70
     9
 71
     3
 72
     2
 73
     0
 90
        0
 40
-0.6
 41
-30.0
 62
     5
 63
     7
421
 16777215
 74
     2
 91
        2
 64
     7
 65
   257
 75
     1
175
     1
 42
40.0
 92
        8
 66
     7
 43
1.0
 76
     1
 77
     6
 78
     2
 67
     7
 79
     3
170
     0
171
     0
290
     0
174
     0
 93
        1
 44
0.0
173
     0
291
     0
 45
0.0
1001
ACAD
1000
AcDbSavedByObjectVersion
1070
     0
  0
VISUALSTYLE
  5
35
102
{ACAD_REACTORS
330
2A
102
}
330
2A
100
AcDbVisualStyle
  2
Dim
 70
    11
 71
     2
 72
     2
 73
     0
 90
        0
 40
-0.6
 41
-30.0
 62
     5
 63
     7
421
 16777215
 74
     1
 91
        4
 64
     7
 65
   257
 75
     1
175
     1
 42
1.0
 92
        8
 66
     7
 43
1.0
 76
     1
 77
     6
 78
     2
 67
     7
 79
     5
170
     0
171
     0
290
     0
174
     0
 93
        1
 44
-50.0
173
     0
291
     1
 45
0.0
1001
ACAD
1000
AcDbSavedByObjectVersion
1070
     0
  0
VISUALSTYLE
  5
39
102
{ACAD_REACTORS
330
2A
102
}
330
2A
100
AcDbVisualStyle
  2
Facepattern
 70
    15
 71
     2
 72
     2
 73
     0
 90
        0
 40
-0.6
 41
-30.0
 62
     5
 63
     7
421
 16777215
 74
     1
 91
        4
 64
     7
 65
   257
 75
     1
175
     1
 42
1.0
 92
        8
 66
     7
 43
1.0
 76
     1
 77
     6
 78
     2
 67
     7
 79
     5
170
     0
171
     0
290
     0
174
     0
 93
        1
 44
0.0
173
     0
291
     1
 45
0.0
1001
ACAD
1000
AcDbSavedByObjectVersion
1070
     0
  0
VISUALSTYLE
  5
2B
102
{ACAD_REACTORS
330
2A
102
}
330
2A
100
AcDbVisualStyle
  2
Flat
 70
     0
 71
     2
 72
     1
 73
     1
 90
        2
 40
-0.6
 41
30.0
 62
     5
 63
     7
421
 16777215
 74
     0
 91
        4
 64
     7
 65
   257
 75
     1
175
     1
 42
1.0
 92
        8
 66
     7
 43
1.0
 76
     1
 77
     6
 78
     2
 67
     7
 79
     5
170
     0
171
     0
290
     0
174
     0
 93
       13
 44
0.0
173
     0
291
     1
 45
0.0
1001
ACAD
1000
AcDbSavedByObjectVersion
1070
     0
  0
VISUALSTYLE
  5
2C
102
{ACAD_REACTORS
330
2A
102
}
330
2A
100
AcDbVisualStyle
  2
FlatWithEdges
 70
     1
 71
     2
 72
     1
 73
     1
 90
        2
 40
-0.6
 41
30.0
 62
     5
 63
     7
421
 16777215
 74
     1
 91
        4
 64
     7
 65
   257
 75
     1
175
     1
 42
1.0
 92
        0
 66
   257
 43
1.0
 76
     1
 77
     6
 78
     2
 67
     7
 79
     5
170
     0
171
     0
290
     0
174
     0
 93
       13
 44
0.0
173
     0
291
     1
 45
0.0
1001
ACAD
1000
AcDbSavedByObjectVersion
1070
     0
  0
VISUALSTYLE
  5
2D
102
{ACAD_REACTORS
330
2A
102
}
330
2A
100
AcDbVisualStyle
  2
Gouraud
 70
     2
 71
     2
 72
     2
 73
     1
 90
        2
 40
-0.6
 41
30.0
 62
     5
 63
     7
421
 16777215
 74
     0
 91
        4
 64
     7
 65
   257
 75
     1
175
     1
 42
1.0
 92
        0
 66
     7
 43
1.0
 76
     1
 77
     6
 78
     2
 67
     7
 79
     5
170
     0
171
     0
290
     0
174
     0
 93
       13
 44
0.0
173
     0
291
     1
 45
0.0
1001
ACAD
1000
AcDbSavedByObjectVersion
1070
     0
  0
VISUALSTYLE
  5
2E
102
{ACAD_REACTORS
330
2A
102
}
330
2A
100
AcDbVisualStyle
  2
GouraudWithEdges
 70
     3
 71
     2
 72
     2
 73
     1
 90
        2
 40
-0.6
 41
30.0
 62
     5
 63
     7
421
 16777215
 74
     1
 91
        4
 64
     7
 65
   257
 75
     1
175
     1
 42
1.0
 92
        0
 66
   257
 43
1.0
 76
     1
 77
     6
 78
     2
 67
     7
 79
     5
170
     0
171
     0
290
     0
174
     0
 93
       13
 44
0.0
173
     0
291
     1
 45
0.0
1001
ACAD
1000
AcDbSavedByObjectVersion
1070
     0
  0
VISUALSTYLE
  5
38
102
{ACAD_REACTORS
330
2A
102
}
330
2A
100
AcDbVisualStyle
  2
Linepattern
 70
    14
 71
     2
 72
     2
 73
     0
 90
        0
 40
-0.6
 41
-30.0
 62
     5
 63
     7
421
 16777215
 74
     1
 91
        4
 64
     7
 65
   257
 75
     7
175
     7
 42
1.0
 92
        8
 66
     7
 43
1.0
 76
     1
 77
     6
 78
     2
 67
     7
 79
     5
170
     0
171
     0
290
     0
174
     0
 93
        1
 44
0.0
173
     0
291
     1
 45
0.0
1001
ACAD
1000
AcDbSavedByObjectVersion
1070
     0
  0
VISUALSTYLE
  5
33
102
{ACAD_REACTORS
330
2A
102
}
330
2A
100
AcDbVisualStyle
  2
Realistic
 70
     8
 71
     2
 72
     2
 73
     0
 90
        0
 40
-0.6
 41
-30.0
 62
     5
 63
     7
421
 16777215
 74
     1
 91
        0
 64
     7
 65
   257
 75
     1
175
     1
 42
1.0
 92
        8
 66
     8
424
  7895160
 43
1.0
 76
     1
 77
     6
 78
     2
 67
     7
 79
     5
170
     0
171
     0
290
     0
174
     0
 93
       13
 44
0.0
173
     0
291
     0
 45
0.0
1001
ACAD
1000
AcDbSavedByObjectVersion
1070
     0
  0
VISUALSTYLE
  5
37
102
{ACAD_REACTORS
330
2A
102
}
330
2A
100
AcDbVisualStyle
  2
Thicken
 70
    13
 71
     2
 72
     2
 73
     0
 90
        0
 40
-0.6
 41
-30.0
 62
     5
 63
     7
421
 16777215
 74
     1
 91
        4
 64
     7
 65
   257
 75
     1
175
     1
 42
1.0
 92
       12
 66
     7
 43
1.0
 76
     1
 77
     6
 78
     2
 67
     7
 79
     5
170
     0
171
     0
290
     0
174
     0
 93
        1
 44
0.0
173
     0
291
     1
 45
0.0
1001
ACAD
1000
AcDbSavedByObjectVersion
1070
     0
  0
ENDSEC
  0
EOF
