  0
SECTION
  2
HEADER
  9
$ACADVER
  1
AC1018
  9
$ACADMAINTVER
 70
     0
  9
$DWGCODEPAGE
  3
ANSI_1252
  9
$INSBASE
 10
0.0
 20
0.0
 30
0.0
  9
$EXTMIN
 10
0.0
 20
675.9999999999999
 30
0.0
  9
$EXTMAX
 10
549.7871376401965
 20
1891.116470791129
 30
0.0
  9
$LIMMIN
 10
0.0
 20
0.0
  9
$LIMMAX
 10
12.0
 20
9.0
  9
$ORTHOMODE
 70
     0
  9
$REGENMODE
 70
     1
  9
$FILLMODE
 70
     1
  9
$QTEXTMODE
 70
     0
  9
$MIRRTEXT
 70
     1
  9
$LTSCALE
 40
1.0
  9
$ATTMODE
 70
     1
  9
$TEXTSIZE
 40
0.2
  9
$TRACEWID
 40
0.05
  9
$TEXTSTYLE
  7
Standard
  9
$CLAYER
  8
Predefinito
  9
$CELTYPE
  6
ByLayer
  9
$CECOLOR
 62
   256
  9
$CELTSCALE
 40
1.0
  9
$DISPSILH
 70
     0
  9
$DIMSCALE
 40
1.0
  9
$DIMASZ
 40
0.18
  9
$DIMEXO
 40
0.0625
  9
$DIMDLI
 40
0.38
  9
$DIMRND
 40
0.0
  9
$DIMDLE
 40
0.0
  9
$DIMEXE
 40
0.18
  9
$DIMTP
 40
0.0
  9
$DIMTM
 40
0.0
  9
$DIMTXT
 40
0.18
  9
$DIMCEN
 40
0.09
  9
$DIMTSZ
 40
0.0
  9
$DIMTOL
 70
     0
  9
$DIMLIM
 70
     0
  9
$DIMTIH
 70
     1
  9
$DIMTOH
 70
     1
  9
$DIMSE1
 70
     0
  9
$DIMSE2
 70
     0
  9
$DIMTAD
 70
     0
  9
$DIMZIN
 70
     0
  9
$DIMBLK
  1

  9
$DIMASO
 70
     1
  9
$DIMSHO
 70
     1
  9
$DIMPOST
  1

  9
$DIMAPOST
  1

  9
$DIMALT
 70
     0
  9
$DIMALTD
 70
     2
  9
$DIMALTF
 40
25.4
  9
$DIMLFAC
 40
1.0
  9
$DIMTOFL
 70
     0
  9
$DIMTVP
 40
0.0
  9
$DIMTIX
 70
     0
  9
$DIMSOXD
 70
     0
  9
$DIMSAH
 70
     0
  9
$DIMBLK1
  1

  9
$DIMBLK2
  1

  9
$DIMSTYLE
  2
Standard
  9
$DIMCLRD
 70
     0
  9
$DIMCLRE
 70
     0
  9
$DIMCLRT
 70
     0
  9
$DIMTFAC
 40
1.0
  9
$DIMGAP
 40
0.09
  9
$DIMJUST
 70
     0
  9
$DIMSD1
 70
     0
  9
$DIMSD2
 70
     0
  9
$DIMTOLJ
 70
     1
  9
$DIMTZIN
 70
     0
  9
$DIMALTZ
 70
     0
  9
$DIMALTTZ
 70
     0
  9
$DIMUPT
 70
     0
  9
$DIMDEC
 70
     4
  9
$DIMTDEC
 70
     4
  9
$DIMALTU
 70
     2
  9
$DIMALTTD
 70
     2
  9
$DIMTXSTY
  7
Standard
  9
$DIMAUNIT
 70
     0
  9
$DIMADEC
 70
     0
  9
$DIMALTRND
 40
0.0
  9
$DIMAZIN
 70
     0
  9
$DIMDSEP
 70
    46
  9
$DIMATFIT
 70
     3
  9
$DIMFRAC
 70
     0
  9
$DIMLDRBLK
  1

  9
$DIMLUNIT
 70
     2
  9
$DIMLWD
 70
    -2
  9
$DIMLWE
 70
    -2
  9
$DIMTMOVE
 70
     2
  9
$LUNITS
 70
     2
  9
$LUPREC
 70
     3
  9
$SKETCHINC
 40
0.1
  9
$FILLETRAD
 40
0.5
  9
$AUNITS
 70
     0
  9
$AUPREC
 70
     0
  9
$MENU
  1
.
  9
$ELEVATION
 40
0.0
  9
$PELEVATION
 40
0.0
  9
$THICKNESS
 40
0.0
  9
$LIMCHECK
 70
     0
  9
$CHAMFERA
 40
0.5
  9
$CHAMFERB
 40
0.5
  9
$CHAMFERC
 40
1.0
  9
$CHAMFERD
 40
0.0
  9
$SKPOLY
 70
     0
  9
$TDCREATE
 40
2458303.59302772
  9
$TDUCREATE
 40
2458303.509694387
  9
$TDUPDATE
 40
2458303.593027731
  9
$TDUUPDATE
 40
2458303.509694398
  9
$TDINDWG
 40
0.0000000116
  9
$TDUSRTIMER
 40
0.0000000116
  9
$USRTIMER
 70
     1
  9
$ANGBASE
 50
0.0
  9
$ANGDIR
 70
     0
  9
$PDMODE
 70
     0
  9
$PDSIZE
 40
0.0
  9
$PLINEWID
 40
0.0
  9
$SPLFRAME
 70
     0
  9
$SPLINETYPE
 70
     6
  9
$SPLINESEGS
 70
     8
  9
$HANDSEED
  5
20A
  9
$SURFTAB1
 70
     6
  9
$SURFTAB2
 70
     6
  9
$SURFTYPE
 70
     6
  9
$SURFU
 70
     6
  9
$SURFV
 70
     6
  9
$UCSBASE
  2

  9
$UCSNAME
  2

  9
$UCSORG
 10
0.0
 20
0.0
 30
0.0
  9
$UCSXDIR
 10
1.0
 20
0.0
 30
0.0
  9
$UCSYDIR
 10
0.0
 20
1.0
 30
0.0
  9
$UCSORTHOREF
  2

  9
$UCSORTHOVIEW
 70
     0
  9
$UCSORGTOP
 10
0.0
 20
0.0
 30
0.0
  9
$UCSORGBOTTOM
 10
0.0
 20
0.0
 30
0.0
  9
$UCSORGLEFT
 10
0.0
 20
0.0
 30
0.0
  9
$UCSORGRIGHT
 10
0.0
 20
0.0
 30
0.0
  9
$UCSORGFRONT
 10
0.0
 20
0.0
 30
0.0
  9
$UCSORGBACK
 10
0.0
 20
0.0
 30
0.0
  9
$PUCSBASE
  2

  9
$PUCSNAME
  2

  9
$PUCSORG
 10
0.0
 20
0.0
 30
0.0
  9
$PUCSXDIR
 10
1.0
 20
0.0
 30
0.0
  9
$PUCSYDIR
 10
0.0
 20
1.0
 30
0.0
  9
$PUCSORTHOREF
  2

  9
$PUCSORTHOVIEW
 70
     0
  9
$PUCSORGTOP
 10
0.0
 20
0.0
 30
0.0
  9
$PUCSORGBOTTOM
 10
0.0
 20
0.0
 30
0.0
  9
$PUCSORGLEFT
 10
0.0
 20
0.0
 30
0.0
  9
$PUCSORGRIGHT
 10
0.0
 20
0.0
 30
0.0
  9
$PUCSORGFRONT
 10
0.0
 20
0.0
 30
0.0
  9
$PUCSORGBACK
 10
0.0
 20
0.0
 30
0.0
  9
$USERI1
 70
     0
  9
$USERI2
 70
     0
  9
$USERI3
 70
     0
  9
$USERI4
 70
     0
  9
$USERI5
 70
     0
  9
$USERR1
 40
0.0
  9
$USERR2
 40
0.0
  9
$USERR3
 40
0.0
  9
$USERR4
 40
0.0
  9
$USERR5
 40
0.0
  9
$WORLDVIEW
 70
     1
  9
$SHADEDGE
 70
     3
  9
$SHADEDIF
 70
    70
  9
$TILEMODE
 70
     1
  9
$MAXACTVP
 70
    64
  9
$PINSBASE
 10
0.0
 20
0.0
 30
0.0
  9
$PLIMCHECK
 70
     0
  9
$PEXTMIN
 10
1.000000000000000E+20
 20
1.000000000000000E+20
 30
1.000000000000000E+20
  9
$PEXTMAX
 10
-1.000000000000000E+20
 20
-1.000000000000000E+20
 30
-1.000000000000000E+20
  9
$PLIMMIN
 10
0.0
 20
0.0
  9
$PLIMMAX
 10
12.0
 20
9.0
  9
$UNITMODE
 70
     0
  9
$VISRETAIN
 70
     1
  9
$PLINEGEN
 70
     0
  9
$PSLTSCALE
 70
     1
  9
$TREEDEPTH
 70
  3020
  9
$CMLSTYLE
  2
Standard
  9
$CMLJUST
 70
     0
  9
$CMLSCALE
 40
1.0
  9
$PROXYGRAPHICS
 70
     1
  9
$MEASUREMENT
 70
     0
  9
$CELWEIGHT
370
    -1
  9
$ENDCAPS
280
     0
  9
$JOINSTYLE
280
     0
  9
$LWDISPLAY
290
     0
  9
$INSUNITS
 70
     4
  9
$HYPERLINKBASE
  1

  9
$STYLESHEET
  1

  9
$XEDIT
290
     1
  9
$CEPSNTYPE
380
     0
  9
$PSTYLEMODE
290
     1
  9
$FINGERPRINTGUID
  2
{452D3088-D91E-4C18-8BED-F0582338ADCB}
  9
$VERSIONGUID
  2
{FAEB1C32-E019-11D5-929B-00C0DF256EC4}
  9
$EXTNAMES
290
     1
  9
$PSVPSCALE
 40
0.0
  9
$OLESTARTUP
290
     0
  9
$SORTENTS
280
   127
  9
$INDEXCTL
280
     0
  9
$HIDETEXT
280
     1
  9
$XCLIPFRAME
290
     0
  9
$HALOGAP
280
     0
  9
$OBSCOLOR
 70
   257
  9
$OBSLTYPE
280
     0
  9
$INTERSECTIONDISPLAY
280
     0
  9
$INTERSECTIONCOLOR
 70
   257
  9
$DIMASSOC
280
     2
  9
$PROJECTNAME
  1

  0
ENDSEC
  0
SECTION
  2
CLASSES
  0
CLASS
  1
ACDBDICTIONARYWDFLT
  2
AcDbDictionaryWithDefault
  3
ObjectDBX Classes
 90
        0
 91
        4
280
     0
281
     0
  0
CLASS
  1
VISUALSTYLE
  2
AcDbVisualStyle
  3
ObjectDBX Classes
 90
     4095
 91
        4
280
     0
281
     0
  0
ENDSEC
  0
SECTION
  2
TABLES
  0
TABLE
  2
VPORT
  5
8
330
0
100
AcDbSymbolTable
 70
     1
  0
VPORT
  5
29
330
8
100
AcDbSymbolTableRecord
100
AcDbViewportTableRecord
  2
*Active
 70
     0
 10
0.0
 20
0.0
 11
1.0
 21
1.0
 12
274.8935688200983
 22
1283.558235395564
 13
0.0
 23
0.0
 14
0.5
 24
0.5
 15
0.5
 25
0.5
 16
0.0
 26
0.0
 36
1.0
 17
0.0
 27
0.0
 37
0.0
 40
1239.418800206952
 41
0.4524563289659346
 42
50.0
 43
0.0
 44
0.0
 50
0.0
 51
0.0
 71
     0
 72
   100
 73
     1
 74
     3
 75
     0
 76
     0
 77
     0
 78
     0
281
     0
 65
     1
110
0.0
120
0.0
130
0.0
111
1.0
121
0.0
131
0.0
112
0.0
122
1.0
132
0.0
 79
     0
146
0.0
  0
ENDTAB
  0
TABLE
  2
LTYPE
  5
5
330
0
100
AcDbSymbolTable
 70
     1
  0
LTYPE
  5
14
330
5
100
AcDbSymbolTableRecord
100
AcDbLinetypeTableRecord
  2
ByBlock
 70
     0
  3

 72
    65
 73
     0
 40
0.0
  0
LTYPE
  5
15
330
5
100
AcDbSymbolTableRecord
100
AcDbLinetypeTableRecord
  2
ByLayer
 70
     0
  3

 72
    65
 73
     0
 40
0.0
  0
LTYPE
  5
16
330
5
100
AcDbSymbolTableRecord
100
AcDbLinetypeTableRecord
  2
Continuous
 70
     0
  3
Solid line
 72
    65
 73
     0
 40
0.0
  0
ENDTAB
  0
TABLE
  2
LAYER
  5
2
330
0
100
AcDbSymbolTable
 70
     2
  0
LAYER
  5
10
330
2
100
AcDbSymbolTableRecord
100
AcDbLayerTableRecord
  2
0
 70
     0
 62
     7
  6
Continuous
370
    -3
390
F
  0
LAYER
  5
3B
330
2
100
AcDbSymbolTableRecord
100
AcDbLayerTableRecord
  2
Predefinito
 70
     0
 62
     7
  6
Continuous
370
    -3
390
F
  0
ENDTAB
  0
TABLE
  2
STYLE
  5
3
330
0
100
AcDbSymbolTable
 70
     1
  0
STYLE
  5
11
330
3
100
AcDbSymbolTableRecord
100
AcDbTextStyleTableRecord
  2
Standard
 70
     0
 40
0.0
 41
1.0
 50
0.0
 71
     0
 42
0.2
  3
txt
  4

  0
ENDTAB
  0
TABLE
  2
VIEW
  5
6
330
0
100
AcDbSymbolTable
 70
     0
  0
ENDTAB
  0
TABLE
  2
UCS
  5
7
330
0
100
AcDbSymbolTable
 70
     0
  0
ENDTAB
  0
TABLE
  2
APPID
  5
9
330
0
100
AcDbSymbolTable
 70
     1
  0
APPID
  5
12
330
9
100
AcDbSymbolTableRecord
100
AcDbRegAppTableRecord
  2
ACAD
 70
     0
  0
ENDTAB
  0
TABLE
  2
DIMSTYLE
  5
A
330
0
100
AcDbSymbolTable
 70
     1
100
AcDbDimStyleTable
  0
DIMSTYLE
105
27
330
A
100
AcDbSymbolTableRecord
100
AcDbDimStyleTableRecord
  2
Standard
 70
     0
340
11
  0
ENDTAB
  0
TABLE
  2
BLOCK_RECORD
  5
1
330
0
100
AcDbSymbolTable
 70
     1
  0
BLOCK_RECORD
  5
1F
330
1
100
AcDbSymbolTableRecord
100
AcDbBlockTableRecord
  2
*Model_Space
340
22
  0
BLOCK_RECORD
  5
1B
330
1
100
AcDbSymbolTableRecord
100
AcDbBlockTableRecord
  2
*Paper_Space
340
1E
  0
BLOCK_RECORD
  5
23
330
1
100
AcDbSymbolTableRecord
100
AcDbBlockTableRecord
  2
*Paper_Space0
340
26
  0
ENDTAB
  0
ENDSEC
  0
SECTION
  2
BLOCKS
  0
BLOCK
  5
20
330
1F
100
AcDbEntity
  8
0
100
AcDbBlockBegin
  2
*Model_Space
 70
     0
 10
0.0
 20
0.0
 30
0.0
  3
*Model_Space
  1

  0
ENDBLK
  5
21
330
1F
100
AcDbEntity
  8
0
100
AcDbBlockEnd
  0
BLOCK
  5
1C
330
1B
100
AcDbEntity
 67
     1
  8
0
100
AcDbBlockBegin
  2
*Paper_Space
 70
     0
 10
0.0
 20
0.0
 30
0.0
  3
*Paper_Space
  1

  0
ENDBLK
  5
1D
330
1B
100
AcDbEntity
 67
     1
  8
0
100
AcDbBlockEnd
  0
BLOCK
  5
24
330
23
100
AcDbEntity
  8
0
100
AcDbBlockBegin
  2
*Paper_Space0
 70
     0
 10
0.0
 20
0.0
 30
0.0
  3
*Paper_Space0
  1

  0
ENDBLK
  5
25
330
23
100
AcDbEntity
  8
0
100
AcDbBlockEnd
  0
ENDSEC
  0
SECTION
  2
ENTITIES
  0
SPLINE
  5
3C
330
1F
100
AcDbEntity
  8
Predefinito
100
AcDbSpline
210
0.0
220
0.0
230
1.0
 70
    15
 71
     2
 72
    12
 73
     9
 74
     0
 42
0.0000000001
 43
0.0000000001
 40
0.0
 40
0.0
 40
0.0
 40
107.2812386881517
 40
107.2812386881517
 40
214.5624773763035
 40
214.5624773763035
 40
321.8437160644552
 40
321.8437160644552
 40
429.1249547526069
 40
429.1249547526069
 40
429.1249547526069
 10
513.0844995881298
 20
781.0000000000001
 30
0.0
 41
1.0
 10
513.0845089366426
 20
712.7026422470375
 30
0.0
 41
0.7071067811865476
 10
444.7871511836799
 20
712.7026328985246
 30
0.0
 41
1.0
 10
376.4897934307172
 20
712.7026235500118
 30
0.0
 41
0.7071067811865476
 10
376.4897840822044
 20
780.9999813029746
 30
0.0
 41
1.0
 10
376.4897747336917
 20
849.2973390559372
 30
0.0
 41
0.7071067811865476
 10
444.7871324866543
 20
849.2973484044501
 30
0.0
 41
1.0
 10
513.084490239617
 20
849.2973577529629
 30
0.0
 41
0.7071067811865476
 10
513.0844995881298
 20
781.0000000000001
 30
0.0
 41
1.0
  0
SPLINE
  5
3D
330
1F
100
AcDbEntity
  8
Predefinito
100
AcDbSpline
210
0.0
220
0.0
230
1.0
 70
    12
 71
     2
 72
     8
 73
     5
 74
     0
 42
0.0000000001
 43
0.0000000001
 40
0.0
 40
0.0
 40
0.0
 40
149.2256510455151
 40
149.2256510455151
 40
298.4513020910302
 40
298.4513020910302
 40
298.4513020910302
 10
362.5147242796485
 20
828.4999999999993
 30
0.0
 41
1.0
 10
315.0147242796494
 20
746.227586640477
 30
0.0
 41
0.7071067811865481
 10
397.2871376391714
 20
698.727586640478
 30
0.0
 41
1.0
 10
479.5595509986935
 20
651.2275866404786
 30
0.0
 41
0.7071067811865471
 10
527.0595509986927
 20
733.5000000000009
 30
0.0
 41
1.0
  0
SPLINE
  5
3E
330
1F
100
AcDbEntity
  8
Predefinito
100
AcDbSpline
210
0.0
220
0.0
230
1.0
 70
    12
 71
     2
 72
     8
 73
     5
 74
     0
 42
0.0000000001
 43
0.0000000001
 40
0.0
 40
0.0
 40
0.0
 40
124.3547092045965
 40
124.3547092045965
 40
248.7094184091931
 40
248.7094184091931
 40
248.7094184091931
 10
362.5147242796485
 20
828.4999999999993
 30
0.0
 41
1.0
 10
398.9627562086486
 20
891.6298431369217
 30
0.0
 41
0.7933533402912332
 10
469.3749469239096
 20
872.7629534974617
 30
0.0
 41
1.0
 10
539.7871376391707
 20
853.8960638580019
 30
0.0
 41
0.7933533402912323
 10
539.7871376391706
 20
781.0
 30
0.0
 41
1.0
  0
SPLINE
  5
3F
330
1F
100
AcDbEntity
  8
Predefinito
100
AcDbSpline
210
0.0
220
0.0
230
1.0
 70
    12
 71
     2
 72
     6
 73
     3
 74
     0
 42
0.0000000001
 43
0.0000000001
 40
0.0
 40
0.0
 40
0.0
 40
49.7418836818375
 40
49.7418836818375
 40
49.7418836818375
 10
539.7871376391706
 20
781.0
 30
0.0
 41
1.0
 10
539.7871376391707
 20
755.5448267190438
 30
0.0
 41
0.9659258262890691
 10
527.0595509986927
 20
733.5000000000009
 30
0.0
 41
1.0
  0
SPLINE
  5
40
330
1F
100
AcDbEntity
  8
Predefinito
100
AcDbSpline
210
0.0
220
0.0
230
1.0
 70
    15
 71
     2
 72
    12
 73
     9
 74
     0
 42
0.0000000001
 43
0.0000000001
 40
0.0
 40
0.0
 40
0.0
 40
106.8100198384755
 40
106.8100198384755
 40
213.620039676951
 40
213.620039676951
 40
320.4300595154264
 40
320.4300595154264
 40
427.2400793539018
 40
427.2400793539018
 40
427.2400793539018
 10
512.7845081553178
 20
781.0000000000001
 30
0.0
 41
1.0
 10
512.7845081553178
 20
713.0026294838528
 30
0.0
 41
0.7071067811865464
 10
444.7871376391706
 20
713.0026294838531
 30
0.0
 41
1.0
 10
376.7897671230234
 20
713.0026294838531
 30
0.0
 41
0.7071067811865466
 10
376.7897671230236
 20
781.0000000000003
 30
0.0
 41
1.0
 10
376.7897671230236
 20
848.9973705161474
 30
0.0
 41
0.7071067811865474
 10
444.7871376391707
 20
848.9973705161473
 30
0.0
 41
1.0
 10
512.7845081553179
 20
848.9973705161473
 30
0.0
 41
0.7071067811865468
 10
512.7845081553178
 20
781.0000000000001
 30
0.0
 41
1.0
  0
SPLINE
  5
41
330
1F
100
AcDbEntity
  8
Predefinito
100
AcDbSpline
210
0.0
220
0.0
230
1.0
 70
    12
 71
     2
 72
     6
 73
     3
 74
     0
 42
0.0000000001
 43
0.0000000001
 40
0.0
 40
0.0
 40
0.0
 40
164.9336143134641
 40
164.9336143134641
 40
164.9336143134641
 10
549.7871376391706
 20
781.0
 30
0.0
 41
1.0
 10
549.7871376391707
 20
675.9999999999999
 30
0.0
 41
0.7071067811865469
 10
444.7871376391706
 20
676.0
 30
0.0
 41
1.0
  0
SPLINE
  5
42
330
1F
100
AcDbEntity
  8
Predefinito
100
AcDbSpline
210
0.0
220
0.0
230
1.0
 70
    12
 71
     2
 72
     6
 73
     3
 74
     0
 42
0.0000000001
 43
0.0000000001
 40
0.0
 40
0.0
 40
0.0
 40
164.9336143134641
 40
164.9336143134641
 40
164.9336143134641
 10
444.7871376391706
 20
676.0
 30
0.0
 41
1.0
 10
339.7871376391706
 20
676.0
 30
0.0
 41
0.7071067811865476
 10
339.7871376391706
 20
781.0000000000001
 30
0.0
 41
1.0
  0
SPLINE
  5
43
330
1F
100
AcDbEntity
  8
Predefinito
100
AcDbSpline
210
0.0
220
0.0
230
1.0
 70
    12
 71
     2
 72
     8
 73
     5
 74
     0
 42
0.0000000001
 43
0.0000000001
 40
0.0
 40
0.0
 40
0.0
 40
164.9336143134641
 40
164.9336143134641
 40
329.8672286269283
 40
329.8672286269283
 40
329.8672286269283
 10
339.7871376391706
 20
781.0
 30
0.0
 41
1.0
 10
339.7871376391706
 20
886.0
 30
0.0
 41
0.7071067811865476
 10
444.7871376391706
 20
886.0
 30
0.0
 41
1.0
 10
549.7871376391706
 20
886.0
 30
0.0
 41
0.7071067811865476
 10
549.7871376391706
 20
781.0
 30
0.0
 41
1.0
  0
LINE
  5
44
330
1F
100
AcDbEntity
  8
Predefinito
100
AcDbLine
 10
512.8408654538249
 20
1862.896470791129
 30
0.0
 11
513.0844995890334
 21
1890.814507320641
 31
0.0
  0
LINE
  5
45
330
1F
100
AcDbEntity
  8
Predefinito
100
AcDbLine
 10
376.7334098265682
 20
1862.896470791129
 30
0.0
 11
376.4897756913598
 21
1890.814507320641
 31
0.0
  0
SPLINE
  5
46
330
1F
100
AcDbEntity
  8
Predefinito
100
AcDbSpline
210
0.0
220
0.0
230
1.0
 70
    12
 71
     2
 72
     6
 73
     3
 74
     0
 42
0.0000000001
 43
0.0000000001
 40
-0.4723594860155659
 40
-0.4723594860155659
 40
-0.4723594860155659
 40
0.0
 40
0.0
 40
0.0
 10
173.2973619488368
 20
1890.814507320641
 30
0.0
 41
1.0
 10
173.2973733557556
 20
1891.114516368337
 30
0.0
 41
0.7093928830518015
 10
172.9973705950731
 20
1891.116470791129
 30
0.0
 41
1.0
  0
SPLINE
  5
47
330
1F
100
AcDbEntity
  8
Predefinito
100
AcDbSpline
210
0.0
220
0.0
230
1.0
 70
    24
 71
     2
 72
     6
 73
     3
 74
     0
 42
0.0000000001
 43
0.0000000001
 40
0.0
 40
0.0
 40
0.0
 40
67.99737051614716
 40
67.99737051614716
 40
67.99737051614716
 10
172.9973705950731
 20
1891.116470791129
 30
0.0
 10
138.9986852975366
 20
1891.116470791129
 30
0.0
 10
105.0000000000001
 20
1891.116470791129
 30
0.0
  0
SPLINE
  5
48
330
1F
100
AcDbEntity
  8
Predefinito
100
AcDbSpline
210
0.0
220
0.0
230
1.0
 70
    24
 71
     2
 72
     6
 73
     3
 74
     0
 42
0.0000000001
 43
0.0000000001
 40
0.0
 40
0.0
 40
0.0
 40
67.99737051614699
 40
67.99737051614699
 40
67.99737051614699
 10
105.0000000000001
 20
1891.116470791129
 30
0.0
 10
71.00131470246363
 20
1891.116470791129
 30
0.0
 10
37.00262940492721
 20
1891.116470791129
 30
0.0
  0
SPLINE
  5
49
330
1F
100
AcDbEntity
  8
Predefinito
100
AcDbSpline
210
0.0
220
0.0
230
1.0
 70
    12
 71
     2
 72
     6
 73
     3
 74
     0
 42
0.0000000001
 43
0.0000000001
 40
-0.4723451358428238
 40
-0.4723451358428238
 40
-0.4723451358428238
 40
0.0
 40
0.0
 40
0.0
 10
37.00262940492721
 20
1891.116470791129
 30
0.0
 41
1.0
 10
36.70266015137
 20
1891.114483080055
 30
0.0
 41
0.7094716029018971
 10
36.70263805116338
 20
1890.814507320641
 30
0.0
 41
1.0
  0
POLYLINE
  5
4A
330
1F
100
AcDbEntity
  8
Predefinito
100
AcDb2dPolyline
 66
     1
 10
0.0
 20
0.0
 30
0.0
  0
VERTEX
  5
4B
330
4A
100
AcDbEntity
  8
Predefinito
100
AcDbVertex
100
AcDb2dVertex
 10
36.94435229814149
 20
1862.896470791129
 30
0.0
  0
VERTEX
  5
4C
330
4A
100
AcDbEntity
  8
Predefinito
100
AcDbVertex
100
AcDb2dVertex
 10
36.9443522981415
 20
1863.116470791129
 30
0.0
  0
SEQEND
  5
4D
330
4A
100
AcDbEntity
  8
Predefinito
  0
SPLINE
  5
4E
330
1F
100
AcDbEntity
  8
Predefinito
100
AcDbSpline
210
0.0
220
0.0
230
1.0
 70
    24
 71
     2
 72
     6
 73
     3
 74
     0
 42
0.0000000001
 43
0.0000000001
 40
0.0
 40
0.0
 40
0.0
 40
27.69909120110926
 40
27.69909120110926
 40
27.69909120110926
 10
36.9443522981415
 20
1863.116470791129
 30
0.0
 10
36.82349517465244
 20
1876.965489055885
 30
0.0
 10
36.70263805116338
 20
1890.814507320641
 30
0.0
  0
SPLINE
  5
4F
330
1F
100
AcDbEntity
  8
Predefinito
100
AcDbSpline
210
0.0
220
0.0
230
1.0
 70
    24
 71
     2
 72
     6
 73
     3
 74
     0
 42
0.0000000001
 43
0.0000000001
 40
0.0
 40
0.0
 40
0.0
 40
68.29736194883668
 40
68.29736194883668
 40
68.29736194883668
 10
36.70263805116338
 20
1890.814507320641
 30
0.0
 10
70.85131902558172
 20
1890.814507320641
 30
0.0
 10
105.0000000000001
 20
1890.814507320641
 30
0.0
  0
SPLINE
  5
50
330
1F
100
AcDbEntity
  8
Predefinito
100
AcDbSpline
210
0.0
220
0.0
230
1.0
 70
    24
 71
     2
 72
     6
 73
     3
 74
     0
 42
0.0000000001
 43
0.0000000001
 40
0.0
 40
0.0
 40
0.0
 40
68.29736194883685
 40
68.29736194883685
 40
68.29736194883685
 10
105.0000000000001
 20
1890.814507320641
 30
0.0
 10
139.1486809744185
 20
1890.814507320641
 30
0.0
 10
173.2973619488369
 20
1890.814507320641
 30
0.0
  0
SPLINE
  5
51
330
1F
100
AcDbEntity
  8
Predefinito
100
AcDbSpline
210
0.0
220
0.0
230
1.0
 70
    24
 71
     2
 72
     6
 73
     3
 74
     0
 42
0.0000000001
 43
0.0000000001
 40
0.0
 40
0.0
 40
0.0
 40
27.69909120110926
 40
27.69909120110926
 40
27.69909120110926
 10
173.2973619488369
 20
1890.814507320641
 30
0.0
 10
173.1765048253478
 20
1876.965489055885
 30
0.0
 10
173.0556477018588
 20
1863.116470791129
 30
0.0
  0
POLYLINE
  5
52
330
1F
100
AcDbEntity
  8
Predefinito
100
AcDb2dPolyline
 66
     1
 10
0.0
 20
0.0
 30
0.0
  0
VERTEX
  5
53
330
52
100
AcDbEntity
  8
Predefinito
100
AcDbVertex
100
AcDb2dVertex
 10
173.0556477018588
 20
1863.116470791129
 30
0.0
  0
VERTEX
  5
54
330
52
100
AcDbEntity
  8
Predefinito
100
AcDbVertex
100
AcDb2dVertex
 10
173.0556477018588
 20
1862.896470791129
 30
0.0
  0
SEQEND
  5
55
330
52
100
AcDbEntity
  8
Predefinito
  0
LINE
  5
56
330
1F
100
AcDbEntity
  8
Predefinito
100
AcDbLine
 10
449.846069066117
 20
1570.916470791129
 30
0.0
 11
441.0280234123443
 21
1570.916470791129
 31
0.0
  0
LINE
  5
57
330
1F
100
AcDbEntity
  8
Predefinito
100
AcDbLine
 10
441.0280234123443
 20
1570.716470791129
 30
0.0
 11
449.846069066117
 21
1570.716470791129
 31
0.0
  0
SPLINE
  5
58
330
1F
100
AcDbEntity
  8
Predefinito
100
AcDbSpline
210
0.0
220
0.0
230
1.0
 70
    12
 71
     2
 72
     6
 73
     3
 74
     0
 42
0.0000000001
 43
0.0000000001
 40
3.594318536517247
 40
3.594318536517247
 40
3.594318536517247
 40
9.822297721084434
 40
9.822297721084434
 40
9.822297721084434
 10
449.846069066117
 20
1570.773746804492
 30
0.0
 41
0.9999594523506884
 10
451.8570146081133
 20
1568.396029652553
 30
0.0
 41
0.9999445971358155
 10
453.827818949202
 20
1565.98493631619
 30
0.0
 41
1.0
  0
SPLINE
  5
59
330
1F
100
AcDbEntity
  8
Predefinito
100
AcDbSpline
210
0.0
220
0.0
230
1.0
 70
    12
 71
     2
 72
     6
 73
     3
 74
     0
 42
0.0000000001
 43
0.0000000001
 40
0.0
 40
0.0
 40
0.0
 40
2.357909687138118
 40
2.357909687138118
 40
2.357909687138118
 10
447.5117706078234
 20
1573.506867315732
 30
0.0
 41
1.0
 10
448.2817606784666
 20
1572.61410354136
 30
0.0
 41
0.9999790245043723
 10
449.046069066117
 20
1571.716470791129
 30
0.0
 41
0.9999681196308612
  0
LINE
  5
5A
330
1F
100
AcDbEntity
  8
Predefinito
100
AcDbLine
 10
449.046069066117
 20
1569.916470791129
 30
0.0
 11
441.8280234123444
 21
1569.916470791129
 31
0.0
  0
SPLINE
  5
5B
330
1F
100
AcDbEntity
  8
Predefinito
100
AcDbSpline
210
0.0
220
0.0
230
1.0
 70
    12
 71
     2
 72
     6
 73
     3
 74
     0
 42
0.0000000001
 43
0.0000000001
 40
0.0
 40
0.0
 40
0.0
 40
1.256389831828733
 40
1.256389831828733
 40
1.256389831828733
 10
449.846069066117
 20
1570.916470791129
 30
0.0
 41
1.0
 10
449.8454931171187
 20
1571.715894842131
 30
0.0
 41
0.7076160361066878
 10
449.046069066117
 20
1571.716470791129
 30
0.0
 41
1.0
  0
SPLINE
  5
5C
330
1F
100
AcDbEntity
  8
Predefinito
100
AcDbSpline
210
0.0
220
0.0
230
1.0
 70
    24
 71
     2
 72
     6
 73
     3
 74
     0
 42
0.0000000001
 43
0.0000000001
 40
0.0
 40
0.0
 40
0.0
 40
0.2000000000000455
 40
0.2000000000000455
 40
0.2000000000000455
 10
449.846069066117
 20
1570.716470791129
 30
0.0
 10
449.846069066117
 20
1570.816470791129
 30
0.0
 10
449.846069066117
 20
1570.916470791129
 30
0.0
  0
SPLINE
  5
5D
330
1F
100
AcDbEntity
  8
Predefinito
100
AcDbSpline
210
0.0
220
0.0
230
1.0
 70
    12
 71
     2
 72
     6
 73
     3
 74
     0
 42
0.0000000001
 43
0.0000000001
 40
0.0
 40
0.0
 40
0.0
 40
1.256637061435968
 40
1.256637061435968
 40
1.256637061435968
 10
449.846069066117
 20
1570.716470791129
 30
0.0
 41
1.0
 10
449.846069066117
 20
1569.916470791129
 30
0.0
 41
0.7071067811865727
 10
449.046069066117
 20
1569.916470791129
 30
0.0
 41
1.0
  0
SPLINE
  5
5E
330
1F
100
AcDbEntity
  8
Predefinito
100
AcDbSpline
210
0.0
220
0.0
230
1.0
 70
     8
 71
     3
 72
    14
 73
    10
 74
     0
 42
0.0000000001
 43
0.0000000001
 40
11.31842932800703
 40
11.31842932800703
 40
11.31842932800703
 40
11.31842932800703
 40
12.48883554209123
 40
17.43581362197687
 40
27.88653282013664
 40
50.42508736751991
 40
78.52925953739714
 40
93.87782577138034
 40
109.670820968615
 40
109.670820968615
 40
109.670820968615
 40
109.670820968615
 10
450.1485834242255
 20
1767.449467551586
 30
0.0
 10
450.3472952796509
 20
1767.113836646558
 30
0.0
 10
451.3821153318609
 20
1765.357880741837
 30
0.0
 10
454.1198109541086
 20
1760.573150310706
 30
0.0
 10
459.5910981606884
 20
1749.100043996894
 30
0.0
 10
463.2810603962907
 20
1728.81498718788
 30
0.0
 10
460.7650200138457
 20
1706.777322912567
 30
0.0
 10
455.602631139619
 20
1687.713029205836
 30
0.0
 10
451.764834649136
 20
1678.034635775925
 30
0.0
 10
449.6214170703279
 20
1673.233147049567
 30
0.0
  0
SPLINE
  5
5F
330
1F
100
AcDbEntity
  8
Predefinito
100
AcDbSpline
210
0.0
220
0.0
230
1.0
 70
     8
 71
     3
 72
     8
 73
     4
 74
     0
 42
0.0000000001
 43
0.0000000001
 40
0.0
 40
0.0
 40
0.0
 40
0.0
 40
9.844014749765659
 40
9.844014749765659
 40
9.844014749765659
 40
9.844014749765659
 10
444.3183949114293
 20
1777.153549378115
 30
0.0
 10
445.9874717787983
 20
1774.332841886546
 30
0.0
 10
447.7098076667127
 20
1771.53332593291
 30
0.0
 10
449.3944565079343
 20
1768.716470791129
 30
0.0
  0
LINE
  5
60
330
1F
100
AcDbEntity
  8
Predefinito
100
AcDbLine
 10
450.1944552719374
 20
1767.916470791128
 30
0.0
 11
440.5802324100913
 21
1767.916470791129
 31
0.0
  0
LINE
  5
61
330
1F
100
AcDbEntity
  8
Predefinito
100
AcDbLine
 10
440.5802324100913
 20
1767.716470791129
 30
0.0
 11
450.1944552719374
 21
1767.716470791129
 31
0.0
  0
LINE
  5
62
330
1F
100
AcDbEntity
  8
Predefinito
100
AcDbLine
 10
449.3944552719375
 20
1766.916470791129
 30
0.0
 11
441.3802324100913
 21
1766.916470791129
 31
0.0
  0
SPLINE
  5
63
330
1F
100
AcDbEntity
  8
Predefinito
100
AcDbSpline
210
0.0
220
0.0
230
1.0
 70
    12
 71
     2
 72
     6
 73
     3
 74
     0
 42
0.0000000001
 43
0.0000000001
 40
0.0
 40
0.0
 40
0.0
 40
1.256388598718673
 40
1.256388598718673
 40
1.256388598718673
 10
450.1944552719374
 20
1767.91647079113
 30
0.0
 41
1.0
 10
450.1938793293691
 20
1768.715893613455
 30
0.0
 41
0.7076165770505615
 10
449.3944565079343
 20
1768.716470791129
 30
0.0
 41
1.0
  0
SPLINE
  5
64
330
1F
100
AcDbEntity
  8
Predefinito
100
AcDbSpline
210
0.0
220
0.0
230
1.0
 70
    24
 71
     2
 72
     6
 73
     3
 74
     0
 42
0.0000000001
 43
0.0000000001
 40
0.0
 40
0.0
 40
0.0
 40
0.2000000000000455
 40
0.2000000000000455
 40
0.2000000000000455
 10
450.1944552719374
 20
1767.716470791129
 30
0.0
 10
450.1944552719374
 20
1767.81647079113
 30
0.0
 10
450.1944552719374
 20
1767.91647079113
 30
0.0
  0
SPLINE
  5
65
330
1F
100
AcDbEntity
  8
Predefinito
100
AcDbSpline
210
0.0
220
0.0
230
1.0
 70
    12
 71
     2
 72
     6
 73
     3
 74
     0
 42
0.0000000001
 43
0.0000000001
 40
0.0
 40
0.0
 40
0.0
 40
1.256637061436073
 40
1.256637061436073
 40
1.256637061436073
 10
450.1944552719374
 20
1767.716470791129
 30
0.0
 41
1.0
 10
450.194455271938
 20
1766.916470791129
 30
0.0
 41
0.7071067811861708
 10
449.3944552719375
 20
1766.91647079113
 30
0.0
 41
1.0
  0
LINE
  5
66
330
1F
100
AcDbEntity
  8
Predefinito
100
AcDbLine
 10
106.6766657224971
 20
1766.916470791129
 30
0.0
 11
99.54837841519748
 21
1766.916470791129
 31
0.0
  0
LINE
  5
67
330
1F
100
AcDbEntity
  8
Predefinito
100
AcDbLine
 10
99.54837841519748
 20
1768.716470791129
 30
0.0
 11
106.6766657224971
 21
1768.716470791129
 31
0.0
  0
SPLINE
  5
68
330
1F
100
AcDbEntity
  8
Predefinito
100
AcDbSpline
210
0.0
220
0.0
230
1.0
 70
    12
 71
     2
 72
     6
 73
     3
 74
     0
 42
0.0000000001
 43
0.0000000001
 40
0.0
 40
0.0
 40
0.0
 40
1.256472314778356
 40
1.256472314778356
 40
1.256472314778356
 10
99.54837841519748
 20
1768.716470791128
 30
0.0
 41
1.0
 10
98.74876058346034
 20
1768.716088623455
 30
0.0
 41
0.7074441075446404
 10
98.74837965119418
 20
1767.916470791129
 30
0.0
 41
1.0
  0
SPLINE
  5
69
330
1F
100
AcDbEntity
  8
Predefinito
100
AcDbSpline
210
0.0
220
0.0
230
1.0
 70
    12
 71
     2
 72
     6
 73
     3
 74
     0
 42
0.0000000001
 43
0.0000000001
 40
0.0
 40
0.0
 40
0.0
 40
1.256388598717797
 40
1.256388598717797
 40
1.256388598717797
 10
98.74837965119434
 20
1767.716470791129
 30
0.0
 41
1.0
 10
98.74895559376465
 20
1766.917047968805
 30
0.0
 41
0.7076165770523664
 10
99.54837841519748
 20
1766.91647079113
 30
0.0
 41
1.0
  0
SPLINE
  5
6A
330
1F
100
AcDbEntity
  8
Predefinito
100
AcDbSpline
210
0.0
220
0.0
230
1.0
 70
    24
 71
     2
 72
     6
 73
     3
 74
     0
 42
0.0000000001
 43
0.0000000001
 40
0.0
 40
0.0
 40
0.0
 40
0.2000000000000455
 40
0.2000000000000455
 40
0.2000000000000455
 10
98.74837965119434
 20
1767.916470791129
 30
0.0
 10
98.74837965119434
 20
1767.816470791129
 30
0.0
 10
98.74837965119434
 20
1767.716470791129
 30
0.0
  0
LINE
  5
6B
330
1F
100
AcDbEntity
  8
Predefinito
100
AcDbLine
 10
100.2252281757162
 20
1571.716470791128
 30
0.0
 11
106.7252281757164
 21
1571.716470791129
 31
0.0
  0
SPLINE
  5
6C
330
1F
100
AcDbEntity
  8
Predefinito
100
AcDbSpline
210
0.0
220
0.0
230
1.0
 70
     8
 71
     3
 72
    14
 73
    10
 74
     0
 42
0.0000000001
 43
0.0000000001
 40
-0.0792281724019063
 40
-0.0792281724019063
 40
-0.0792281724019063
 40
-0.0792281724019063
 40
8.241340800968755
 40
14.09874803146091
 40
26.31613492831253
 40
37.725483602876
 40
43.80611464648094
 40
62.61983504145721
 40
73.99143597720382
 40
73.99143597720382
 40
73.99143597720382
 40
73.99143597720382
 10
99.44149858714101
 20
1571.076529648411
 30
0.0
 10
98.40471557173025
 20
1573.654231598862
 30
0.0
 10
96.57951416998667
 20
1578.006783816337
 30
0.0
 10
94.1425983202892
 20
1586.495982231132
 30
0.0
 10
93.6930689062654
 20
1596.408074421733
 30
0.0
 10
95.42401951548486
 20
1606.186949655819
 30
0.0
 10
98.32078840189102
 20
1617.93272939225
 30
0.0
 10
101.7603082103825
 20
1629.532109020696
 30
0.0
 10
103.8132809512015
 20
1639.390214203471
 30
0.0
 10
104.3999999928343
 20
1643.135401785559
 30
0.0
  0
SPLINE
  5
6D
330
1F
100
AcDbEntity
  8
Predefinito
100
AcDbSpline
210
0.0
220
0.0
230
1.0
 70
    12
 71
     2
 72
     6
 73
     3
 74
     0
 42
0.0000000001
 43
0.0000000001
 40
0.0
 40
0.0
 40
0.0
 40
1.256414804495196
 40
1.256414804495196
 40
1.256414804495196
 10
100.2252281757162
 20
1571.716470791129
 30
0.0
 41
1.0
 10
99.42574595446388
 20
1571.715953012381
 30
0.0
 41
0.707564585272855
 10
99.42522817571637
 20
1570.916470791129
 30
0.0
 41
1.0
  0
POLYLINE
  5
6E
330
1F
100
AcDbEntity
  8
Predefinito
100
AcDb2dPolyline
 66
     1
 10
0.0
 20
0.0
 30
0.0
  0
VERTEX
  5
6F
330
6E
100
AcDbEntity
  8
Predefinito
100
AcDbVertex
100
AcDb2dVertex
 10
436.4618214927614
 20
1857.365470376583
 30
0.0
  0
VERTEX
  5
70
330
6E
100
AcDbEntity
  8
Predefinito
100
AcDbVertex
100
AcDb2dVertex
 10
436.4618215957178
 20
1859.96048785079
 30
0.0
  0
SEQEND
  5
71
330
6E
100
AcDbEntity
  8
Predefinito
  0
LINE
  5
72
330
1F
100
AcDbEntity
  8
Predefinito
100
AcDbLine
 10
441.3802324100913
 20
1768.716470791129
 30
0.0
 11
449.3944565079343
 21
1768.716470791129
 31
0.0
  0
LINE
  5
73
330
1F
100
AcDbEntity
  8
Predefinito
100
AcDbLine
 10
441.8280234123444
 20
1571.716470791129
 30
0.0
 11
449.046069066117
 21
1571.716470791129
 31
0.0
  0
LINE
  5
74
330
1F
100
AcDbEntity
  8
Predefinito
100
AcDbLine
 10
98.74837965119436
 20
1767.716470791129
 30
0.0
 11
107.4766657224971
 21
1767.716470791129
 31
0.0
  0
LINE
  5
75
330
1F
100
AcDbEntity
  8
Predefinito
100
AcDbLine
 10
107.4766657224971
 20
1767.916470791129
 30
0.0
 11
98.74842773876512
 21
1767.916470791129
 31
0.0
  0
SPLINE
  5
76
330
1F
100
AcDbEntity
  8
Predefinito
100
AcDbSpline
210
0.0
220
0.0
230
1.0
 70
    24
 71
     2
 72
     6
 73
     3
 74
     0
 42
0.0000000001
 43
0.0000000001
 40
0.0
 40
0.0
 40
0.0
 40
0.2515551374765437
 40
0.2515551374765437
 40
0.2515551374765437
 10
99.42522817571637
 20
1570.716470791129
 30
0.0
 10
99.55100574445464
 20
1570.716470791128
 30
0.0
 10
99.67678331319291
 20
1570.716470791128
 30
0.0
  0
POLYLINE
  5
77
330
1F
100
AcDbEntity
  8
Predefinito
100
AcDb2dPolyline
 66
     1
 10
0.0
 20
0.0
 30
0.0
  0
VERTEX
  5
78
330
77
100
AcDbEntity
  8
Predefinito
100
AcDbVertex
100
AcDb2dVertex
 10
99.67678331319291
 20
1570.716470791128
 30
0.0
  0
VERTEX
  5
79
330
77
100
AcDbEntity
  8
Predefinito
100
AcDbVertex
100
AcDb2dVertex
 10
104.4000000000001
 20
1570.716470791129
 30
0.0
  0
SEQEND
  5
7A
330
77
100
AcDbEntity
  8
Predefinito
  0
SPLINE
  5
7B
330
1F
100
AcDbEntity
  8
Predefinito
100
AcDbSpline
210
0.0
220
0.0
230
1.0
 70
    24
 71
     2
 72
     6
 73
     3
 74
     0
 42
0.0000000001
 43
0.0000000001
 40
0.0
 40
0.0
 40
0.0
 40
3.125228175716259
 40
3.125228175716259
 40
3.125228175716259
 10
104.4000000000001
 20
1570.716470791129
 30
0.0
 10
105.9626140878582
 20
1570.716470791129
 30
0.0
 10
107.5252281757163
 20
1570.716470791129
 30
0.0
  0
SPLINE
  5
7C
330
1F
100
AcDbEntity
  8
Predefinito
100
AcDbSpline
210
0.0
220
0.0
230
1.0
 70
    24
 71
     2
 72
     6
 73
     3
 74
     0
 42
0.0000000001
 43
0.0000000001
 40
0.0
 40
0.0
 40
0.0
 40
3.125228175716273
 40
3.125228175716273
 40
3.125228175716273
 10
107.5252281757163
 20
1570.916470791129
 30
0.0
 10
105.9626140878582
 20
1570.916470791129
 30
0.0
 10
104.4000000000001
 20
1570.916470791129
 30
0.0
  0
POLYLINE
  5
7D
330
1F
100
AcDbEntity
  8
Predefinito
100
AcDb2dPolyline
 66
     1
 10
0.0
 20
0.0
 30
0.0
  0
VERTEX
  5
7E
330
7D
100
AcDbEntity
  8
Predefinito
100
AcDbVertex
100
AcDb2dVertex
 10
104.4000000000001
 20
1570.916470791129
 30
0.0
  0
VERTEX
  5
7F
330
7D
100
AcDbEntity
  8
Predefinito
100
AcDbVertex
100
AcDb2dVertex
 10
99.49284143362924
 20
1570.916470791129
 30
0.0
  0
SEQEND
  5
80
330
7D
100
AcDbEntity
  8
Predefinito
  0
SPLINE
  5
81
330
1F
100
AcDbEntity
  8
Predefinito
100
AcDbSpline
210
0.0
220
0.0
230
1.0
 70
    24
 71
     2
 72
     6
 73
     3
 74
     0
 42
0.0000000001
 43
0.0000000001
 40
0.0
 40
0.0
 40
0.0
 40
0.0676132579128677
 40
0.0676132579128677
 40
0.0676132579128677
 10
99.49284143362924
 20
1570.916470791129
 30
0.0
 10
99.4590348046728
 20
1570.916470791129
 30
0.0
 10
99.42522817571637
 20
1570.916470791129
 30
0.0
  0
LINE
  5
82
330
1F
100
AcDbEntity
  8
Predefinito
100
AcDbLine
 10
106.7252281757164
 20
1569.916470791129
 30
0.0
 11
99.90874029792472
 21
1569.916470791127
 31
0.0
  0
LINE
  5
83
330
1F
100
AcDbEntity
  8
Predefinito
100
AcDbLine
 10
107.0
 20
1450.716470791129
 30
0.0
 11
110.7494480814114
 21
1450.716470791129
 31
0.0
  0
LINE
  5
84
330
1F
100
AcDbEntity
  8
Predefinito
100
AcDbLine
 10
110.7504659440136
 20
1448.916470791129
 30
0.0
 11
107.0
 21
1448.916470791129
 31
0.0
  0
SPLINE
  5
85
330
1F
100
AcDbEntity
  8
Predefinito
100
AcDbSpline
210
0.0
220
0.0
230
1.0
 70
    24
 71
     2
 72
     6
 73
     3
 74
     0
 42
0.0000000001
 43
0.0000000001
 40
0.0
 40
0.0
 40
0.0
 40
1.200000000000045
 40
1.200000000000045
 40
1.200000000000045
 10
200.0
 20
1862.896470791129
 30
0.0
 10
200.0
 20
1862.296470791129
 30
0.0
 10
200.0
 20
1861.696470791129
 30
0.0
  0
SPLINE
  5
86
330
1F
100
AcDbEntity
  8
Predefinito
100
AcDbSpline
210
0.0
220
0.0
230
1.0
 70
    24
 71
     2
 72
     6
 73
     3
 74
     0
 42
0.0000000001
 43
0.0000000001
 40
0.0
 40
0.0
 40
0.0
 40
1.200000000000045
 40
1.200000000000045
 40
1.200000000000045
 10
10.0
 20
1861.696470791129
 30
0.0
 10
10.0
 20
1862.296470791129
 30
0.0
 10
10.0
 20
1862.896470791129
 30
0.0
  0
SPLINE
  5
87
330
1F
100
AcDbEntity
  8
Predefinito
100
AcDbSpline
210
0.0
220
0.0
230
1.0
 70
     8
 71
     3
 72
    12
 73
     8
 74
     0
 42
0.0000000001
 43
0.0000000001
 40
0.0
 40
0.0
 40
0.0
 40
0.0
 40
1.699436740881464
 40
3.357612168392067
 40
7.024639249288847
 40
11.66567484467666
 40
18.44311305388918
 40
18.44311305388918
 40
18.44311305388918
 40
18.44311305388918
 10
111.0313971089735
 20
1445.653163269468
 30
0.0
 10
111.1434738647478
 20
1445.094535333599
 30
0.0
 10
111.4533491797428
 20
1444.023501568452
 30
0.0
 10
112.5375185080014
 20
1441.91981068728
 30
0.0
 10
114.8918076805576
 20
1439.526085878527
 30
0.0
 10
119.1721372900468
 20
1436.85248310536
 30
0.0
 10
122.6479076917172
 20
1435.291694398878
 30
0.0
 10
124.7125828255396
 20
1434.375435406175
 30
0.0
  0
SPLINE
  5
88
330
1F
100
AcDbEntity
  8
Predefinito
100
AcDbSpline
210
0.0
220
0.0
230
1.0
 70
     8
 71
     3
 72
    11
 73
     7
 74
     0
 42
0.0000000001
 43
0.0000000001
 40
0.0
 40
0.0
 40
0.0
 40
0.0
 40
1.929340032067234
 40
3.724078043383066
 40
7.048690614803991
 40
13.23748223097698
 40
13.23748223097698
 40
13.23748223097698
 40
13.23748223097698
 10
113.8073515437921
 20
1434.354494958772
 30
0.0
 10
113.2707331489351
 20
1434.707453853588
 30
0.0
 10
112.2492242672563
 20
1435.418940176964
 30
0.0
 10
110.4419486087946
 20
1436.917472414477
 30
0.0
 10
107.8466407112994
 20
1439.683154860458
 30
0.0
 10
106.5149675055587
 20
1442.644704224613
 30
0.0
 10
106.1302351428923
 20
1444.674644187858
 30
0.0
  0
SPLINE
  5
89
330
1F
100
AcDbEntity
  8
Predefinito
100
AcDbSpline
210
0.0
220
0.0
230
1.0
 70
    12
 71
     2
 72
     6
 73
     3
 74
     0
 42
0.0000000001
 43
0.0000000001
 40
0.0
 40
0.0
 40
0.0
 40
3.457187957530417
 40
3.457187957530417
 40
3.457187957530417
 10
110.7521811340721
 20
1449.093862704151
 30
0.0
 41
1.0
 10
110.7269173537803
 20
1447.360173821857
 30
0.0
 41
0.9954393339137558
 10
111.0313812753659
 20
1445.653241743644
 30
0.0
 41
1.0
  0
SPLINE
  5
8A
330
1F
100
AcDbEntity
  8
Predefinito
100
AcDbSpline
210
0.0
220
0.0
230
1.0
 70
    12
 71
     2
 72
     6
 73
     3
 74
     0
 42
0.0000000001
 43
0.0000000001
 40
0.0
 40
0.0
 40
0.0
 40
3.285666801933331
 40
3.285666801933331
 40
3.285666801933331
 10
110.7500432746674
 20
1453.826632479509
 30
0.0
 41
1.0
 10
110.7497999826096
 20
1452.183799095412
 30
0.0
 41
0.999999998954855
 10
110.7494064708816
 20
1450.54096574043
 30
0.0
 41
1.0
  0
SPLINE
  5
8B
330
1F
100
AcDbEntity
  8
Predefinito
100
AcDbSpline
210
0.0
220
0.0
230
1.0
 70
    12
 71
     2
 72
     6
 73
     3
 74
     0
 42
0.0000000001
 43
0.0000000001
 40
0.0
 40
0.0
 40
0.0
 40
3.11258792452452
 40
3.11258792452452
 40
3.11258792452452
 10
105.7501058715072
 20
1450.716470791062
 30
0.0
 41
1.0
 10
105.7478863377622
 20
1452.272764293925
 30
0.0
 41
0.9999989173209287
 10
105.7502470277463
 20
1453.829057589075
 30
0.0
 41
1.0
  0
SPLINE
  5
8C
330
1F
100
AcDbEntity
  8
Predefinito
100
AcDbSpline
210
0.0
220
0.0
230
1.0
 70
    12
 71
     2
 72
     6
 73
     3
 74
     0
 42
0.0000000001
 43
0.0000000001
 40
0.0
 40
0.0
 40
0.0
 40
4.264986581091723
 40
4.264986581091723
 40
4.264986581091723
 10
106.1302336109597
 20
1444.674651872173
 30
0.0
 41
1.0
 10
105.7393172259396
 20
1446.777570341418
 30
0.0
 41
0.9954823310983422
 10
105.7529764636214
 20
1448.916470791087
 30
0.0
 41
1.0
  0
SPLINE
  5
8D
330
1F
100
AcDbEntity
  8
Predefinito
100
AcDbSpline
210
0.0
220
0.0
230
1.0
 70
     8
 71
     3
 72
    14
 73
    10
 74
     0
 42
0.0000000001
 43
0.0000000001
 40
0.0
 40
0.0
 40
0.0
 40
0.0
 40
7.502363122033233
 40
14.64332500428001
 40
30.74954131872109
 40
45.94828488734893
 40
74.92296421061155
 40
86.88505144970999
 40
112.2228422149523
 40
112.2228422149523
 40
112.2228422149523
 40
112.2228422149523
 10
107.1204830681288
 20
1565.315507542245
 30
0.0
 10
108.0130073124227
 20
1562.97892859939
 30
0.0
 10
109.605304956768
 20
1558.361768147953
 30
0.0
 10
111.9571106395576
 20
1548.366054092156
 30
0.0
 10
113.0520056058598
 20
1535.560272904944
 30
0.0
 10
112.7278154239288
 20
1515.464546127095
 30
0.0
 10
111.5306561601564
 20
1496.786647790925
 30
0.0
 10
110.7567025512189
 20
1474.707737452557
 30
0.0
 10
110.7293101741754
 20
1462.272030833838
 30
0.0
 10
110.7500432752196
 20
1453.826640433914
 30
0.0
  0
SPLINE
  5
8E
330
1F
100
AcDbEntity
  8
Predefinito
100
AcDbSpline
210
0.0
220
0.0
230
1.0
 70
     8
 71
     3
 72
    15
 73
    11
 74
     0
 42
0.0000000001
 43
0.0000000001
 40
0.0
 40
0.0
 40
0.0
 40
0.0
 40
14.82565035791773
 40
25.67032016875345
 40
37.69960755214166
 40
66.1339288933099
 40
80.85442392254019
 40
96.41374904295587
 40
103.2494765693612
 40
110.3986272411806
 40
110.3986272411806
 40
110.3986272411806
 40
110.3986272411806
 10
105.7502470282637
 20
1453.829065891035
 30
0.0
 10
105.7560860801179
 20
1458.770970830851
 30
0.0
 10
105.725512753321
 20
1467.327814408524
 30
0.0
 10
105.9394530693389
 20
1479.893509194822
 30
0.0
 10
106.5332775607662
 20
1496.985736917068
 30
0.0
 10
107.7102988850385
 20
1515.348401589138
 30
0.0
 10
108.0517420809666
 20
1534.919707690308
 30
0.0
 10
107.0570223732445
 20
1547.28787857105
 30
0.0
 10
104.8216336262459
 20
1556.897832451077
 30
0.0
 10
103.2989660221209
 20
1561.307302549955
 30
0.0
 10
102.4487412555275
 20
1563.533773679477
 30
0.0
  0
SPLINE
  5
8F
330
1F
100
AcDbEntity
  8
Predefinito
100
AcDbSpline
210
0.0
220
0.0
230
1.0
 70
    12
 71
     2
 72
     6
 73
     3
 74
     0
 42
0.0000000001
 43
0.0000000001
 40
0.0
 40
0.0
 40
0.0
 40
4.759141736106495
 40
4.759141736106495
 40
4.759141736106495
 10
105.2984025706924
 20
1569.916470791129
 30
0.0
 41
1.0
 10
106.194405485066
 20
1567.711973560396
 30
0.0
 41
0.9999640078268296
 10
107.0528735968509
 20
1565.492590365921
 30
0.0
 41
1.0
  0
SPLINE
  5
90
330
1F
100
AcDbEntity
  8
Predefinito
100
AcDbSpline
210
0.0
220
0.0
230
1.0
 70
    12
 71
     2
 72
     6
 73
     3
 74
     0
 42
0.0000000001
 43
0.0000000001
 40
0.0
 40
0.0
 40
0.0
 40
1.296311083560832
 40
1.296311083560832
 40
1.296311083560832
 10
104.0897311376311
 20
1572.919038032726
 30
0.0
 41
1.0
 10
104.3316577221618
 20
1572.31772518726
 30
0.0
 41
0.9999999927080797
 10
104.5737295330104
 20
1571.71647079117
 30
0.0
 41
1.0
  0
SPLINE
  5
91
330
1F
100
AcDbEntity
  8
Predefinito
100
AcDbSpline
210
0.0
220
0.0
230
1.0
 70
    12
 71
     2
 72
     6
 73
     3
 74
     0
 42
0.0000000001
 43
0.0000000001
 40
0.0
 40
0.0
 40
0.0
 40
6.875290583731158
 40
6.875290583731158
 40
6.875290583731158
 10
102.4194667205822
 20
1563.610537517099
 30
0.0
 41
1.0
 10
101.1706338075943
 20
1566.813385114041
 30
0.0
 41
0.9999739024458666
 10
99.87565406639818
 20
1569.997854276034
 30
0.0
 41
1.0
  0
SPLINE
  5
92
330
1F
100
AcDbEntity
  8
Predefinito
100
AcDbSpline
210
0.0
220
0.0
230
1.0
 70
     8
 71
     3
 72
    13
 73
     9
 74
     0
 42
0.0000000001
 43
0.0000000001
 40
0.0
 40
0.0
 40
0.0
 40
0.0
 40
10.11743619407259
 40
16.93972105524799
 40
27.98193855399027
 40
37.37251424234586
 40
42.01119912478528
 40
49.12701984936847
 40
49.12701984936847
 40
49.12701984936847
 40
49.12701984936847
 10
104.3999999999714
 20
1620.83281674086
 30
0.0
 10
103.5133591546738
 20
1617.581771502081
 30
0.0
 10
101.9894416279015
 20
1612.135981064078
 30
0.0
 10
99.88254742427718
 20
1603.059595243315
 30
0.0
 10
98.60361265282584
 20
1594.01631904878
 30
0.0
 10
99.49714663798143
 20
1585.6351904369
 30
0.0
 10
101.6303053293894
 20
1578.901735069599
 30
0.0
 10
103.1360220575996
 20
1575.287346200151
 30
0.0
 10
104.0228662698294
 20
1573.085248206489
 30
0.0
  0
SPLINE
  5
93
330
1F
100
AcDbEntity
  8
Predefinito
100
AcDbSpline
210
0.0
220
0.0
230
1.0
 70
     8
 71
     3
 72
    11
 73
     7
 74
     0
 42
0.0000000001
 43
0.0000000001
 40
0.0
 40
0.0
 40
0.0
 40
0.0
 40
6.482686048357925
 40
11.32069530661113
 40
20.32108749393724
 40
41.12628637044533
 40
41.12628637044533
 40
41.12628637044533
 40
41.12628637044533
 10
110.7500373878204
 20
1665.914706475603
 30
0.0
 10
110.749485392442
 20
1663.755142616823
 30
0.0
 10
110.7597122802834
 20
1659.978012145404
 30
0.0
 10
110.5651392508445
 20
1653.211142460074
 30
0.0
 10
109.6042195235864
 20
1641.68462367375
 30
0.0
 10
107.385753084641
 20
1631.968489905666
 30
0.0
 10
105.5999999999495
 20
1625.271912758581
 30
0.0
  0
SPLINE
  5
94
330
1F
100
AcDbEntity
  8
Predefinito
100
AcDbSpline
210
0.0
220
0.0
230
1.0
 70
    12
 71
     2
 72
     6
 73
     3
 74
     0
 42
0.0000000001
 43
0.0000000001
 40
0.0
 40
0.0
 40
0.0
 40
10.69733935334879
 40
10.69733935334879
 40
10.69733935334879
 10
105.5999999999956
 20
1655.256076930748
 30
0.0
 41
1.0
 10
105.7968063227227
 20
1660.602049876369
 30
0.0
 41
0.9997407527371729
 10
105.7500267927756
 20
1665.951439667696
 30
0.0
 41
1.0
  0
SPLINE
  5
95
330
1F
100
AcDbEntity
  8
Predefinito
100
AcDbSpline
210
0.0
220
0.0
230
1.0
 70
    12
 71
     2
 72
     6
 73
     3
 74
     0
 42
0.0000000001
 43
0.0000000001
 40
0.0
 40
0.0
 40
0.0
 40
8.103573282452052
 40
8.103573282452052
 40
8.103573282452052
 10
110.7473870103167
 20
1674.135746064013
 30
0.0
 41
1.0
 10
110.7516120527745
 20
1670.083960925923
 30
0.0
 41
0.9999997409595621
 10
110.7500043182861
 20
1666.032173903951
 30
0.0
 41
1.0
  0
SPLINE
  5
96
330
1F
100
AcDbEntity
  8
Predefinito
100
AcDbSpline
210
0.0
220
0.0
230
1.0
 70
    12
 71
     2
 72
     6
 73
     3
 74
     0
 42
0.0000000001
 43
0.0000000001
 40
0.0
 40
0.0
 40
0.0
 40
8.121004711479625
 40
8.121004711479625
 40
8.121004711479625
 10
105.7500051156567
 20
1666.031853365028
 30
0.0
 41
1.0
 10
105.7516813762401
 20
1670.092356136778
 30
0.0
 41
0.9999997185051042
 10
105.7472642317647
 20
1674.152856851969
 30
0.0
 41
1.0
  0
SPLINE
  5
97
330
1F
100
AcDbEntity
  8
Predefinito
100
AcDbSpline
210
0.0
220
0.0
230
1.0
 70
     8
 71
     3
 72
    14
 73
    10
 74
     0
 42
0.0000000001
 43
0.0000000001
 40
0.0
 40
0.0
 40
0.0
 40
0.0
 40
6.836061475382677
 40
12.82868318119988
 40
25.59890697293729
 40
40.61060367155138
 40
67.2906504689273
 40
76.47407692131895
 40
92.98542646950303
 40
92.98542646950303
 40
92.98542646950303
 40
92.98542646950303
 10
103.7502121212328
 20
1766.916470791128
 30
0.0
 10
103.7493602418033
 20
1764.637745471998
 30
0.0
 10
103.7670072055132
 20
1760.361537704128
 30
0.0
 10
103.9711615479799
 20
1751.830250677182
 30
0.0
 10
104.6341191132353
 20
1740.589224007761
 30
0.0
 10
106.3263614082953
 20
1722.512830173174
 30
0.0
 10
108.357183591233
 20
1705.674777427514
 30
0.0
 10
110.1756779529811
 20
1688.312392010338
 30
0.0
 10
110.7460556972464
 20
1679.760214064106
 30
0.0
 10
110.7468949495657
 20
1674.254118052122
 30
0.0
  0
SPLINE
  5
98
330
1F
100
AcDbEntity
  8
Predefinito
100
AcDbSpline
210
0.0
220
0.0
230
1.0
 70
    12
 71
     2
 72
     6
 73
     3
 74
     0
 42
0.0000000001
 43
0.0000000001
 40
0.0
 40
0.0
 40
0.0
 40
7.150598491740748
 40
7.150598491740748
 40
7.150598491740748
 10
103.7510102375491
 20
1775.867069149877
 30
0.0
 41
1.0
 10
103.7496332468303
 20
1772.291770076013
 30
0.0
 41
0.9999999609151562
 10
103.7502554807058
 20
1768.716470791129
 30
0.0
 41
1.0
  0
SPLINE
  5
99
330
1F
100
AcDbEntity
  8
Predefinito
100
AcDbSpline
210
0.0
220
0.0
230
1.0
 70
     8
 71
     3
 72
    14
 73
    10
 74
     0
 42
0.0000000001
 43
0.0000000001
 40
0.0
 40
0.0
 40
0.0
 40
0.0
 40
7.372709755141816
 40
15.90927404230822
 40
24.94472707279406
 40
52.98071105139843
 40
69.44577879572914
 40
83.51805234281862
 40
101.9741147227625
 40
101.9741147227625
 40
101.9741147227625
 40
101.9741147227625
 10
105.7469363121538
 20
1674.231038047188
 30
0.0
 10
105.7425890913448
 20
1676.688701569382
 30
0.0
 10
105.5858063893597
 20
1681.991086957347
 30
0.0
 10
104.9388457081757
 20
1690.28265257395
 30
0.0
 10
103.3612541376418
 20
1705.403153330175
 30
0.0
 10
101.2138333525811
 20
1723.120502765545
 30
0.0
 10
99.44785707792657
 20
1742.56728325261
 30
0.0
 10
98.64664162957087
 20
1758.884156788914
 30
0.0
 10
98.76725953635078
 20
1769.731106487514
 30
0.0
 10
98.75103759015882
 20
1775.882076511702
 30
0.0
  0
SPLINE
  5
9A
330
1F
100
AcDbEntity
  8
Predefinito
100
AcDbSpline
210
0.0
220
0.0
230
1.0
 70
    12
 71
     2
 72
     6
 73
     3
 74
     0
 42
0.0000000001
 43
0.0000000001
 40
0.0
 40
0.0
 40
0.0
 40
6.381314015084676
 40
6.381314015084676
 40
6.381314015084676
 10
104.1082009122213
 20
1782.482634530472
 30
0.0
 41
1.0
 10
103.7501012759391
 20
1779.308719388189
 30
0.0
 41
0.9984060658518779
 10
103.7519752556268
 20
1776.114667233304
 30
0.0
 41
1.0
  0
SPLINE
  5
9B
330
1F
100
AcDbEntity
  8
Predefinito
100
AcDbSpline
210
0.0
220
0.0
230
1.0
 70
    12
 71
     2
 72
     6
 73
     3
 74
     0
 42
0.0000000001
 43
0.0000000001
 40
0.0
 40
0.0
 40
0.0
 40
6.885316102179798
 40
6.885316102179798
 40
6.885316102179798
 10
98.75204216967528
 20
1776.138824166711
 30
0.0
 41
1.0
 10
98.75103228533149
 20
1779.585103746639
 30
0.0
 41
0.998424403277975
 10
99.13618413743906
 20
1783.009793807609
 30
0.0
 41
1.0
  0
SPLINE
  5
9C
330
1F
100
AcDbEntity
  8
Predefinito
100
AcDbSpline
210
0.0
220
0.0
230
1.0
 70
    12
 71
     2
 72
     6
 73
     3
 74
     0
 42
0.0000000001
 43
0.0000000001
 40
0.0
 40
0.0
 40
0.0
 40
2.259375665594935
 40
2.259375665594935
 40
2.259375665594935
 10
104.4000000000003
 20
1784.772275154771
 30
0.0
 41
1.0
 10
104.2403454030457
 20
1783.653843760458
 30
0.0
 41
0.9998920136804751
 10
104.1136282797311
 20
1782.531203504289
 30
0.0
 41
1.0
  0
SPLINE
  5
9D
330
1F
100
AcDbEntity
  8
Predefinito
100
AcDbSpline
210
0.0
220
0.0
230
1.0
 70
     8
 71
     3
 72
    12
 73
     8
 74
     0
 42
0.0000000001
 43
0.0000000001
 40
0.0
 40
0.0
 40
0.0
 40
0.0
 40
8.758872338659401
 40
15.15140517452959
 40
28.16868780325648
 40
42.09956705155372
 40
65.22108761549168
 40
65.22108761549168
 40
65.22108761549168
 40
65.22108761549168
 10
113.7500247623804
 20
1856.275552168818
 30
0.0
 10
113.7515298561664
 20
1853.355517683546
 30
0.0
 10
113.7655186925923
 20
1848.305850772281
 30
0.0
 10
113.5005390042714
 20
1838.917050009928
 30
0.0
 10
112.4903458241292
 20
1827.841784549858
 30
0.0
 10
109.8041347488976
 20
1811.360619375981
 30
0.0
 10
107.090752775673
 20
1799.307916676877
 30
0.0
 10
105.6000000001618
 20
1791.746431897958
 30
0.0
  0
SPLINE
  5
9E
330
1F
100
AcDbEntity
  8
Predefinito
100
AcDbSpline
210
0.0
220
0.0
230
1.0
 70
     8
 71
     3
 72
    12
 73
     8
 74
     0
 42
0.0000000001
 43
0.0000000001
 40
0.0
 40
0.0
 40
0.0
 40
0.0
 40
5.243322000283635
 40
10.23150033443463
 40
19.55480548494825
 40
28.22818232405117
 40
39.38028787638316
 40
39.38028787638316
 40
39.38028787638316
 40
39.38028787638316
 10
105.5999999988667
 20
1817.091729879571
 30
0.0
 10
105.9089727484853
 20
1818.811903284944
 30
0.0
 10
106.4828938105141
 20
1822.174171629254
 30
0.0
 10
107.4357990420189
 20
1828.622535538302
 30
0.0
 10
108.2755840567902
 20
1836.241042137979
 30
0.0
 10
108.7804789752509
 20
1845.948128400201
 30
0.0
 10
108.7493311230542
 20
1852.558714589275
 30
0.0
 10
108.7500184081725
 20
1856.275632099279
 30
0.0
  0
SPLINE
  5
9F
330
1F
100
AcDbEntity
  8
Predefinito
100
AcDbSpline
210
0.0
220
0.0
230
1.0
 70
     8
 71
     3
 72
    11
 73
     7
 74
     0
 42
0.0000000001
 43
0.0000000001
 40
0.0
 40
0.0
 40
0.0
 40
0.0
 40
3.849573618585689
 40
8.647691647061452
 40
13.32130830627004
 40
28.09987142007839
 40
28.09987142007839
 40
28.09987142007839
 40
28.09987142007839
 10
99.15387336336848
 20
1783.167515088282
 30
0.0
 10
99.29825578263164
 20
1784.442598886805
 30
0.0
 10
99.69773249419113
 20
1787.297970366654
 30
0.0
 10
100.4771449044898
 20
1791.670024064677
 30
0.0
 10
102.0651356987231
 20
1799.59603927723
 30
0.0
 10
103.4443216047893
 20
1805.932129246849
 30
0.0
 10
104.3999999979071
 20
1810.764834164471
 30
0.0
  0
SPLINE
  5
A0
330
1F
100
AcDbEntity
  8
Predefinito
100
AcDbSpline
210
0.0
220
0.0
230
1.0
 70
    12
 71
     2
 72
     6
 73
     3
 74
     0
 42
0.0000000001
 43
0.0000000001
 40
0.0
 40
0.0
 40
0.0
 40
5.420900761582689
 40
5.420900761582689
 40
5.420900761582689
 10
113.7499938187248
 20
1861.696470742993
 30
0.0
 41
1.0
 10
113.7499734352062
 20
1858.986020362121
 30
0.0
 41
0.9999999999125034
 10
113.7500247620617
 20
1856.275569981657
 30
0.0
 41
1.0
  0
SPLINE
  5
A1
330
1F
100
AcDbEntity
  8
Predefinito
100
AcDbSpline
210
0.0
220
0.0
230
1.0
 70
    12
 71
     2
 72
     6
 73
     3
 74
     0
 42
0.0000000001
 43
0.0000000001
 40
0.0
 40
0.0
 40
0.0
 40
5.420820684574312
 40
5.420820684574312
 40
5.420820684574312
 10
108.7500184079399
 20
1856.275650105941
 30
0.0
 41
1.0
 10
108.7499786334724
 20
1858.986060448025
 30
0.0
 41
0.9999999999507798
 10
108.7499926428073
 20
1861.696470790365
 30
0.0
 41
1.0
  0
SPLINE
  5
A2
330
1F
100
AcDbEntity
  8
Predefinito
100
AcDbSpline
210
0.0
220
0.0
230
1.0
 70
    24
 71
     2
 72
     6
 73
     3
 74
     0
 42
0.0000000001
 43
0.0000000001
 40
0.0
 40
0.0
 40
0.0
 40
14.56197583333528
 40
14.56197583333528
 40
14.56197583333528
 10
105.6
 20
1448.916470791129
 30
0.0
 10
105.6
 20
1441.635482874461
 30
0.0
 10
105.6
 20
1434.354494957794
 30
0.0
  0
SPLINE
  5
A3
330
1F
100
AcDbEntity
  8
Predefinito
100
AcDbSpline
210
0.0
220
0.0
230
1.0
 70
    24
 71
     2
 72
     6
 73
     3
 74
     0
 42
0.0000000001
 43
0.0000000001
 40
0.0
 40
0.0
 40
0.0
 40
102.715566353043
 40
102.715566353043
 40
102.715566353043
 10
105.6
 20
1553.432037144172
 30
0.0
 10
105.6
 20
1502.07425396765
 30
0.0
 10
105.6
 20
1450.716470791129
 30
0.0
  0
SPLINE
  5
A4
330
1F
100
AcDbEntity
  8
Predefinito
100
AcDbSpline
210
0.0
220
0.0
230
1.0
 70
    24
 71
     2
 72
     6
 73
     3
 74
     0
 42
0.0000000001
 43
0.0000000001
 40
0.0
 40
0.0
 40
0.0
 40
0.7494888055746287
 40
0.7494888055746287
 40
0.7494888055746287
 10
105.6
 20
1569.916470791129
 30
0.0
 10
105.6
 20
1569.541726388341
 30
0.0
 10
105.6
 20
1569.166981985554
 30
0.0
  0
SPLINE
  5
A5
330
1F
100
AcDbEntity
  8
Predefinito
100
AcDbSpline
210
0.0
220
0.0
230
1.0
 70
    24
 71
     2
 72
     6
 73
     3
 74
     0
 42
0.0000000001
 43
0.0000000001
 40
0.0
 40
0.0
 40
0.0
 40
108.7228113656081
 40
108.7228113656081
 40
108.7228113656081
 10
105.6
 20
1680.439282156737
 30
0.0
 10
105.6
 20
1626.077876473933
 30
0.0
 10
105.6
 20
1571.716470791129
 30
0.0
  0
SPLINE
  5
A6
330
1F
100
AcDbEntity
  8
Predefinito
100
AcDbSpline
210
0.0
220
0.0
230
1.0
 70
    24
 71
     2
 72
     6
 73
     3
 74
     0
 42
0.0000000001
 43
0.0000000001
 40
0.0
 40
0.0
 40
0.0
 40
36.42085724219237
 40
36.42085724219237
 40
36.42085724219237
 10
105.6
 20
1766.916470791129
 30
0.0
 10
105.6
 20
1748.706042170033
 30
0.0
 10
105.6
 20
1730.495613548936
 30
0.0
  0
SPLINE
  5
A7
330
1F
100
AcDbEntity
  8
Predefinito
100
AcDbSpline
210
0.0
220
0.0
230
1.0
 70
    24
 71
     2
 72
     6
 73
     3
 74
     0
 42
0.0000000001
 43
0.0000000001
 40
0.0
 40
0.0
 40
0.0
 40
92.98000000000002
 40
92.98000000000002
 40
92.98000000000002
 10
105.6
 20
1861.696470791129
 30
0.0
 10
105.6
 20
1815.206470791129
 30
0.0
 10
105.6
 20
1768.716470791129
 30
0.0
  0
SPLINE
  5
A8
330
1F
100
AcDbEntity
  8
Predefinito
100
AcDbSpline
210
0.0
220
0.0
230
1.0
 70
    24
 71
     2
 72
     6
 73
     3
 74
     0
 42
0.0000000001
 43
0.0000000001
 40
0.0
 40
0.0
 40
0.0
 40
92.98000000000002
 40
92.98000000000002
 40
92.98000000000002
 10
104.4
 20
1768.716470791129
 30
0.0
 10
104.4
 20
1815.206470791129
 30
0.0
 10
104.4
 20
1861.696470791129
 30
0.0
  0
SPLINE
  5
A9
330
1F
100
AcDbEntity
  8
Predefinito
100
AcDbSpline
210
0.0
220
0.0
230
1.0
 70
    24
 71
     2
 72
     6
 73
     3
 74
     0
 42
0.0000000001
 43
0.0000000001
 40
0.0
 40
0.0
 40
0.0
 40
21.91813620134963
 40
21.91813620134963
 40
21.91813620134963
 10
104.4
 20
1744.998334589779
 30
0.0
 10
104.4
 20
1755.957402690454
 30
0.0
 10
104.4
 20
1766.916470791129
 30
0.0
  0
SPLINE
  5
AA
330
1F
100
AcDbEntity
  8
Predefinito
100
AcDbSpline
210
0.0
220
0.0
230
1.0
 70
    24
 71
     2
 72
     6
 73
     3
 74
     0
 42
0.0000000001
 43
0.0000000001
 40
0.0
 40
0.0
 40
0.0
 40
123.2534843318572
 40
123.2534843318572
 40
123.2534843318572
 10
104.4
 20
1572.148036034279
 30
0.0
 10
104.4
 20
1633.774778200207
 30
0.0
 10
104.4
 20
1695.401520366136
 30
0.0
  0
SPLINE
  5
AB
330
1F
100
AcDbEntity
  8
Predefinito
100
AcDbSpline
210
0.0
220
0.0
230
1.0
 70
    24
 71
     2
 72
     6
 73
     3
 74
     0
 42
0.0000000001
 43
0.0000000001
 40
0.0
 40
0.0
 40
0.0
 40
107.1740049933539
 40
107.1740049933539
 40
107.1740049933539
 10
104.4
 20
1450.716470791129
 30
0.0
 10
104.4
 20
1504.303473287806
 30
0.0
 10
104.4
 20
1557.890475784483
 30
0.0
  0
SPLINE
  5
AC
330
1F
100
AcDbEntity
  8
Predefinito
100
AcDbSpline
210
0.0
220
0.0
230
1.0
 70
    24
 71
     2
 72
     6
 73
     3
 74
     0
 42
0.0000000001
 43
0.0000000001
 40
0.0
 40
0.0
 40
0.0
 40
14.56197583333483
 40
14.56197583333483
 40
14.56197583333483
 10
104.4
 20
1434.354494957794
 30
0.0
 10
104.4
 20
1441.635482874461
 30
0.0
 10
104.4
 20
1448.916470791128
 30
0.0
  0
SPLINE
  5
AD
330
1F
100
AcDbEntity
  8
Predefinito
100
AcDbSpline
210
0.0
220
0.0
230
1.0
 70
    24
 71
     2
 72
     6
 73
     3
 74
     0
 42
0.0000000001
 43
0.0000000001
 40
0.0
 40
0.0
 40
0.0
 40
1.25
 40
1.25
 40
1.25
 10
152.0
 20
1429.666470791129
 30
0.0
 10
152.0
 20
1429.041470791129
 30
0.0
 10
152.0
 20
1428.416470791129
 30
0.0
  0
SPLINE
  5
AE
330
1F
100
AcDbEntity
  8
Predefinito
100
AcDbSpline
210
0.0
220
0.0
230
1.0
 70
    24
 71
     2
 72
     6
 73
     3
 74
     0
 42
0.0000000001
 43
0.0000000001
 40
0.0
 40
0.0
 40
0.0
 40
1.25
 40
1.25
 40
1.25
 10
58.0
 20
1428.416470791129
 30
0.0
 10
58.0
 20
1429.041470791129
 30
0.0
 10
58.0
 20
1429.666470791129
 30
0.0
  0
SPLINE
  5
AF
330
1F
100
AcDbEntity
  8
Predefinito
100
AcDbSpline
210
0.0
220
0.0
230
1.0
 70
    12
 71
     2
 72
     6
 73
     3
 74
     0
 42
0.0000000001
 43
0.0000000001
 40
0.0
 40
0.0
 40
0.0
 40
17.55337385616016
 40
17.55337385616016
 40
17.55337385616016
 10
58.78133700598066
 20
1430.643709257587
 30
0.0
 41
1.0
 10
67.23497997573865
 20
1433.047012451427
 30
0.0
 41
0.9979635545691004
 10
75.92580474656495
 20
1434.354494957793
 30
0.0
 41
1.0
  0
SPLINE
  5
B0
330
1F
100
AcDbEntity
  8
Predefinito
100
AcDbSpline
210
0.0
220
0.0
230
1.0
 70
    24
 71
     2
 72
     6
 73
     3
 74
     0
 42
0.0000000001
 43
0.0000000001
 40
0.0
 40
0.0
 40
0.0
 40
0.003875115874534
 40
0.003875115874534
 40
0.003875115874534
 10
151.2659556517652
 20
1430.630464466677
 30
0.0
 10
151.2678213403176
 20
1430.62994165028
 30
0.0
 10
151.2696870288699
 20
1430.629418833882
 30
0.0
  0
SPLINE
  5
B1
330
1F
100
AcDbEntity
  8
Predefinito
100
AcDbSpline
210
0.0
220
0.0
230
1.0
 70
    12
 71
     2
 72
     6
 73
     3
 74
     0
 42
0.0000000001
 43
0.0000000001
 40
0.0
 40
0.0
 40
0.0
 40
17.55335942451086
 40
17.55335942451086
 40
17.55335942451086
 10
134.0741952534351
 20
1434.354494957793
 30
0.0
 41
1.0
 10
142.7649480566242
 20
1433.046679958868
 30
0.0
 41
0.9979660178281113
 10
151.2186629865083
 20
1430.643709247059
 30
0.0
 41
1.0
  0
SPLINE
  5
B2
330
1F
100
AcDbEntity
  8
Predefinito
100
AcDbSpline
210
0.0
220
0.0
230
1.0
 70
    12
 71
     2
 72
     6
 73
     3
 74
     0
 42
0.0000000001
 43
0.0000000001
 40
0.0
 40
0.0
 40
0.0
 40
1.296891994683927
 40
1.296891994683927
 40
1.296891994683927
 10
58.0
 20
1429.666470791129
 30
0.0
 41
1.0
 10
58.00176716729958
 20
1430.42341569049
 30
0.0
 41
0.7982285132017992
 10
58.73015551590501
 20
1430.629374708663
 30
0.0
 41
1.0
  0
SPLINE
  5
B3
330
1F
100
AcDbEntity
  8
Predefinito
100
AcDbSpline
210
0.0
220
0.0
230
1.0
 70
    12
 71
     2
 72
     6
 73
     3
 74
     0
 42
0.0000000001
 43
0.0000000001
 40
0.0
 40
0.0
 40
0.0
 40
1.29751655994229
 40
1.29751655994229
 40
1.29751655994229
 10
151.269844484095
 20
1430.629374708663
 30
0.0
 41
1.0
 10
151.9998733263077
 20
1430.424659652047
 30
0.0
 41
0.7969210191598689
 10
152.0
 20
1429.666470791129
 30
0.0
 41
1.0
  0
SPLINE
  5
B4
330
1F
100
AcDbEntity
  8
Predefinito
100
AcDbSpline
210
0.0
220
0.0
230
1.0
 70
    24
 71
     2
 72
     6
 73
     3
 74
     0
 42
0.0000000001
 43
0.0000000001
 40
0.0
 40
0.0
 40
0.0
 40
2.0
 40
2.0
 40
2.0
 10
151.9999999999999
 20
1428.416470791129
 30
0.0
 10
151.9999999999999
 20
1427.416470791129
 30
0.0
 10
151.9999999999999
 20
1426.416470791129
 30
0.0
  0
SPLINE
  5
B5
330
1F
100
AcDbEntity
  8
Predefinito
100
AcDbSpline
210
0.0
220
0.0
230
1.0
 70
    24
 71
     2
 72
     6
 73
     3
 74
     0
 42
0.0000000001
 43
0.0000000001
 40
0.0
 40
0.0
 40
0.0
 40
2.0
 40
2.0
 40
2.0
 10
57.99999999999994
 20
1426.416470791129
 30
0.0
 10
57.99999999999994
 20
1427.416470791129
 30
0.0
 10
57.99999999999994
 20
1428.416470791129
 30
0.0
  0
SPLINE
  5
B6
330
1F
100
AcDbEntity
  8
Predefinito
100
AcDbSpline
210
0.0
220
0.0
230
1.0
 70
    12
 71
     2
 72
     6
 73
     3
 74
     0
 42
0.0000000001
 43
0.0000000001
 40
0.0
 40
0.0
 40
0.0
 40
0.9706795734105896
 40
0.9706795734105896
 40
0.9706795734105896
 10
180.862571401875
 20
1010.755286830699
 30
0.0
 41
1.0
 10
180.4607017898021
 20
1010.453279914023
 30
0.0
 41
0.9489948289707317
 10
179.9580038833624
 20
1010.451804214627
 30
0.0
 41
1.0
  0
SPLINE
  5
B7
330
1F
100
AcDbEntity
  8
Predefinito
100
AcDbSpline
210
0.0
220
0.0
230
1.0
 70
    12
 71
     2
 72
     6
 73
     3
 74
     0
 42
0.0000000001
 43
0.0000000001
 40
0.0
 40
0.0
 40
0.0
 40
0.9706796214818647
 40
0.9706796214818647
 40
0.9706796214818647
 10
30.04199611663762
 20
1010.451804214627
 30
0.0
 41
1.0
 10
29.53929814123122
 20
1010.453279719439
 30
0.0
 41
0.9489947074839022
 10
29.13742859019589
 20
1010.755286831181
 30
0.0
 41
1.0
  0
SPLINE
  5
B8
330
1F
100
AcDbEntity
  8
Predefinito
100
AcDbSpline
210
0.0
220
0.0
230
1.0
 70
    12
 71
     2
 72
     6
 73
     3
 74
     0
 42
0.0000000001
 43
0.0000000001
 40
0.0
 40
0.0
 40
0.0
 40
13.1045775618715
 40
13.1045775618715
 40
13.1045775618715
 10
151.8087889373618
 20
1426.388943743712
 30
0.0
 41
1.0
 10
158.4335026334925
 20
1426.126073479951
 30
0.0
 41
0.9825268014662212
 10
164.5031001403068
 20
1423.458505592053
 30
0.0
 41
1.0
  0
SPLINE
  5
B9
330
1F
100
AcDbEntity
  8
Predefinito
100
AcDbSpline
210
0.0
220
0.0
230
1.0
 70
    12
 71
     2
 72
     6
 73
     3
 74
     0
 42
0.0000000001
 43
0.0000000001
 40
0.0
 40
0.0
 40
0.0
 40
12.96142522965745
 40
12.96142522965745
 40
12.96142522965745
 10
45.49689984408572
 20
1423.458505598778
 30
0.0
 41
1.0
 10
51.49867506339056
 20
1426.096150635501
 30
0.0
 41
0.9829084695327152
 10
58.04819427622504
 20
1426.382987180463
 30
0.0
 41
1.0
  0
SPLINE
  5
BA
330
1F
100
AcDbEntity
  8
Predefinito
100
AcDbSpline
210
0.0
220
0.0
230
1.0
 70
     8
 71
     3
 72
    15
 73
    11
 74
     0
 42
0.0000000001
 43
0.0000000001
 40
0.0
 40
0.0
 40
0.0
 40
0.0
 40
13.01485520751048
 40
25.14564753238619
 40
36.91602338210226
 40
49.58870680998574
 40
64.23903641459479
 40
79.9500374716435
 40
95.23643337263888
 40
115.367830977773
 40
115.367830977773
 40
115.367830977773
 40
115.367830977773
 10
164.5527051833821
 20
1423.436658484488
 30
0.0
 10
168.5218880471431
 20
1421.686416061457
 30
0.0
 10
175.9608296157123
 20
1417.764686817209
 30
0.0
 10
185.6781925725911
 20
1410.114272205307
 30
0.0
 10
193.5533960508114
 20
1400.725762530494
 30
0.0
 10
199.8746969710899
 20
1389.27240975579
 30
0.0
 10
204.8390742268909
 20
1375.78381471757
 30
0.0
 10
208.2500013860127
 20
1360.919891661528
 30
0.0
 10
210.006592332977
 20
1343.943640796396
 30
0.0
 10
209.9916962881877
 20
1332.123670487969
 30
0.0
 10
210.0
 20
1325.416470791128
 30
0.0
  0
SPLINE
  5
BB
330
1F
100
AcDbEntity
  8
Predefinito
100
AcDbSpline
210
0.0
220
0.0
230
1.0
 70
    24
 71
     2
 72
     6
 73
     3
 74
     0
 42
0.0000000001
 43
0.0000000001
 40
0.0
 40
0.0
 40
0.0
 40
225.0
 40
225.0
 40
225.0
 10
210.0
 20
1325.416470791129
 30
0.0
 10
210.0
 20
1212.916470791129
 30
0.0
 10
210.0
 20
1100.416470791129
 30
0.0
  0
SPLINE
  5
BC
330
1F
100
AcDbEntity
  8
Predefinito
100
AcDbSpline
210
0.0
220
0.0
230
1.0
 70
    24
 71
     2
 72
     6
 73
     3
 74
     0
 42
0.0000000001
 43
0.0000000001
 40
0.0
 40
0.0
 40
0.0
 40
225.0
 40
225.0
 40
225.0
 10
0.0
 20
1100.416470791129
 30
0.0
 10
0.0
 20
1212.916470791129
 30
0.0
 10
0.0
 20
1325.416470791129
 30
0.0
  0
SPLINE
  5
BD
330
1F
100
AcDbEntity
  8
Predefinito
100
AcDbSpline
210
0.0
220
0.0
230
1.0
 70
     8
 71
     3
 72
    12
 73
     8
 74
     0
 42
0.0000000001
 43
0.0000000001
 40
0.0
 40
0.0
 40
0.0
 40
0.0
 40
16.53294374768134
 40
29.64112437300059
 40
55.75765002482034
 40
77.86882664049739
 40
97.43727567834213
 40
97.43727567834213
 40
97.43727567834213
 40
97.43727567834213
 10
210.0
 20
1100.416470791129
 30
0.0
 10
209.9909874604252
 20
1094.906561904144
 30
0.0
 10
210.0164499913104
 20
1085.019490960598
 30
0.0
 10
208.4549923984015
 20
1066.483372705204
 30
0.0
 10
204.3925791609608
 20
1046.374695038241
 30
0.0
 10
195.2609201483351
 20
1025.488955002116
 30
0.0
 10
185.9789948025795
 20
1014.895285337734
 30
0.0
 10
180.9099243829874
 20
1010.792560394175
 30
0.0
  0
SPLINE
  5
BE
330
1F
100
AcDbEntity
  8
Predefinito
100
AcDbSpline
210
0.0
220
0.0
230
1.0
 70
    12
 71
     2
 72
     6
 73
     3
 74
     0
 42
0.0000000001
 43
0.0000000001
 40
0.0
 40
0.0
 40
0.0
 40
1.256472314778356
 40
1.256472314778356
 40
1.256472314778356
 10
106.676666958494
 20
1768.716470791128
 30
0.0
 41
1.0
 10
107.4762847902311
 20
1768.716088623455
 30
0.0
 41
0.7074441075446404
 10
107.4766657224973
 20
1767.916470791129
 30
0.0
 41
1.0
  0
SPLINE
  5
BF
330
1F
100
AcDbEntity
  8
Predefinito
100
AcDbSpline
210
0.0
220
0.0
230
1.0
 70
    12
 71
     2
 72
     6
 73
     3
 74
     0
 42
0.0000000001
 43
0.0000000001
 40
0.0
 40
0.0
 40
0.0
 40
1.256388598717797
 40
1.256388598717797
 40
1.256388598717797
 10
107.4766657224971
 20
1767.716470791129
 30
0.0
 41
1.0
 10
107.4760897799268
 20
1766.917047968805
 30
0.0
 41
0.7076165770523664
 10
106.676666958494
 20
1766.91647079113
 30
0.0
 41
1.0
  0
SPLINE
  5
C0
330
1F
100
AcDbEntity
  8
Predefinito
100
AcDbSpline
210
0.0
220
0.0
230
1.0
 70
    24
 71
     2
 72
     6
 73
     3
 74
     0
 42
0.0000000001
 43
0.0000000001
 40
0.0
 40
0.0
 40
0.0
 40
0.2000000000000455
 40
0.2000000000000455
 40
0.2000000000000455
 10
107.4766657224971
 20
1767.916470791129
 30
0.0
 10
107.4766657224971
 20
1767.816470791129
 30
0.0
 10
107.4766657224971
 20
1767.716470791129
 30
0.0
  0
SPLINE
  5
C1
330
1F
100
AcDbEntity
  8
Predefinito
100
AcDbSpline
210
0.0
220
0.0
230
1.0
 70
    12
 71
     2
 72
     6
 73
     3
 74
     0
 42
0.0000000001
 43
0.0000000001
 40
0.0
 40
0.0
 40
0.0
 40
1.256414804495196
 40
1.256414804495196
 40
1.256414804495196
 10
106.7252281757164
 20
1571.716470791129
 30
0.0
 41
1.0
 10
107.5247103969687
 20
1571.715953012381
 30
0.0
 41
0.707564585272855
 10
107.5252281757164
 20
1570.916470791129
 30
0.0
 41
1.0
  0
SPLINE
  5
C2
330
1F
100
AcDbEntity
  8
Predefinito
100
AcDbSpline
210
0.0
220
0.0
230
1.0
 70
    12
 71
     2
 72
     6
 73
     3
 74
     0
 42
0.0000000001
 43
0.0000000001
 40
0.0
 40
0.0
 40
0.0
 40
1.256388598718917
 40
1.256388598718917
 40
1.256388598718917
 10
107.5252281757163
 20
1570.716470791129
 30
0.0
 41
1.0
 10
107.5246522331488
 20
1569.917047968802
 30
0.0
 41
0.7076165770499223
 10
106.7252294117132
 20
1569.91647079113
 30
0.0
 41
1.0
  0
SPLINE
  5
C3
330
1F
100
AcDbEntity
  8
Predefinito
100
AcDbSpline
210
0.0
220
0.0
230
1.0
 70
    12
 71
     2
 72
     6
 73
     3
 74
     0
 42
0.0000000001
 43
0.0000000001
 40
0.0
 40
0.0
 40
0.0
 40
0.894192763397348
 40
0.894192763397348
 40
0.894192763397348
 10
99.87565407319832
 20
1569.99785428109
 30
0.0
 41
1.0
 10
99.424949772768
 20
1570.215825476578
 30
0.0
 41
0.8470182185808338
 10
99.4252281757164
 20
1570.716470791129
 30
0.0
 41
1.0
  0
SPLINE
  5
C4
330
1F
100
AcDbEntity
  8
Predefinito
100
AcDbSpline
210
0.0
220
0.0
230
1.0
 70
    24
 71
     2
 72
     6
 73
     3
 74
     0
 42
0.0000000001
 43
0.0000000001
 40
0.0
 40
0.0
 40
0.0
 40
0.2000000000000455
 40
0.2000000000000455
 40
0.2000000000000455
 10
107.5252281757163
 20
1570.916470791129
 30
0.0
 10
107.5252281757163
 20
1570.816470791129
 30
0.0
 10
107.5252281757163
 20
1570.716470791129
 30
0.0
  0
SPLINE
  5
C5
330
1F
100
AcDbEntity
  8
Predefinito
100
AcDbSpline
210
0.0
220
0.0
230
1.0
 70
    24
 71
     2
 72
     6
 73
     3
 74
     0
 42
0.0000000001
 43
0.0000000001
 40
0.0
 40
0.0
 40
0.0
 40
0.2000000000000455
 40
0.2000000000000455
 40
0.2000000000000455
 10
99.42522817571637
 20
1570.716470791129
 30
0.0
 10
99.42522817571637
 20
1570.816470791129
 30
0.0
 10
99.42522817571637
 20
1570.916470791129
 30
0.0
  0
SPLINE
  5
C6
330
1F
100
AcDbEntity
  8
Predefinito
100
AcDbSpline
210
0.0
220
0.0
230
1.0
 70
    12
 71
     2
 72
     6
 73
     3
 74
     0
 42
0.0000000001
 43
0.0000000001
 40
0.0
 40
0.0
 40
0.0
 40
0.7169011917104448
 40
0.7169011917104448
 40
0.7169011917104448
 10
110.7494064708888
 20
1450.54096574043
 30
0.0
 41
1.0
 10
111.0500839749584
 20
1450.301102321489
 30
0.0
 41
0.9009572712376595
 10
111.0499999999999
 20
1449.916470791129
 30
0.0
 41
1.0
  0
SPLINE
  5
C7
330
1F
100
AcDbEntity
  8
Predefinito
100
AcDbSpline
210
0.0
220
0.0
230
1.0
 70
    12
 71
     2
 72
     6
 73
     3
 74
     0
 42
0.0000000001
 43
0.0000000001
 40
0.0
 40
0.0
 40
0.0
 40
1.256388598719379
 40
1.256388598719379
 40
1.256388598719379
 10
102.95
 20
1449.916470791129
 30
0.0
 41
1.0
 10
102.9505759425667
 20
1450.715893613456
 30
0.0
 41
0.7076165770491766
 10
103.7499987640031
 20
1450.716470791128
 30
0.0
 41
1.0
  0
SPLINE
  5
C8
330
1F
100
AcDbEntity
  8
Predefinito
100
AcDbSpline
210
0.0
220
0.0
230
1.0
 70
    12
 71
     2
 72
     6
 73
     3
 74
     0
 42
0.0000000001
 43
0.0000000001
 40
0.0
 40
0.0
 40
0.0
 40
0.712937708268996
 40
0.712937708268996
 40
0.712937708268996
 10
111.05
 20
1449.716470791129
 30
0.0
 41
1.0
 10
111.0475855925474
 20
1449.335092196276
 30
0.0
 41
0.9048198163242865
 10
110.7521811340324
 20
1449.093862704164
 30
0.0
 41
1.0
  0
SPLINE
  5
C9
330
1F
100
AcDbEntity
  8
Predefinito
100
AcDbSpline
210
0.0
220
0.0
230
1.0
 70
    12
 71
     2
 72
     6
 73
     3
 74
     0
 42
0.0000000001
 43
0.0000000001
 40
0.0
 40
0.0
 40
0.0
 40
1.256472315216518
 40
1.256472315216518
 40
1.256472315216518
 10
103.7499987640031
 20
1448.91647079113
 30
0.0
 41
1.0
 10
102.9503809312452
 20
1448.916852957781
 30
0.0
 41
0.7074441066419747
 10
102.9499999999999
 20
1449.716470791129
 30
0.0
 41
1.0
  0
SPLINE
  5
CA
330
1F
100
AcDbEntity
  8
Predefinito
100
AcDbSpline
210
0.0
220
0.0
230
1.0
 70
    24
 71
     2
 72
     6
 73
     3
 74
     0
 42
0.0000000001
 43
0.0000000001
 40
0.0
 40
0.0
 40
0.0
 40
0.2000000000000455
 40
0.2000000000000455
 40
0.2000000000000455
 10
111.05
 20
1449.916470791129
 30
0.0
 10
111.05
 20
1449.816470791129
 30
0.0
 10
111.05
 20
1449.716470791129
 30
0.0
  0
SPLINE
  5
CB
330
1F
100
AcDbEntity
  8
Predefinito
100
AcDbSpline
210
0.0
220
0.0
230
1.0
 70
    24
 71
     2
 72
     6
 73
     3
 74
     0
 42
0.0000000001
 43
0.0000000001
 40
0.0
 40
0.0
 40
0.0
 40
0.2000000000000455
 40
0.2000000000000455
 40
0.2000000000000455
 10
102.95
 20
1449.716470791129
 30
0.0
 10
102.95
 20
1449.816470791129
 30
0.0
 10
102.95
 20
1449.916470791129
 30
0.0
  0
SPLINE
  5
CC
330
1F
100
AcDbEntity
  8
Predefinito
100
AcDbSpline
210
0.0
220
0.0
230
1.0
 70
    24
 71
     2
 72
     6
 73
     3
 74
     0
 42
0.0000000001
 43
0.0000000001
 40
0.0
 40
0.0
 40
0.0
 40
47.4999999999992
 40
47.4999999999992
 40
47.4999999999992
 10
57.5000000000008
 20
1861.696470791129
 30
0.0
 10
81.2500000000004
 20
1861.696470791129
 30
0.0
 10
105.0
 20
1861.696470791129
 30
0.0
  0
SPLINE
  5
CD
330
1F
100
AcDbEntity
  8
Predefinito
100
AcDbSpline
210
0.0
220
0.0
230
1.0
 70
    24
 71
     2
 72
     6
 73
     3
 74
     0
 42
0.0000000001
 43
0.0000000001
 40
0.0
 40
0.0
 40
0.0
 40
94.96931079420301
 40
94.96931079420301
 40
94.96931079420301
 10
105.0
 20
1861.696470791129
 30
0.0
 10
152.4846553971015
 20
1861.696470791129
 30
0.0
 10
199.969310794203
 20
1861.696470791129
 30
0.0
  0
SPLINE
  5
CE
330
1F
100
AcDbEntity
  8
Predefinito
100
AcDbSpline
210
0.0
220
0.0
230
1.0
 70
    24
 71
     2
 72
     6
 73
     3
 74
     0
 42
0.0000000001
 43
0.0000000001
 40
0.0
 40
0.0
 40
0.0
 40
47.45768013088745
 40
47.45768013088745
 40
47.45768013088745
 10
57.5000000000008
 20
1861.696470791129
 30
0.0
 10
33.77115993455707
 20
1861.696470791129
 30
0.0
 10
10.04231986911334
 20
1861.696470791129
 30
0.0
  0
SPLINE
  5
CF
330
1F
100
AcDbEntity
  8
Predefinito
100
AcDbSpline
210
0.0
220
0.0
230
1.0
 70
    28
 71
     2
 72
     6
 73
     3
 74
     0
 42
0.0000000001
 43
0.0000000001
 40
-398.7122863872359
 40
-398.7122863872359
 40
-398.7122863872359
 40
-298.4513020910304
 40
-298.4513020910304
 40
-298.4513020910304
 10
10.02108870062536
 20
1862.896470791129
 30
0.0
 41
0.8708581169001234
 10
8.837173206383026
 20
1862.896470791128
 30
0.0
 41
0.8032123686097116
 10
57.5000000000008
 20
1862.896470791129
 30
0.0
 41
1.0
  0
SPLINE
  5
D0
330
1F
100
AcDbEntity
  8
Predefinito
100
AcDbSpline
210
0.0
220
0.0
230
1.0
 70
    28
 71
     2
 72
     8
 73
     5
 74
     0
 42
0.0000000001
 43
0.0000000001
 40
97.15211656609097
 40
97.15211656609097
 40
97.15211656609097
 40
124.3547092045964
 40
124.3547092045964
 40
248.7094184091929
 40
248.7094184091929
 40
248.7094184091929
 10
199.988800601387
 20
1862.896470791129
 30
0.0
 41
0.9293688174823551
 10
200.1922450907441
 20
1862.896470791129
 30
0.0
 41
0.9547960431887073
 10
196.7629534974617
 20
1862.896470791129
 30
0.0
 41
1.0
 10
177.8960638580017
 20
1862.896470791129
 30
0.0
 41
0.7933533402912333
 10
105.0
 20
1862.896470791129
 30
0.0
 41
1.0
  0
SPLINE
  5
D1
330
1F
100
AcDbEntity
  8
Predefinito
100
AcDbSpline
210
0.0
220
0.0
230
1.0
 70
    24
 71
     2
 72
     6
 73
     3
 74
     0
 42
0.0000000001
 43
0.0000000001
 40
0.0
 40
0.0
 40
0.0
 40
47.4999999999992
 40
47.4999999999992
 40
47.4999999999992
 10
105.0
 20
1862.896470791129
 30
0.0
 10
81.2500000000004
 20
1862.896470791129
 30
0.0
 10
57.5000000000008
 20
1862.896470791129
 30
0.0
  0
SPLINE
  5
D2
330
1F
100
AcDbEntity
  8
Predefinito
100
AcDbSpline
210
0.0
220
0.0
230
1.0
 70
    24
 71
     2
 72
     6
 73
     3
 74
     0
 42
0.0000000001
 43
0.0000000001
 40
0.0
 40
0.0
 40
0.0
 40
4.096319909140107
 40
4.096319909140107
 40
4.096319909140107
 10
100.9036800908599
 20
1428.416470791129
 30
0.0
 10
102.9518400454299
 20
1428.416470791129
 30
0.0
 10
105.0
 20
1428.416470791129
 30
0.0
  0
SPLINE
  5
D3
330
1F
100
AcDbEntity
  8
Predefinito
100
AcDbSpline
210
0.0
220
0.0
230
1.0
 70
    24
 71
     2
 72
     6
 73
     3
 74
     0
 42
0.0000000001
 43
0.0000000001
 40
0.0
 40
0.0
 40
0.0
 40
0.8123312411172492
 40
0.8123312411172492
 40
0.8123312411172492
 10
58.85905831621361
 20
1428.416470791129
 30
0.0
 10
58.45289269565498
 20
1428.416470791129
 30
0.0
 10
58.04672707509636
 20
1428.416470791129
 30
0.0
  0
SPLINE
  5
D4
330
1F
100
AcDbEntity
  8
Predefinito
100
AcDbSpline
210
0.0
220
0.0
230
1.0
 70
    24
 71
     2
 72
     6
 73
     3
 74
     0
 42
0.0000000001
 43
0.0000000001
 40
0.0
 40
0.0
 40
0.0
 40
0.1070805582773744
 40
0.1070805582773744
 40
0.1070805582773744
 10
59.35057361079839
 20
1428.416470791129
 30
0.0
 10
59.2970333316597
 20
1428.416470791129
 30
0.0
 10
59.24349305252101
 20
1428.416470791129
 30
0.0
  0
SPLINE
  5
D5
330
1F
100
AcDbEntity
  8
Predefinito
100
AcDbSpline
210
0.0
220
0.0
230
1.0
 70
    24
 71
     2
 72
     6
 73
     3
 74
     0
 42
0.0000000001
 43
0.0000000001
 40
0.0
 40
0.0
 40
0.0
 40
0.1441590808376034
 40
0.1441590808376034
 40
0.1441590808376034
 10
59.95840804706471
 20
1428.416470791129
 30
0.0
 10
59.88632850664591
 20
1428.416470791129
 30
0.0
 10
59.8142489662271
 20
1428.416470791129
 30
0.0
  0
SPLINE
  5
D6
330
1F
100
AcDbEntity
  8
Predefinito
100
AcDbSpline
210
0.0
220
0.0
230
1.0
 70
    24
 71
     2
 72
     6
 73
     3
 74
     0
 42
0.0000000001
 43
0.0000000001
 40
0.0
 40
0.0
 40
0.0
 40
0.1848241737896359
 40
0.1848241737896359
 40
0.1848241737896359
 10
60.6840445289156
 20
1428.416470791129
 30
0.0
 10
60.59163244202078
 20
1428.416470791129
 30
0.0
 10
60.49922035512596
 20
1428.416470791129
 30
0.0
  0
SPLINE
  5
D7
330
1F
100
AcDbEntity
  8
Predefinito
100
AcDbSpline
210
0.0
220
0.0
230
1.0
 70
    24
 71
     2
 72
     6
 73
     3
 74
     0
 42
0.0000000001
 43
0.0000000001
 40
0.0
 40
0.0
 40
0.0
 40
0.2281531176159106
 40
0.2281531176159106
 40
0.2281531176159106
 10
61.52810296814021
 20
1428.416470791129
 30
0.0
 10
61.41402640933225
 20
1428.416470791129
 30
0.0
 10
61.2999498505243
 20
1428.416470791129
 30
0.0
  0
SPLINE
  5
D8
330
1F
100
AcDbEntity
  8
Predefinito
100
AcDbSpline
210
0.0
220
0.0
230
1.0
 70
    24
 71
     2
 72
     6
 73
     3
 74
     0
 42
0.0000000001
 43
0.0000000001
 40
0.0
 40
0.0
 40
0.0
 40
0.2731386723492548
 40
0.2731386723492548
 40
0.2731386723492548
 10
62.49028944808384
 20
1428.416470791129
 30
0.0
 10
62.35372011190921
 20
1428.416470791129
 30
0.0
 10
62.21715077573459
 20
1428.416470791129
 30
0.0
  0
SPLINE
  5
D9
330
1F
100
AcDbEntity
  8
Predefinito
100
AcDbSpline
210
0.0
220
0.0
230
1.0
 70
    24
 71
     2
 72
     6
 73
     3
 74
     0
 42
0.0000000001
 43
0.0000000001
 40
0.0
 40
0.0
 40
0.0
 40
0.3187090552145477
 40
0.3187090552145477
 40
0.3187090552145477
 10
63.56936073441011
 20
1428.416470791129
 30
0.0
 10
63.41000620680283
 20
1428.416470791129
 30
0.0
 10
63.25065167919556
 20
1428.416470791129
 30
0.0
  0
SPLINE
  5
DA
330
1F
100
AcDbEntity
  8
Predefinito
100
AcDbSpline
210
0.0
220
0.0
230
1.0
 70
    24
 71
     2
 72
     6
 73
     3
 74
     0
 42
0.0000000001
 43
0.0000000001
 40
0.0
 40
0.0
 40
0.0
 40
0.6853944042806148
 40
0.6853944042806148
 40
0.6853944042806148
 10
65.08474925827194
 20
1428.416470791129
 30
0.0
 10
64.74205205613163
 20
1428.416470791129
 30
0.0
 10
64.39935485399133
 20
1428.416470791129
 30
0.0
  0
SPLINE
  5
DB
330
1F
100
AcDbEntity
  8
Predefinito
100
AcDbSpline
210
0.0
220
0.0
230
1.0
 70
    24
 71
     2
 72
     6
 73
     3
 74
     0
 42
0.0000000001
 43
0.0000000001
 40
0.0
 40
0.0
 40
0.0
 40
0.5189599748656519
 40
0.5189599748656519
 40
0.5189599748656519
 10
66.18017094766115
 20
1428.416470791128
 30
0.0
 10
65.92069096022833
 20
1428.416470791129
 30
0.0
 10
65.6612109727955
 20
1428.416470791129
 30
0.0
  0
SPLINE
  5
DC
330
1F
100
AcDbEntity
  8
Predefinito
100
AcDbSpline
210
0.0
220
0.0
230
1.0
 70
    24
 71
     2
 72
     6
 73
     3
 74
     0
 42
0.0000000001
 43
0.0000000001
 40
0.0
 40
0.0
 40
0.0
 40
0.6455795772292845
 40
0.6455795772292845
 40
0.6455795772292845
 10
67.67879110214685
 20
1428.416470791129
 30
0.0
 10
67.3560013135322
 20
1428.416470791129
 30
0.0
 10
67.03321152491756
 20
1428.416470791129
 30
0.0
  0
SPLINE
  5
DD
330
1F
100
AcDbEntity
  8
Predefinito
100
AcDbSpline
210
0.0
220
0.0
230
1.0
 70
    24
 71
     2
 72
     6
 73
     3
 74
     0
 42
0.0000000001
 43
0.0000000001
 40
0.0
 40
0.0
 40
0.0
 40
0.4155554534163883
 40
0.4155554534163883
 40
0.4155554534163883
 10
68.99591117340792
 20
1428.416470791129
 30
0.0
 10
68.78813344669973
 20
1428.416470791129
 30
0.0
 10
68.58035571999153
 20
1428.416470791129
 30
0.0
  0
SPLINE
  5
DE
330
1F
100
AcDbEntity
  8
Predefinito
100
AcDbSpline
210
0.0
220
0.0
230
1.0
 70
    24
 71
     2
 72
     6
 73
     3
 74
     0
 42
0.0000000001
 43
0.0000000001
 40
0.0
 40
0.0
 40
0.0
 40
0.5922804546429319
 40
0.5922804546429319
 40
0.5922804546429319
 10
70.68318404004366
 20
1428.416470791129
 30
0.0
 10
70.3870438127222
 20
1428.416470791129
 30
0.0
 10
70.09090358540072
 20
1428.416470791129
 30
0.0
  0
SPLINE
  5
DF
330
1F
100
AcDbEntity
  8
Predefinito
100
AcDbSpline
210
0.0
220
0.0
230
1.0
 70
    24
 71
     2
 72
     6
 73
     3
 74
     0
 42
0.0000000001
 43
0.0000000001
 40
0.0
 40
0.0
 40
0.0
 40
0.4284897640848158
 40
0.4284897640848158
 40
0.4284897640848158
 10
72.30852534961727
 20
1428.416470791128
 30
0.0
 10
72.09428046757486
 20
1428.416470791128
 30
0.0
 10
71.88003558553245
 20
1428.416470791128
 30
0.0
  0
SPLINE
  5
E0
330
1F
100
AcDbEntity
  8
Predefinito
100
AcDbSpline
210
0.0
220
0.0
230
1.0
 70
    24
 71
     2
 72
     6
 73
     3
 74
     0
 42
0.0000000001
 43
0.0000000001
 40
0.0
 40
0.0
 40
0.0
 40
1.017290040188271
 40
1.017290040188271
 40
1.017290040188271
 10
74.54738397875741
 20
1428.416470791128
 30
0.0
 10
74.03873895866327
 20
1428.416470791128
 30
0.0
 10
73.53009393856914
 20
1428.416470791128
 30
0.0
  0
SPLINE
  5
E1
330
1F
100
AcDbEntity
  8
Predefinito
100
AcDbSpline
210
0.0
220
0.0
230
1.0
 70
    24
 71
     2
 72
     6
 73
     3
 74
     0
 42
0.0000000001
 43
0.0000000001
 40
0.0
 40
0.0
 40
0.0
 40
0.6326339121148976
 40
0.6326339121148976
 40
0.6326339121148976
 10
76.00862197135189
 20
1428.416470791129
 30
0.0
 10
75.69230501529444
 20
1428.416470791129
 30
0.0
 10
75.37598805923699
 20
1428.416470791129
 30
0.0
  0
SPLINE
  5
E2
330
1F
100
AcDbEntity
  8
Predefinito
100
AcDbSpline
210
0.0
220
0.0
230
1.0
 70
    24
 71
     2
 72
     6
 73
     3
 74
     0
 42
0.0000000001
 43
0.0000000001
 40
0.0
 40
0.0
 40
0.0
 40
0.3272575497387891
 40
0.3272575497387891
 40
0.3272575497387891
 10
77.87478624474828
 20
1428.416470791129
 30
0.0
 10
77.71115746987888
 20
1428.416470791129
 30
0.0
 10
77.54752869500949
 20
1428.416470791129
 30
0.0
  0
SPLINE
  5
E3
330
1F
100
AcDbEntity
  8
Predefinito
100
AcDbSpline
210
0.0
220
0.0
230
1.0
 70
    24
 71
     2
 72
     6
 73
     3
 74
     0
 42
0.0000000001
 43
0.0000000001
 40
0.0
 40
0.0
 40
0.0
 40
0.5754616961761911
 40
0.5754616961761911
 40
0.5754616961761911
 10
79.85660313001654
 20
1428.416470791129
 30
0.0
 10
79.56887228192844
 20
1428.416470791129
 30
0.0
 10
79.28114143384035
 20
1428.416470791129
 30
0.0
  0
SPLINE
  5
E4
330
1F
100
AcDbEntity
  8
Predefinito
100
AcDbSpline
210
0.0
220
0.0
230
1.0
 70
    24
 71
     2
 72
     6
 73
     3
 74
     0
 42
0.0000000001
 43
0.0000000001
 40
0.0
 40
0.0
 40
0.0
 40
3.022561415295655
 40
3.022561415295655
 40
3.022561415295655
 10
84.34582985763318
 20
1428.416470791129
 30
0.0
 10
82.83454914998535
 20
1428.416470791129
 30
0.0
 10
81.32326844233752
 20
1428.416470791129
 30
0.0
  0
SPLINE
  5
E5
330
1F
100
AcDbEntity
  8
Predefinito
100
AcDbSpline
210
0.0
220
0.0
230
1.0
 70
    24
 71
     2
 72
     6
 73
     3
 74
     0
 42
0.0000000001
 43
0.0000000001
 40
0.0
 40
0.0
 40
0.0
 40
0.6272826601734209
 40
0.6272826601734209
 40
0.6272826601734209
 10
86.16892166566792
 20
1428.416470791129
 30
0.0
 10
85.85528033558121
 20
1428.416470791129
 30
0.0
 10
85.5416390054945
 20
1428.416470791129
 30
0.0
  0
SPLINE
  5
E6
330
1F
100
AcDbEntity
  8
Predefinito
100
AcDbSpline
210
0.0
220
0.0
230
1.0
 70
    24
 71
     2
 72
     6
 73
     3
 74
     0
 42
0.0000000001
 43
0.0000000001
 40
0.0
 40
0.0
 40
0.0
 40
0.4790293842319926
 40
0.4790293842319926
 40
0.4790293842319926
 10
88.17857803298061
 20
1428.416470791129
 30
0.0
 10
87.9390633408646
 20
1428.416470791129
 30
0.0
 10
87.69954864874862
 20
1428.416470791129
 30
0.0
  0
SPLINE
  5
E7
330
1F
100
AcDbEntity
  8
Predefinito
100
AcDbSpline
210
0.0
220
0.0
230
1.0
 70
    24
 71
     2
 72
     6
 73
     3
 74
     0
 42
0.0000000001
 43
0.0000000001
 40
0.0
 40
0.0
 40
0.0
 40
0.4353720924939353
 40
0.4353720924939353
 40
0.4353720924939353
 10
90.31318298135348
 20
1428.416470791129
 30
0.0
 10
90.09549693510651
 20
1428.416470791129
 30
0.0
 10
89.87781088885954
 20
1428.416470791129
 30
0.0
  0
SPLINE
  5
E8
330
1F
100
AcDbEntity
  8
Predefinito
100
AcDbSpline
210
0.0
220
0.0
230
1.0
 70
    24
 71
     2
 72
     6
 73
     3
 74
     0
 42
0.0000000001
 43
0.0000000001
 40
0.0
 40
0.0
 40
0.0
 40
0.3847832174687227
 40
0.3847832174687227
 40
0.3847832174687227
 10
92.45234712369711
 20
1428.416470791129
 30
0.0
 10
92.25995551496274
 20
1428.416470791129
 30
0.0
 10
92.06756390622839
 20
1428.416470791129
 30
0.0
  0
SPLINE
  5
E9
330
1F
100
AcDbEntity
  8
Predefinito
100
AcDbSpline
210
0.0
220
0.0
230
1.0
 70
    24
 71
     2
 72
     6
 73
     3
 74
     0
 42
0.0000000001
 43
0.0000000001
 40
0.0
 40
0.0
 40
0.0
 40
0.3278968003466076
 40
0.3278968003466076
 40
0.3278968003466076
 10
94.58815417045027
 20
1428.416470791128
 30
0.0
 10
94.42420577027696
 20
1428.416470791128
 30
0.0
 10
94.26025737010366
 20
1428.416470791128
 30
0.0
  0
SPLINE
  5
EA
330
1F
100
AcDbEntity
  8
Predefinito
100
AcDbSpline
210
0.0
220
0.0
230
1.0
 70
    24
 71
     2
 72
     6
 73
     3
 74
     0
 42
0.0000000001
 43
0.0000000001
 40
0.0
 40
0.0
 40
0.0
 40
4.455943534980875
 40
4.455943534980875
 40
4.455943534980875
 10
100.9036800908599
 20
1428.416470791129
 30
0.0
 10
98.67570832336946
 20
1428.416470791129
 30
0.0
 10
96.44773655587902
 20
1428.416470791129
 30
0.0
  0
SPLINE
  5
EB
330
1F
100
AcDbEntity
  8
Predefinito
100
AcDbSpline
210
0.0
220
0.0
230
1.0
 70
    24
 71
     2
 72
     6
 73
     3
 74
     0
 42
0.0000000001
 43
0.0000000001
 40
0.0
 40
0.0
 40
0.0
 40
0.0452181181306059
 40
0.0452181181306059
 40
0.0452181181306059
 10
151.2693184457109
 20
1428.416470791129
 30
0.0
 10
151.2919275047762
 20
1428.416470791129
 30
0.0
 10
151.3145365638415
 20
1428.416470791129
 30
0.0
  0
SPLINE
  5
EC
330
1F
100
AcDbEntity
  8
Predefinito
100
AcDbSpline
210
0.0
220
0.0
230
1.0
 70
    24
 71
     2
 72
     6
 73
     3
 74
     0
 42
0.0000000001
 43
0.0000000001
 40
0.0
 40
0.0
 40
0.0
 40
0.3713706754111854
 40
0.3713706754111854
 40
0.3713706754111854
 10
150.8439816401803
 20
1428.416470791129
 30
0.0
 10
151.0296669778859
 20
1428.416470791129
 30
0.0
 10
151.2153523155915
 20
1428.416470791129
 30
0.0
  0
SPLINE
  5
ED
330
1F
100
AcDbEntity
  8
Predefinito
100
AcDbSpline
210
0.0
220
0.0
230
1.0
 70
    24
 71
     2
 72
     6
 73
     3
 74
     0
 42
0.0000000001
 43
0.0000000001
 40
0.0
 40
0.0
 40
0.0
 40
0.4414850852785719
 40
0.4414850852785719
 40
0.4414850852785719
 10
150.3150218114881
 20
1428.416470791128
 30
0.0
 10
150.5357643541274
 20
1428.416470791128
 30
0.0
 10
150.7565068967666
 20
1428.416470791128
 30
0.0
  0
SPLINE
  5
EE
330
1F
100
AcDbEntity
  8
Predefinito
100
AcDbSpline
210
0.0
220
0.0
230
1.0
 70
    24
 71
     2
 72
     6
 73
     3
 74
     0
 42
0.0000000001
 43
0.0000000001
 40
0.0
 40
0.0
 40
0.0
 40
0.5056674371269878
 40
0.5056674371269878
 40
0.5056674371269878
 10
149.6800835701074
 20
1428.416470791129
 30
0.0
 10
149.9329172886709
 20
1428.416470791129
 30
0.0
 10
150.1857510072344
 20
1428.416470791129
 30
0.0
  0
SPLINE
  5
EF
330
1F
100
AcDbEntity
  8
Predefinito
100
AcDbSpline
210
0.0
220
0.0
230
1.0
 70
    24
 71
     2
 72
     6
 73
     3
 74
     0
 42
0.0000000001
 43
0.0000000001
 40
0.0
 40
0.0
 40
0.0
 40
0.563330371074926
 40
0.563330371074926
 40
0.563330371074926
 10
148.9374492597376
 20
1428.416470791129
 30
0.0
 10
149.2191144452751
 20
1428.416470791129
 30
0.0
 10
149.5007796308125
 20
1428.416470791129
 30
0.0
  0
SPLINE
  5
F0
330
1F
100
AcDbEntity
  8
Predefinito
100
AcDbSpline
210
0.0
220
0.0
230
1.0
 70
    24
 71
     2
 72
     6
 73
     3
 74
     0
 42
0.0000000001
 43
0.0000000001
 40
0.0
 40
0.0
 40
0.0
 40
0.6139498611953229
 40
0.6139498611953229
 40
0.6139498611953229
 10
148.0861002808327
 20
1428.416470791129
 30
0.0
 10
148.3930752114304
 20
1428.416470791129
 30
0.0
 10
148.7000501420281
 20
1428.416470791129
 30
0.0
  0
SPLINE
  5
F1
330
1F
100
AcDbEntity
  8
Predefinito
100
AcDbSpline
210
0.0
220
0.0
230
1.0
 70
    24
 71
     2
 72
     6
 73
     3
 74
     0
 42
0.0000000001
 43
0.0000000001
 40
0.0
 40
0.0
 40
0.0
 40
0.657079121265923
 40
0.657079121265923
 40
0.657079121265923
 10
147.1257700990977
 20
1428.416470791129
 30
0.0
 10
147.4543096597307
 20
1428.416470791129
 30
0.0
 10
147.7828492203637
 20
1428.416470791129
 30
0.0
  0
SPLINE
  5
F2
330
1F
100
AcDbEntity
  8
Predefinito
100
AcDbSpline
210
0.0
220
0.0
230
1.0
 70
    24
 71
     2
 72
     6
 73
     3
 74
     0
 42
0.0000000001
 43
0.0000000001
 40
0.0
 40
0.0
 40
0.0
 40
3.149032158283916
 40
3.149032158283916
 40
3.149032158283916
 10
143.6003161605169
 20
1428.416470791129
 30
0.0
 10
145.1748322396589
 20
1428.416470791129
 30
0.0
 10
146.7493483188008
 20
1428.416470791129
 30
0.0
  0
SPLINE
  5
F3
330
1F
100
AcDbEntity
  8
Predefinito
100
AcDbSpline
210
0.0
220
0.0
230
1.0
 70
    24
 71
     2
 72
     6
 73
     3
 74
     0
 42
0.0000000001
 43
0.0000000001
 40
0.0
 40
0.0
 40
0.0
 40
0.7491267669545323
 40
0.7491267669545323
 40
0.7491267669545323
 10
142.2176617079061
 20
1428.416470791129
 30
0.0
 10
142.5922250913834
 20
1428.416470791129
 30
0.0
 10
142.9667884748607
 20
1428.416470791129
 30
0.0
  0
SPLINE
  5
F4
330
1F
100
AcDbEntity
  8
Predefinito
100
AcDbSpline
210
0.0
220
0.0
230
1.0
 70
    24
 71
     2
 72
     6
 73
     3
 74
     0
 42
0.0000000001
 43
0.0000000001
 40
0.0
 40
0.0
 40
0.0
 40
2.256625328824981
 40
2.256625328824981
 40
2.256625328824981
 10
139.163018951109
 20
1428.416470791128
 30
0.0
 10
140.2913316155215
 20
1428.416470791129
 30
0.0
 10
141.419644279934
 20
1428.416470791129
 30
0.0
  0
SPLINE
  5
F5
330
1F
100
AcDbEntity
  8
Predefinito
100
AcDbSpline
210
0.0
220
0.0
230
1.0
 70
    24
 71
     2
 72
     6
 73
     3
 74
     0
 42
0.0000000001
 43
0.0000000001
 40
0.0
 40
0.0
 40
0.0
 40
0.6188507926921716
 40
0.6188507926921716
 40
0.6188507926921716
 10
137.5011136217666
 20
1428.416470791129
 30
0.0
 10
137.8105390181127
 20
1428.416470791129
 30
0.0
 10
138.1199644144588
 20
1428.416470791129
 30
0.0
  0
SPLINE
  5
F6
330
1F
100
AcDbEntity
  8
Predefinito
100
AcDbSpline
210
0.0
220
0.0
230
1.0
 70
    24
 71
     2
 72
     6
 73
     3
 74
     0
 42
0.0000000001
 43
0.0000000001
 40
0.0
 40
0.0
 40
0.0
 40
1.017290040182502
 40
1.017290040182502
 40
1.017290040182502
 10
135.4526160212429
 20
1428.416470791129
 30
0.0
 10
135.9612610413342
 20
1428.416470791129
 30
0.0
 10
136.4699060614254
 20
1428.416470791129
 30
0.0
  0
SPLINE
  5
F7
330
1F
100
AcDbEntity
  8
Predefinito
100
AcDbSpline
210
0.0
220
0.0
230
1.0
 70
    24
 71
     2
 72
     6
 73
     3
 74
     0
 42
0.0000000001
 43
0.0000000001
 40
0.0
 40
0.0
 40
0.0
 40
0.6854076432110219
 40
0.6854076432110219
 40
0.6854076432110219
 10
133.9386042975502
 20
1428.416470791129
 30
0.0
 10
134.2813081191557
 20
1428.416470791129
 30
0.0
 10
134.6240119407612
 20
1428.416470791129
 30
0.0
  0
SPLINE
  5
F8
330
1F
100
AcDbEntity
  8
Predefinito
100
AcDbSpline
210
0.0
220
0.0
230
1.0
 70
    24
 71
     2
 72
     6
 73
     3
 74
     0
 42
0.0000000001
 43
0.0000000001
 40
0.0
 40
0.0
 40
0.0
 40
1.610248266953221
 40
1.610248266953221
 40
1.610248266953221
 10
130.842223109505
 20
1428.416470791129
 30
0.0
 10
131.6473472429816
 20
1428.416470791129
 30
0.0
 10
132.4524713764582
 20
1428.416470791129
 30
0.0
  0
SPLINE
  5
F9
330
1F
100
AcDbEntity
  8
Predefinito
100
AcDbSpline
210
0.0
220
0.0
230
1.0
 70
    24
 71
     2
 72
     6
 73
     3
 74
     0
 42
0.0000000001
 43
0.0000000001
 40
0.0
 40
0.0
 40
0.0
 40
1.551360236345914
 40
1.551360236345914
 40
1.551360236345914
 10
129.1674979504343
 20
1428.416470791129
 30
0.0
 10
129.9431780686073
 20
1428.416470791129
 30
0.0
 10
130.7188581867802
 20
1428.416470791129
 30
0.0
  0
SPLINE
  5
FA
330
1F
100
AcDbEntity
  8
Predefinito
100
AcDbSpline
210
0.0
220
0.0
230
1.0
 70
    24
 71
     2
 72
     6
 73
     3
 74
     0
 42
0.0000000001
 43
0.0000000001
 40
0.0
 40
0.0
 40
0.0
 40
1.241131770675722
 40
1.241131770675722
 40
1.241131770675722
 10
127.4355998223015
 20
1428.416470791129
 30
0.0
 10
128.0561657076393
 20
1428.416470791129
 30
0.0
 10
128.6767315929772
 20
1428.416470791129
 30
0.0
  0
SPLINE
  5
FB
330
1F
100
AcDbEntity
  8
Predefinito
100
AcDbSpline
210
0.0
220
0.0
230
1.0
 70
    24
 71
     2
 72
     6
 73
     3
 74
     0
 42
0.0000000001
 43
0.0000000001
 40
0.0
 40
0.0
 40
0.0
 40
0.9326756793614237
 40
0.9326756793614237
 40
0.9326756793614237
 10
125.6541702377299
 20
1428.416470791129
 30
0.0
 10
126.1205080774106
 20
1428.416470791129
 30
0.0
 10
126.5868459170913
 20
1428.416470791129
 30
0.0
  0
SPLINE
  5
FC
330
1F
100
AcDbEntity
  8
Predefinito
100
AcDbSpline
210
0.0
220
0.0
230
1.0
 70
    24
 71
     2
 72
     6
 73
     3
 74
     0
 42
0.0000000001
 43
0.0000000001
 40
0.0
 40
0.0
 40
0.0
 40
0.6272826296298746
 40
0.6272826296298746
 40
0.6272826296298746
 10
123.8310783697878
 20
1428.416470791129
 30
0.0
 10
124.1447196846027
 20
1428.416470791129
 30
0.0
 10
124.4583609994176
 20
1428.416470791129
 30
0.0
  0
SPLINE
  5
FD
330
1F
100
AcDbEntity
  8
Predefinito
100
AcDbSpline
210
0.0
220
0.0
230
1.0
 70
    24
 71
     2
 72
     6
 73
     3
 74
     0
 42
0.0000000001
 43
0.0000000001
 40
0.0
 40
0.0
 40
0.0
 40
3.782617695646721
 40
3.782617695646721
 40
3.782617695646721
 10
118.1916973452095
 20
1428.416470791129
 30
0.0
 10
120.0830061930329
 20
1428.416470791129
 30
0.0
 10
121.9743150408562
 20
1428.416470791129
 30
0.0
  0
SPLINE
  5
FE
330
1F
100
AcDbEntity
  8
Predefinito
100
AcDbSpline
210
0.0
220
0.0
230
1.0
 70
    24
 71
     2
 72
     6
 73
     3
 74
     0
 42
0.0000000001
 43
0.0000000001
 40
0.0
 40
0.0
 40
0.0
 40
1.650949386908493
 40
1.650949386908493
 40
1.650949386908493
 10
116.2814867785752
 20
1428.416470791128
 30
0.0
 10
117.1069614720294
 20
1428.416470791128
 30
0.0
 10
117.9324361654837
 20
1428.416470791128
 30
0.0
  0
SPLINE
  5
FF
330
1F
100
AcDbEntity
  8
Predefinito
100
AcDbSpline
210
0.0
220
0.0
230
1.0
 70
    24
 71
     2
 72
     6
 73
     3
 74
     0
 42
0.0000000001
 43
0.0000000001
 40
0.0
 40
0.0
 40
0.0
 40
1.371030901791272
 40
1.371030901791272
 40
1.371030901791272
 10
114.3687116566214
 20
1428.416470791129
 30
0.0
 10
115.0542271075171
 20
1428.416470791129
 30
0.0
 10
115.7397425584127
 20
1428.416470791129
 30
0.0
  0
SPLINE
  5
100
330
1F
100
AcDbEntity
  8
Predefinito
100
AcDbSpline
210
0.0
220
0.0
230
1.0
 70
    24
 71
     2
 72
     6
 73
     3
 74
     0
 42
0.0000000001
 43
0.0000000001
 40
0.0
 40
0.0
 40
0.0
 40
1.091778318469494
 40
1.091778318469494
 40
1.091778318469494
 10
112.4604851410916
 20
1428.416470791128
 30
0.0
 10
113.0063743003263
 20
1428.416470791129
 30
0.0
 10
113.5522634595611
 20
1428.416470791129
 30
0.0
  0
SPLINE
  5
101
330
1F
100
AcDbEntity
  8
Predefinito
100
AcDbSpline
210
0.0
220
0.0
230
1.0
 70
    24
 71
     2
 72
     6
 73
     3
 74
     0
 42
0.0000000001
 43
0.0000000001
 40
0.0
 40
0.0
 40
0.0
 40
0.8141723464243427
 40
0.8141723464243427
 40
0.8141723464243427
 10
110.5635110513995
 20
1428.416470791129
 30
0.0
 10
110.9705972246117
 20
1428.416470791129
 30
0.0
 10
111.3776833978238
 20
1428.416470791129
 30
0.0
  0
SPLINE
  5
102
330
1F
100
AcDbEntity
  8
Predefinito
100
AcDbSpline
210
0.0
220
0.0
230
1.0
 70
    24
 71
     2
 72
     6
 73
     3
 74
     0
 42
0.0000000001
 43
0.0000000001
 40
0.0
 40
0.0
 40
0.0
 40
4.223158550929639
 40
4.223158550929639
 40
4.223158550929639
 10
105.0
 20
1428.416470791129
 30
0.0
 10
107.1115792754648
 20
1428.416470791129
 30
0.0
 10
109.2231585509296
 20
1428.416470791129
 30
0.0
  0
SPLINE
  5
103
330
1F
100
AcDbEntity
  8
Predefinito
100
AcDbSpline
210
0.0
220
0.0
230
1.0
 70
    28
 71
     2
 72
     8
 73
     5
 74
     0
 42
0.0000000001
 43
0.0000000001
 40
67.29062389525006
 40
67.29062389525006
 40
67.29062389525006
 40
71.77666548826674
 40
71.77666548826674
 40
143.5533309765335
 40
143.5533309765335
 40
143.5533309765335
 10
151.9539397080851
 20
1429.666470791129
 30
0.0
 41
0.9674645268038776
 10
152.0454359758899
 20
1429.666470791129
 30
0.0
 41
0.9826477476287347
 10
151.9552664143473
 20
1429.666470791129
 30
0.0
 41
1.0
 10
149.9927118859759
 20
1429.666470791128
 30
0.0
 41
0.7223639620597562
 10
105.0
 20
1429.666470791129
 30
0.0
 41
1.0
  0
SPLINE
  5
104
330
1F
100
AcDbEntity
  8
Predefinito
100
AcDbSpline
210
0.0
220
0.0
230
1.0
 70
    24
 71
     2
 72
     6
 73
     3
 74
     0
 42
0.0000000001
 43
0.0000000001
 40
0.0
 40
0.0
 40
0.0
 40
46.99923733201354
 40
46.99923733201354
 40
46.99923733201354
 10
105.0
 20
1429.666470791129
 30
0.0
 10
81.50038133399323
 20
1429.666470791129
 30
0.0
 10
58.00076266798646
 20
1429.666470791129
 30
0.0
  0
SPLINE
  5
105
330
1F
100
AcDbEntity
  8
Predefinito
100
AcDbSpline
210
0.0
220
0.0
230
1.0
 70
    24
 71
     2
 72
     6
 73
     3
 74
     0
 42
0.0000000001
 43
0.0000000001
 40
0.0
 40
0.0
 40
0.0
 40
42.23699200042062
 40
42.23699200042062
 40
42.23699200042062
 10
100.9673173371699
 20
1430.629374708663
 30
0.0
 10
79.84882133695959
 20
1430.629374708663
 30
0.0
 10
58.73032533674928
 20
1430.629374708663
 30
0.0
  0
SPLINE
  5
106
330
1F
100
AcDbEntity
  8
Predefinito
100
AcDbSpline
210
0.0
220
0.0
230
1.0
 70
    12
 71
     2
 72
     8
 73
     5
 74
     0
 42
0.0000000001
 43
0.0000000001
 40
0.0
 40
0.0
 40
0.0
 40
0.1759009066657313
 40
0.1759009066657313
 40
72.85640266365326
 40
72.85640266365326
 40
72.85640266365326
 10
151.2696746632507
 20
1430.629375457764
 30
0.0
 41
1.0
 10
151.1817242099179
 20
1430.629375457763
 30
0.0
 41
1.0
 10
151.093773756585
 20
1430.629375457763
 30
0.0
 41
1.0
 10
147.0610910937549
 20
1430.629374708663
 30
0.0
 41
0.7071067811865479
 10
100.96731733717
 20
1430.629374708663
 30
0.0
 41
1.0
  0
SPLINE
  5
107
330
1F
100
AcDbEntity
  8
Predefinito
100
AcDbSpline
210
0.0
220
0.0
230
1.0
 70
    24
 71
     2
 72
     6
 73
     3
 74
     0
 42
0.0000000001
 43
0.0000000001
 40
0.0
 40
0.0
 40
0.0
 40
31.58171245302901
 40
31.58171245302901
 40
31.58171245302901
 10
102.4660169178964
 20
1434.354494957794
 30
0.0
 10
118.2568731444109
 20
1434.354494957794
 30
0.0
 10
134.0477293709254
 20
1434.354494957794
 30
0.0
  0
SPLINE
  5
108
330
1F
100
AcDbEntity
  8
Predefinito
100
AcDbSpline
210
0.0
220
0.0
230
1.0
 70
    28
 71
     2
 72
     6
 73
     3
 74
     0
 42
0.0000000001
 43
0.0000000001
 40
-135.5817411033941
 40
-135.5817411033941
 40
-135.5817411033941
 40
-91.33927821722664
 40
-91.33927821722664
 40
-91.33927821722664
 10
75.95227062906163
 20
1434.354494957793
 30
0.0
 41
0.9822662308923837
 10
74.76612124378708
 20
1434.354494957794
 30
0.0
 41
0.7162596942781374
 10
102.4660169178964
 20
1434.354494957794
 30
0.0
 41
1.0
  0
SPLINE
  5
109
330
1F
100
AcDbEntity
  8
Predefinito
100
AcDbSpline
210
0.0
220
0.0
230
1.0
 70
    24
 71
     2
 72
     6
 73
     3
 74
     0
 42
0.0000000001
 43
0.0000000001
 40
0.0
 40
0.0
 40
0.0
 40
0.6387363647800441
 40
0.6387363647800441
 40
0.6387363647800441
 10
151.3145365503864
 20
1428.416470791129
 30
0.0
 10
151.6339047327764
 20
1428.416470791129
 30
0.0
 10
151.9532729151664
 20
1428.416470791129
 30
0.0
  0
SPLINE
  5
10A
330
1F
100
AcDbEntity
  8
Predefinito
100
AcDbSpline
210
0.0
220
0.0
230
1.0
 70
    24
 71
     2
 72
     6
 73
     3
 74
     0
 42
0.0000000001
 43
0.0000000001
 40
0.0
 40
0.0
 40
0.0
 40
0.0539661293639995
 40
0.0539661293639995
 40
0.0539661293639995
 10
151.2153523155789
 20
1428.416470791129
 30
0.0
 10
151.242335380261
 20
1428.416470791129
 30
0.0
 10
151.2693184449429
 20
1428.416470791129
 30
0.0
  0
SPLINE
  5
10B
330
1F
100
AcDbEntity
  8
Predefinito
100
AcDbSpline
210
0.0
220
0.0
230
1.0
 70
    24
 71
     2
 72
     6
 73
     3
 74
     0
 42
0.0000000001
 43
0.0000000001
 40
0.0
 40
0.0
 40
0.0
 40
0.0874746902983645
 40
0.0874746902983645
 40
0.0874746902983645
 10
150.7565069490089
 20
1428.416470791128
 30
0.0
 10
150.8002442941581
 20
1428.416470791128
 30
0.0
 10
150.8439816393073
 20
1428.416470791128
 30
0.0
  0
SPLINE
  5
10C
330
1F
100
AcDbEntity
  8
Predefinito
100
AcDbSpline
210
0.0
220
0.0
230
1.0
 70
    24
 71
     2
 72
     6
 73
     3
 74
     0
 42
0.0000000001
 43
0.0000000001
 40
0.0
 40
0.0
 40
0.0
 40
0.1292707757954759
 40
0.1292707757954759
 40
0.1292707757954759
 10
150.1857510347904
 20
1428.416470791129
 30
0.0
 10
150.2503864226882
 20
1428.416470791129
 30
0.0
 10
150.3150218105859
 20
1428.416470791129
 30
0.0
  0
SPLINE
  5
10D
330
1F
100
AcDbEntity
  8
Predefinito
100
AcDbSpline
210
0.0
220
0.0
230
1.0
 70
    24
 71
     2
 72
     6
 73
     3
 74
     0
 42
0.0000000001
 43
0.0000000001
 40
0.0
 40
0.0
 40
0.0
 40
0.1793039236758887
 40
0.1793039236758887
 40
0.1793039236758887
 10
149.5007796455588
 20
1428.416470791129
 30
0.0
 10
149.5904316073968
 20
1428.416470791129
 30
0.0
 10
149.6800835692347
 20
1428.416470791129
 30
0.0
  0
SPLINE
  5
10E
330
1F
100
AcDbEntity
  8
Predefinito
100
AcDbSpline
210
0.0
220
0.0
230
1.0
 70
    24
 71
     2
 72
     6
 73
     3
 74
     0
 42
0.0000000001
 43
0.0000000001
 40
0.0
 40
0.0
 40
0.0
 40
0.2373991090034906
 40
0.2373991090034906
 40
0.2373991090034906
 10
148.7000501499342
 20
1428.416470791129
 30
0.0
 10
148.818749704436
 20
1428.416470791129
 30
0.0
 10
148.9374492589377
 20
1428.416470791129
 30
0.0
  0
SPLINE
  5
10F
330
1F
100
AcDbEntity
  8
Predefinito
100
AcDbSpline
210
0.0
220
0.0
230
1.0
 70
    24
 71
     2
 72
     6
 73
     3
 74
     0
 42
0.0000000001
 43
0.0000000001
 40
0.0
 40
0.0
 40
0.0
 40
0.303251055566534
 40
0.303251055566534
 40
0.303251055566534
 10
147.7828492245674
 20
1428.416470791129
 30
0.0
 10
147.9344747523506
 20
1428.416470791129
 30
0.0
 10
148.0861002801339
 20
1428.416470791129
 30
0.0
  0
SPLINE
  5
110
330
1F
100
AcDbEntity
  8
Predefinito
100
AcDbSpline
210
0.0
220
0.0
230
1.0
 70
    24
 71
     2
 72
     6
 73
     3
 74
     0
 42
0.0000000001
 43
0.0000000001
 40
0.0
 40
0.0
 40
0.0
 40
0.376421777516498
 40
0.376421777516498
 40
0.376421777516498
 10
146.7493483209983
 20
1428.416470791128
 30
0.0
 10
146.9375592097566
 20
1428.416470791129
 30
0.0
 10
147.1257700985148
 20
1428.416470791129
 30
0.0
  0
SPLINE
  5
111
330
1F
100
AcDbEntity
  8
Predefinito
100
AcDbSpline
210
0.0
220
0.0
230
1.0
 70
    24
 71
     2
 72
     6
 73
     3
 74
     0
 42
0.0000000001
 43
0.0000000001
 40
0.0
 40
0.0
 40
0.0
 40
0.6335276851378069
 40
0.6335276851378069
 40
0.6335276851378069
 10
142.9667884751235
 20
1428.416470791128
 30
0.0
 10
143.2835523176925
 20
1428.416470791128
 30
0.0
 10
143.6003161602613
 20
1428.416470791128
 30
0.0
  0
SPLINE
  5
112
330
1F
100
AcDbEntity
  8
Predefinito
100
AcDbSpline
210
0.0
220
0.0
230
1.0
 70
    24
 71
     2
 72
     6
 73
     3
 74
     0
 42
0.0000000001
 43
0.0000000001
 40
0.0
 40
0.0
 40
0.0
 40
0.7980174277363687
 40
0.7980174277363687
 40
0.7980174277363687
 10
141.4196442799944
 20
1428.416470791129
 30
0.0
 10
141.8186529938626
 20
1428.416470791129
 30
0.0
 10
142.2176617077308
 20
1428.416470791128
 30
0.0
  0
SPLINE
  5
113
330
1F
100
AcDbEntity
  8
Predefinito
100
AcDbSpline
210
0.0
220
0.0
230
1.0
 70
    24
 71
     2
 72
     6
 73
     3
 74
     0
 42
0.0000000001
 43
0.0000000001
 40
0.0
 40
0.0
 40
0.0
 40
1.043054536582986
 40
1.043054536582986
 40
1.043054536582986
 10
138.119964414457
 20
1428.416470791129
 30
0.0
 10
138.6414916827485
 20
1428.416470791129
 30
0.0
 10
139.16301895104
 20
1428.416470791129
 30
0.0
  0
SPLINE
  5
114
330
1F
100
AcDbEntity
  8
Predefinito
100
AcDbSpline
210
0.0
220
0.0
230
1.0
 70
    24
 71
     2
 72
     6
 73
     3
 74
     0
 42
0.0000000001
 43
0.0000000001
 40
0.0
 40
0.0
 40
0.0
 40
1.031207560294547
 40
1.031207560294547
 40
1.031207560294547
 10
136.4699060614331
 20
1428.416470791128
 30
0.0
 10
136.9855098415804
 20
1428.416470791128
 30
0.0
 10
137.5011136217276
 20
1428.416470791128
 30
0.0
  0
SPLINE
  5
115
330
1F
100
AcDbEntity
  8
Predefinito
100
AcDbSpline
210
0.0
220
0.0
230
1.0
 70
    24
 71
     2
 72
     6
 73
     3
 74
     0
 42
0.0000000001
 43
0.0000000001
 40
0.0
 40
0.0
 40
0.0
 40
0.8286040804844106
 40
0.8286040804844106
 40
0.8286040804844106
 10
134.6240119407638
 20
1428.416470791129
 30
0.0
 10
135.038313981006
 20
1428.416470791129
 30
0.0
 10
135.4526160212482
 20
1428.416470791129
 30
0.0
  0
SPLINE
  5
116
330
1F
100
AcDbEntity
  8
Predefinito
100
AcDbSpline
210
0.0
220
0.0
230
1.0
 70
    24
 71
     2
 72
     6
 73
     3
 74
     0
 42
0.0000000001
 43
0.0000000001
 40
0.0
 40
0.0
 40
0.0
 40
1.486133052463231
 40
1.486133052463231
 40
1.486133052463231
 10
132.4524712450773
 20
1428.416470791129
 30
0.0
 10
133.1955377713089
 20
1428.416470791129
 30
0.0
 10
133.9386042975405
 20
1428.416470791129
 30
0.0
  0
SPLINE
  5
117
330
1F
100
AcDbEntity
  8
Predefinito
100
AcDbSpline
210
0.0
220
0.0
230
1.0
 70
    24
 71
     2
 72
     6
 73
     3
 74
     0
 42
0.0000000001
 43
0.0000000001
 40
0.0
 40
0.0
 40
0.0
 40
0.123364776161651
 40
0.123364776161651
 40
0.123364776161651
 10
130.7188584091017
 20
1428.416470791129
 30
0.0
 10
130.7805407971825
 20
1428.416470791129
 30
0.0
 10
130.8422231852633
 20
1428.416470791129
 30
0.0
  0
SPLINE
  5
118
330
1F
100
AcDbEntity
  8
Predefinito
100
AcDbSpline
210
0.0
220
0.0
230
1.0
 70
    24
 71
     2
 72
     6
 73
     3
 74
     0
 42
0.0000000001
 43
0.0000000001
 40
0.0
 40
0.0
 40
0.0
 40
0.4907665519987177
 40
0.4907665519987177
 40
0.4907665519987177
 10
128.6767314830001
 20
1428.416470791128
 30
0.0
 10
128.9221147589994
 20
1428.416470791129
 30
0.0
 10
129.1674980349988
 20
1428.416470791129
 30
0.0
  0
SPLINE
  5
119
330
1F
100
AcDbEntity
  8
Predefinito
100
AcDbSpline
210
0.0
220
0.0
230
1.0
 70
    24
 71
     2
 72
     6
 73
     3
 74
     0
 42
0.0000000001
 43
0.0000000001
 40
0.0
 40
0.0
 40
0.0
 40
0.8487541973733244
 40
0.8487541973733244
 40
0.8487541973733244
 10
126.5868458736321
 20
1428.416470791128
 30
0.0
 10
127.0112229723188
 20
1428.416470791129
 30
0.0
 10
127.4356000710054
 20
1428.416470791129
 30
0.0
  0
SPLINE
  5
11A
330
1F
100
AcDbEntity
  8
Predefinito
100
AcDbSpline
210
0.0
220
0.0
230
1.0
 70
    24
 71
     2
 72
     6
 73
     3
 74
     0
 42
0.0000000001
 43
0.0000000001
 40
0.0
 40
0.0
 40
0.0
 40
1.195809212004249
 40
1.195809212004249
 40
1.195809212004249
 10
124.4583609851377
 20
1428.416470791129
 30
0.0
 10
125.0562655911398
 20
1428.416470791129
 30
0.0
 10
125.654170197142
 20
1428.416470791129
 30
0.0
  0
SPLINE
  5
11B
330
1F
100
AcDbEntity
  8
Predefinito
100
AcDbSpline
210
0.0
220
0.0
230
1.0
 70
    24
 71
     2
 72
     6
 73
     3
 74
     0
 42
0.0000000001
 43
0.0000000001
 40
0.0
 40
0.0
 40
0.0
 40
1.856763487094781
 40
1.856763487094781
 40
1.856763487094781
 10
121.9743149294127
 20
1428.416470791129
 30
0.0
 10
122.9026966729601
 20
1428.416470791129
 30
0.0
 10
123.8310784165075
 20
1428.416470791129
 30
0.0
  0
SPLINE
  5
11C
330
1F
100
AcDbEntity
  8
Predefinito
100
AcDbSpline
210
0.0
220
0.0
230
1.0
 70
    24
 71
     2
 72
     6
 73
     3
 74
     0
 42
0.0000000001
 43
0.0000000001
 40
0.0
 40
0.0
 40
0.0
 40
0.2592610476473993
 40
0.2592610476473993
 40
0.2592610476473993
 10
117.9324360977323
 20
1428.416470791129
 30
0.0
 10
118.0620666215561
 20
1428.416470791129
 30
0.0
 10
118.1916971453797
 20
1428.416470791129
 30
0.0
  0
SPLINE
  5
11D
330
1F
100
AcDbEntity
  8
Predefinito
100
AcDbSpline
210
0.0
220
0.0
230
1.0
 70
    24
 71
     2
 72
     6
 73
     3
 74
     0
 42
0.0000000001
 43
0.0000000001
 40
0.0
 40
0.0
 40
0.0
 40
0.5417440878813125
 40
0.5417440878813125
 40
0.5417440878813125
 10
115.7397426331029
 20
1428.416470791128
 30
0.0
 10
116.0106146770436
 20
1428.416470791128
 30
0.0
 10
116.2814867209843
 20
1428.416470791128
 30
0.0
  0
SPLINE
  5
11E
330
1F
100
AcDbEntity
  8
Predefinito
100
AcDbSpline
210
0.0
220
0.0
230
1.0
 70
    24
 71
     2
 72
     6
 73
     3
 74
     0
 42
0.0000000001
 43
0.0000000001
 40
0.0
 40
0.0
 40
0.0
 40
0.8164481911136505
 40
0.8164481911136505
 40
0.8164481911136505
 10
113.5522634633708
 20
1428.416470791129
 30
0.0
 10
113.9604875589276
 20
1428.416470791129
 30
0.0
 10
114.3687116544844
 20
1428.416470791129
 30
0.0
  0
SPLINE
  5
11F
330
1F
100
AcDbEntity
  8
Predefinito
100
AcDbSpline
210
0.0
220
0.0
230
1.0
 70
    24
 71
     2
 72
     6
 73
     3
 74
     0
 42
0.0000000001
 43
0.0000000001
 40
0.0
 40
0.0
 40
0.0
 40
1.082801720044898
 40
1.082801720044898
 40
1.082801720044898
 10
111.3776834135182
 20
1428.416470791129
 30
0.0
 10
111.9190842735407
 20
1428.416470791129
 30
0.0
 10
112.4604851335631
 20
1428.416470791129
 30
0.0
  0
SPLINE
  5
120
330
1F
100
AcDbEntity
  8
Predefinito
100
AcDbSpline
210
0.0
220
0.0
230
1.0
 70
    24
 71
     2
 72
     6
 73
     3
 74
     0
 42
0.0000000001
 43
0.0000000001
 40
0.0
 40
0.0
 40
0.0
 40
1.340352459109141
 40
1.340352459109141
 40
1.340352459109141
 10
109.223158581192
 20
1428.416470791129
 30
0.0
 10
109.8933348107466
 20
1428.416470791129
 30
0.0
 10
110.5635110403012
 20
1428.416470791129
 30
0.0
  0
SPLINE
  5
121
330
1F
100
AcDbEntity
  8
Predefinito
100
AcDbSpline
210
0.0
220
0.0
230
1.0
 70
    24
 71
     2
 72
     6
 73
     3
 74
     0
 42
0.0000000001
 43
0.0000000001
 40
0.0
 40
0.0
 40
0.0
 40
1.859582200198631
 40
1.859582200198631
 40
1.859582200198631
 10
94.58815433643052
 20
1428.416470791128
 30
0.0
 10
95.51794543652983
 20
1428.416470791129
 30
0.0
 10
96.44773653662915
 20
1428.416470791129
 30
0.0
  0
SPLINE
  5
122
330
1F
100
AcDbEntity
  8
Predefinito
100
AcDbSpline
210
0.0
220
0.0
230
1.0
 70
    24
 71
     2
 72
     6
 73
     3
 74
     0
 42
0.0000000001
 43
0.0000000001
 40
0.0
 40
0.0
 40
0.0
 40
1.807910245748602
 40
1.807910245748602
 40
1.807910245748602
 10
92.45234712114836
 20
1428.416470791129
 30
0.0
 10
93.35630224402266
 20
1428.416470791129
 30
0.0
 10
94.26025736689697
 20
1428.416470791128
 30
0.0
  0
SPLINE
  5
123
330
1F
100
AcDbEntity
  8
Predefinito
100
AcDbSpline
210
0.0
220
0.0
230
1.0
 70
    24
 71
     2
 72
     6
 73
     3
 74
     0
 42
0.0000000001
 43
0.0000000001
 40
0.0
 40
0.0
 40
0.0
 40
1.754380924135049
 40
1.754380924135049
 40
1.754380924135049
 10
90.31318297813255
 20
1428.416470791129
 30
0.0
 10
91.19037344020006
 20
1428.416470791129
 30
0.0
 10
92.0675639022676
 20
1428.416470791129
 30
0.0
  0
SPLINE
  5
124
330
1F
100
AcDbEntity
  8
Predefinito
100
AcDbSpline
210
0.0
220
0.0
230
1.0
 70
    24
 71
     2
 72
     6
 73
     3
 74
     0
 42
0.0000000001
 43
0.0000000001
 40
0.0
 40
0.0
 40
0.0
 40
1.699232639441078
 40
1.699232639441078
 40
1.699232639441078
 10
88.17857800394076
 20
1428.416470791129
 30
0.0
 10
89.0281943236613
 20
1428.416470791129
 30
0.0
 10
89.87781064338184
 20
1428.416470791129
 30
0.0
  0
SPLINE
  5
125
330
1F
100
AcDbEntity
  8
Predefinito
100
AcDbSpline
210
0.0
220
0.0
230
1.0
 70
    24
 71
     2
 72
     6
 73
     3
 74
     0
 42
0.0000000001
 43
0.0000000001
 40
0.0
 40
0.0
 40
0.0
 40
1.530627067099573
 40
1.530627067099573
 40
1.530627067099573
 10
86.16892158349233
 20
1428.416470791129
 30
0.0
 10
86.93423511704212
 20
1428.416470791129
 30
0.0
 10
87.69954865059191
 20
1428.416470791129
 30
0.0
  0
SPLINE
  5
126
330
1F
100
AcDbEntity
  8
Predefinito
100
AcDbSpline
210
0.0
220
0.0
230
1.0
 70
    24
 71
     2
 72
     6
 73
     3
 74
     0
 42
0.0000000001
 43
0.0000000001
 40
0.0
 40
0.0
 40
0.0
 40
1.195809212004221
 40
1.195809212004221
 40
1.195809212004221
 10
84.34582980285793
 20
1428.416470791129
 30
0.0
 10
84.94373440886005
 20
1428.416470791129
 30
0.0
 10
85.54163901486216
 20
1428.416470791129
 30
0.0
  0
SPLINE
  5
127
330
1F
100
AcDbEntity
  8
Predefinito
100
AcDbSpline
210
0.0
220
0.0
230
1.0
 70
    24
 71
     2
 72
     6
 73
     3
 74
     0
 42
0.0000000001
 43
0.0000000001
 40
0.0
 40
0.0
 40
0.0
 40
1.466665386981944
 40
1.466665386981944
 40
1.466665386981944
 10
79.85660313001789
 20
1428.416470791129
 30
0.0
 10
80.58993582350885
 20
1428.416470791129
 30
0.0
 10
81.32326851699983
 20
1428.416470791129
 30
0.0
  0
SPLINE
  5
128
330
1F
100
AcDbEntity
  8
Predefinito
100
AcDbSpline
210
0.0
220
0.0
230
1.0
 70
    24
 71
     2
 72
     6
 73
     3
 74
     0
 42
0.0000000001
 43
0.0000000001
 40
0.0
 40
0.0
 40
0.0
 40
1.406355346145816
 40
1.406355346145816
 40
1.406355346145816
 10
77.87478624475243
 20
1428.416470791129
 30
0.0
 10
78.57796391782534
 20
1428.416470791129
 30
0.0
 10
79.28114159089824
 20
1428.416470791129
 30
0.0
  0
SPLINE
  5
129
330
1F
100
AcDbEntity
  8
Predefinito
100
AcDbSpline
210
0.0
220
0.0
230
1.0
 70
    24
 71
     2
 72
     6
 73
     3
 74
     0
 42
0.0000000001
 43
0.0000000001
 40
0.0
 40
0.0
 40
0.0
 40
1.538906783560833
 40
1.538906783560833
 40
1.538906783560833
 10
76.0086219713618
 20
1428.416470791128
 30
0.0
 10
76.77807536314222
 20
1428.416470791129
 30
0.0
 10
77.54752875492264
 20
1428.416470791129
 30
0.0
  0
SPLINE
  5
12A
330
1F
100
AcDbEntity
  8
Predefinito
100
AcDbSpline
210
0.0
220
0.0
230
1.0
 70
    24
 71
     2
 72
     6
 73
     3
 74
     0
 42
0.0000000001
 43
0.0000000001
 40
0.0
 40
0.0
 40
0.0
 40
0.8286040804844106
 40
0.8286040804844106
 40
0.8286040804844106
 10
74.5473839787517
 20
1428.416470791129
 30
0.0
 10
74.9616860189939
 20
1428.416470791129
 30
0.0
 10
75.37598805923611
 20
1428.416470791129
 30
0.0
  0
SPLINE
  5
12B
330
1F
100
AcDbEntity
  8
Predefinito
100
AcDbSpline
210
0.0
220
0.0
230
1.0
 70
    24
 71
     2
 72
     6
 73
     3
 74
     0
 42
0.0000000001
 43
0.0000000001
 40
0.0
 40
0.0
 40
0.0
 40
1.221568588896147
 40
1.221568588896147
 40
1.221568588896147
 10
72.30852534967067
 20
1428.416470791128
 30
0.0
 10
72.91930964411875
 20
1428.416470791128
 30
0.0
 10
73.53009393856682
 20
1428.416470791128
 30
0.0
  0
SPLINE
  5
12C
330
1F
100
AcDbEntity
  8
Predefinito
100
AcDbSpline
210
0.0
220
0.0
230
1.0
 70
    24
 71
     2
 72
     6
 73
     3
 74
     0
 42
0.0000000001
 43
0.0000000001
 40
0.0
 40
0.0
 40
0.0
 40
1.196851545408578
 40
1.196851545408578
 40
1.196851545408578
 10
70.68318404013436
 20
1428.416470791128
 30
0.0
 10
71.28160981283865
 20
1428.416470791129
 30
0.0
 10
71.88003558554294
 20
1428.416470791129
 30
0.0
  0
SPLINE
  5
12D
330
1F
100
AcDbEntity
  8
Predefinito
100
AcDbSpline
210
0.0
220
0.0
230
1.0
 70
    24
 71
     2
 72
     6
 73
     3
 74
     0
 42
0.0000000001
 43
0.0000000001
 40
0.0
 40
0.0
 40
0.0
 40
1.094992411769283
 40
1.094992411769283
 40
1.094992411769283
 10
68.9959111736201
 20
1428.416470791128
 30
0.0
 10
69.54340737950474
 20
1428.416470791128
 30
0.0
 10
70.09090358538938
 20
1428.416470791128
 30
0.0
  0
SPLINE
  5
12E
330
1F
100
AcDbEntity
  8
Predefinito
100
AcDbSpline
210
0.0
220
0.0
230
1.0
 70
    24
 71
     2
 72
     6
 73
     3
 74
     0
 42
0.0000000001
 43
0.0000000001
 40
0.0
 40
0.0
 40
0.0
 40
0.9015646177679599
 40
0.9015646177679599
 40
0.9015646177679599
 10
67.67879110223744
 20
1428.416470791129
 30
0.0
 10
68.12957341112141
 20
1428.416470791129
 30
0.0
 10
68.5803557200054
 20
1428.416470791129
 30
0.0
  0
SPLINE
  5
12F
330
1F
100
AcDbEntity
  8
Predefinito
100
AcDbSpline
210
0.0
220
0.0
230
1.0
 70
    24
 71
     2
 72
     6
 73
     3
 74
     0
 42
0.0000000001
 43
0.0000000001
 40
0.0
 40
0.0
 40
0.0
 40
0.8530405767664462
 40
0.8530405767664462
 40
0.8530405767664462
 10
66.18017094810992
 20
1428.416470791129
 30
0.0
 10
66.60669123649313
 20
1428.416470791129
 30
0.0
 10
67.03321152487636
 20
1428.416470791129
 30
0.0
  0
SPLINE
  5
130
330
1F
100
AcDbEntity
  8
Predefinito
100
AcDbSpline
210
0.0
220
0.0
230
1.0
 70
    24
 71
     2
 72
     6
 73
     3
 74
     0
 42
0.0000000001
 43
0.0000000001
 40
0.0
 40
0.0
 40
0.0
 40
0.5764617150331333
 40
0.5764617150331333
 40
0.5764617150331333
 10
65.08474925769019
 20
1428.416470791129
 30
0.0
 10
65.37298011520676
 20
1428.416470791129
 30
0.0
 10
65.66121097272332
 20
1428.416470791129
 30
0.0
  0
SPLINE
  5
131
330
1F
100
AcDbEntity
  8
Predefinito
100
AcDbSpline
210
0.0
220
0.0
230
1.0
 70
    24
 71
     2
 72
     6
 73
     3
 74
     0
 42
0.0000000001
 43
0.0000000001
 40
0.0
 40
0.0
 40
0.0
 40
0.8299941170065637
 40
0.8299941170065637
 40
0.8299941170065637
 10
63.5693607368641
 20
1428.416470791129
 30
0.0
 10
63.98435779536738
 20
1428.416470791129
 30
0.0
 10
64.39935485387066
 20
1428.416470791129
 30
0.0
  0
SPLINE
  5
132
330
1F
100
AcDbEntity
  8
Predefinito
100
AcDbSpline
210
0.0
220
0.0
230
1.0
 70
    24
 71
     2
 72
     6
 73
     3
 74
     0
 42
0.0000000001
 43
0.0000000001
 40
0.0
 40
0.0
 40
0.0
 40
0.760362226463954
 40
0.760362226463954
 40
0.760362226463954
 10
62.49028945253761
 20
1428.416470791129
 30
0.0
 10
62.87047056576959
 20
1428.416470791129
 30
0.0
 10
63.25065167900156
 20
1428.416470791129
 30
0.0
  0
SPLINE
  5
133
330
1F
100
AcDbEntity
  8
Predefinito
100
AcDbSpline
210
0.0
220
0.0
230
1.0
 70
    24
 71
     2
 72
     6
 73
     3
 74
     0
 42
0.0000000001
 43
0.0000000001
 40
0.0
 40
0.0
 40
0.0
 40
0.6890477991202033
 40
0.6890477991202033
 40
0.6890477991202033
 10
61.52810297631233
 20
1428.416470791128
 30
0.0
 10
61.87262687587243
 20
1428.416470791129
 30
0.0
 10
62.21715077543253
 20
1428.416470791129
 30
0.0
  0
SPLINE
  5
134
330
1F
100
AcDbEntity
  8
Predefinito
100
AcDbSpline
210
0.0
220
0.0
230
1.0
 70
    24
 71
     2
 72
     6
 73
     3
 74
     0
 42
0.0000000001
 43
0.0000000001
 40
0.0
 40
0.0
 40
0.0
 40
0.6159053058161845
 40
0.6159053058161845
 40
0.6159053058161845
 10
60.68404454424954
 20
1428.416470791128
 30
0.0
 10
60.99199719715763
 20
1428.416470791129
 30
0.0
 10
61.29994985006572
 20
1428.416470791129
 30
0.0
  0
SPLINE
  5
135
330
1F
100
AcDbEntity
  8
Predefinito
100
AcDbSpline
210
0.0
220
0.0
230
1.0
 70
    24
 71
     2
 72
     6
 73
     3
 74
     0
 42
0.0000000001
 43
0.0000000001
 40
0.0
 40
0.0
 40
0.0
 40
0.5408122774956183
 40
0.5408122774956183
 40
0.5408122774956183
 10
59.95840807694546
 20
1428.416470791128
 30
0.0
 10
60.22881421569327
 20
1428.416470791128
 30
0.0
 10
60.49922035444108
 20
1428.416470791129
 30
0.0
  0
SPLINE
  5
136
330
1F
100
AcDbEntity
  8
Predefinito
100
AcDbSpline
210
0.0
220
0.0
230
1.0
 70
    24
 71
     2
 72
     6
 73
     3
 74
     0
 42
0.0000000001
 43
0.0000000001
 40
0.0
 40
0.0
 40
0.0
 40
0.4636752925567222
 40
0.4636752925567222
 40
0.4636752925567222
 10
59.35057367265274
 20
1428.416470791129
 30
0.0
 10
59.58241131893111
 20
1428.416470791129
 30
0.0
 10
59.81424896520947
 20
1428.416470791129
 30
0.0
  0
SPLINE
  5
137
330
1F
100
AcDbEntity
  8
Predefinito
100
AcDbSpline
210
0.0
220
0.0
230
1.0
 70
    24
 71
     2
 72
     6
 73
     3
 74
     0
 42
0.0000000001
 43
0.0000000001
 40
0.0
 40
0.0
 40
0.0
 40
0.3844347347962227
 40
0.3844347347962227
 40
0.3844347347962227
 10
58.85905831619471
 20
1428.416470791128
 30
0.0
 10
59.05127568359282
 20
1428.416470791129
 30
0.0
 10
59.24349305099093
 20
1428.416470791129
 30
0.0
  0
SPLINE
  5
138
330
1F
100
AcDbEntity
  8
Predefinito
100
AcDbSpline
210
0.0
220
0.0
230
1.0
 70
    24
 71
     2
 72
     6
 73
     3
 74
     0
 42
0.0000000001
 43
0.0000000001
 40
0.0
 40
0.0
 40
0.0
 40
46.95327291516648
 40
46.95327291516648
 40
46.95327291516648
 10
104.9999999999999
 20
1426.416470791129
 30
0.0
 10
81.5233635424167
 20
1426.416470791129
 30
0.0
 10
58.04672708483346
 20
1426.416470791129
 30
0.0
  0
SPLINE
  5
139
330
1F
100
AcDbEntity
  8
Predefinito
100
AcDbSpline
210
0.0
220
0.0
230
1.0
 70
    12
 71
     2
 72
     8
 73
     5
 74
     0
 42
0.0000000001
 43
0.0000000001
 40
0.0
 40
0.0
 40
0.0
 40
0.0467270848335204
 40
0.0467270848335204
 40
73.87415444419366
 40
73.87415444419366
 40
73.87415444419366
 10
151.9532729151664
 20
1426.416470766068
 30
0.0
 41
1.0
 10
151.9766364575832
 20
1426.416470766068
 30
0.0
 41
1.0
 10
151.9999999999999
 20
1426.416470766069
 30
0.0
 41
1.0
 10
152.0
 20
1426.416470791129
 30
0.0
 41
0.7071067811865476
 10
104.9999999999999
 20
1426.416470791129
 30
0.0
 41
1.0
  0
SPLINE
  5
13A
330
1F
100
AcDbEntity
  8
Predefinito
100
AcDbSpline
210
0.0
220
0.0
230
1.0
 70
    24
 71
     2
 72
     6
 73
     3
 74
     0
 42
0.0000000001
 43
0.0000000001
 40
0.0
 40
0.0
 40
0.0
 40
75.90992438298724
 40
75.90992438298724
 40
75.90992438298724
 10
180.9099243829872
 20
1010.792560394175
 30
0.0
 10
142.9549621914936
 20
1010.792560394175
 30
0.0
 10
105.0
 20
1010.792560394175
 30
0.0
  0
SPLINE
  5
13B
330
1F
100
AcDbEntity
  8
Predefinito
100
AcDbSpline
210
0.0
220
0.0
230
1.0
 70
    24
 71
     2
 72
     6
 73
     3
 74
     0
 42
0.0000000001
 43
0.0000000001
 40
0.0
 40
0.0
 40
0.0
 40
74.95800329132868
 40
74.95800329132868
 40
74.95800329132868
 10
105.0
 20
1010.451804214627
 30
0.0
 10
142.4790016456643
 20
1010.451804214627
 30
0.0
 10
179.9580032913287
 20
1010.451804214627
 30
0.0
  0
SPLINE
  5
13C
330
1F
100
AcDbEntity
  8
Predefinito
100
AcDbSpline
210
0.0
220
0.0
230
1.0
 70
    24
 71
     2
 72
     6
 73
     3
 74
     0
 42
0.0000000001
 43
0.0000000001
 40
0.0
 40
0.0
 40
0.0
 40
74.95800329132868
 40
74.95800329132868
 40
74.95800329132868
 10
30.04199670867132
 20
1010.451804214627
 30
0.0
 10
67.52099835433566
 20
1010.451804214627
 30
0.0
 10
105.0
 20
1010.451804214627
 30
0.0
  0
SPLINE
  5
13D
330
1F
100
AcDbEntity
  8
Predefinito
100
AcDbSpline
210
0.0
220
0.0
230
1.0
 70
    24
 71
     2
 72
     6
 73
     3
 74
     0
 42
0.0000000001
 43
0.0000000001
 40
0.0
 40
0.0
 40
0.0
 40
59.5527051833821
 40
59.5527051833821
 40
59.5527051833821
 10
105.0
 20
1423.436658484488
 30
0.0
 10
134.7763525916911
 20
1423.436658484488
 30
0.0
 10
164.5527051833821
 20
1423.436658484488
 30
0.0
  0
SPLINE
  5
13E
330
1F
100
AcDbEntity
  8
Predefinito
100
AcDbSpline
210
0.0
220
0.0
230
1.0
 70
    24
 71
     2
 72
     6
 73
     3
 74
     0
 42
0.0000000001
 43
0.0000000001
 40
0.0
 40
0.0
 40
0.0
 40
104.9999999999999
 40
104.9999999999999
 40
104.9999999999999
 10
104.9999999999999
 20
1325.416470791129
 30
0.0
 10
52.49999999999997
 20
1325.416470791129
 30
0.0
 10
0.0
 20
1325.416470791129
 30
0.0
  0
SPLINE
  5
13F
330
1F
100
AcDbEntity
  8
Predefinito
100
AcDbSpline
210
0.0
220
0.0
230
1.0
 70
    12
 71
     3
 72
    10
 73
     6
 74
     0
 42
0.0000000001
 43
0.0000000001
 40
7.992062842017092
 40
7.992062842017092
 40
7.992062842017092
 40
7.992062842017092
 40
46.30849894117218
 40
92.61699788234436
 40
123.4893305097925
 40
123.4893305097925
 40
123.4893305097925
 40
123.4893305097925
 10
45.4472948166179
 20
1423.436658484488
 30
0.0
 41
1.0
 10
33.8301293517145
 20
1418.309537372096
 30
0.0
 41
1.0
 10
12.98923700838452
 20
1402.920561607808
 30
0.0
 41
1.0
 10
0.0
 20
1361.005215500026
 30
0.0
 41
1.0
 10
0.0
 20
1335.584683565099
 30
0.0
 41
1.0
 10
0.0
 20
1325.416470791129
 30
0.0
 41
1.0
  0
SPLINE
  5
140
330
1F
100
AcDbEntity
  8
Predefinito
100
AcDbSpline
210
0.0
220
0.0
230
1.0
 70
    24
 71
     2
 72
     6
 73
     3
 74
     0
 42
0.0000000001
 43
0.0000000001
 40
0.0
 40
0.0
 40
0.0
 40
59.5527051833821
 40
59.5527051833821
 40
59.5527051833821
 10
45.4472948166179
 20
1423.436658484488
 30
0.0
 10
75.22364740830895
 20
1423.436658484488
 30
0.0
 10
105.0
 20
1423.436658484488
 30
0.0
  0
SPLINE
  5
141
330
1F
100
AcDbEntity
  8
Predefinito
100
AcDbSpline
210
0.0
220
0.0
230
1.0
 70
    12
 71
     2
 72
     8
 73
     5
 74
     0
 42
0.0000000001
 43
0.0000000001
 40
0.0
 40
0.0
 40
0.0
 40
0.0258678321756349
 40
0.0258678321756349
 40
164.9594821456398
 40
164.9594821456398
 40
164.9594821456398
 10
209.9741321678244
 20
1325.416470766068
 30
0.0
 41
1.0
 10
209.9870660839122
 20
1325.416470766068
 30
0.0
 41
1.0
 10
210.0
 20
1325.416470766068
 30
0.0
 41
1.0
 10
210.0
 20
1325.416470791129
 30
0.0
 41
0.7071067811865476
 10
105.0
 20
1325.416470791129
 30
0.0
 41
1.0
  0
SPLINE
  5
142
330
1F
100
AcDbEntity
  8
Predefinito
100
AcDbSpline
210
0.0
220
0.0
230
1.0
 70
    24
 71
     2
 72
     6
 73
     3
 74
     0
 42
0.0000000001
 43
0.0000000001
 40
0.0
 40
0.0
 40
0.0
 40
105.0
 40
105.0
 40
105.0
 10
0.0
 20
1100.416470791129
 30
0.0
 10
52.5
 20
1100.416470791129
 30
0.0
 10
105.0
 20
1100.416470791129
 30
0.0
  0
SPLINE
  5
143
330
1F
100
AcDbEntity
  8
Predefinito
100
AcDbSpline
210
0.0
220
0.0
230
1.0
 70
    24
 71
     2
 72
     6
 73
     3
 74
     0
 42
0.0000000001
 43
0.0000000001
 40
0.0
 40
0.0
 40
0.0
 40
104.9741321678244
 40
104.9741321678244
 40
104.9741321678244
 10
105.0
 20
1100.416470791129
 30
0.0
 10
157.4870660839122
 20
1100.416470791129
 30
0.0
 10
209.9741321678244
 20
1100.416470791129
 30
0.0
  0
SPLINE
  5
144
330
1F
100
AcDbEntity
  8
Predefinito
100
AcDbSpline
210
0.0
220
0.0
230
1.0
 70
    12
 71
     3
 72
    11
 73
     7
 74
     0
 42
0.0000000001
 43
0.0000000001
 40
0.0
 40
0.0
 40
0.0
 40
0.0
 40
17.38629398055607
 40
34.77258796111214
 40
86.93146990278035
 40
100.8747050691792
 40
100.8747050691792
 40
100.8747050691792
 40
100.8747050691792
 10
0.0
 20
1100.416470791129
 30
0.0
 41
1.0
 10
0.0
 20
1094.783370415978
 30
0.0
 41
1.0
 10
0.0
 20
1083.517169665676
 30
0.0
 41
1.0
 10
2.649785064444984
 20
1055.665311163836
 30
0.0
 41
1.0
 10
11.15215587217961
 20
1028.178668750155
 30
0.0
 41
1.0
 10
25.69012881314165
 20
1013.58445025895
 30
0.0
 41
1.0
 10
29.09007561701264
 20
1010.792560394175
 30
0.0
 41
1.0
  0
SPLINE
  5
145
330
1F
100
AcDbEntity
  8
Predefinito
100
AcDbSpline
210
0.0
220
0.0
230
1.0
 70
    24
 71
     2
 72
     6
 73
     3
 74
     0
 42
0.0000000001
 43
0.0000000001
 40
0.0
 40
0.0
 40
0.0
 40
75.90992438298736
 40
75.90992438298736
 40
75.90992438298736
 10
105.0
 20
1010.792560394175
 30
0.0
 10
67.04503780850632
 20
1010.792560394175
 30
0.0
 10
29.09007561701264
 20
1010.792560394175
 30
0.0
  0
SPLINE
  5
146
330
1F
100
AcDbEntity
  8
Predefinito
100
AcDbSpline
210
0.0
220
0.0
230
1.0
 70
    24
 71
     2
 72
     6
 73
     3
 74
     0
 42
0.0000000001
 43
0.0000000001
 40
0.0
 40
0.0
 40
0.0
 40
4.050000000000011
 40
4.050000000000011
 40
4.050000000000011
 10
107.0
 20
1449.716470791129
 30
0.0
 10
109.025
 20
1449.716470791129
 30
0.0
 10
111.05
 20
1449.716470791129
 30
0.0
  0
SPLINE
  5
147
330
1F
100
AcDbEntity
  8
Predefinito
100
AcDbSpline
210
0.0
220
0.0
230
1.0
 70
    24
 71
     2
 72
     6
 73
     3
 74
     0
 42
0.0000000001
 43
0.0000000001
 40
0.0
 40
0.0
 40
0.0
 40
4.050000000000011
 40
4.050000000000011
 40
4.050000000000011
 10
111.05
 20
1449.916470791129
 30
0.0
 10
109.025
 20
1449.916470791129
 30
0.0
 10
107.0
 20
1449.916470791129
 30
0.0
  0
SPLINE
  5
148
330
1F
100
AcDbEntity
  8
Predefinito
100
AcDbSpline
210
0.0
220
0.0
230
1.0
 70
    24
 71
     2
 72
     6
 73
     3
 74
     0
 42
0.0000000001
 43
0.0000000001
 40
0.0
 40
0.0
 40
0.0
 40
4.050000000000011
 40
4.050000000000011
 40
4.050000000000011
 10
107.0
 20
1449.916470791129
 30
0.0
 10
104.975
 20
1449.916470791129
 30
0.0
 10
102.95
 20
1449.916470791129
 30
0.0
  0
SPLINE
  5
149
330
1F
100
AcDbEntity
  8
Predefinito
100
AcDbSpline
210
0.0
220
0.0
230
1.0
 70
    24
 71
     2
 72
     6
 73
     3
 74
     0
 42
0.0000000001
 43
0.0000000001
 40
0.0
 40
0.0
 40
0.0
 40
4.050000000000011
 40
4.050000000000011
 40
4.050000000000011
 10
102.95
 20
1449.716470791129
 30
0.0
 10
104.975
 20
1449.716470791129
 30
0.0
 10
107.0
 20
1449.716470791129
 30
0.0
  0
SPLINE
  5
14A
330
1F
100
AcDbEntity
  8
Predefinito
100
AcDbSpline
210
0.0
220
0.0
230
1.0
 70
    24
 71
     2
 72
     6
 73
     3
 74
     0
 42
0.0000000001
 43
0.0000000001
 40
0.0
 40
0.0
 40
0.0
 40
3.25
 40
3.25
 40
3.25
 10
107.0
 20
1448.916470791129
 30
0.0
 10
105.375
 20
1448.916470791129
 30
0.0
 10
103.75
 20
1448.916470791129
 30
0.0
  0
SPLINE
  5
14B
330
1F
100
AcDbEntity
  8
Predefinito
100
AcDbSpline
210
0.0
220
0.0
230
1.0
 70
    24
 71
     2
 72
     6
 73
     3
 74
     0
 42
0.0000000001
 43
0.0000000001
 40
0.0
 40
0.0
 40
0.0
 40
3.25
 40
3.25
 40
3.25
 10
103.75
 20
1450.716470791129
 30
0.0
 10
105.375
 20
1450.716470791129
 30
0.0
 10
107.0
 20
1450.716470791129
 30
0.0
  0
SPLINE
  5
14C
330
1F
100
AcDbEntity
  8
Predefinito
100
AcDbSpline
210
0.0
220
0.0
230
1.0
 70
    24
 71
     2
 72
     6
 73
     3
 74
     0
 42
0.0000000001
 43
0.0000000001
 40
0.0
 40
0.0
 40
0.0
 40
1.200000000000045
 40
1.200000000000045
 40
1.200000000000045
 10
349.7871376401965
 20
1861.696470791129
 30
0.0
 10
349.7871376401965
 20
1862.296470791129
 30
0.0
 10
349.7871376401965
 20
1862.896470791129
 30
0.0
  0
SPLINE
  5
14D
330
1F
100
AcDbEntity
  8
Predefinito
100
AcDbSpline
210
0.0
220
0.0
230
1.0
 70
    12
 71
     2
 72
     6
 73
     3
 74
     0
 42
0.0000000001
 43
0.0000000001
 40
0.0
 40
0.0
 40
0.0
 40
0.4723451357683407
 40
0.4723451357683407
 40
0.4723451357683407
 10
376.4897756913598
 20
1890.814507320641
 30
0.0
 41
1.0
 10
376.4897977917408
 20
1891.114483079881
 30
0.0
 41
0.7094716033116776
 10
376.7897669661978
 20
1891.116470791129
 30
0.0
 41
1.0
  0
SPLINE
  5
14E
330
1F
100
AcDbEntity
  8
Predefinito
100
AcDbSpline
210
0.0
220
0.0
230
1.0
 70
    12
 71
     2
 72
     6
 73
     3
 74
     0
 42
0.0000000001
 43
0.0000000001
 40
0.0
 40
0.0
 40
0.0
 40
10.71662605757116
 40
10.71662605757116
 40
10.71662605757116
 10
447.28714627726
 20
1445.071121015371
 30
0.0
 41
1.0
 10
447.28713081478
 20
1439.712807986599
 30
0.0
 41
0.9999999999976853
 10
447.2871384104891
 20
1434.354494957811
 30
0.0
 41
1.0
  0
SPLINE
  5
14F
330
1F
100
AcDbEntity
  8
Predefinito
100
AcDbSpline
210
0.0
220
0.0
230
1.0
 70
    12
 71
     2
 72
     6
 73
     3
 74
     0
 42
0.0000000001
 43
0.0000000001
 40
0.0
 40
0.0
 40
0.0
 40
6.116303618165482
 40
6.116303618165482
 40
6.116303618165482
 10
442.2871369940694
 20
1438.962005298104
 30
0.0
 41
1.0
 10
442.2871367805161
 20
1442.020157107189
 30
0.0
 41
0.9999999999988499
 10
442.2871458432513
 20
1445.078308916261
 30
0.0
 41
1.0
  0
SPLINE
  5
150
330
1F
100
AcDbEntity
  8
Predefinito
100
AcDbSpline
210
0.0
220
0.0
230
1.0
 70
    12
 71
     2
 72
     6
 73
     3
 74
     0
 42
0.0000000001
 43
0.0000000001
 40
0.0
 40
0.0
 40
0.0
 40
3.837244867762058
 40
3.837244867762058
 40
3.837244867762058
 10
442.2871383703314
 20
1434.354494935966
 30
0.0
 41
1.0
 10
442.2871385167548
 20
1436.273117369847
 30
0.0
 41
0.9999999999997072
 10
442.2871357267678
 20
1438.191739803727
 30
0.0
 41
1.0
  0
SPLINE
  5
151
330
1F
100
AcDbEntity
  8
Predefinito
100
AcDbSpline
210
0.0
220
0.0
230
1.0
 70
    12
 71
     2
 72
     6
 73
     3
 74
     0
 42
0.0000000001
 43
0.0000000001
 40
0.0
 40
0.0
 40
0.0
 40
3.752585193202721
 40
3.752585193202721
 40
3.752585193202721
 10
447.2871233710757
 20
1448.916470791129
 30
0.0
 41
1.0
 10
447.2871830699939
 20
1447.040178195076
 30
0.0
 41
0.9999999996795159
 10
447.2871477633985
 20
1445.163885598406
 30
0.0
 41
1.0
  0
SPLINE
  5
152
330
1F
100
AcDbEntity
  8
Predefinito
100
AcDbSpline
210
0.0
220
0.0
230
1.0
 70
    12
 71
     2
 72
     6
 73
     3
 74
     0
 42
0.0000000001
 43
0.0000000001
 40
0.0
 40
0.0
 40
0.0
 40
3.111200274518568
 40
3.111200274518568
 40
3.111200274518568
 10
447.2870948671043
 20
1453.827671061155
 30
0.0
 41
1.0
 10
447.287097715373
 20
1452.272070922841
 30
0.0
 41
0.999999998980345
 10
447.2872410614791
 20
1450.716470791129
 30
0.0
 41
1.0
  0
SPLINE
  5
153
330
1F
100
AcDbEntity
  8
Predefinito
100
AcDbSpline
210
0.0
220
0.0
230
1.0
 70
    12
 71
     2
 72
     6
 73
     3
 74
     0
 42
0.0000000001
 43
0.0000000001
 40
0.0
 40
0.0
 40
0.0
 40
3.11132336240646
 40
3.11132336240646
 40
3.11132336240646
 10
442.2872332578045
 20
1450.716470791129
 30
0.0
 41
1.0
 10
442.2870998548989
 20
1452.272132467559
 30
0.0
 41
0.9999999990874817
 10
442.2870993691102
 20
1453.827794149708
 30
0.0
 41
1.0
  0
SPLINE
  5
154
330
1F
100
AcDbEntity
  8
Predefinito
100
AcDbSpline
210
0.0
220
0.0
230
1.0
 70
    12
 71
     2
 72
     6
 73
     3
 74
     0
 42
0.0000000001
 43
0.0000000001
 40
0.0
 40
0.0
 40
0.0
 40
1.357752746988194
 40
1.357752746988194
 40
1.357752746988194
 10
442.2871501203044
 20
1447.558718044467
 30
0.0
 41
1.0
 10
442.2871299683356
 20
1448.237594417677
 30
0.0
 41
0.9999999999655845
 10
442.2871210808834
 20
1448.916470791129
 30
0.0
 41
1.0
  0
SPLINE
  5
155
330
1F
100
AcDbEntity
  8
Predefinito
100
AcDbSpline
210
0.0
220
0.0
230
1.0
 70
    12
 71
     2
 72
     6
 73
     3
 74
     0
 42
0.0000000001
 43
0.0000000001
 40
0.0
 40
0.0
 40
0.0
 40
2.082479936475262
 40
2.082479936475262
 40
2.082479936475262
 10
442.2871471696417
 20
1445.167725056863
 30
0.0
 41
1.0
 10
442.2871664526534
 20
1446.208965024995
 30
0.0
 41
0.9999999998945241
 10
442.2871554893758
 20
1447.250204993248
 30
0.0
 41
1.0
  0
SPLINE
  5
156
330
1F
100
AcDbEntity
  8
Predefinito
100
AcDbSpline
210
0.0
220
0.0
230
1.0
 70
     8
 71
     3
 72
    17
 73
    13
 74
     0
 42
0.0000000001
 43
0.0000000001
 40
0.0
 40
0.0
 40
0.0
 40
0.0
 40
7.47061367571407
 40
14.09910554027557
 40
27.841000683554
 40
40.62307351750533
 40
47.77869650849161
 40
69.789901522245
 40
83.6258740414041
 40
97.7461367926574
 40
104.913961830443
 40
115.9136098014985
 40
115.9136098014985
 40
115.9136098014985
 40
115.9136098014985
 10
453.9087284823675
 20
1565.882270760509
 30
0.0
 10
455.4586316433654
 20
1563.923556978623
 30
0.0
 10
458.1585514570479
 20
1560.087173763803
 30
0.0
 10
462.0700570508426
 20
1551.571404144285
 30
0.0
 10
463.0647314753375
 20
1540.368007930942
 30
0.0
 10
460.9062523439306
 20
1529.308920020366
 30
0.0
 10
457.2185746986451
 20
1515.827047794071
 30
0.0
 10
452.7172812527459
 20
1502.203771825573
 30
0.0
 10
448.9505264262089
 20
1485.959696719501
 30
0.0
 10
447.5860775300994
 20
1474.311186791259
 30
0.0
 10
447.2525233696932
 20
1463.550142869899
 30
0.0
 10
447.2906346163131
 20
1457.494699249098
 30
0.0
 10
447.2870949310973
 20
1453.827894656442
 30
0.0
  0
SPLINE
  5
157
330
1F
100
AcDbEntity
  8
Predefinito
100
AcDbSpline
210
0.0
220
0.0
230
1.0
 70
     8
 71
     3
 72
    14
 73
    10
 74
     0
 42
0.0000000001
 43
0.0000000001
 40
0.0
 40
0.0
 40
0.0
 40
0.0
 40
11.00412419577864
 40
29.99646398224386
 40
36.68797289604746
 40
49.29740788475242
 40
61.38186314774129
 40
67.19942686225124
 40
73.8596207785425
 40
73.8596207785425
 40
73.8596207785425
 40
73.8596207785425
 10
445.3871376413713
 20
1492.42326004889
 30
0.0
 10
446.171520815257
 20
1496.006925831367
 30
0.0
 10
448.6205448713124
 20
1505.703568300912
 30
0.0
 10
452.4247809447464
 20
1517.339320144343
 30
0.0
 10
455.828999684201
 20
1529.633306515545
 30
0.0
 10
457.9701416187123
 20
1539.911191980415
 30
0.0
 10
457.2058946046437
 20
1550.233936482374
 30
0.0
 10
453.7105525079485
 20
1557.741283235714
 30
0.0
 10
451.3064304983525
 20
1561.117696836064
 30
0.0
 10
449.9213385724269
 20
1562.864220649411
 30
0.0
  0
SPLINE
  5
158
330
1F
100
AcDbEntity
  8
Predefinito
100
AcDbSpline
210
0.0
220
0.0
230
1.0
 70
     8
 71
     3
 72
    11
 73
     7
 74
     0
 42
0.0000000001
 43
0.0000000001
 40
0.0
 40
0.0
 40
0.0
 40
0.0
 40
11.11266159471659
 40
14.82683669260505
 40
18.26803594753392
 40
32.5119166673532
 40
32.5119166673532
 40
32.5119166673532
 40
32.5119166673532
 10
442.2870993716802
 20
1453.827803714092
 30
0.0
 10
442.2941783912964
 20
1457.531785362023
 30
0.0
 10
442.2543930071454
 20
1462.474856307357
 30
0.0
 10
442.4069289441759
 20
1468.562620517785
 30
0.0
 10
442.7331110191595
 20
1475.68869469532
 30
0.0
 10
443.3880248156884
 20
1481.55596507649
 30
0.0
 10
444.187137649663
 20
1486.236489383171
 30
0.0
  0
SPLINE
  5
159
330
1F
100
AcDbEntity
  8
Predefinito
100
AcDbSpline
210
0.0
220
0.0
230
1.0
 70
    12
 71
     2
 72
     6
 73
     3
 74
     0
 42
0.0000000001
 43
0.0000000001
 40
0.0
 40
0.0
 40
0.0
 40
9.195803377631112
 40
9.195803377631112
 40
9.195803377631112
 10
449.9139824700334
 20
1562.873541321515
 30
0.0
 41
1.0
 10
447.0055254747128
 20
1566.435024247597
 30
0.0
 41
0.999908382452691
 10
444.0017257652486
 20
1569.916470790604
 30
0.0
 41
1.0
  0
SPLINE
  5
15A
330
1F
100
AcDbEntity
  8
Predefinito
100
AcDbSpline
210
0.0
220
0.0
230
1.0
 70
     8
 71
     3
 72
    15
 73
    11
 74
     0
 42
0.0000000001
 43
0.0000000001
 40
0.0
 40
0.0
 40
0.0
 40
0.0
 40
17.97656361219394
 40
31.50473365933097
 40
43.38359955934011
 40
53.91395239916598
 40
63.16372386287762
 40
72.32115439796976
 40
81.55724315157444
 40
94.80121106557215
 40
94.80121106557215
 40
94.80121106557215
 40
94.80121106557215
 10
444.1871376401966
 20
1661.019631057878
 30
0.0
 10
441.7559455598723
 20
1655.543479976489
 30
0.0
 10
437.5594810363003
 20
1645.911179312129
 30
0.0
 10
432.8713612423036
 20
1632.214094589014
 30
0.0
 10
430.2910582706937
 20
1620.49019805269
 30
0.0
 10
429.612278379904
 20
1609.919357569896
 30
0.0
 10
430.8317411340575
 20
1600.300869702153
 30
0.0
 10
433.9781385179975
 20
1591.57486837652
 30
0.0
 10
439.593738817443
 20
1582.596918023414
 30
0.0
 10
444.5794317948416
 20
1576.978870815116
 30
0.0
 10
447.4253967039906
 20
1573.608369245115
 30
0.0
  0
SPLINE
  5
15B
330
1F
100
AcDbEntity
  8
Predefinito
100
AcDbSpline
210
0.0
220
0.0
230
1.0
 70
    12
 71
     2
 72
     6
 73
     3
 74
     0
 42
0.0000000001
 43
0.0000000001
 40
0.0
 40
0.0
 40
0.0
 40
1.41970908644519
 40
1.41970908644519
 40
1.41970908644519
 10
445.9646966712608
 20
1665.014848822422
 30
0.0
 41
1.0
 10
445.6759194806316
 20
1664.366388178512
 30
0.0
 41
0.9999999999935728
 10
445.3871376401776
 20
1663.717929605312
 30
0.0
 41
1.0
  0
SPLINE
  5
15C
330
1F
100
AcDbEntity
  8
Predefinito
100
AcDbSpline
210
0.0
220
0.0
230
1.0
 70
     8
 71
     3
 72
    14
 73
    10
 74
     0
 42
0.0000000001
 43
0.0000000001
 40
0.0
 40
0.0
 40
0.0
 40
0.0
 40
13.28122498193185
 40
23.41552957896764
 40
33.46252354677274
 40
43.95204340761105
 40
68.22801809288734
 40
82.63459297961057
 40
103.022650005118
 40
103.022650005118
 40
103.022650005118
 40
103.022650005118
 10
442.4687599567655
 20
1571.716470791124
 30
0.0
 10
439.5999325071301
 20
1575.083723530767
 30
0.0
 10
434.4975095202704
 20
1581.017090125865
 30
0.0
 10
428.8385419568797
 20
1590.696356524016
 30
0.0
 10
425.6281240369272
 20
1600.454993026237
 30
0.0
 10
424.1537448420531
 20
1615.437004417947
 30
0.0
 10
427.2795587907955
 20
1631.7154434024
 30
0.0
 10
433.8747960409891
 20
1650.233899204392
 30
0.0
 10
438.6401214773715
 20
1660.852507991945
 30
0.0
 10
441.3971440203341
 20
1667.04891503865
 30
0.0
  0
SPLINE
  5
15D
330
1F
100
AcDbEntity
  8
Predefinito
100
AcDbSpline
210
0.0
220
0.0
230
1.0
 70
    12
 71
     2
 72
     6
 73
     3
 74
     0
 42
0.0000000001
 43
0.0000000001
 40
0.0
 40
0.0
 40
0.0
 40
8.99427497344651
 40
8.99427497344651
 40
8.99427497344651
 10
449.6210801993188
 20
1673.232384524871
 30
0.0
 41
1.0
 10
447.7989298765083
 20
1669.120931872378
 30
0.0
 41
0.9999989194378248
 10
445.9646991475381
 20
1665.014854383398
 30
0.0
 41
1.0
  0
SPLINE
  5
15E
330
1F
100
AcDbEntity
  8
Predefinito
100
AcDbSpline
210
0.0
220
0.0
230
1.0
 70
    12
 71
     2
 72
     6
 73
     3
 74
     0
 42
0.0000000001
 43
0.0000000001
 40
0.0
 40
0.0
 40
0.0
 40
6.855499199212788
 40
6.855499199212788
 40
6.855499199212788
 10
441.3971465412897
 20
1667.048920700013
 30
0.0
 41
1.0
 10
442.7936310131893
 20
1670.179304096443
 30
0.0
 41
0.9999998869332325
 10
444.1871376401961
 20
1673.311014231399
 30
0.0
 41
1.0
  0
SPLINE
  5
15F
330
1F
100
AcDbEntity
  8
Predefinito
100
AcDbSpline
210
0.0
220
0.0
230
1.0
 70
    12
 71
     2
 72
     6
 73
     3
 74
     0
 42
0.0000000001
 43
0.0000000001
 40
0.0
 40
0.0
 40
0.0
 40
6.858425171279354
 40
6.858425171279354
 40
6.858425171279354
 10
443.553370239747
 20
1768.71647079051
 30
0.0
 41
1.0
 10
441.7836627002832
 20
1771.653756804938
 30
0.0
 41
0.999999046626522
 10
440.0220738032007
 20
1774.595919013835
 30
0.0
 41
1.0
  0
SPLINE
  5
160
330
1F
100
AcDbEntity
  8
Predefinito
100
AcDbSpline
210
0.0
220
0.0
230
1.0
 70
     8
 71
     3
 72
    13
 73
     9
 74
     0
 42
0.0000000001
 43
0.0000000001
 40
0.0
 40
0.0
 40
0.0
 40
0.0
 40
13.84382406174223
 40
27.35567272434107
 40
52.7213211280533
 40
73.47222005249968
 40
83.16442369588154
 40
95.10526983236278
 40
95.10526983236278
 40
95.10526983236278
 40
95.10526983236278
 10
445.3871376401898
 20
1676.024430355812
 30
0.0
 10
447.2490360820504
 20
1680.242655338504
 30
0.0
 10
450.6134327047674
 20
1688.740536394409
 30
0.0
 10
455.3600238897149
 20
1705.664727781565
 30
0.0
 10
458.0743878649349
 20
1725.487428537176
 30
0.0
 10
455.7028415166331
 20
1744.139184600944
 30
0.0
 10
450.363270221389
 20
1757.298246522427
 30
0.0
 10
446.6974989793945
 20
1763.509025697783
 30
0.0
 10
444.6356620491169
 20
1766.916470791127
 30
0.0
  0
SPLINE
  5
161
330
1F
100
AcDbEntity
  8
Predefinito
100
AcDbSpline
210
0.0
220
0.0
230
1.0
 70
    12
 71
     2
 72
     6
 73
     3
 74
     0
 42
0.0000000001
 43
0.0000000001
 40
0.0
 40
0.0
 40
0.0
 40
7.284687666581735
 40
7.284687666581735
 40
7.284687666581735
 10
441.0655879288614
 20
1783.660893107393
 30
0.0
 41
1.0
 10
442.4010648259323
 20
1780.261801414815
 30
0.0
 41
0.9960263540018233
 10
444.3183905322363
 20
1777.153556731218
 30
0.0
 41
1.0
  0
SPLINE
  5
162
330
1F
100
AcDbEntity
  8
Predefinito
100
AcDbSpline
210
0.0
220
0.0
230
1.0
 70
    12
 71
     2
 72
     6
 73
     3
 74
     0
 42
0.0000000001
 43
0.0000000001
 40
0.0
 40
0.0
 40
0.0
 40
8.122480393125578
 40
8.122480393125578
 40
8.122480393125578
 10
440.022065270374
 20
1774.595933343369
 30
0.0
 41
1.0
 10
437.8881249757484
 20
1778.064050076237
 30
0.0
 41
0.9960253371229889
 10
436.4034011972803
 20
1781.855768704441
 30
0.0
 41
1.0
  0
SPLINE
  5
163
330
1F
100
AcDbEntity
  8
Predefinito
100
AcDbSpline
210
0.0
220
0.0
230
1.0
 70
     8
 71
     3
 72
    12
 73
     8
 74
     0
 42
0.0000000001
 43
0.0000000001
 40
0.0
 40
0.0
 40
0.0
 40
0.0
 40
24.84462626891285
 40
33.23721999215
 40
49.47486566202961
 40
62.95023463890499
 40
73.0648105419511
 40
73.0648105419511
 40
73.0648105419511
 40
73.0648105419511
 10
436.4618210850616
 20
1856.27544304671
 30
0.0
 10
436.480686818611
 20
1847.99374378688
 30
0.0
 10
436.4034882599211
 20
1836.91512397933
 30
0.0
 10
436.4424882436206
 20
1820.422930730542
 30
0.0
 10
436.7639666456902
 20
1807.723746048622
 30
0.0
 10
438.0109846926136
 20
1794.488755656287
 30
0.0
 10
439.8489071763554
 20
1786.813880197633
 30
0.0
 10
441.0643585470914
 20
1783.664073887437
 30
0.0
  0
SPLINE
  5
164
330
1F
100
AcDbEntity
  8
Predefinito
100
AcDbSpline
210
0.0
220
0.0
230
1.0
 70
     8
 71
     3
 72
    13
 73
     9
 74
     0
 42
0.0000000001
 43
0.0000000001
 40
0.0
 40
0.0
 40
0.0
 40
0.0
 40
4.878584581316911
 40
10.68548012890566
 40
24.57130546587529
 40
40.95167298223196
 40
49.69586672813531
 40
74.86532078900227
 40
74.86532078900227
 40
74.86532078900227
 40
74.86532078900227
 10
436.3853194115583
 20
1781.902628409687
 30
0.0
 10
435.8025573205439
 20
1783.421736236451
 30
0.0
 10
434.707297909068
 20
1786.812932499537
 30
0.0
 10
432.9830014102643
 20
1794.834158685739
 30
0.0
 10
431.7980742674912
 20
1806.815241574001
 30
0.0
 10
431.4491399407991
 20
1819.816566720337
 30
0.0
 10
431.3985153853185
 20
1836.581621271929
 30
0.0
 10
431.4829111472686
 20
1847.885798664494
 30
0.0
 10
431.4618163506462
 20
1856.275754651162
 30
0.0
  0
SPLINE
  5
165
330
1F
100
AcDbEntity
  8
Predefinito
100
AcDbSpline
210
0.0
220
0.0
230
1.0
 70
    12
 71
     2
 72
     6
 73
     3
 74
     0
 42
0.0000000001
 43
0.0000000001
 40
0.0
 40
0.0
 40
0.0
 40
1.090022752968568
 40
1.090022752968568
 40
1.090022752968568
 10
436.4618214927614
 20
1857.365470376583
 30
0.0
 41
1.0
 10
436.4618211524776
 20
1856.820459000099
 30
0.0
 41
0.9999999999999686
 10
436.4618210851962
 20
1856.275447623614
 30
0.0
 41
1.0
  0
SPLINE
  5
166
330
1F
100
AcDbEntity
  8
Predefinito
100
AcDbSpline
210
0.0
220
0.0
230
1.0
 70
    12
 71
     2
 72
     6
 73
     3
 74
     0
 42
0.0000000001
 43
0.0000000001
 40
0.0
 40
0.0
 40
0.0
 40
1.735982941522349
 40
1.735982941522349
 40
1.735982941522349
 10
436.4618166191503
 20
1861.696470792305
 30
0.0
 41
1.0
 10
436.4618189411274
 20
1860.828479321547
 30
0.0
 41
0.9999999999999817
 10
436.4618215957178
 20
1859.96048785079
 30
0.0
 41
1.0
  0
SPLINE
  5
167
330
1F
100
AcDbEntity
  8
Predefinito
100
AcDbSpline
210
0.0
220
0.0
230
1.0
 70
    12
 71
     2
 72
     6
 73
     3
 74
     0
 42
0.0000000001
 43
0.0000000001
 40
0.0
 40
0.0
 40
0.0
 40
5.420711329978325
 40
5.420711329978325
 40
5.420711329978325
 10
431.4618163506966
 20
1856.275759460854
 30
0.0
 41
1.0
 10
431.4617979130754
 20
1858.986115125905
 30
0.0
 41
0.9999999999307602
 10
431.4618432649459
 20
1861.69647079064
 30
0.0
 41
1.0
  0
SPLINE
  5
168
330
1F
100
AcDbEntity
  8
Predefinito
100
AcDbSpline
210
0.0
220
0.0
230
1.0
 70
    24
 71
     2
 72
     6
 73
     3
 74
     0
 42
0.0000000001
 43
0.0000000001
 40
0.0
 40
0.0
 40
0.0
 40
14.56197583333551
 40
14.56197583333551
 40
14.56197583333551
 10
445.3871376401966
 20
1448.916470791129
 30
0.0
 10
445.3871376401966
 20
1441.635482874461
 30
0.0
 10
445.3871376401966
 20
1434.354494957794
 30
0.0
  0
SPLINE
  5
169
330
1F
100
AcDbEntity
  8
Predefinito
100
AcDbSpline
210
0.0
220
0.0
230
1.0
 70
    24
 71
     2
 72
     6
 73
     3
 74
     0
 42
0.0000000001
 43
0.0000000001
 40
0.0
 40
0.0
 40
0.0
 40
117.5727172275192
 40
117.5727172275192
 40
117.5727172275192
 10
445.3871376401966
 20
1568.289188018648
 30
0.0
 10
445.3871376401966
 20
1509.502829404888
 30
0.0
 10
445.3871376401966
 20
1450.716470791129
 30
0.0
  0
SPLINE
  5
16A
330
1F
100
AcDbEntity
  8
Predefinito
100
AcDbSpline
210
0.0
220
0.0
230
1.0
 70
    24
 71
     2
 72
     6
 73
     3
 74
     0
 42
0.0000000001
 43
0.0000000001
 40
0.0
 40
0.0
 40
0.0
 40
189.6610754113296
 40
189.6610754113296
 40
189.6610754113296
 10
445.3871376401966
 20
1765.663079030713
 30
0.0
 10
445.3871376401966
 20
1670.832541325048
 30
0.0
 10
445.3871376401966
 20
1576.002003619383
 30
0.0
  0
SPLINE
  5
16B
330
1F
100
AcDbEntity
  8
Predefinito
100
AcDbSpline
210
0.0
220
0.0
230
1.0
 70
    24
 71
     2
 72
     6
 73
     3
 74
     0
 42
0.0000000001
 43
0.0000000001
 40
0.0
 40
0.0
 40
0.0
 40
86.3250338707744
 40
86.3250338707744
 40
86.3250338707744
 10
445.3871376401966
 20
1861.696470791129
 30
0.0
 10
445.3871376401966
 20
1818.533953855741
 30
0.0
 10
445.3871376401966
 20
1775.371436920354
 30
0.0
  0
SPLINE
  5
16C
330
1F
100
AcDbEntity
  8
Predefinito
100
AcDbSpline
210
0.0
220
0.0
230
1.0
 70
    24
 71
     2
 72
     6
 73
     3
 74
     0
 42
0.0000000001
 43
0.0000000001
 40
0.0
 40
0.0
 40
0.0
 40
1.25
 40
1.25
 40
1.25
 10
397.7871376401965
 20
1428.416470791129
 30
0.0
 10
397.7871376401965
 20
1429.041470791129
 30
0.0
 10
397.7871376401965
 20
1429.666470791129
 30
0.0
  0
SPLINE
  5
16D
330
1F
100
AcDbEntity
  8
Predefinito
100
AcDbSpline
210
0.0
220
0.0
230
1.0
 70
    24
 71
     2
 72
     6
 73
     3
 74
     0
 42
0.0000000001
 43
0.0000000001
 40
0.0
 40
0.0
 40
0.0
 40
0.0038751158744793
 40
0.0038751158744793
 40
0.0038751158744793
 10
491.0530932919618
 20
1430.630464466677
 30
0.0
 10
491.0549589805141
 20
1430.62994165028
 30
0.0
 10
491.0568246690664
 20
1430.629418833882
 30
0.0
  0
SPLINE
  5
16E
330
1F
100
AcDbEntity
  8
Predefinito
100
AcDbSpline
210
0.0
220
0.0
230
1.0
 70
    12
 71
     2
 72
     6
 73
     3
 74
     0
 42
0.0000000001
 43
0.0000000001
 40
0.0
 40
0.0
 40
0.0
 40
17.55335942451079
 40
17.55335942451079
 40
17.55335942451079
 10
473.8613328936315
 20
1434.354494957793
 30
0.0
 41
1.0
 10
482.5520856968205
 20
1433.046679958867
 30
0.0
 41
0.9979660178281144
 10
491.0058006267049
 20
1430.643709247059
 30
0.0
 41
1.0
  0
SPLINE
  5
16F
330
1F
100
AcDbEntity
  8
Predefinito
100
AcDbSpline
210
0.0
220
0.0
230
1.0
 70
    12
 71
     2
 72
     6
 73
     3
 74
     0
 42
0.0000000001
 43
0.0000000001
 40
0.0
 40
0.0
 40
0.0
 40
17.43693679632377
 40
17.43693679632377
 40
17.43693679632377
 10
398.6806110891561
 20
1430.675055688447
 30
0.0
 41
1.0
 10
407.079834982254
 20
1433.056105286705
 30
0.0
 41
0.997985847774888
 10
415.7129423867615
 20
1434.354494957793
 30
0.0
 41
1.0
  0
SPLINE
  5
170
330
1F
100
AcDbEntity
  8
Predefinito
100
AcDbSpline
210
0.0
220
0.0
230
1.0
 70
    12
 71
     2
 72
     6
 73
     3
 74
     0
 42
0.0000000001
 43
0.0000000001
 40
0.0
 40
0.0
 40
0.0
 40
1.296891994683868
 40
1.296891994683868
 40
1.296891994683868
 10
397.7871376401965
 20
1429.666470791129
 30
0.0
 41
1.0
 10
397.7889048074965
 20
1430.42341569049
 30
0.0
 41
0.7982285132021321
 10
398.5172931561015
 20
1430.629374708663
 30
0.0
 41
1.0
  0
SPLINE
  5
171
330
1F
100
AcDbEntity
  8
Predefinito
100
AcDbSpline
210
0.0
220
0.0
230
1.0
 70
    12
 71
     2
 72
     6
 73
     3
 74
     0
 42
0.0000000001
 43
0.0000000001
 40
0.0
 40
0.0
 40
0.0
 40
1.297516559942178
 40
1.297516559942178
 40
1.297516559942178
 10
491.0569821242916
 20
1430.629374708663
 30
0.0
 41
1.0
 10
491.787010966504
 20
1430.424659652048
 30
0.0
 41
0.7969210191601344
 10
491.7871376401966
 20
1429.666470791129
 30
0.0
 41
1.0
  0
SPLINE
  5
172
330
1F
100
AcDbEntity
  8
Predefinito
100
AcDbSpline
210
0.0
220
0.0
230
1.0
 70
    24
 71
     2
 72
     6
 73
     3
 74
     0
 42
0.0000000001
 43
0.0000000001
 40
0.0
 40
0.0
 40
0.0
 40
2.0
 40
2.0
 40
2.0
 10
491.7871376401966
 20
1428.416470791129
 30
0.0
 10
491.7871376401966
 20
1427.416470791129
 30
0.0
 10
491.7871376401966
 20
1426.416470791129
 30
0.0
  0
SPLINE
  5
173
330
1F
100
AcDbEntity
  8
Predefinito
100
AcDbSpline
210
0.0
220
0.0
230
1.0
 70
    12
 71
     2
 72
     6
 73
     3
 74
     0
 42
0.0000000001
 43
0.0000000001
 40
0.0
 40
0.0
 40
0.0
 40
0.9706796208783527
 40
0.9706796208783527
 40
0.9706796208783527
 10
369.8291337568342
 20
1010.451804214627
 30
0.0
 41
1.0
 10
369.3264357823429
 20
1010.453279722091
 30
0.0
 41
0.948994709145192
 10
368.9245662304457
 20
1010.755286831176
 30
0.0
 41
1.0
  0
SPLINE
  5
174
330
1F
100
AcDbEntity
  8
Predefinito
100
AcDbSpline
210
0.0
220
0.0
230
1.0
 70
    12
 71
     2
 72
     6
 73
     3
 74
     0
 42
0.0000000001
 43
0.0000000001
 40
0.0
 40
0.0
 40
0.0
 40
12.91479060717597
 40
12.91479060717597
 40
12.91479060717597
 10
385.2840374842822
 20
1423.458505598778
 30
0.0
 41
1.0
 10
391.2637193052427
 20
1426.086443290348
 30
0.0
 41
0.9830308158258707
 10
397.7887432801388
 20
1426.38091454146
 30
0.0
 41
1.0
  0
SPLINE
  5
175
330
1F
100
AcDbEntity
  8
Predefinito
100
AcDbSpline
210
0.0
220
0.0
230
1.0
 70
     8
 71
     3
 72
    15
 73
    11
 74
     0
 42
0.0000000001
 43
0.0000000001
 40
0.0
 40
0.0
 40
0.0
 40
0.0
 40
13.01485520751053
 40
25.14564753238631
 40
36.91602338210225
 40
49.58870680998573
 40
64.23903641459479
 40
79.95003747164353
 40
95.2364333726388
 40
115.3678309777729
 40
115.3678309777729
 40
115.3678309777729
 40
115.3678309777729
 10
504.3398428235786
 20
1423.436658484488
 30
0.0
 10
508.3090256873399
 20
1421.686416061462
 30
0.0
 10
515.7479672559076
 20
1417.764686817211
 30
0.0
 10
525.465330212787
 20
1410.114272205308
 30
0.0
 10
533.3405336910063
 20
1400.725762530493
 30
0.0
 10
539.6618346112883
 20
1389.27240975579
 30
0.0
 10
544.6262118670883
 20
1375.78381471757
 30
0.0
 10
548.0371390262094
 20
1360.919891661528
 30
0.0
 10
549.7937299731739
 20
1343.943640796396
 30
0.0
 10
549.7788339283846
 20
1332.123670487971
 30
0.0
 10
549.7871376401965
 20
1325.416470791128
 30
0.0
  0
SPLINE
  5
176
330
1F
100
AcDbEntity
  8
Predefinito
100
AcDbSpline
210
0.0
220
0.0
230
1.0
 70
     8
 71
     3
 72
    15
 73
    11
 74
     0
 42
0.0000000001
 43
0.0000000001
 40
0.0
 40
0.0
 40
0.0
 40
0.0
 40
20.12745035154812
 40
35.41455480759192
 40
51.1893175265143
 40
65.77928819168424
 40
78.42510838515302
 40
90.22187854763398
 40
102.3528582988646
 40
115.3678199763117
 40
115.3678199763117
 40
115.3678199763117
 40
115.3678199763117
 10
339.7871376401965
 20
1325.416470791129
 30
0.0
 10
339.796555269687
 20
1332.122216303805
 30
0.0
 10
339.7791152394594
 20
1343.941419551996
 30
0.0
 10
341.5401725885877
 20
1360.937443733621
 30
0.0
 10
344.9532038685907
 20
1375.802198216374
 30
0.0
 10
349.9188393855895
 20
1389.282034790868
 30
0.0
 10
356.2292413684173
 20
1400.717856558291
 30
0.0
 10
364.1016310545939
 20
1410.108608624201
 30
0.0
 10
373.8261709405014
 20
1417.764752362652
 30
0.0
 10
381.2651109407705
 20
1421.686513558339
 30
0.0
 10
385.2344324568145
 20
1423.436658484488
 30
0.0
  0
SPLINE
  5
177
330
1F
100
AcDbEntity
  8
Predefinito
100
AcDbSpline
210
0.0
220
0.0
230
1.0
 70
    24
 71
     2
 72
     6
 73
     3
 74
     0
 42
0.0000000001
 43
0.0000000001
 40
0.0
 40
0.0
 40
0.0
 40
225.0
 40
225.0
 40
225.0
 10
339.7871376401965
 20
1100.416470791129
 30
0.0
 10
339.7871376401965
 20
1212.916470791129
 30
0.0
 10
339.7871376401965
 20
1325.416470791129
 30
0.0
  0
SPLINE
  5
178
330
1F
100
AcDbEntity
  8
Predefinito
100
AcDbSpline
210
0.0
220
0.0
230
1.0
 70
     8
 71
     3
 72
    12
 73
     8
 74
     0
 42
0.0000000001
 43
0.0000000001
 40
0.0
 40
0.0
 40
0.0
 40
0.0
 40
16.53294374768156
 40
29.64112437300059
 40
55.75765002482034
 40
77.86882664049749
 40
97.43727567834216
 40
97.43727567834216
 40
97.43727567834216
 40
97.43727567834216
 10
549.7871376401965
 20
1100.416470791129
 30
0.0
 10
549.7781251006223
 20
1094.906561904143
 30
0.0
 10
549.803587631507
 20
1085.019490960598
 30
0.0
 10
548.2421300385984
 20
1066.4833727052
 30
0.0
 10
544.1797168011564
 20
1046.374695038239
 30
0.0
 10
535.0480577885314
 20
1025.488955002115
 30
0.0
 10
525.7661324427771
 20
1014.895285337734
 30
0.0
 10
520.697062023184
 20
1010.792560394175
 30
0.0
  0
SPLINE
  5
179
330
1F
100
AcDbEntity
  8
Predefinito
100
AcDbSpline
210
0.0
220
0.0
230
1.0
 70
     8
 71
     3
 72
    13
 73
     9
 74
     0
 42
0.0000000001
 43
0.0000000001
 40
0.0
 40
0.0
 40
0.0
 40
0.0
 40
9.82902151777289
 40
19.6683507027506
 40
41.77954139076317
 40
67.79615454295761
 40
80.70276231398998
 40
97.43724071285311
 40
97.43724071285311
 40
97.43724071285311
 40
97.43724071285311
 10
368.8772132572092
 20
1010.792560394175
 30
0.0
 10
366.3463657082166
 20
1012.878542332024
 30
0.0
 10
361.5800794923103
 20
1017.393036682484
 30
0.0
 10
353.1766228856507
 20
1028.587095303093
 30
0.0
 10
345.3713512030794
 20
1046.429504433569
 30
0.0
 10
341.3463556380799
 20
1066.4555740927
 30
0.0
 10
339.767542324598
 20
1084.94728455111
 30
0.0
 10
339.7982239348783
 20
1094.842500102339
 30
0.0
 10
339.7871376401965
 20
1100.416470791128
 30
0.0
  0
SPLINE
  5
17A
330
1F
100
AcDbEntity
  8
Predefinito
100
AcDbSpline
210
0.0
220
0.0
230
1.0
 70
    12
 71
     2
 72
     6
 73
     3
 74
     0
 42
0.0000000001
 43
0.0000000001
 40
0.0
 40
0.0
 40
0.0
 40
1.256388598718673
 40
1.256388598718673
 40
1.256388598718673
 10
440.5802324100913
 20
1767.916470791129
 30
0.0
 41
1.0
 10
440.5808083526595
 20
1768.715893613454
 30
0.0
 41
0.7076165770505615
 10
441.3802311740944
 20
1768.716470791128
 30
0.0
 41
1.0
  0
SPLINE
  5
17B
330
1F
100
AcDbEntity
  8
Predefinito
100
AcDbSpline
210
0.0
220
0.0
230
1.0
 70
    24
 71
     2
 72
     6
 73
     3
 74
     0
 42
0.0000000001
 43
0.0000000001
 40
0.0
 40
0.0
 40
0.0
 40
0.2000000000000455
 40
0.2000000000000455
 40
0.2000000000000455
 10
440.5802324100913
 20
1767.716470791129
 30
0.0
 10
440.5802324100913
 20
1767.816470791129
 30
0.0
 10
440.5802324100913
 20
1767.916470791129
 30
0.0
  0
SPLINE
  5
17C
330
1F
100
AcDbEntity
  8
Predefinito
100
AcDbSpline
210
0.0
220
0.0
230
1.0
 70
    12
 71
     2
 72
     6
 73
     3
 74
     0
 42
0.0000000001
 43
0.0000000001
 40
0.0
 40
0.0
 40
0.0
 40
1.256389831828733
 40
1.256389831828733
 40
1.256389831828733
 10
441.0280234123443
 20
1570.916470791129
 30
0.0
 41
1.0
 10
441.0285993613426
 20
1571.71589484213
 30
0.0
 41
0.7076160361066878
 10
441.8280234123444
 20
1571.716470791128
 30
0.0
 41
1.0
  0
SPLINE
  5
17D
330
1F
100
AcDbEntity
  8
Predefinito
100
AcDbSpline
210
0.0
220
0.0
230
1.0
 70
    24
 71
     2
 72
     6
 73
     3
 74
     0
 42
0.0000000001
 43
0.0000000001
 40
0.0
 40
0.0
 40
0.0
 40
0.2000000000000455
 40
0.2000000000000455
 40
0.2000000000000455
 10
441.0280234123443
 20
1570.716470791129
 30
0.0
 10
441.0280234123443
 20
1570.816470791129
 30
0.0
 10
441.0280234123443
 20
1570.916470791129
 30
0.0
  0
SPLINE
  5
17E
330
1F
100
AcDbEntity
  8
Predefinito
100
AcDbSpline
210
0.0
220
0.0
230
1.0
 70
    12
 71
     2
 72
     6
 73
     3
 74
     0
 42
0.0000000001
 43
0.0000000001
 40
0.0
 40
0.0
 40
0.0
 40
1.256389834698063
 40
1.256389834698063
 40
1.256389834698063
 10
440.7371376401965
 20
1449.916470791129
 30
0.0
 41
1.0
 10
440.737713582511
 20
1450.715894848814
 30
0.0
 41
0.7076160301948137
 10
441.5371376401965
 20
1450.716470791129
 30
0.0
 41
1.0
  0
SPLINE
  5
17F
330
1F
100
AcDbEntity
  8
Predefinito
100
AcDbSpline
210
0.0
220
0.0
230
1.0
 70
    12
 71
     2
 72
     6
 73
     3
 74
     0
 42
0.0000000001
 43
0.0000000001
 40
0.0
 40
0.0
 40
0.0
 40
1.256388598719257
 40
1.256388598719257
 40
1.256388598719257
 10
448.8371376401965
 20
1449.716470791129
 30
0.0
 41
1.0
 10
448.8365616976297
 20
1448.917047968802
 30
0.0
 41
0.7076165770493583
 10
448.0371388761934
 20
1448.91647079113
 30
0.0
 41
1.0
  0
SPLINE
  5
180
330
1F
100
AcDbEntity
  8
Predefinito
100
AcDbSpline
210
0.0
220
0.0
230
1.0
 70
    24
 71
     2
 72
     6
 73
     3
 74
     0
 42
0.0000000001
 43
0.0000000001
 40
0.0
 40
0.0
 40
0.0
 40
0.2000000000000455
 40
0.2000000000000455
 40
0.2000000000000455
 10
440.7371376401965
 20
1449.716470791129
 30
0.0
 10
440.7371376401965
 20
1449.816470791129
 30
0.0
 10
440.7371376401965
 20
1449.916470791129
 30
0.0
  0
SPLINE
  5
181
330
1F
100
AcDbEntity
  8
Predefinito
100
AcDbSpline
210
0.0
220
0.0
230
1.0
 70
    24
 71
     2
 72
     6
 73
     3
 74
     0
 42
0.0000000001
 43
0.0000000001
 40
0.0
 40
0.0
 40
0.0
 40
1.200000000000045
 40
1.200000000000045
 40
1.200000000000045
 10
539.7871376401965
 20
1861.696470791129
 30
0.0
 10
539.7871376401965
 20
1862.296470791129
 30
0.0
 10
539.7871376401965
 20
1862.896470791129
 30
0.0
  0
SPLINE
  5
182
330
1F
100
AcDbEntity
  8
Predefinito
100
AcDbSpline
210
0.0
220
0.0
230
1.0
 70
    24
 71
     2
 72
     6
 73
     3
 74
     0
 42
0.0000000001
 43
0.0000000001
 40
0.0
 40
0.0
 40
0.0
 40
12.72758664047797
 40
12.72758664047797
 40
12.72758664047797
 10
527.0595509997186
 20
1861.696470791129
 30
0.0
 10
533.4233443199576
 20
1861.696470791129
 30
0.0
 10
539.7871376401965
 20
1861.696470791129
 30
0.0
  0
SPLINE
  5
183
330
1F
100
AcDbEntity
  8
Predefinito
100
AcDbSpline
210
0.0
220
0.0
230
1.0
 70
    24
 71
     2
 72
     6
 73
     3
 74
     0
 42
0.0000000001
 43
0.0000000001
 40
0.0
 40
0.0
 40
0.0
 40
177.2300934904086
 40
177.2300934904086
 40
177.2300934904086
 10
527.0595509997186
 20
1861.696470791129
 30
0.0
 10
438.4445042545142
 20
1861.696470791129
 30
0.0
 10
349.8294575093099
 20
1861.696470791129
 30
0.0
  0
SPLINE
  5
184
330
1F
100
AcDbEntity
  8
Predefinito
100
AcDbSpline
210
0.0
220
0.0
230
1.0
 70
    28
 71
     2
 72
     8
 73
     5
 74
     0
 42
0.0000000001
 43
0.0000000001
 40
-547.9379374327509
 40
-547.9379374327509
 40
-547.9379374327509
 40
-447.6769531365455
 40
-447.6769531365455
 40
-298.4513020910304
 40
-298.4513020910304
 40
-298.4513020910304
 10
349.8082263408219
 20
1862.896470791129
 30
0.0
 41
0.870858116900123
 10
348.6243108465796
 20
1862.896470791129
 30
0.0
 41
0.8032123686097119
 10
397.2871376401973
 20
1862.896470791129
 30
0.0
 41
1.0
 10
479.5595509997194
 20
1862.896470791129
 30
0.0
 41
0.7071067811865476
 10
527.0595509997186
 20
1862.896470791129
 30
0.0
 41
1.0
  0
SPLINE
  5
185
330
1F
100
AcDbEntity
  8
Predefinito
100
AcDbSpline
210
0.0
220
0.0
230
1.0
 70
    24
 71
     2
 72
     6
 73
     3
 74
     0
 42
0.0000000001
 43
0.0000000001
 40
0.0
 40
0.0
 40
0.0
 40
12.72758664047797
 40
12.72758664047797
 40
12.72758664047797
 10
539.7871376401965
 20
1862.896470791129
 30
0.0
 10
533.4233443199576
 20
1862.896470791129
 30
0.0
 10
527.0595509997186
 20
1862.896470791129
 30
0.0
  0
SPLINE
  5
186
330
1F
100
AcDbEntity
  8
Predefinito
100
AcDbSpline
210
0.0
220
0.0
230
1.0
 70
    12
 71
     2
 72
     8
 73
     5
 74
     0
 42
0.0000000001
 43
0.0000000001
 40
0.0
 40
0.0
 40
0.0
 40
0.2363890148342184
 40
0.2363890148342184
 40
0.4727780296684368
 40
0.4727780296684368
 40
0.4727780296684368
 10
513.0844995890334
 20
1890.814507320641
 30
0.0
 41
1.0
 10
513.0849091877415
 20
1890.939176745788
 30
0.0
 41
0.9238777295598437
 10
512.9970433884646
 20
1891.027620143817
 30
0.0
 41
1.0
 10
512.9091775891877
 20
1891.116063541847
 30
0.0
 41
0.9238777295598437
 10
512.7845081563437
 20
1891.116470791129
 30
0.0
 41
1.0
  0
SPLINE
  5
187
330
1F
100
AcDbEntity
  8
Predefinito
100
AcDbSpline
210
0.0
220
0.0
230
1.0
 70
    24
 71
     2
 72
     6
 73
     3
 74
     0
 42
0.0000000001
 43
0.0000000001
 40
0.0
 40
0.0
 40
0.0
 40
136.5947238976736
 40
136.5947238976736
 40
136.5947238976736
 10
376.4897756913598
 20
1890.814507320641
 30
0.0
 10
444.7871376401966
 20
1890.814507320641
 30
0.0
 10
513.0844995890334
 20
1890.814507320641
 30
0.0
  0
SPLINE
  5
188
330
1F
100
AcDbEntity
  8
Predefinito
100
AcDbSpline
210
0.0
220
0.0
230
1.0
 70
    24
 71
     2
 72
     6
 73
     3
 74
     0
 42
0.0000000001
 43
0.0000000001
 40
0.0
 40
0.0
 40
0.0
 40
135.9947410322942
 40
135.9947410322942
 40
135.9947410322942
 10
512.7845081563437
 20
1891.116470791129
 30
0.0
 10
444.7871376401966
 20
1891.116470791129
 30
0.0
 10
376.7897671240495
 20
1891.116470791129
 30
0.0
  0
SPLINE
  5
189
330
1F
100
AcDbEntity
  8
Predefinito
100
AcDbSpline
210
0.0
220
0.0
230
1.0
 70
    12
 71
     2
 72
     6
 73
     3
 74
     0
 42
0.0000000001
 43
0.0000000001
 40
0.0
 40
0.0
 40
0.0
 40
0.7702654942083391
 40
0.7702654942083391
 40
0.7702654942083391
 10
442.2872100965469
 20
1438.191739803687
 30
0.0
 41
1.0
 10
442.2872102884838
 20
1438.576872550792
 30
0.0
 41
0.9999999999994321
 10
442.2872113012442
 20
1438.962005297894
 30
0.0
 41
1.0
  0
SPLINE
  5
18A
330
1F
100
AcDbEntity
  8
Predefinito
100
AcDbSpline
210
0.0
220
0.0
230
1.0
 70
    12
 71
     2
 72
     6
 73
     3
 74
     0
 42
0.0000000001
 43
0.0000000001
 40
0.0
 40
0.0
 40
0.0
 40
0.3085130515388185
 40
0.3085130515388185
 40
0.3085130515388185
 10
442.2872325013595
 20
1447.250204994223
 30
0.0
 41
1.0
 10
442.2872304676626
 20
1447.404461519979
 30
0.0
 41
0.9999999999931765
 10
442.2872272942535
 20
1447.558718045717
 30
0.0
 41
1.0
  0
SPLINE
  5
18B
330
1F
100
AcDbEntity
  8
Predefinito
100
AcDbSpline
210
0.0
220
0.0
230
1.0
 70
    24
 71
     2
 72
     6
 73
     3
 74
     0
 42
0.0000000001
 43
0.0000000001
 40
0.0
 40
0.0
 40
0.0
 40
14.56197583333505
 40
14.56197583333505
 40
14.56197583333505
 10
444.1871376401965
 20
1448.916470791129
 30
0.0
 10
444.1871376401965
 20
1441.635482874461
 30
0.0
 10
444.1871376401965
 20
1434.354494957794
 30
0.0
  0
SPLINE
  5
18C
330
1F
100
AcDbEntity
  8
Predefinito
100
AcDbSpline
210
0.0
220
0.0
230
1.0
 70
    24
 71
     2
 72
     6
 73
     3
 74
     0
 42
0.0000000001
 43
0.0000000001
 40
0.0
 40
0.0
 40
0.0
 40
118.9821932172881
 40
118.9821932172881
 40
118.9821932172881
 10
444.1871376401965
 20
1569.698664008417
 30
0.0
 10
444.1871376401965
 20
1510.207567399773
 30
0.0
 10
444.1871376401965
 20
1450.716470791129
 30
0.0
  0
SPLINE
  5
18D
330
1F
100
AcDbEntity
  8
Predefinito
100
AcDbSpline
210
0.0
220
0.0
230
1.0
 70
    24
 71
     2
 72
     6
 73
     3
 74
     0
 42
0.0000000001
 43
0.0000000001
 40
0.0
 40
0.0
 40
0.0
 40
189.5007104419069
 40
189.5007104419069
 40
189.5007104419069
 10
444.1871376401966
 20
1766.916470791129
 30
0.0
 10
444.1871376401965
 20
1672.166115570175
 30
0.0
 10
444.1871376401965
 20
1577.415760349222
 30
0.0
  0
SPLINE
  5
18E
330
1F
100
AcDbEntity
  8
Predefinito
100
AcDbSpline
210
0.0
220
0.0
230
1.0
 70
    24
 71
     2
 72
     6
 73
     3
 74
     0
 42
0.0000000001
 43
0.0000000001
 40
0.0
 40
0.0
 40
0.0
 40
84.32201536960451
 40
84.32201536960451
 40
84.32201536960451
 10
444.1871376401966
 20
1861.696470791129
 30
0.0
 10
444.1871376401966
 20
1819.535463106326
 30
0.0
 10
444.1871376401966
 20
1777.374455421524
 30
0.0
  0
SPLINE
  5
18F
330
1F
100
AcDbEntity
  8
Predefinito
100
AcDbSpline
210
0.0
220
0.0
230
1.0
 70
    24
 71
     2
 72
     6
 73
     3
 74
     0
 42
0.0000000001
 43
0.0000000001
 40
0.0
 40
0.0
 40
0.0
 40
0.8590583162135772
 40
0.8590583162135772
 40
0.8590583162135772
 10
398.6461959564101
 20
1428.416470791128
 30
0.0
 10
398.2166667983033
 20
1428.416470791129
 30
0.0
 10
397.7871376401965
 20
1428.416470791129
 30
0.0
  0
SPLINE
  5
190
330
1F
100
AcDbEntity
  8
Predefinito
100
AcDbSpline
210
0.0
220
0.0
230
1.0
 70
    24
 71
     2
 72
     6
 73
     3
 74
     0
 42
0.0000000001
 43
0.0000000001
 40
0.0
 40
0.0
 40
0.0
 40
0.1070805582772323
 40
0.1070805582772323
 40
0.1070805582772323
 10
399.1377112509949
 20
1428.416470791128
 30
0.0
 10
399.0841709718562
 20
1428.416470791129
 30
0.0
 10
399.0306306927176
 20
1428.416470791129
 30
0.0
  0
SPLINE
  5
191
330
1F
100
AcDbEntity
  8
Predefinito
100
AcDbSpline
210
0.0
220
0.0
230
1.0
 70
    24
 71
     2
 72
     6
 73
     3
 74
     0
 42
0.0000000001
 43
0.0000000001
 40
0.0
 40
0.0
 40
0.0
 40
0.1441590808374826
 40
0.1441590808374826
 40
0.1441590808374826
 10
399.7455456872612
 20
1428.416470791128
 30
0.0
 10
399.6734661468424
 20
1428.416470791128
 30
0.0
 10
399.6013866064237
 20
1428.416470791128
 30
0.0
  0
SPLINE
  5
192
330
1F
100
AcDbEntity
  8
Predefinito
100
AcDbSpline
210
0.0
220
0.0
230
1.0
 70
    24
 71
     2
 72
     6
 73
     3
 74
     0
 42
0.0000000001
 43
0.0000000001
 40
0.0
 40
0.0
 40
0.0
 40
0.1848241737895364
 40
0.1848241737895364
 40
0.1848241737895364
 10
400.4711821691121
 20
1428.416470791129
 30
0.0
 10
400.3787700822173
 20
1428.416470791129
 30
0.0
 10
400.2863579953226
 20
1428.416470791129
 30
0.0
  0
SPLINE
  5
193
330
1F
100
AcDbEntity
  8
Predefinito
100
AcDbSpline
210
0.0
220
0.0
230
1.0
 70
    24
 71
     2
 72
     6
 73
     3
 74
     0
 42
0.0000000001
 43
0.0000000001
 40
0.0
 40
0.0
 40
0.0
 40
0.7270142500641441
 40
0.7270142500641441
 40
0.7270142500641441
 10
401.8141017407851
 20
1428.416470791128
 30
0.0
 10
401.450594615753
 20
1428.416470791129
 30
0.0
 10
401.0870874907209
 20
1428.416470791129
 30
0.0
  0
SPLINE
  5
194
330
1F
100
AcDbEntity
  8
Predefinito
100
AcDbSpline
210
0.0
220
0.0
230
1.0
 70
    24
 71
     2
 72
     6
 73
     3
 74
     0
 42
0.0000000001
 43
0.0000000001
 40
0.0
 40
0.0
 40
0.0
 40
0.5568128133186292
 40
0.5568128133186292
 40
0.5568128133186292
 10
402.5611012292498
 20
1428.416470791129
 30
0.0
 10
402.2826948225905
 20
1428.416470791129
 30
0.0
 10
402.0042884159312
 20
1428.416470791129
 30
0.0
  0
SPLINE
  5
195
330
1F
100
AcDbEntity
  8
Predefinito
100
AcDbSpline
210
0.0
220
0.0
230
1.0
 70
    24
 71
     2
 72
     6
 73
     3
 74
     0
 42
0.0000000001
 43
0.0000000001
 40
0.0
 40
0.0
 40
0.0
 40
0.5728198403110696
 40
0.5728198403110696
 40
0.5728198403110696
 10
403.6106091597032
 20
1428.416470791128
 30
0.0
 10
403.3241992395477
 20
1428.416470791129
 30
0.0
 10
403.0377893193922
 20
1428.416470791129
 30
0.0
  0
SPLINE
  5
196
330
1F
100
AcDbEntity
  8
Predefinito
100
AcDbSpline
210
0.0
220
0.0
230
1.0
 70
    24
 71
     2
 72
     6
 73
     3
 74
     0
 42
0.0000000001
 43
0.0000000001
 40
0.0
 40
0.0
 40
0.0
 40
0.6853944042807143
 40
0.6853944042807143
 40
0.6853944042807143
 10
404.8718868984686
 20
1428.416470791128
 30
0.0
 10
404.5291896963282
 20
1428.416470791128
 30
0.0
 10
404.1864924941879
 20
1428.416470791128
 30
0.0
  0
SPLINE
  5
197
330
1F
100
AcDbEntity
  8
Predefinito
100
AcDbSpline
210
0.0
220
0.0
230
1.0
 70
    24
 71
     2
 72
     6
 73
     3
 74
     0
 42
0.0000000001
 43
0.0000000001
 40
0.0
 40
0.0
 40
0.0
 40
0.5804402709090937
 40
0.5804402709090937
 40
0.5804402709090937
 10
406.0287888839012
 20
1428.416470791128
 30
0.0
 10
405.7385687484467
 20
1428.416470791128
 30
0.0
 10
405.4483486129921
 20
1428.416470791128
 30
0.0
  0
SPLINE
  5
198
330
1F
100
AcDbEntity
  8
Predefinito
100
AcDbSpline
210
0.0
220
0.0
230
1.0
 70
    24
 71
     2
 72
     6
 73
     3
 74
     0
 42
0.0000000001
 43
0.0000000001
 40
0.0
 40
0.0
 40
0.0
 40
0.6455795772292277
 40
0.6455795772292277
 40
0.6455795772292277
 10
407.4659287423434
 20
1428.416470791128
 30
0.0
 10
407.1431389537288
 20
1428.416470791128
 30
0.0
 10
406.8203491651142
 20
1428.416470791128
 30
0.0
  0
SPLINE
  5
199
330
1F
100
AcDbEntity
  8
Predefinito
100
AcDbSpline
210
0.0
220
0.0
230
1.0
 70
    24
 71
     2
 72
     6
 73
     3
 74
     0
 42
0.0000000001
 43
0.0000000001
 40
0.0
 40
0.0
 40
0.0
 40
0.4894002379336371
 40
0.4894002379336371
 40
0.4894002379336371
 10
408.8568935981218
 20
1428.416470791129
 30
0.0
 10
408.6121934791549
 20
1428.416470791129
 30
0.0
 10
408.3674933601881
 20
1428.416470791129
 30
0.0
  0
SPLINE
  5
19A
330
1F
100
AcDbEntity
  8
Predefinito
100
AcDbSpline
210
0.0
220
0.0
230
1.0
 70
    24
 71
     2
 72
     6
 73
     3
 74
     0
 42
0.0000000001
 43
0.0000000001
 40
0.0
 40
0.0
 40
0.0
 40
2.781402730796287
 40
2.781402730796287
 40
2.781402730796287
 10
414.3345216189539
 20
1428.416470791129
 30
0.0
 10
412.9438202535558
 20
1428.416470791129
 30
0.0
 10
411.5531188881577
 20
1428.416470791129
 30
0.0
  0
SPLINE
  5
19B
330
1F
100
AcDbEntity
  8
Predefinito
100
AcDbSpline
210
0.0
220
0.0
230
1.0
 70
    24
 71
     2
 72
     6
 73
     3
 74
     0
 42
0.0000000001
 43
0.0000000001
 40
0.0
 40
0.0
 40
0.0
 40
0.6326339121147839
 40
0.6326339121147839
 40
0.6326339121147839
 10
415.7957596115484
 20
1428.416470791128
 30
0.0
 10
415.479442655491
 20
1428.416470791129
 30
0.0
 10
415.1631256994336
 20
1428.416470791129
 30
0.0
  0
SPLINE
  5
19C
330
1F
100
AcDbEntity
  8
Predefinito
100
AcDbSpline
210
0.0
220
0.0
230
1.0
 70
    24
 71
     2
 72
     6
 73
     3
 74
     0
 42
0.0000000001
 43
0.0000000001
 40
0.0
 40
0.0
 40
0.0
 40
0.3272575497388175
 40
0.3272575497388175
 40
0.3272575497388175
 10
417.6619238849447
 20
1428.416470791129
 30
0.0
 10
417.4982951100753
 20
1428.416470791129
 30
0.0
 10
417.3346663352059
 20
1428.416470791129
 30
0.0
  0
SPLINE
  5
19D
330
1F
100
AcDbEntity
  8
Predefinito
100
AcDbSpline
210
0.0
220
0.0
230
1.0
 70
    24
 71
     2
 72
     6
 73
     3
 74
     0
 42
0.0000000001
 43
0.0000000001
 40
0.0
 40
0.0
 40
0.0
 40
0.5754616961761485
 40
0.5754616961761485
 40
0.5754616961761485
 10
419.6437407702131
 20
1428.416470791129
 30
0.0
 10
419.356009922125
 20
1428.416470791129
 30
0.0
 10
419.0682790740369
 20
1428.416470791129
 30
0.0
  0
SPLINE
  5
19E
330
1F
100
AcDbEntity
  8
Predefinito
100
AcDbSpline
210
0.0
220
0.0
230
1.0
 70
    24
 71
     2
 72
     6
 73
     3
 74
     0
 42
0.0000000001
 43
0.0000000001
 40
0.0
 40
0.0
 40
0.0
 40
3.022561415295627
 40
3.022561415295627
 40
3.022561415295627
 10
424.1329674978297
 20
1428.416470791129
 30
0.0
 10
422.6216867901819
 20
1428.416470791129
 30
0.0
 10
421.1104060825341
 20
1428.416470791129
 30
0.0
  0
SPLINE
  5
19F
330
1F
100
AcDbEntity
  8
Predefinito
100
AcDbSpline
210
0.0
220
0.0
230
1.0
 70
    24
 71
     2
 72
     6
 73
     3
 74
     0
 42
0.0000000001
 43
0.0000000001
 40
0.0
 40
0.0
 40
0.0
 40
0.3797905135011774
 40
0.3797905135011774
 40
0.3797905135011774
 10
425.9560593058644
 20
1428.416470791128
 30
0.0
 10
425.7661640491137
 20
1428.416470791128
 30
0.0
 10
425.5762687923632
 20
1428.416470791129
 30
0.0
  0
SPLINE
  5
1A0
330
1F
100
AcDbEntity
  8
Predefinito
100
AcDbSpline
210
0.0
220
0.0
230
1.0
 70
    24
 71
     2
 72
     6
 73
     3
 74
     0
 42
0.0000000001
 43
0.0000000001
 40
0.0
 40
0.0
 40
0.0
 40
0.2704947540094054
 40
0.2704947540094054
 40
0.2704947540094054
 10
427.9657156731772
 20
1428.416470791128
 30
0.0
 10
427.8304682961725
 20
1428.416470791129
 30
0.0
 10
427.6952209191678
 20
1428.416470791129
 30
0.0
  0
SPLINE
  5
1A1
330
1F
100
AcDbEntity
  8
Predefinito
100
AcDbSpline
210
0.0
220
0.0
230
1.0
 70
    24
 71
     2
 72
     6
 73
     3
 74
     0
 42
0.0000000001
 43
0.0000000001
 40
0.0
 40
0.0
 40
0.0
 40
0.2638543674945595
 40
0.2638543674945595
 40
0.2638543674945595
 10
430.1003206215501
 20
1428.416470791129
 30
0.0
 10
429.9683934378028
 20
1428.416470791129
 30
0.0
 10
429.8364662540556
 20
1428.416470791129
 30
0.0
  0
SPLINE
  5
1A2
330
1F
100
AcDbEntity
  8
Predefinito
100
AcDbSpline
210
0.0
220
0.0
230
1.0
 70
    24
 71
     2
 72
     6
 73
     3
 74
     0
 42
0.0000000001
 43
0.0000000001
 40
0.0
 40
0.0
 40
0.0
 40
0.2477777585332319
 40
0.2477777585332319
 40
0.2477777585332319
 10
432.2394847638936
 20
1428.416470791129
 30
0.0
 10
432.1155958846271
 20
1428.416470791129
 30
0.0
 10
431.9917070053604
 20
1428.416470791129
 30
0.0
  0
SPLINE
  5
1A3
330
1F
100
AcDbEntity
  8
Predefinito
100
AcDbSpline
210
0.0
220
0.0
230
1.0
 70
    24
 71
     2
 72
     6
 73
     3
 74
     0
 42
0.0000000001
 43
0.0000000001
 40
0.0
 40
0.0
 40
0.0
 40
0.2224319150669771
 40
0.2224319150669771
 40
0.2224319150669771
 10
434.3752918106468
 20
1428.416470791129
 30
0.0
 10
434.2640758531133
 20
1428.416470791129
 30
0.0
 10
434.1528598955798
 20
1428.416470791129
 30
0.0
  0
SPLINE
  5
1A4
330
1F
100
AcDbEntity
  8
Predefinito
100
AcDbSpline
210
0.0
220
0.0
230
1.0
 70
    24
 71
     2
 72
     6
 73
     3
 74
     0
 42
0.0000000001
 43
0.0000000001
 40
0.0
 40
0.0
 40
0.0
 40
2.097313202777059
 40
2.097313202777059
 40
2.097313202777059
 10
438.4094542745446
 20
1428.416470791129
 30
0.0
 10
437.3607976731561
 20
1428.416470791129
 30
0.0
 10
436.3121410717675
 20
1428.416470791128
 30
0.0
  0
SPLINE
  5
1A5
330
1F
100
AcDbEntity
  8
Predefinito
100
AcDbSpline
210
0.0
220
0.0
230
1.0
 70
    24
 71
     2
 72
     6
 73
     3
 74
     0
 42
0.0000000001
 43
0.0000000001
 40
0.0
 40
0.0
 40
0.0
 40
4.229727141935371
 40
4.229727141935371
 40
4.229727141935371
 10
442.6918661648714
 20
1428.416470791129
 30
0.0
 10
440.5770025939038
 20
1428.416470791129
 30
0.0
 10
438.4621390229361
 20
1428.416470791129
 30
0.0
  0
SPLINE
  5
1A6
330
1F
100
AcDbEntity
  8
Predefinito
100
AcDbSpline
210
0.0
220
0.0
230
1.0
 70
    24
 71
     2
 72
     6
 73
     3
 74
     0
 42
0.0000000001
 43
0.0000000001
 40
0.0
 40
0.0
 40
0.0
 40
1.100718676992358
 40
1.100718676992358
 40
1.100718676992358
 10
443.8829072762787
 20
1428.416470791129
 30
0.0
 10
443.3325479377826
 20
1428.416470791129
 30
0.0
 10
442.7821885992864
 20
1428.416470791129
 30
0.0
  0
SPLINE
  5
1A7
330
1F
100
AcDbEntity
  8
Predefinito
100
AcDbSpline
210
0.0
220
0.0
230
1.0
 70
    24
 71
     2
 72
     6
 73
     3
 74
     0
 42
0.0000000001
 43
0.0000000001
 40
0.0
 40
0.0
 40
0.0
 40
1.700451729829012
 40
1.700451729829012
 40
1.700451729829012
 10
446.614927637053
 20
1428.416470791129
 30
0.0
 10
445.7647017721386
 20
1428.416470791129
 30
0.0
 10
444.914475907224
 20
1428.416470791129
 30
0.0
  0
SPLINE
  5
1A8
330
1F
100
AcDbEntity
  8
Predefinito
100
AcDbSpline
210
0.0
220
0.0
230
1.0
 70
    24
 71
     2
 72
     6
 73
     3
 74
     0
 42
0.0000000001
 43
0.0000000001
 40
0.0
 40
0.0
 40
0.0
 40
1.443411612352236
 40
1.443411612352236
 40
1.443411612352236
 10
448.4711695667547
 20
1428.416470791128
 30
0.0
 10
447.7494637605786
 20
1428.416470791128
 30
0.0
 10
447.0277579544025
 20
1428.416470791128
 30
0.0
  0
SPLINE
  5
1A9
330
1F
100
AcDbEntity
  8
Predefinito
100
AcDbSpline
210
0.0
220
0.0
230
1.0
 70
    24
 71
     2
 72
     6
 73
     3
 74
     0
 42
0.0000000001
 43
0.0000000001
 40
0.0
 40
0.0
 40
0.0
 40
1.07172487838136
 40
1.07172487838136
 40
1.07172487838136
 10
450.3506486800624
 20
1428.416470791129
 30
0.0
 10
449.8147862408717
 20
1428.416470791129
 30
0.0
 10
449.2789238016811
 20
1428.416470791128
 30
0.0
  0
SPLINE
  5
1AA
330
1F
100
AcDbEntity
  8
Predefinito
100
AcDbSpline
210
0.0
220
0.0
230
1.0
 70
    24
 71
     2
 72
     6
 73
     3
 74
     0
 42
0.0000000001
 43
0.0000000001
 40
0.0
 40
0.0
 40
0.0
 40
0.7495528196172927
 40
0.7495528196172927
 40
0.7495528196172927
 10
452.2476227811014
 20
1428.416470791129
 30
0.0
 10
451.8728463712928
 20
1428.416470791129
 30
0.0
 10
451.4980699614841
 20
1428.416470791129
 30
0.0
  0
SPLINE
  5
1AB
330
1F
100
AcDbEntity
  8
Predefinito
100
AcDbSpline
210
0.0
220
0.0
230
1.0
 70
    24
 71
     2
 72
     6
 73
     3
 74
     0
 42
0.0000000001
 43
0.0000000001
 40
0.0
 40
0.0
 40
0.0
 40
1.414961185812217
 40
1.414961185812217
 40
1.414961185812217
 10
455.1471254069319
 20
1428.416470791129
 30
0.0
 10
454.4396448140258
 20
1428.416470791129
 30
0.0
 10
453.7321642211197
 20
1428.416470791129
 30
0.0
  0
SPLINE
  5
1AC
330
1F
100
AcDbEntity
  8
Predefinito
100
AcDbSpline
210
0.0
220
0.0
230
1.0
 70
    24
 71
     2
 72
     6
 73
     3
 74
     0
 42
0.0000000001
 43
0.0000000001
 40
0.0
 40
0.0
 40
0.0
 40
1.285774033369535
 40
1.285774033369535
 40
1.285774033369535
 10
457.2590580313097
 20
1428.416470791129
 30
0.0
 10
456.616171014625
 20
1428.416470791129
 30
0.0
 10
455.9732839979402
 20
1428.416470791129
 30
0.0
  0
SPLINE
  5
1AD
330
1F
100
AcDbEntity
  8
Predefinito
100
AcDbSpline
210
0.0
220
0.0
230
1.0
 70
    24
 71
     2
 72
     6
 73
     3
 74
     0
 42
0.0000000001
 43
0.0000000001
 40
0.0
 40
0.0
 40
0.0
 40
1.392202669098708
 40
1.392202669098708
 40
1.392202669098708
 10
459.3710374091968
 20
1428.416470791129
 30
0.0
 10
458.6749360746475
 20
1428.416470791129
 30
0.0
 10
457.9788347400981
 20
1428.416470791129
 30
0.0
  0
SPLINE
  5
1AE
330
1F
100
AcDbEntity
  8
Predefinito
100
AcDbSpline
210
0.0
220
0.0
230
1.0
 70
    24
 71
     2
 72
     6
 73
     3
 74
     0
 42
0.0000000001
 43
0.0000000001
 40
0.0
 40
0.0
 40
0.0
 40
1.032790814099485
 40
1.032790814099485
 40
1.032790814099485
 10
461.475473500217
 20
1428.416470791129
 30
0.0
 10
460.9590780931673
 20
1428.416470791129
 30
0.0
 10
460.4426826861176
 20
1428.416470791129
 30
0.0
  0
SPLINE
  5
1AF
330
1F
100
AcDbEntity
  8
Predefinito
100
AcDbSpline
210
0.0
220
0.0
230
1.0
 70
    24
 71
     2
 72
     6
 73
     3
 74
     0
 42
0.0000000001
 43
0.0000000001
 40
0.0
 40
0.0
 40
0.0
 40
0.911319890451125
 40
0.911319890451125
 40
0.911319890451125
 10
463.5644634763362
 20
1428.416470791128
 30
0.0
 10
463.1088035311107
 20
1428.416470791128
 30
0.0
 10
462.6531435858851
 20
1428.416470791128
 30
0.0
  0
SPLINE
  5
1B0
330
1F
100
AcDbEntity
  8
Predefinito
100
AcDbSpline
210
0.0
220
0.0
230
1.0
 70
    24
 71
     2
 72
     6
 73
     3
 74
     0
 42
0.0000000001
 43
0.0000000001
 40
0.0
 40
0.0
 40
0.0
 40
0.7946775332108587
 40
0.7946775332108587
 40
0.7946775332108587
 10
465.6298701611689
 20
1428.416470791129
 30
0.0
 10
465.2325313945635
 20
1428.416470791129
 30
0.0
 10
464.835192627958
 20
1428.416470791129
 30
0.0
  0
SPLINE
  5
1B1
330
1F
100
AcDbEntity
  8
Predefinito
100
AcDbSpline
210
0.0
220
0.0
230
1.0
 70
    24
 71
     2
 72
     6
 73
     3
 74
     0
 42
0.0000000001
 43
0.0000000001
 40
0.0
 40
0.0
 40
0.0
 40
0.6838833201032344
 40
0.6838833201032344
 40
0.6838833201032344
 10
467.6634099719533
 20
1428.416470791129
 30
0.0
 10
467.3214683119016
 20
1428.416470791129
 30
0.0
 10
466.9795266518501
 20
1428.416470791128
 30
0.0
  0
SPLINE
  5
1B2
330
1F
100
AcDbEntity
  8
Predefinito
100
AcDbSpline
210
0.0
220
0.0
230
1.0
 70
    24
 71
     2
 72
     6
 73
     3
 74
     0
 42
0.0000000001
 43
0.0000000001
 40
0.0
 40
0.0
 40
0.0
 40
1.124888556404017
 40
1.124888556404017
 40
1.124888556404017
 10
470.0795241220966
 20
1428.416470791128
 30
0.0
 10
469.5170798438946
 20
1428.416470791129
 30
0.0
 10
468.9546355656926
 20
1428.416470791129
 30
0.0
  0
SPLINE
  5
1B3
330
1F
100
AcDbEntity
  8
Predefinito
100
AcDbSpline
210
0.0
220
0.0
230
1.0
 70
    24
 71
     2
 72
     6
 73
     3
 74
     0
 42
0.0000000001
 43
0.0000000001
 40
0.0
 40
0.0
 40
0.0
 40
1.12137863226593
 40
1.12137863226593
 40
1.12137863226593
 10
472.2396088852707
 20
1428.416470791129
 30
0.0
 10
471.6789195691377
 20
1428.416470791129
 30
0.0
 10
471.1182302530048
 20
1428.416470791129
 30
0.0
  0
SPLINE
  5
1B4
330
1F
100
AcDbEntity
  8
Predefinito
100
AcDbSpline
210
0.0
220
0.0
230
1.0
 70
    24
 71
     2
 72
     6
 73
     3
 74
     0
 42
0.0000000001
 43
0.0000000001
 40
0.0
 40
0.0
 40
0.0
 40
0.6837526874660398
 40
0.6837526874660398
 40
0.6837526874660398
 10
473.7785156688423
 20
1428.416470791128
 30
0.0
 10
473.4366393251093
 20
1428.416470791128
 30
0.0
 10
473.0947629813763
 20
1428.416470791128
 30
0.0
  0
SPLINE
  5
1B5
330
1F
100
AcDbEntity
  8
Predefinito
100
AcDbSpline
210
0.0
220
0.0
230
1.0
 70
    24
 71
     2
 72
     6
 73
     3
 74
     0
 42
0.0000000001
 43
0.0000000001
 40
0.0
 40
0.0
 40
0.0
 40
1.258888406123276
 40
1.258888406123276
 40
1.258888406123276
 10
476.257043701587
 20
1428.416470791129
 30
0.0
 10
475.6275994985253
 20
1428.416470791129
 30
0.0
 10
474.9981552954637
 20
1428.416470791129
 30
0.0
  0
SPLINE
  5
1B6
330
1F
100
AcDbEntity
  8
Predefinito
100
AcDbSpline
210
0.0
220
0.0
230
1.0
 70
    24
 71
     2
 72
     6
 73
     3
 74
     0
 42
0.0000000001
 43
0.0000000001
 40
0.0
 40
0.0
 40
0.0
 40
1.28948372384923
 40
1.28948372384923
 40
1.28948372384923
 10
477.9071020545924
 20
1428.416470791129
 30
0.0
 10
477.2623601926678
 20
1428.416470791129
 30
0.0
 10
476.6176183307431
 20
1428.416470791129
 30
0.0
  0
SPLINE
  5
1B7
330
1F
100
AcDbEntity
  8
Predefinito
100
AcDbSpline
210
0.0
220
0.0
230
1.0
 70
    24
 71
     2
 72
     6
 73
     3
 74
     0
 42
0.0000000001
 43
0.0000000001
 40
0.0
 40
0.0
 40
0.0
 40
0.5489690463113561
 40
0.5489690463113561
 40
0.5489690463113561
 10
479.1039536001531
 20
1428.416470791128
 30
0.0
 10
478.8294690769975
 20
1428.416470791128
 30
0.0
 10
478.5549845538418
 20
1428.416470791128
 30
0.0
  0
SPLINE
  5
1B8
330
1F
100
AcDbEntity
  8
Predefinito
100
AcDbSpline
210
0.0
220
0.0
230
1.0
 70
    24
 71
     2
 72
     6
 73
     3
 74
     0
 42
0.0000000001
 43
0.0000000001
 40
0.0
 40
0.0
 40
0.0
 40
1.002060313338404
 40
1.002060313338404
 40
1.002060313338404
 10
481.2067819200723
 20
1428.416470791128
 30
0.0
 10
480.7057517634031
 20
1428.416470791129
 30
0.0
 10
480.2047216067339
 20
1428.416470791129
 30
0.0
  0
SPLINE
  5
1B9
330
1F
100
AcDbEntity
  8
Predefinito
100
AcDbSpline
210
0.0
220
0.0
230
1.0
 70
    24
 71
     2
 72
     6
 73
     3
 74
     0
 42
0.0000000001
 43
0.0000000001
 40
0.0
 40
0.0
 40
0.0
 40
0.6925235214552572
 40
0.6925235214552572
 40
0.6925235214552572
 10
482.4272080127072
 20
1428.416470791128
 30
0.0
 10
482.0809462519796
 20
1428.416470791128
 30
0.0
 10
481.734684491252
 20
1428.416470791128
 30
0.0
  0
SPLINE
  5
1BA
330
1F
100
AcDbEntity
  8
Predefinito
100
AcDbSpline
210
0.0
220
0.0
230
1.0
 70
    24
 71
     2
 72
     6
 73
     3
 74
     0
 42
0.0000000001
 43
0.0000000001
 40
0.0
 40
0.0
 40
0.0
 40
3.366764003249784
 40
3.366764003249784
 40
3.366764003249784
 10
486.5364859588868
 20
1428.416470791129
 30
0.0
 10
484.853103957262
 20
1428.416470791129
 30
0.0
 10
483.169721955637
 20
1428.416470791129
 30
0.0
  0
SPLINE
  5
1BB
330
1F
100
AcDbEntity
  8
Predefinito
100
AcDbSpline
210
0.0
220
0.0
230
1.0
 70
    24
 71
     2
 72
     6
 73
     3
 74
     0
 42
0.0000000001
 43
0.0000000001
 40
0.0
 40
0.0
 40
0.0
 40
0.7670904899741231
 40
0.7670904899741231
 40
0.7670904899741231
 10
487.5699868330079
 20
1428.416470791129
 30
0.0
 10
487.1864415880208
 20
1428.416470791129
 30
0.0
 10
486.8028963430338
 20
1428.416470791129
 30
0.0
  0
SPLINE
  5
1BC
330
1F
100
AcDbEntity
  8
Predefinito
100
AcDbSpline
210
0.0
220
0.0
230
1.0
 70
    24
 71
     2
 72
     6
 73
     3
 74
     0
 42
0.0000000001
 43
0.0000000001
 40
0.0
 40
0.0
 40
0.0
 40
1.25
 40
1.25
 40
1.25
 10
491.7871376401965
 20
1428.416470791129
 30
0.0
 10
491.7871376401965
 20
1429.041470791129
 30
0.0
 10
491.7871376401965
 20
1429.666470791129
 30
0.0
  0
SPLINE
  5
1BD
330
1F
100
AcDbEntity
  8
Predefinito
100
AcDbSpline
210
0.0
220
0.0
230
1.0
 70
    24
 71
     2
 72
     6
 73
     3
 74
     0
 42
0.0000000001
 43
0.0000000001
 40
0.0
 40
0.0
 40
0.0
 40
93.9967095121001
 40
93.9967095121001
 40
93.9967095121001
 10
491.7871376401965
 20
1429.666470791129
 30
0.0
 10
444.7887828841465
 20
1429.666470791129
 30
0.0
 10
397.7904281280964
 20
1429.666470791129
 30
0.0
  0
SPLINE
  5
1BE
330
1F
100
AcDbEntity
  8
Predefinito
100
AcDbSpline
210
0.0
220
0.0
230
1.0
 70
    24
 71
     2
 72
     6
 73
     3
 74
     0
 42
0.0000000001
 43
0.0000000001
 40
0.0
 40
0.0
 40
0.0
 40
42.23699200042074
 40
42.23699200042074
 40
42.23699200042074
 10
440.7544549773665
 20
1430.629374708663
 30
0.0
 10
419.6359589771561
 20
1430.629374708663
 30
0.0
 10
398.5174629769458
 20
1430.629374708663
 30
0.0
  0
SPLINE
  5
1BF
330
1F
100
AcDbEntity
  8
Predefinito
100
AcDbSpline
210
0.0
220
0.0
230
1.0
 70
    24
 71
     2
 72
     6
 73
     3
 74
     0
 42
0.0000000001
 43
0.0000000001
 40
0.0
 40
0.0
 40
0.0
 40
50.09073709502661
 40
50.09073709502661
 40
50.09073709502661
 10
490.8451920723931
 20
1430.629374708663
 30
0.0
 10
465.7998235248798
 20
1430.629374708663
 30
0.0
 10
440.7544549773665
 20
1430.629374708663
 30
0.0
  0
SPLINE
  5
1C0
330
1F
100
AcDbEntity
  8
Predefinito
100
AcDbSpline
210
0.0
220
0.0
230
1.0
 70
    28
 71
     2
 72
     6
 73
     3
 74
     0
 42
0.0000000001
 43
0.0000000001
 40
0.0
 40
0.0
 40
0.0
 40
0.1759009066656745
 40
0.1759009066656745
 40
0.1759009066656745
 10
491.0568123034473
 20
1430.629371643066
 30
0.0
 41
1.0
 10
490.9688618501144
 20
1430.629371643066
 30
0.0
 41
1.0
 10
490.8809113967816
 20
1430.629371643066
 30
0.0
 41
1.0
  0
SPLINE
  5
1C1
330
1F
100
AcDbEntity
  8
Predefinito
100
AcDbSpline
210
0.0
220
0.0
230
1.0
 70
    24
 71
     2
 72
     6
 73
     3
 74
     0
 42
0.0000000001
 43
0.0000000001
 40
0.0
 40
0.0
 40
0.0
 40
0.0841702081692119
 40
0.0841702081692119
 40
0.0841702081692119
 10
473.7506968029527
 20
1434.354494957794
 30
0.0
 10
473.7927819070373
 20
1434.354494957794
 30
0.0
 10
473.8348670111219
 20
1434.354494957794
 30
0.0
  0
SPLINE
  5
1C2
330
1F
100
AcDbEntity
  8
Predefinito
100
AcDbSpline
210
0.0
220
0.0
230
1.0
 70
    24
 71
     2
 72
     6
 73
     3
 74
     0
 42
0.0000000001
 43
0.0000000001
 40
0.0
 40
0.0
 40
0.0
 40
31.49754224454955
 40
31.49754224454955
 40
31.49754224454955
 10
442.2531545584031
 20
1434.354494957793
 30
0.0
 10
458.0019256806779
 20
1434.354494957794
 30
0.0
 10
473.7506968029527
 20
1434.354494957794
 30
0.0
  0
SPLINE
  5
1C3
330
1F
100
AcDbEntity
  8
Predefinito
100
AcDbSpline
210
0.0
220
0.0
230
1.0
 70
    28
 71
     2
 72
     6
 73
     3
 74
     0
 42
0.0000000001
 43
0.0000000001
 40
-181.2513802122994
 40
-181.2513802122994
 40
-181.2513802122994
 40
-137.0089173255285
 40
-137.0089173255285
 40
-137.0089173255285
 10
415.7394082692709
 20
1434.354494957794
 30
0.0
 41
0.9822662308919247
 10
414.5532588836875
 20
1434.354494957793
 30
0.0
 41
0.7162596942707989
 10
442.2531545584031
 20
1434.354494957793
 30
0.0
 41
1.0
  0
SPLINE
  5
1C4
330
1F
100
AcDbEntity
  8
Predefinito
100
AcDbSpline
210
0.0
220
0.0
230
1.0
 70
    24
 71
     2
 72
     6
 73
     3
 74
     0
 42
0.0000000001
 43
0.0000000001
 40
0.0
 40
0.0
 40
0.0
 40
2.0
 40
2.0
 40
2.0
 10
397.7871376401966
 20
1428.416470791129
 30
0.0
 10
397.7871376401966
 20
1427.416470791129
 30
0.0
 10
397.7871376401966
 20
1426.416470791129
 30
0.0
  0
SPLINE
  5
1C5
330
1F
100
AcDbEntity
  8
Predefinito
100
AcDbSpline
210
0.0
220
0.0
230
1.0
 70
    24
 71
     2
 72
     6
 73
     3
 74
     0
 42
0.0000000001
 43
0.0000000001
 40
0.0
 40
0.0
 40
0.0
 40
4.170423690599023
 40
4.170423690599023
 40
4.170423690599023
 10
487.569986864764
 20
1428.416470791128
 30
0.0
 10
489.6551987100635
 20
1428.416470791128
 30
0.0
 10
491.740410555363
 20
1428.416470791128
 30
0.0
  0
SPLINE
  5
1C6
330
1F
100
AcDbEntity
  8
Predefinito
100
AcDbSpline
210
0.0
220
0.0
230
1.0
 70
    24
 71
     2
 72
     6
 73
     3
 74
     0
 42
0.0000000001
 43
0.0000000001
 40
0.0
 40
0.0
 40
0.0
 40
0.2664103887200326
 40
0.2664103887200326
 40
0.2664103887200326
 10
486.5364859611948
 20
1428.416470791128
 30
0.0
 10
486.6696911555549
 20
1428.416470791128
 30
0.0
 10
486.8028963499149
 20
1428.416470791128
 30
0.0
  0
SPLINE
  5
1C7
330
1F
100
AcDbEntity
  8
Predefinito
100
AcDbSpline
210
0.0
220
0.0
230
1.0
 70
    24
 71
     2
 72
     6
 73
     3
 74
     0
 42
0.0000000001
 43
0.0000000001
 40
0.0
 40
0.0
 40
0.0
 40
0.7425139440102271
 40
0.7425139440102271
 40
0.7425139440102271
 10
482.4272080115795
 20
1428.416470791129
 30
0.0
 10
482.7984649835846
 20
1428.416470791129
 30
0.0
 10
483.1697219555898
 20
1428.416470791128
 30
0.0
  0
SPLINE
  5
1C8
330
1F
100
AcDbEntity
  8
Predefinito
100
AcDbSpline
210
0.0
220
0.0
230
1.0
 70
    24
 71
     2
 72
     6
 73
     3
 74
     0
 42
0.0000000001
 43
0.0000000001
 40
0.0
 40
0.0
 40
0.0
 40
0.5279025710322003
 40
0.5279025710322003
 40
0.5279025710322003
 10
481.2067819201912
 20
1428.416470791128
 30
0.0
 10
481.4707332057073
 20
1428.416470791128
 30
0.0
 10
481.7346844912234
 20
1428.416470791128
 30
0.0
  0
SPLINE
  5
1C9
330
1F
100
AcDbEntity
  8
Predefinito
100
AcDbSpline
210
0.0
220
0.0
230
1.0
 70
    24
 71
     2
 72
     6
 73
     3
 74
     0
 42
0.0000000001
 43
0.0000000001
 40
0.0
 40
0.0
 40
0.0
 40
1.100768103761368
 40
1.100768103761368
 40
1.100768103761368
 10
479.1039536000621
 20
1428.416470791129
 30
0.0
 10
479.6543376519428
 20
1428.416470791129
 30
0.0
 10
480.2047217038235
 20
1428.416470791129
 30
0.0
  0
SPLINE
  5
1CA
330
1F
100
AcDbEntity
  8
Predefinito
100
AcDbSpline
210
0.0
220
0.0
230
1.0
 70
    24
 71
     2
 72
     6
 73
     3
 74
     0
 42
0.0000000001
 43
0.0000000001
 40
0.0
 40
0.0
 40
0.0
 40
0.6478824991794454
 40
0.6478824991794454
 40
0.6478824991794454
 10
477.9071020546536
 20
1428.416470791129
 30
0.0
 10
478.2310433042434
 20
1428.416470791129
 30
0.0
 10
478.5549845538331
 20
1428.416470791129
 30
0.0
  0
SPLINE
  5
1CB
330
1F
100
AcDbEntity
  8
Predefinito
100
AcDbSpline
210
0.0
220
0.0
230
1.0
 70
    24
 71
     2
 72
     6
 73
     3
 74
     0
 42
0.0000000001
 43
0.0000000001
 40
0.0
 40
0.0
 40
0.0
 40
0.3605745220372683
 40
0.3605745220372683
 40
0.3605745220372683
 10
476.2570437016298
 20
1428.416470791128
 30
0.0
 10
476.4373309626484
 20
1428.416470791129
 30
0.0
 10
476.617618223667
 20
1428.416470791129
 30
0.0
  0
SPLINE
  5
1CC
330
1F
100
AcDbEntity
  8
Predefinito
100
AcDbSpline
210
0.0
220
0.0
230
1.0
 70
    24
 71
     2
 72
     6
 73
     3
 74
     0
 42
0.0000000001
 43
0.0000000001
 40
0.0
 40
0.0
 40
0.0
 40
1.219639626627043
 40
1.219639626627043
 40
1.219639626627043
 10
473.7785156688348
 20
1428.416470791129
 30
0.0
 10
474.3883354821482
 20
1428.416470791129
 30
0.0
 10
474.9981552954618
 20
1428.416470791129
 30
0.0
  0
SPLINE
  5
1CD
330
1F
100
AcDbEntity
  8
Predefinito
100
AcDbSpline
210
0.0
220
0.0
230
1.0
 70
    24
 71
     2
 72
     6
 73
     3
 74
     0
 42
0.0000000001
 43
0.0000000001
 40
0.0
 40
0.0
 40
0.0
 40
0.8551540961016144
 40
0.8551540961016144
 40
0.8551540961016144
 10
472.2396088852739
 20
1428.416470791129
 30
0.0
 10
472.6671859333247
 20
1428.416470791129
 30
0.0
 10
473.0947629813755
 20
1428.416470791129
 30
0.0
  0
SPLINE
  5
1CE
330
1F
100
AcDbEntity
  8
Predefinito
100
AcDbSpline
210
0.0
220
0.0
230
1.0
 70
    24
 71
     2
 72
     6
 73
     3
 74
     0
 42
0.0000000001
 43
0.0000000001
 40
0.0
 40
0.0
 40
0.0
 40
1.0387059958544
 40
1.0387059958544
 40
1.0387059958544
 10
470.0795240665842
 20
1428.416470791129
 30
0.0
 10
470.5988770645114
 20
1428.416470791129
 30
0.0
 10
471.1182300624386
 20
1428.416470791129
 30
0.0
  0
SPLINE
  5
1CF
330
1F
100
AcDbEntity
  8
Predefinito
100
AcDbSpline
210
0.0
220
0.0
230
1.0
 70
    24
 71
     2
 72
     6
 73
     3
 74
     0
 42
0.0000000001
 43
0.0000000001
 40
0.0
 40
0.0
 40
0.0
 40
1.291225922048397
 40
1.291225922048397
 40
1.291225922048397
 10
467.6634097531469
 20
1428.416470791129
 30
0.0
 10
468.3090227141711
 20
1428.416470791129
 30
0.0
 10
468.9546356751953
 20
1428.416470791129
 30
0.0
  0
SPLINE
  5
1D0
330
1F
100
AcDbEntity
  8
Predefinito
100
AcDbSpline
210
0.0
220
0.0
230
1.0
 70
    24
 71
     2
 72
     6
 73
     3
 74
     0
 42
0.0000000001
 43
0.0000000001
 40
0.0
 40
0.0
 40
0.0
 40
1.349656460555991
 40
1.349656460555991
 40
1.349656460555991
 10
465.629870266189
 20
1428.416470791128
 30
0.0
 10
466.304698496467
 20
1428.416470791128
 30
0.0
 10
466.979526726745
 20
1428.416470791128
 30
0.0
  0
SPLINE
  5
1D1
330
1F
100
AcDbEntity
  8
Predefinito
100
AcDbSpline
210
0.0
220
0.0
230
1.0
 70
    24
 71
     2
 72
     6
 73
     3
 74
     0
 42
0.0000000001
 43
0.0000000001
 40
0.0
 40
0.0
 40
0.0
 40
1.270729163898864
 40
1.270729163898864
 40
1.270729163898864
 10
463.5644634943192
 20
1428.416470791128
 30
0.0
 10
464.1998280762686
 20
1428.416470791128
 30
0.0
 10
464.835192658218
 20
1428.416470791128
 30
0.0
  0
SPLINE
  5
1D2
330
1F
100
AcDbEntity
  8
Predefinito
100
AcDbSpline
210
0.0
220
0.0
230
1.0
 70
    24
 71
     2
 72
     6
 73
     3
 74
     0
 42
0.0000000001
 43
0.0000000001
 40
0.0
 40
0.0
 40
0.0
 40
1.177670104490062
 40
1.177670104490062
 40
1.177670104490062
 10
461.4754734906764
 20
1428.416470791129
 30
0.0
 10
462.0643085429215
 20
1428.416470791129
 30
0.0
 10
462.6531435951665
 20
1428.416470791129
 30
0.0
  0
SPLINE
  5
1D3
330
1F
100
AcDbEntity
  8
Predefinito
100
AcDbSpline
210
0.0
220
0.0
230
1.0
 70
    24
 71
     2
 72
     6
 73
     3
 74
     0
 42
0.0000000001
 43
0.0000000001
 40
0.0
 40
0.0
 40
0.0
 40
1.071645286011403
 40
1.071645286011403
 40
1.071645286011403
 10
459.3710374017923
 20
1428.416470791129
 30
0.0
 10
459.906860044798
 20
1428.416470791129
 30
0.0
 10
460.4426826878037
 20
1428.416470791129
 30
0.0
  0
SPLINE
  5
1D4
330
1F
100
AcDbEntity
  8
Predefinito
100
AcDbSpline
210
0.0
220
0.0
230
1.0
 70
    24
 71
     2
 72
     6
 73
     3
 74
     0
 42
0.0000000001
 43
0.0000000001
 40
0.0
 40
0.0
 40
0.0
 40
0.7197767510566564
 40
0.7197767510566564
 40
0.7197767510566564
 10
457.2590580345197
 20
1428.416470791129
 30
0.0
 10
457.6189464100481
 20
1428.416470791129
 30
0.0
 10
457.9788347855764
 20
1428.416470791129
 30
0.0
  0
SPLINE
  5
1D5
330
1F
100
AcDbEntity
  8
Predefinito
100
AcDbSpline
210
0.0
220
0.0
230
1.0
 70
    24
 71
     2
 72
     6
 73
     3
 74
     0
 42
0.0000000001
 43
0.0000000001
 40
0.0
 40
0.0
 40
0.0
 40
0.8261586752115022
 40
0.8261586752115022
 40
0.8261586752115022
 10
455.1471252246719
 20
1428.416470791129
 30
0.0
 10
455.5602045622777
 20
1428.416470791129
 30
0.0
 10
455.9732838998834
 20
1428.416470791129
 30
0.0
  0
SPLINE
  5
1D6
330
1F
100
AcDbEntity
  8
Predefinito
100
AcDbSpline
210
0.0
220
0.0
230
1.0
 70
    24
 71
     2
 72
     6
 73
     3
 74
     0
 42
0.0000000001
 43
0.0000000001
 40
0.0
 40
0.0
 40
0.0
 40
1.484541441318243
 40
1.484541441318243
 40
1.484541441318243
 10
452.2476227737597
 20
1428.416470791128
 30
0.0
 10
452.9898934944188
 20
1428.416470791129
 30
0.0
 10
453.7321642150779
 20
1428.416470791129
 30
0.0
  0
SPLINE
  5
1D7
330
1F
100
AcDbEntity
  8
Predefinito
100
AcDbSpline
210
0.0
220
0.0
230
1.0
 70
    24
 71
     2
 72
     6
 73
     3
 74
     0
 42
0.0000000001
 43
0.0000000001
 40
0.0
 40
0.0
 40
0.0
 40
1.147421250913965
 40
1.147421250913965
 40
1.147421250913965
 10
450.3506486804978
 20
1428.416470791129
 30
0.0
 10
450.9243593059548
 20
1428.416470791129
 30
0.0
 10
451.4980699314118
 20
1428.416470791129
 30
0.0
  0
SPLINE
  5
1D8
330
1F
100
AcDbEntity
  8
Predefinito
100
AcDbSpline
210
0.0
220
0.0
230
1.0
 70
    24
 71
     2
 72
     6
 73
     3
 74
     0
 42
0.0000000001
 43
0.0000000001
 40
0.0
 40
0.0
 40
0.0
 40
0.8077541500962298
 40
0.8077541500962298
 40
0.8077541500962298
 10
448.4711695773454
 20
1428.416470791129
 30
0.0
 10
448.8750466523935
 20
1428.416470791129
 30
0.0
 10
449.2789237274416
 20
1428.416470791129
 30
0.0
  0
SPLINE
  5
1D9
330
1F
100
AcDbEntity
  8
Predefinito
100
AcDbSpline
210
0.0
220
0.0
230
1.0
 70
    24
 71
     2
 72
     6
 73
     3
 74
     0
 42
0.0000000001
 43
0.0000000001
 40
0.0
 40
0.0
 40
0.0
 40
0.4128304982647251
 40
0.4128304982647251
 40
0.4128304982647251
 10
446.6149276460233
 20
1428.416470791129
 30
0.0
 10
446.8213428951557
 20
1428.416470791129
 30
0.0
 10
447.027758144288
 20
1428.416470791129
 30
0.0
  0
SPLINE
  5
1DA
330
1F
100
AcDbEntity
  8
Predefinito
100
AcDbSpline
210
0.0
220
0.0
230
1.0
 70
    24
 71
     2
 72
     6
 73
     3
 74
     0
 42
0.0000000001
 43
0.0000000001
 40
0.0
 40
0.0
 40
0.0
 40
1.031568417665255
 40
1.031568417665255
 40
1.031568417665255
 10
443.8829073338484
 20
1428.416470791129
 30
0.0
 10
444.398691542681
 20
1428.416470791129
 30
0.0
 10
444.9144757515136
 20
1428.416470791129
 30
0.0
  0
SPLINE
  5
1DB
330
1F
100
AcDbEntity
  8
Predefinito
100
AcDbSpline
210
0.0
220
0.0
230
1.0
 70
    24
 71
     2
 72
     6
 73
     3
 74
     0
 42
0.0000000001
 43
0.0000000001
 40
0.0
 40
0.0
 40
0.0
 40
0.090322283910325
 40
0.090322283910325
 40
0.090322283910325
 10
442.6918661652097
 20
1428.416470791129
 30
0.0
 10
442.7370273071648
 20
1428.416470791129
 30
0.0
 10
442.78218844912
 20
1428.416470791129
 30
0.0
  0
SPLINE
  5
1DC
330
1F
100
AcDbEntity
  8
Predefinito
100
AcDbSpline
210
0.0
220
0.0
230
1.0
 70
    24
 71
     2
 72
     6
 73
     3
 74
     0
 42
0.0000000001
 43
0.0000000001
 40
0.0
 40
0.0
 40
0.0
 40
0.0526848029218172
 40
0.0526848029218172
 40
0.0526848029218172
 10
438.4094542266782
 20
1428.416470791128
 30
0.0
 10
438.4357966281391
 20
1428.416470791128
 30
0.0
 10
438.4621390296
 20
1428.416470791128
 30
0.0
  0
SPLINE
  5
1DD
330
1F
100
AcDbEntity
  8
Predefinito
100
AcDbSpline
210
0.0
220
0.0
230
1.0
 70
    24
 71
     2
 72
     6
 73
     3
 74
     0
 42
0.0000000001
 43
0.0000000001
 40
0.0
 40
0.0
 40
0.0
 40
1.936849121495413
 40
1.936849121495413
 40
1.936849121495413
 10
434.3752919766272
 20
1428.416470791129
 30
0.0
 10
435.3437165373749
 20
1428.416470791129
 30
0.0
 10
436.3121410981226
 20
1428.416470791129
 30
0.0
  0
SPLINE
  5
1DE
330
1F
100
AcDbEntity
  8
Predefinito
100
AcDbSpline
210
0.0
220
0.0
230
1.0
 70
    24
 71
     2
 72
     6
 73
     3
 74
     0
 42
0.0000000001
 43
0.0000000001
 40
0.0
 40
0.0
 40
0.0
 40
1.9133751481574
 40
1.9133751481574
 40
1.9133751481574
 10
432.2394847613448
 20
1428.416470791129
 30
0.0
 10
433.1961723354235
 20
1428.416470791129
 30
0.0
 10
434.1528599095022
 20
1428.416470791128
 30
0.0
  0
SPLINE
  5
1DF
330
1F
100
AcDbEntity
  8
Predefinito
100
AcDbSpline
210
0.0
220
0.0
230
1.0
 70
    24
 71
     2
 72
     6
 73
     3
 74
     0
 42
0.0000000001
 43
0.0000000001
 40
0.0
 40
0.0
 40
0.0
 40
1.891386379455184
 40
1.891386379455184
 40
1.891386379455184
 10
430.100320618329
 20
1428.416470791129
 30
0.0
 10
431.0460138080566
 20
1428.416470791129
 30
0.0
 10
431.9917069977841
 20
1428.416470791129
 30
0.0
  0
SPLINE
  5
1E0
330
1F
100
AcDbEntity
  8
Predefinito
100
AcDbSpline
210
0.0
220
0.0
230
1.0
 70
    24
 71
     2
 72
     6
 73
     3
 74
     0
 42
0.0000000001
 43
0.0000000001
 40
0.0
 40
0.0
 40
0.0
 40
1.870750702088515
 40
1.870750702088515
 40
1.870750702088515
 10
427.9657156441373
 20
1428.416470791129
 30
0.0
 10
428.9010909951816
 20
1428.416470791129
 30
0.0
 10
429.8364663462258
 20
1428.416470791129
 30
0.0
  0
SPLINE
  5
1E1
330
1F
100
AcDbEntity
  8
Predefinito
100
AcDbSpline
210
0.0
220
0.0
230
1.0
 70
    24
 71
     2
 72
     6
 73
     3
 74
     0
 42
0.0000000001
 43
0.0000000001
 40
0.0
 40
0.0
 40
0.0
 40
1.739161673514332
 40
1.739161673514332
 40
1.739161673514332
 10
425.9560592236888
 20
1428.416470791128
 30
0.0
 10
426.825640060446
 20
1428.416470791129
 30
0.0
 10
427.6952208972032
 20
1428.416470791129
 30
0.0
  0
SPLINE
  5
1E2
330
1F
100
AcDbEntity
  8
Predefinito
100
AcDbSpline
210
0.0
220
0.0
230
1.0
 70
    24
 71
     2
 72
     6
 73
     3
 74
     0
 42
0.0000000001
 43
0.0000000001
 40
0.0
 40
0.0
 40
0.0
 40
1.443301262930504
 40
1.443301262930504
 40
1.443301262930504
 10
424.1329674430544
 20
1428.416470791128
 30
0.0
 10
424.8546180745197
 20
1428.416470791128
 30
0.0
 10
425.5762687059849
 20
1428.416470791128
 30
0.0
  0
SPLINE
  5
1E3
330
1F
100
AcDbEntity
  8
Predefinito
100
AcDbSpline
210
0.0
220
0.0
230
1.0
 70
    24
 71
     2
 72
     6
 73
     3
 74
     0
 42
0.0000000001
 43
0.0000000001
 40
0.0
 40
0.0
 40
0.0
 40
1.466665386981958
 40
1.466665386981958
 40
1.466665386981958
 10
419.6437407702145
 20
1428.416470791129
 30
0.0
 10
420.3770734637055
 20
1428.416470791129
 30
0.0
 10
421.1104061571965
 20
1428.416470791129
 30
0.0
  0
SPLINE
  5
1E4
330
1F
100
AcDbEntity
  8
Predefinito
100
AcDbSpline
210
0.0
220
0.0
230
1.0
 70
    24
 71
     2
 72
     6
 73
     3
 74
     0
 42
0.0000000001
 43
0.0000000001
 40
0.0
 40
0.0
 40
0.0
 40
1.406355346145858
 40
1.406355346145858
 40
1.406355346145858
 10
417.661923884949
 20
1428.416470791129
 30
0.0
 10
418.3651015580219
 20
1428.416470791129
 30
0.0
 10
419.0682792310948
 20
1428.416470791128
 30
0.0
  0
SPLINE
  5
1E5
330
1F
100
AcDbEntity
  8
Predefinito
100
AcDbSpline
210
0.0
220
0.0
230
1.0
 70
    24
 71
     2
 72
     6
 73
     3
 74
     0
 42
0.0000000001
 43
0.0000000001
 40
0.0
 40
0.0
 40
0.0
 40
1.538906783560719
 40
1.538906783560719
 40
1.538906783560719
 10
415.7957596115584
 20
1428.416470791129
 30
0.0
 10
416.5652130033388
 20
1428.416470791129
 30
0.0
 10
417.3346663951191
 20
1428.416470791129
 30
0.0
  0
SPLINE
  5
1E6
330
1F
100
AcDbEntity
  8
Predefinito
100
AcDbSpline
210
0.0
220
0.0
230
1.0
 70
    24
 71
     2
 72
     6
 73
     3
 74
     0
 42
0.0000000001
 43
0.0000000001
 40
0.0
 40
0.0
 40
0.0
 40
0.8286040804845811
 40
0.8286040804845811
 40
0.8286040804845811
 10
414.3345216189481
 20
1428.416470791129
 30
0.0
 10
414.7488236591904
 20
1428.416470791129
 30
0.0
 10
415.1631256994327
 20
1428.416470791129
 30
0.0
  0
SPLINE
  5
1E7
330
1F
100
AcDbEntity
  8
Predefinito
100
AcDbSpline
210
0.0
220
0.0
230
1.0
 70
    24
 71
     2
 72
     6
 73
     3
 74
     0
 42
0.0000000001
 43
0.0000000001
 40
0.0
 40
0.0
 40
0.0
 40
2.69622532615233
 40
2.69622532615233
 40
2.69622532615233
 10
408.8568935982766
 20
1428.416470791129
 30
0.0
 10
410.2050062613528
 20
1428.416470791129
 30
0.0
 10
411.5531189244289
 20
1428.416470791129
 30
0.0
  0
SPLINE
  5
1E8
330
1F
100
AcDbEntity
  8
Predefinito
100
AcDbSpline
210
0.0
220
0.0
230
1.0
 70
    24
 71
     2
 72
     6
 73
     3
 74
     0
 42
0.0000000001
 43
0.0000000001
 40
0.0
 40
0.0
 40
0.0
 40
0.901564617768031
 40
0.901564617768031
 40
0.901564617768031
 10
407.465928742434
 20
1428.416470791129
 30
0.0
 10
407.916711051318
 20
1428.416470791129
 30
0.0
 10
408.367493360202
 20
1428.416470791129
 30
0.0
  0
SPLINE
  5
1E9
330
1F
100
AcDbEntity
  8
Predefinito
100
AcDbSpline
210
0.0
220
0.0
230
1.0
 70
    24
 71
     2
 72
     6
 73
     3
 74
     0
 42
0.0000000001
 43
0.0000000001
 40
0.0
 40
0.0
 40
0.0
 40
0.7915602809656548
 40
0.7915602809656548
 40
0.7915602809656548
 10
406.0287888841074
 20
1428.416470791129
 30
0.0
 10
406.4245690245902
 20
1428.416470791129
 30
0.0
 10
406.820349165073
 20
1428.416470791129
 30
0.0
  0
SPLINE
  5
1EA
330
1F
100
AcDbEntity
  8
Predefinito
100
AcDbSpline
210
0.0
220
0.0
230
1.0
 70
    24
 71
     2
 72
     6
 73
     3
 74
     0
 42
0.0000000001
 43
0.0000000001
 40
0.0
 40
0.0
 40
0.0
 40
0.5764617150331901
 40
0.5764617150331901
 40
0.5764617150331901
 10
404.8718868978868
 20
1428.416470791128
 30
0.0
 10
405.1601177554033
 20
1428.416470791128
 30
0.0
 10
405.44834861292
 20
1428.416470791128
 30
0.0
  0
SPLINE
  5
1EB
330
1F
100
AcDbEntity
  8
Predefinito
100
AcDbSpline
210
0.0
220
0.0
230
1.0
 70
    24
 71
     2
 72
     6
 73
     3
 74
     0
 42
0.0000000001
 43
0.0000000001
 40
0.0
 40
0.0
 40
0.0
 40
0.5758833350950567
 40
0.5758833350950567
 40
0.5758833350950567
 10
403.6106091589723
 20
1428.416470791129
 30
0.0
 10
403.8985508265198
 20
1428.416470791129
 30
0.0
 10
404.1864924940674
 20
1428.416470791129
 30
0.0
  0
SPLINE
  5
1EC
330
1F
100
AcDbEntity
  8
Predefinito
100
AcDbSpline
210
0.0
220
0.0
230
1.0
 70
    24
 71
     2
 72
     6
 73
     3
 74
     0
 42
0.0000000001
 43
0.0000000001
 40
0.0
 40
0.0
 40
0.0
 40
0.476688092114955
 40
0.476688092114955
 40
0.476688092114955
 10
402.5611012270833
 20
1428.416470791128
 30
0.0
 10
402.7994452731407
 20
1428.416470791129
 30
0.0
 10
403.0377893191982
 20
1428.416470791129
 30
0.0
  0
SPLINE
  5
1ED
330
1F
100
AcDbEntity
  8
Predefinito
100
AcDbSpline
210
0.0
220
0.0
230
1.0
 70
    24
 71
     2
 72
     6
 73
     3
 74
     0
 42
0.0000000001
 43
0.0000000001
 40
0.0
 40
0.0
 40
0.0
 40
0.1901866757865491
 40
0.1901866757865491
 40
0.1901866757865491
 10
401.8141017398427
 20
1428.416470791129
 30
0.0
 10
401.9091950777359
 20
1428.416470791129
 30
0.0
 10
402.0042884156292
 20
1428.416470791129
 30
0.0
  0
SPLINE
  5
1EE
330
1F
100
AcDbEntity
  8
Predefinito
100
AcDbSpline
210
0.0
220
0.0
230
1.0
 70
    24
 71
     2
 72
     6
 73
     3
 74
     0
 42
0.0000000001
 43
0.0000000001
 40
0.0
 40
0.0
 40
0.0
 40
0.6159053058163977
 40
0.6159053058163977
 40
0.6159053058163977
 10
400.471182184446
 20
1428.416470791128
 30
0.0
 10
400.7791348373541
 20
1428.416470791128
 30
0.0
 10
401.0870874902624
 20
1428.416470791128
 30
0.0
  0
SPLINE
  5
1EF
330
1F
100
AcDbEntity
  8
Predefinito
100
AcDbSpline
210
0.0
220
0.0
230
1.0
 70
    24
 71
     2
 72
     6
 73
     3
 74
     0
 42
0.0000000001
 43
0.0000000001
 40
0.0
 40
0.0
 40
0.0
 40
0.5408122774957747
 40
0.5408122774957747
 40
0.5408122774957747
 10
399.745545717142
 20
1428.416470791129
 30
0.0
 10
400.0159518558899
 20
1428.416470791129
 30
0.0
 10
400.2863579946377
 20
1428.416470791129
 30
0.0
  0
SPLINE
  5
1F0
330
1F
100
AcDbEntity
  8
Predefinito
100
AcDbSpline
210
0.0
220
0.0
230
1.0
 70
    24
 71
     2
 72
     6
 73
     3
 74
     0
 42
0.0000000001
 43
0.0000000001
 40
0.0
 40
0.0
 40
0.0
 40
0.4636752925569567
 40
0.4636752925569567
 40
0.4636752925569567
 10
399.1377113128491
 20
1428.416470791129
 30
0.0
 10
399.3695489591277
 20
1428.416470791129
 30
0.0
 10
399.6013866054061
 20
1428.416470791129
 30
0.0
  0
SPLINE
  5
1F1
330
1F
100
AcDbEntity
  8
Predefinito
100
AcDbSpline
210
0.0
220
0.0
230
1.0
 70
    24
 71
     2
 72
     6
 73
     3
 74
     0
 42
0.0000000001
 43
0.0000000001
 40
0.0
 40
0.0
 40
0.0
 40
0.3844347347964003
 40
0.3844347347964003
 40
0.3844347347964003
 10
398.6461959563912
 20
1428.416470791129
 30
0.0
 10
398.8384133237894
 20
1428.416470791129
 30
0.0
 10
399.0306306911876
 20
1428.416470791129
 30
0.0
  0
SPLINE
  5
1F2
330
1F
100
AcDbEntity
  8
Predefinito
100
AcDbSpline
210
0.0
220
0.0
230
1.0
 70
    24
 71
     2
 72
     6
 73
     3
 74
     0
 42
0.0000000001
 43
0.0000000001
 40
0.0
 40
0.0
 40
0.0
 40
93.95327291516645
 40
93.95327291516645
 40
93.95327291516645
 10
491.740410555363
 20
1426.416470791128
 30
0.0
 10
444.7637740977798
 20
1426.416470791129
 30
0.0
 10
397.7871376401966
 20
1426.416470791129
 30
0.0
  0
SPLINE
  5
1F3
330
1F
100
AcDbEntity
  8
Predefinito
100
AcDbSpline
210
0.0
220
0.0
230
1.0
 70
    12
 71
     2
 72
     6
 73
     3
 74
     0
 42
0.0000000001
 43
0.0000000001
 40
0.0
 40
0.0
 40
0.0
 40
0.9710474796496606
 40
0.9710474796496606
 40
0.9710474796496606
 10
519.7451409315252
 20
1010.451804214627
 30
0.0
 41
1.0
 10
520.2483629084542
 20
1010.451804214626
 30
0.0
 41
0.9480705953071114
 10
520.6497708548665
 20
1010.755290653569
 30
0.0
 41
1.0
  0
SPLINE
  5
1F4
330
1F
100
AcDbEntity
  8
Predefinito
100
AcDbSpline
210
0.0
220
0.0
230
1.0
 70
    24
 71
     2
 72
     6
 73
     3
 74
     0
 42
0.0000000001
 43
0.0000000001
 40
0.0
 40
0.0
 40
0.0
 40
75.90992438298724
 40
75.90992438298724
 40
75.90992438298724
 10
444.7871376401965
 20
1010.792560394175
 30
0.0
 10
406.8321754487029
 20
1010.792560394175
 30
0.0
 10
368.8772132572093
 20
1010.792560394175
 30
0.0
  0
SPLINE
  5
1F5
330
1F
100
AcDbEntity
  8
Predefinito
100
AcDbSpline
210
0.0
220
0.0
230
1.0
 70
    24
 71
     2
 72
     6
 73
     3
 74
     0
 42
0.0000000001
 43
0.0000000001
 40
0.0
 40
0.0
 40
0.0
 40
149.9160065826573
 40
149.9160065826573
 40
149.9160065826573
 10
369.8291343488679
 20
1010.451804214627
 30
0.0
 10
444.7871376401965
 20
1010.451804214627
 30
0.0
 10
519.7451409315252
 20
1010.451804214627
 30
0.0
  0
SPLINE
  5
1F6
330
1F
100
AcDbEntity
  8
Predefinito
100
AcDbSpline
210
0.0
220
0.0
230
1.0
 70
    12
 71
     2
 72
     6
 73
     3
 74
     0
 42
0.0000000001
 43
0.0000000001
 40
0.0
 40
0.0
 40
0.0
 40
12.96189164849247
 40
12.96189164849247
 40
12.96189164849247
 10
504.2902375138223
 20
1423.45850542055
 30
0.0
 41
1.0
 10
498.2882621175601
 20
1426.096319980081
 30
0.0
 41
0.9829049874823276
 10
491.7384840976548
 20
1426.38299435594
 30
0.0
 41
1.0
  0
SPLINE
  5
1F7
330
1F
100
AcDbEntity
  8
Predefinito
100
AcDbSpline
210
0.0
220
0.0
230
1.0
 70
    24
 71
     2
 72
     6
 73
     3
 74
     0
 42
0.0000000001
 43
0.0000000001
 40
0.0
 40
0.0
 40
0.0
 40
59.5527051833821
 40
59.5527051833821
 40
59.5527051833821
 10
385.2344324568144
 20
1423.436658484488
 30
0.0
 10
415.0107850485055
 20
1423.436658484488
 30
0.0
 10
444.7871376401965
 20
1423.436658484488
 30
0.0
  0
SPLINE
  5
1F8
330
1F
100
AcDbEntity
  8
Predefinito
100
AcDbSpline
210
0.0
220
0.0
230
1.0
 70
    24
 71
     2
 72
     6
 73
     3
 74
     0
 42
0.0000000001
 43
0.0000000001
 40
0.0
 40
0.0
 40
0.0
 40
105.0
 40
105.0
 40
105.0
 10
549.7871376401965
 20
1325.416470791129
 30
0.0
 10
497.2871376401965
 20
1325.416470791129
 30
0.0
 10
444.7871376401965
 20
1325.416470791129
 30
0.0
  0
SPLINE
  5
1F9
330
1F
100
AcDbEntity
  8
Predefinito
100
AcDbSpline
210
0.0
220
0.0
230
1.0
 70
    24
 71
     2
 72
     6
 73
     3
 74
     0
 42
0.0000000001
 43
0.0000000001
 40
0.0
 40
0.0
 40
0.0
 40
105.0
 40
105.0
 40
105.0
 10
444.7871376401965
 20
1325.416470791129
 30
0.0
 10
392.2871376401965
 20
1325.416470791129
 30
0.0
 10
339.7871376401965
 20
1325.416470791129
 30
0.0
  0
SPLINE
  5
1FA
330
1F
100
AcDbEntity
  8
Predefinito
100
AcDbSpline
210
0.0
220
0.0
230
1.0
 70
    24
 71
     2
 72
     6
 73
     3
 74
     0
 42
0.0000000001
 43
0.0000000001
 40
0.0
 40
0.0
 40
0.0
 40
59.5527051833821
 40
59.5527051833821
 40
59.5527051833821
 10
444.7871376401965
 20
1423.436658484488
 30
0.0
 10
474.5634902318876
 20
1423.436658484488
 30
0.0
 10
504.3398428235786
 20
1423.436658484488
 30
0.0
  0
SPLINE
  5
1FB
330
1F
100
AcDbEntity
  8
Predefinito
100
AcDbSpline
210
0.0
220
0.0
230
1.0
 70
    24
 71
     2
 72
     6
 73
     3
 74
     0
 42
0.0000000001
 43
0.0000000001
 40
0.0
 40
0.0
 40
0.0
 40
225.0
 40
225.0
 40
225.0
 10
549.7871376401965
 20
1100.416470791129
 30
0.0
 10
549.7871376401965
 20
1212.916470791129
 30
0.0
 10
549.7871376401965
 20
1325.416470791129
 30
0.0
  0
SPLINE
  5
1FC
330
1F
100
AcDbEntity
  8
Predefinito
100
AcDbSpline
210
0.0
220
0.0
230
1.0
 70
    24
 71
     2
 72
     6
 73
     3
 74
     0
 42
0.0000000001
 43
0.0000000001
 40
0.0
 40
0.0
 40
0.0
 40
105.0
 40
105.0
 40
105.0
 10
444.7871376401965
 20
1100.416470791129
 30
0.0
 10
497.2871376401965
 20
1100.416470791129
 30
0.0
 10
549.7871376401965
 20
1100.416470791129
 30
0.0
  0
SPLINE
  5
1FD
330
1F
100
AcDbEntity
  8
Predefinito
100
AcDbSpline
210
0.0
220
0.0
230
1.0
 70
    24
 71
     2
 72
     6
 73
     3
 74
     0
 42
0.0000000001
 43
0.0000000001
 40
0.0
 40
0.0
 40
0.0
 40
104.974132167872
 40
104.974132167872
 40
104.974132167872
 10
339.8130054723245
 20
1100.416470791129
 30
0.0
 10
392.3000715562605
 20
1100.416470791129
 30
0.0
 10
444.7871376401965
 20
1100.416470791129
 30
0.0
  0
SPLINE
  5
1FE
330
1F
100
AcDbEntity
  8
Predefinito
100
AcDbSpline
210
0.0
220
0.0
230
1.0
 70
    24
 71
     2
 72
     6
 73
     3
 74
     0
 42
0.0000000001
 43
0.0000000001
 40
0.0
 40
0.0
 40
0.0
 40
75.90992438298724
 40
75.90992438298724
 40
75.90992438298724
 10
520.6970620231838
 20
1010.792560394175
 30
0.0
 10
482.7420998316902
 20
1010.792560394175
 30
0.0
 10
444.7871376401965
 20
1010.792560394175
 30
0.0
  0
SPLINE
  5
1FF
330
1F
100
AcDbEntity
  8
Predefinito
100
AcDbSpline
210
0.0
220
0.0
230
1.0
 70
    12
 71
     2
 72
     6
 73
     3
 74
     0
 42
0.0000000001
 43
0.0000000001
 40
0.0
 40
0.0
 40
0.0
 40
1.256637061436073
 40
1.256637061436073
 40
1.256637061436073
 10
440.5802324100914
 20
1767.716470791129
 30
0.0
 41
1.0
 10
440.5802324100908
 20
1766.916470791128
 30
0.0
 41
0.7071067811861708
 10
441.3802324100913
 20
1766.916470791129
 30
0.0
 41
1.0
  0
SPLINE
  5
200
330
1F
100
AcDbEntity
  8
Predefinito
100
AcDbSpline
210
0.0
220
0.0
230
1.0
 70
    12
 71
     2
 72
     6
 73
     3
 74
     0
 42
0.0000000001
 43
0.0000000001
 40
0.0
 40
0.0
 40
0.0
 40
1.256637061435968
 40
1.256637061435968
 40
1.256637061435968
 10
441.0280234123443
 20
1570.716470791129
 30
0.0
 41
1.0
 10
441.0280234123443
 20
1569.916470791128
 30
0.0
 41
0.7071067811865727
 10
441.8280234123444
 20
1569.916470791129
 30
0.0
 41
1.0
  0
SPLINE
  5
201
330
1F
100
AcDbEntity
  8
Predefinito
100
AcDbSpline
210
0.0
220
0.0
230
1.0
 70
    12
 71
     2
 72
     6
 73
     3
 74
     0
 42
0.0000000001
 43
0.0000000001
 40
0.0
 40
0.0
 40
0.0
 40
1.256637061435968
 40
1.256637061435968
 40
1.256637061435968
 10
448.8371376401965
 20
1449.916470791129
 30
0.0
 41
1.0
 10
448.8371376401968
 20
1450.716470791129
 30
0.0
 41
0.7071067811862963
 10
448.0371376401965
 20
1450.716470791129
 30
0.0
 41
1.0
  0
SPLINE
  5
202
330
1F
100
AcDbEntity
  8
Predefinito
100
AcDbSpline
210
0.0
220
0.0
230
1.0
 70
    12
 71
     2
 72
     6
 73
     3
 74
     0
 42
0.0000000001
 43
0.0000000001
 40
0.0
 40
0.0
 40
0.0
 40
1.256637061435708
 40
1.256637061435708
 40
1.256637061435708
 10
440.7371376401965
 20
1449.716470791129
 30
0.0
 41
1.0
 10
440.7371376401967
 20
1448.916470791129
 30
0.0
 41
0.707106781186648
 10
441.5371376401965
 20
1448.916470791129
 30
0.0
 41
1.0
  0
SPLINE
  5
203
330
1F
100
AcDbEntity
  8
Predefinito
100
AcDbSpline
210
0.0
220
0.0
230
1.0
 70
    24
 71
     2
 72
     6
 73
     3
 74
     0
 42
0.0000000001
 43
0.0000000001
 40
0.0
 40
0.0
 40
0.0
 40
8.100000000000023
 40
8.100000000000023
 40
8.100000000000023
 10
448.8371376401965
 20
1449.916470791129
 30
0.0
 10
444.7871376401965
 20
1449.916470791129
 30
0.0
 10
440.7371376401965
 20
1449.916470791129
 30
0.0
  0
SPLINE
  5
204
330
1F
100
AcDbEntity
  8
Predefinito
100
AcDbSpline
210
0.0
220
0.0
230
1.0
 70
    24
 71
     2
 72
     6
 73
     3
 74
     0
 42
0.0000000001
 43
0.0000000001
 40
0.0
 40
0.0
 40
0.0
 40
0.2000000000000455
 40
0.2000000000000455
 40
0.2000000000000455
 10
448.8371376401965
 20
1449.716470791129
 30
0.0
 10
448.8371376401965
 20
1449.816470791129
 30
0.0
 10
448.8371376401965
 20
1449.916470791129
 30
0.0
  0
SPLINE
  5
205
330
1F
100
AcDbEntity
  8
Predefinito
100
AcDbSpline
210
0.0
220
0.0
230
1.0
 70
    24
 71
     2
 72
     6
 73
     3
 74
     0
 42
0.0000000001
 43
0.0000000001
 40
0.0
 40
0.0
 40
0.0
 40
8.100000000000023
 40
8.100000000000023
 40
8.100000000000023
 10
440.7371376401965
 20
1449.716470791129
 30
0.0
 10
444.7871376401965
 20
1449.716470791129
 30
0.0
 10
448.8371376401965
 20
1449.716470791129
 30
0.0
  0
SPLINE
  5
206
330
1F
100
AcDbEntity
  8
Predefinito
100
AcDbSpline
210
0.0
220
0.0
230
1.0
 70
    24
 71
     2
 72
     6
 73
     3
 74
     0
 42
0.0000000001
 43
0.0000000001
 40
0.0
 40
0.0
 40
0.0
 40
6.5
 40
6.5
 40
6.5
 10
448.0371376401965
 20
1448.916470791129
 30
0.0
 10
444.7871376401965
 20
1448.916470791129
 30
0.0
 10
441.5371376401965
 20
1448.916470791129
 30
0.0
  0
SPLINE
  5
207
330
1F
100
AcDbEntity
  8
Predefinito
100
AcDbSpline
210
0.0
220
0.0
230
1.0
 70
    24
 71
     2
 72
     6
 73
     3
 74
     0
 42
0.0000000001
 43
0.0000000001
 40
0.0
 40
0.0
 40
0.0
 40
6.5
 40
6.5
 40
6.5
 10
441.5371376401965
 20
1450.716470791129
 30
0.0
 10
444.7871376401965
 20
1450.716470791129
 30
0.0
 10
448.0371376401965
 20
1450.716470791129
 30
0.0
  0
ENDSEC
  0
SECTION
  2
OBJECTS
  0
DICTIONARY
  5
C
330
0
100
AcDbDictionary
281
     1
  3
ACAD_GROUP
350
D
  3
ACAD_LAYOUT
350
1A
  3
ACAD_MLEADERSTYLE
350
209
  3
ACAD_MLINESTYLE
350
17
  3
ACAD_PLOTSETTINGS
350
19
  3
ACAD_PLOTSTYLENAME
350
E
  3
ACAD_TABLESTYLE
350
208
  3
ACAD_VISUALSTYLE
350
2A
  0
DICTIONARY
  5
D
102
{ACAD_REACTORS
330
C
102
}
330
C
100
AcDbDictionary
281
     1
  0
DICTIONARY
  5
1A
102
{ACAD_REACTORS
330
C
102
}
330
C
100
AcDbDictionary
281
     1
  3
Layout1
350
1E
  3
Layout2
350
26
  3
Model
350
22
  0
DICTIONARY
  5
209
102
{ACAD_REACTORS
330
C
102
}
330
C
100
AcDbDictionary
281
     1
  0
DICTIONARY
  5
17
102
{ACAD_REACTORS
330
C
102
}
330
C
100
AcDbDictionary
281
     1
  3
Standard
350
18
  0
DICTIONARY
  5
19
102
{ACAD_REACTORS
330
C
102
}
330
C
100
AcDbDictionary
281
     1
  0
ACDBDICTIONARYWDFLT
  5
E
102
{ACAD_REACTORS
330
C
102
}
330
C
100
AcDbDictionary
281
     1
  3
Normal
350
F
100
AcDbDictionaryWithDefault
340
F
  0
DICTIONARY
  5
208
102
{ACAD_REACTORS
330
C
102
}
330
C
100
AcDbDictionary
281
     1
  0
DICTIONARY
  5
2A
102
{ACAD_REACTORS
330
C
102
}
330
C
100
AcDbDictionary
281
     1
  3
2dWireframe
350
2F
  3
3D Hidden
350
31
  3
3dWireframe
350
30
  3
Basic
350
32
  3
Brighten
350
36
  3
ColorChange
350
3A
  3
Conceptual
350
34
  3
Dim
350
35
  3
Facepattern
350
39
  3
Flat
350
2B
  3
FlatWithEdges
350
2C
  3
Gouraud
350
2D
  3
GouraudWithEdges
350
2E
  3
Linepattern
350
38
  3
Realistic
350
33
  3
Thicken
350
37
  0
LAYOUT
  5
1E
102
{ACAD_REACTORS
330
1A
102
}
330
1A
100
AcDbPlotSettings
  1

  2
none_device
  4

  6

 40
0.0
 41
0.0
 42
0.0
 43
0.0
 44
0.0
 45
0.0
 46
0.0
 47
0.0
 48
0.0
 49
0.0
140
0.0
141
0.0
142
1.0
143
1.0
 70
   688
 72
     0
 73
     0
 74
     5
  7

 75
    16
 76
     0
 77
     2
 78
   300
147
1.0
148
0.0
149
0.0
100
AcDbLayout
  1
Layout1
 70
     1
 71
     1
 10
0.0
 20
0.0
 11
12.0
 21
9.0
 12
0.0
 22
0.0
 32
0.0
 14
1.000000000000000E+20
 24
1.000000000000000E+20
 34
1.000000000000000E+20
 15
-1.000000000000000E+20
 25
-1.000000000000000E+20
 35
-1.000000000000000E+20
146
0.0
 13
0.0
 23
0.0
 33
0.0
 16
1.0
 26
0.0
 36
0.0
 17
0.0
 27
1.0
 37
0.0
 76
     0
330
1B
  0
LAYOUT
  5
26
102
{ACAD_REACTORS
330
1A
102
}
330
1A
100
AcDbPlotSettings
  1

  2
none_device
  4

  6

 40
0.0
 41
0.0
 42
0.0
 43
0.0
 44
0.0
 45
0.0
 46
0.0
 47
0.0
 48
0.0
 49
0.0
140
0.0
141
0.0
142
1.0
143
1.0
 70
   688
 72
     0
 73
     0
 74
     5
  7

 75
    16
 76
     0
 77
     2
 78
   300
147
1.0
148
0.0
149
0.0
100
AcDbLayout
  1
Layout2
 70
     1
 71
     2
 10
0.0
 20
0.0
 11
0.0
 21
0.0
 12
0.0
 22
0.0
 32
0.0
 14
0.0
 24
0.0
 34
0.0
 15
0.0
 25
0.0
 35
0.0
146
0.0
 13
0.0
 23
0.0
 33
0.0
 16
1.0
 26
0.0
 36
0.0
 17
0.0
 27
1.0
 37
0.0
 76
     0
330
23
  0
LAYOUT
  5
22
102
{ACAD_REACTORS
330
1A
102
}
330
1A
100
AcDbPlotSettings
  1

  2
none_device
  4

  6

 40
0.0
 41
0.0
 42
0.0
 43
0.0
 44
0.0
 45
0.0
 46
0.0
 47
0.0
 48
0.0
 49
0.0
140
0.0
141
0.0
142
1.0
143
1.0
 70
  1712
 72
     0
 73
     0
 74
     0
  7

 75
     0
 76
     0
 77
     2
 78
   300
147
1.0
148
0.0
149
0.0
100
AcDbLayout
  1
Model
 70
     1
 71
     0
 10
0.0
 20
0.0
 11
12.0
 21
9.0
 12
0.0
 22
0.0
 32
0.0
 14
0.0
 24
675.9999999999999
 34
0.0
 15
549.7871376401965
 25
1891.116470791129
 35
0.0
146
0.0
 13
0.0
 23
0.0
 33
0.0
 16
1.0
 26
0.0
 36
0.0
 17
0.0
 27
1.0
 37
0.0
 76
     0
330
1F
331
29
  0
MLINESTYLE
  5
18
102
{ACAD_REACTORS
330
17
102
}
330
17
100
AcDbMlineStyle
  2
Standard
 70
     0
  3

 62
   256
 51
90.0
 52
90.0
 71
     2
 49
0.5
 62
   256
  6
BYLAYER
 49
-0.5
 62
   256
  6
BYLAYER
  0
ACDBPLACEHOLDER
  5
F
102
{ACAD_REACTORS
330
E
102
}
330
E
  0
VISUALSTYLE
  5
2F
102
{ACAD_REACTORS
330
2A
102
}
330
2A
100
AcDbVisualStyle
  2
2dWireframe
 70
     4
 71
     0
 72
     2
 73
     0
 90
        0
 40
-0.6
 41
-30.0
 62
     5
 63
     7
421
 16777215
 74
     1
 91
        4
 64
     7
 65
   257
 75
     1
175
     1
 42
1.0
 92
        0
 66
   257
 43
1.0
 76
     1
 77
     6
 78
     2
 67
     7
 79
     5
170
     0
171
     0
290
     0
174
     0
 93
        1
 44
0.0
173
     0
291
     0
 45
0.0
1001
ACAD
1000
AcDbSavedByObjectVersion
1070
     0
  0
VISUALSTYLE
  5
31
102
{ACAD_REACTORS
330
2A
102
}
330
2A
100
AcDbVisualStyle
  2
3D Hidden
 70
     6
 71
     1
 72
     2
 73
     2
 90
        0
 40
-0.6
 41
-30.0
 62
     5
 63
     7
421
 16777215
 74
     2
 91
        2
 64
     7
 65
   257
 75
     2
175
     1
 42
40.0
 92
        0
 66
   257
 43
1.0
 76
     1
 77
     6
 78
     2
 67
     7
 79
     3
170
     0
171
     0
290
     0
174
     0
 93
        1
 44
0.0
173
     0
291
     0
 45
0.0
1001
ACAD
1000
AcDbSavedByObjectVersion
1070
     0
  0
VISUALSTYLE
  5
30
102
{ACAD_REACTORS
330
2A
102
}
330
2A
100
AcDbVisualStyle
  2
3dWireframe
 70
     5
 71
     0
 72
     2
 73
     0
 90
        0
 40
-0.6
 41
-30.0
 62
     5
 63
     7
421
 16777215
 74
     1
 91
        4
 64
     7
 65
   257
 75
     1
175
     1
 42
1.0
 92
        0
 66
   257
 43
1.0
 76
     1
 77
     6
 78
     2
 67
     7
 79
     5
170
     0
171
     0
290
     0
174
     0
 93
        1
 44
0.0
173
     0
291
     0
 45
0.0
1001
ACAD
1000
AcDbSavedByObjectVersion
1070
     0
  0
VISUALSTYLE
  5
32
102
{ACAD_REACTORS
330
2A
102
}
330
2A
100
AcDbVisualStyle
  2
Basic
 70
     7
 71
     1
 72
     0
 73
     1
 90
        0
 40
-0.6
 41
-30.0
 62
     5
 63
     7
421
 16777215
 74
     0
 91
        4
 64
     7
 65
   257
 75
     1
175
     1
 42
1.0
 92
        8
 66
     7
 43
1.0
 76
     1
 77
     6
 78
     2
 67
     7
 79
     5
170
     0
171
     0
290
     0
174
     0
 93
        1
 44
0.0
173
     0
291
     1
 45
0.0
1001
ACAD
1000
AcDbSavedByObjectVersion
1070
     0
  0
VISUALSTYLE
  5
36
102
{ACAD_REACTORS
330
2A
102
}
330
2A
100
AcDbVisualStyle
  2
Brighten
 70
    12
 71
     2
 72
     2
 73
     0
 90
        0
 40
-0.6
 41
-30.0
 62
     5
 63
     7
421
 16777215
 74
     1
 91
        4
 64
     7
 65
   257
 75
     1
175
     1
 42
1.0
 92
        8
 66
     7
 43
1.0
 76
     1
 77
     6
 78
     2
 67
     7
 79
     5
170
     0
171
     0
290
     0
174
     0
 93
        1
 44
50.0
173
     0
291
     1
 45
0.0
1001
ACAD
1000
AcDbSavedByObjectVersion
1070
     0
  0
VISUALSTYLE
  5
3A
102
{ACAD_REACTORS
330
2A
102
}
330
2A
100
AcDbVisualStyle
  2
ColorChange
 70
    16
 71
     2
 72
     2
 73
     3
 90
        0
 40
-0.6
 41
-30.0
 62
     5
 63
     8
421
  8421504
 74
     1
 91
        4
 64
     7
 65
   257
 75
     1
175
     1
 42
1.0
 92
        8
 66
     8
424
  8421504
 43
1.0
 76
     1
 77
     6
 78
     2
 67
     7
 79
     5
170
     0
171
     0
290
     0
174
     0
 93
        1
 44
0.0
173
     0
291
     1
 45
0.0
1001
ACAD
1000
AcDbSavedByObjectVersion
1070
     0
  0
VISUALSTYLE
  5
34
102
{ACAD_REACTORS
330
2A
102
}
330
2A
100
AcDbVisualStyle
  2
Conceptual
 70
     9
 71
     3
 72
     2
 73
     0
 90
        0
 40
-0.6
 41
-30.0
 62
     5
 63
     7
421
 16777215
 74
     2
 91
        2
 64
     7
 65
   257
 75
     1
175
     1
 42
40.0
 92
        8
 66
     7
 43
1.0
 76
     1
 77
     6
 78
     2
 67
     7
 79
     3
170
     0
171
     0
290
     0
174
     0
 93
        1
 44
0.0
173
     0
291
     0
 45
0.0
1001
ACAD
1000
AcDbSavedByObjectVersion
1070
     0
  0
VISUALSTYLE
  5
35
102
{ACAD_REACTORS
330
2A
102
}
330
2A
100
AcDbVisualStyle
  2
Dim
 70
    11
 71
     2
 72
     2
 73
     0
 90
        0
 40
-0.6
 41
-30.0
 62
     5
 63
     7
421
 16777215
 74
     1
 91
        4
 64
     7
 65
   257
 75
     1
175
     1
 42
1.0
 92
        8
 66
     7
 43
1.0
 76
     1
 77
     6
 78
     2
 67
     7
 79
     5
170
     0
171
     0
290
     0
174
     0
 93
        1
 44
-50.0
173
     0
291
     1
 45
0.0
1001
ACAD
1000
AcDbSavedByObjectVersion
1070
     0
  0
VISUALSTYLE
  5
39
102
{ACAD_REACTORS
330
2A
102
}
330
2A
100
AcDbVisualStyle
  2
Facepattern
 70
    15
 71
     2
 72
     2
 73
     0
 90
        0
 40
-0.6
 41
-30.0
 62
     5
 63
     7
421
 16777215
 74
     1
 91
        4
 64
     7
 65
   257
 75
     1
175
     1
 42
1.0
 92
        8
 66
     7
 43
1.0
 76
     1
 77
     6
 78
     2
 67
     7
 79
     5
170
     0
171
     0
290
     0
174
     0
 93
        1
 44
0.0
173
     0
291
     1
 45
0.0
1001
ACAD
1000
AcDbSavedByObjectVersion
1070
     0
  0
VISUALSTYLE
  5
2B
102
{ACAD_REACTORS
330
2A
102
}
330
2A
100
AcDbVisualStyle
  2
Flat
 70
     0
 71
     2
 72
     1
 73
     1
 90
        2
 40
-0.6
 41
30.0
 62
     5
 63
     7
421
 16777215
 74
     0
 91
        4
 64
     7
 65
   257
 75
     1
175
     1
 42
1.0
 92
        8
 66
     7
 43
1.0
 76
     1
 77
     6
 78
     2
 67
     7
 79
     5
170
     0
171
     0
290
     0
174
     0
 93
       13
 44
0.0
173
     0
291
     1
 45
0.0
1001
ACAD
1000
AcDbSavedByObjectVersion
1070
     0
  0
VISUALSTYLE
  5
2C
102
{ACAD_REACTORS
330
2A
102
}
330
2A
100
AcDbVisualStyle
  2
FlatWithEdges
 70
     1
 71
     2
 72
     1
 73
     1
 90
        2
 40
-0.6
 41
30.0
 62
     5
 63
     7
421
 16777215
 74
     1
 91
        4
 64
     7
 65
   257
 75
     1
175
     1
 42
1.0
 92
        0
 66
   257
 43
1.0
 76
     1
 77
     6
 78
     2
 67
     7
 79
     5
170
     0
171
     0
290
     0
174
     0
 93
       13
 44
0.0
173
     0
291
     1
 45
0.0
1001
ACAD
1000
AcDbSavedByObjectVersion
1070
     0
  0
VISUALSTYLE
  5
2D
102
{ACAD_REACTORS
330
2A
102
}
330
2A
100
AcDbVisualStyle
  2
Gouraud
 70
     2
 71
     2
 72
     2
 73
     1
 90
        2
 40
-0.6
 41
30.0
 62
     5
 63
     7
421
 16777215
 74
     0
 91
        4
 64
     7
 65
   257
 75
     1
175
     1
 42
1.0
 92
        0
 66
     7
 43
1.0
 76
     1
 77
     6
 78
     2
 67
     7
 79
     5
170
     0
171
     0
290
     0
174
     0
 93
       13
 44
0.0
173
     0
291
     1
 45
0.0
1001
ACAD
1000
AcDbSavedByObjectVersion
1070
     0
  0
VISUALSTYLE
  5
2E
102
{ACAD_REACTORS
330
2A
102
}
330
2A
100
AcDbVisualStyle
  2
GouraudWithEdges
 70
     3
 71
     2
 72
     2
 73
     1
 90
        2
 40
-0.6
 41
30.0
 62
     5
 63
     7
421
 16777215
 74
     1
 91
        4
 64
     7
 65
   257
 75
     1
175
     1
 42
1.0
 92
        0
 66
   257
 43
1.0
 76
     1
 77
     6
 78
     2
 67
     7
 79
     5
170
     0
171
     0
290
     0
174
     0
 93
       13
 44
0.0
173
     0
291
     1
 45
0.0
1001
ACAD
1000
AcDbSavedByObjectVersion
1070
     0
  0
VISUALSTYLE
  5
38
102
{ACAD_REACTORS
330
2A
102
}
330
2A
100
AcDbVisualStyle
  2
Linepattern
 70
    14
 71
     2
 72
     2
 73
     0
 90
        0
 40
-0.6
 41
-30.0
 62
     5
 63
     7
421
 16777215
 74
     1
 91
        4
 64
     7
 65
   257
 75
     7
175
     7
 42
1.0
 92
        8
 66
     7
 43
1.0
 76
     1
 77
     6
 78
     2
 67
     7
 79
     5
170
     0
171
     0
290
     0
174
     0
 93
        1
 44
0.0
173
     0
291
     1
 45
0.0
1001
ACAD
1000
AcDbSavedByObjectVersion
1070
     0
  0
VISUALSTYLE
  5
33
102
{ACAD_REACTORS
330
2A
102
}
330
2A
100
AcDbVisualStyle
  2
Realistic
 70
     8
 71
     2
 72
     2
 73
     0
 90
        0
 40
-0.6
 41
-30.0
 62
     5
 63
     7
421
 16777215
 74
     1
 91
        0
 64
     7
 65
   257
 75
     1
175
     1
 42
1.0
 92
        8
 66
     8
424
  7895160
 43
1.0
 76
     1
 77
     6
 78
     2
 67
     7
 79
     5
170
     0
171
     0
290
     0
174
     0
 93
       13
 44
0.0
173
     0
291
     0
 45
0.0
1001
ACAD
1000
AcDbSavedByObjectVersion
1070
     0
  0
VISUALSTYLE
  5
37
102
{ACAD_REACTORS
330
2A
102
}
330
2A
100
AcDbVisualStyle
  2
Thicken
 70
    13
 71
     2
 72
     2
 73
     0
 90
        0
 40
-0.6
 41
-30.0
 62
     5
 63
     7
421
 16777215
 74
     1
 91
        4
 64
     7
 65
   257
 75
     1
175
     1
 42
1.0
 92
       12
 66
     7
 43
1.0
 76
     1
 77
     6
 78
     2
 67
     7
 79
     5
170
     0
171
     0
290
     0
174
     0
 93
        1
 44
0.0
173
     0
291
     1
 45
0.0
1001
ACAD
1000
AcDbSavedByObjectVersion
1070
     0
  0
ENDSEC
  0
EOF
