  0
SECTION
  2
HEADER
  9
$ACADVER
  1
AC1018
  9
$ACADMAINTVER
 70
     0
  9
$DWGCODEPAGE
  3
ANSI_1252
  9
$INSBASE
 10
0.0
 20
0.0
 30
0.0
  9
$EXTMIN
 10
0.0129208628685908
 20
0.0000021605049199
 30
0.0
  9
$EXTMAX
 10
914.5188946209167
 20
736.7879839523968
 30
0.0
  9
$LIMMIN
 10
0.0
 20
0.0
  9
$LIMMAX
 10
12.0
 20
9.0
  9
$ORTHOMODE
 70
     0
  9
$REGENMODE
 70
     1
  9
$FILLMODE
 70
     1
  9
$QTEXTMODE
 70
     0
  9
$MIRRTEXT
 70
     1
  9
$LTSCALE
 40
1.0
  9
$ATTMODE
 70
     1
  9
$TEXTSIZE
 40
0.2
  9
$TRACEWID
 40
0.05
  9
$TEXTSTYLE
  7
Standard
  9
$CLAYER
  8
Predefinito
  9
$CELTYPE
  6
ByLayer
  9
$CECOLOR
 62
   256
  9
$CELTSCALE
 40
1.0
  9
$DISPSILH
 70
     0
  9
$DIMSCALE
 40
1.0
  9
$DIMASZ
 40
0.18
  9
$DIMEXO
 40
0.0625
  9
$DIMDLI
 40
0.38
  9
$DIMRND
 40
0.0
  9
$DIMDLE
 40
0.0
  9
$DIMEXE
 40
0.18
  9
$DIMTP
 40
0.0
  9
$DIMTM
 40
0.0
  9
$DIMTXT
 40
0.18
  9
$DIMCEN
 40
0.09
  9
$DIMTSZ
 40
0.0
  9
$DIMTOL
 70
     0
  9
$DIMLIM
 70
     0
  9
$DIMTIH
 70
     1
  9
$DIMTOH
 70
     1
  9
$DIMSE1
 70
     0
  9
$DIMSE2
 70
     0
  9
$DIMTAD
 70
     0
  9
$DIMZIN
 70
     0
  9
$DIMBLK
  1

  9
$DIMASO
 70
     1
  9
$DIMSHO
 70
     1
  9
$DIMPOST
  1

  9
$DIMAPOST
  1

  9
$DIMALT
 70
     0
  9
$DIMALTD
 70
     2
  9
$DIMALTF
 40
25.4
  9
$DIMLFAC
 40
1.0
  9
$DIMTOFL
 70
     0
  9
$DIMTVP
 40
0.0
  9
$DIMTIX
 70
     0
  9
$DIMSOXD
 70
     0
  9
$DIMSAH
 70
     0
  9
$DIMBLK1
  1

  9
$DIMBLK2
  1

  9
$DIMSTYLE
  2
Standard
  9
$DIMCLRD
 70
     0
  9
$DIMCLRE
 70
     0
  9
$DIMCLRT
 70
     0
  9
$DIMTFAC
 40
1.0
  9
$DIMGAP
 40
0.09
  9
$DIMJUST
 70
     0
  9
$DIMSD1
 70
     0
  9
$DIMSD2
 70
     0
  9
$DIMTOLJ
 70
     1
  9
$DIMTZIN
 70
     0
  9
$DIMALTZ
 70
     0
  9
$DIMALTTZ
 70
     0
  9
$DIMUPT
 70
     0
  9
$DIMDEC
 70
     4
  9
$DIMTDEC
 70
     4
  9
$DIMALTU
 70
     2
  9
$DIMALTTD
 70
     2
  9
$DIMTXSTY
  7
Standard
  9
$DIMAUNIT
 70
     0
  9
$DIMADEC
 70
     0
  9
$DIMALTRND
 40
0.0
  9
$DIMAZIN
 70
     0
  9
$DIMDSEP
 70
    46
  9
$DIMATFIT
 70
     3
  9
$DIMFRAC
 70
     0
  9
$DIMLDRBLK
  1

  9
$DIMLUNIT
 70
     2
  9
$DIMLWD
 70
    -2
  9
$DIMLWE
 70
    -2
  9
$DIMTMOVE
 70
     2
  9
$LUNITS
 70
     2
  9
$LUPREC
 70
     3
  9
$SKETCHINC
 40
0.1
  9
$FILLETRAD
 40
0.5
  9
$AUNITS
 70
     0
  9
$AUPREC
 70
     0
  9
$MENU
  1
.
  9
$ELEVATION
 40
0.0
  9
$PELEVATION
 40
0.0
  9
$THICKNESS
 40
0.0
  9
$LIMCHECK
 70
     0
  9
$CHAMFERA
 40
0.5
  9
$CHAMFERB
 40
0.5
  9
$CHAMFERC
 40
1.0
  9
$CHAMFERD
 40
0.0
  9
$SKPOLY
 70
     0
  9
$TDCREATE
 40
2458325.687539722
  9
$TDUCREATE
 40
2458325.604206389
  9
$TDUPDATE
 40
2458325.687539734
  9
$TDUUPDATE
 40
2458325.6042064
  9
$TDINDWG
 40
0.0000000116
  9
$TDUSRTIMER
 40
0.0000000116
  9
$USRTIMER
 70
     1
  9
$ANGBASE
 50
0.0
  9
$ANGDIR
 70
     0
  9
$PDMODE
 70
     0
  9
$PDSIZE
 40
0.0
  9
$PLINEWID
 40
0.0
  9
$SPLFRAME
 70
     0
  9
$SPLINETYPE
 70
     6
  9
$SPLINESEGS
 70
     8
  9
$HANDSEED
  5
15C
  9
$SURFTAB1
 70
     6
  9
$SURFTAB2
 70
     6
  9
$SURFTYPE
 70
     6
  9
$SURFU
 70
     6
  9
$SURFV
 70
     6
  9
$UCSBASE
  2

  9
$UCSNAME
  2

  9
$UCSORG
 10
0.0
 20
0.0
 30
0.0
  9
$UCSXDIR
 10
1.0
 20
0.0
 30
0.0
  9
$UCSYDIR
 10
0.0
 20
1.0
 30
0.0
  9
$UCSORTHOREF
  2

  9
$UCSORTHOVIEW
 70
     0
  9
$UCSORGTOP
 10
0.0
 20
0.0
 30
0.0
  9
$UCSORGBOTTOM
 10
0.0
 20
0.0
 30
0.0
  9
$UCSORGLEFT
 10
0.0
 20
0.0
 30
0.0
  9
$UCSORGRIGHT
 10
0.0
 20
0.0
 30
0.0
  9
$UCSORGFRONT
 10
0.0
 20
0.0
 30
0.0
  9
$UCSORGBACK
 10
0.0
 20
0.0
 30
0.0
  9
$PUCSBASE
  2

  9
$PUCSNAME
  2

  9
$PUCSORG
 10
0.0
 20
0.0
 30
0.0
  9
$PUCSXDIR
 10
1.0
 20
0.0
 30
0.0
  9
$PUCSYDIR
 10
0.0
 20
1.0
 30
0.0
  9
$PUCSORTHOREF
  2

  9
$PUCSORTHOVIEW
 70
     0
  9
$PUCSORGTOP
 10
0.0
 20
0.0
 30
0.0
  9
$PUCSORGBOTTOM
 10
0.0
 20
0.0
 30
0.0
  9
$PUCSORGLEFT
 10
0.0
 20
0.0
 30
0.0
  9
$PUCSORGRIGHT
 10
0.0
 20
0.0
 30
0.0
  9
$PUCSORGFRONT
 10
0.0
 20
0.0
 30
0.0
  9
$PUCSORGBACK
 10
0.0
 20
0.0
 30
0.0
  9
$USERI1
 70
     0
  9
$USERI2
 70
     0
  9
$USERI3
 70
     0
  9
$USERI4
 70
     0
  9
$USERI5
 70
     0
  9
$USERR1
 40
0.0
  9
$USERR2
 40
0.0
  9
$USERR3
 40
0.0
  9
$USERR4
 40
0.0
  9
$USERR5
 40
0.0
  9
$WORLDVIEW
 70
     1
  9
$SHADEDGE
 70
     3
  9
$SHADEDIF
 70
    70
  9
$TILEMODE
 70
     1
  9
$MAXACTVP
 70
    64
  9
$PINSBASE
 10
0.0
 20
0.0
 30
0.0
  9
$PLIMCHECK
 70
     0
  9
$PEXTMIN
 10
1.000000000000000E+20
 20
1.000000000000000E+20
 30
1.000000000000000E+20
  9
$PEXTMAX
 10
-1.000000000000000E+20
 20
-1.000000000000000E+20
 30
-1.000000000000000E+20
  9
$PLIMMIN
 10
0.0
 20
0.0
  9
$PLIMMAX
 10
12.0
 20
9.0
  9
$UNITMODE
 70
     0
  9
$VISRETAIN
 70
     1
  9
$PLINEGEN
 70
     0
  9
$PSLTSCALE
 70
     1
  9
$TREEDEPTH
 70
  3020
  9
$CMLSTYLE
  2
Standard
  9
$CMLJUST
 70
     0
  9
$CMLSCALE
 40
1.0
  9
$PROXYGRAPHICS
 70
     1
  9
$MEASUREMENT
 70
     0
  9
$CELWEIGHT
370
    -1
  9
$ENDCAPS
280
     0
  9
$JOINSTYLE
280
     0
  9
$LWDISPLAY
290
     0
  9
$INSUNITS
 70
     4
  9
$HYPERLINKBASE
  1

  9
$STYLESHEET
  1

  9
$XEDIT
290
     1
  9
$CEPSNTYPE
380
     0
  9
$PSTYLEMODE
290
     1
  9
$FINGERPRINTGUID
  2
{4B2FD8DB-D99D-4E4E-8E46-5374FB1ED756}
  9
$VERSIONGUID
  2
{FAEB1C32-E019-11D5-929B-00C0DF256EC4}
  9
$EXTNAMES
290
     1
  9
$PSVPSCALE
 40
0.0
  9
$OLESTARTUP
290
     0
  9
$SORTENTS
280
   127
  9
$INDEXCTL
280
     0
  9
$HIDETEXT
280
     1
  9
$XCLIPFRAME
290
     0
  9
$HALOGAP
280
     0
  9
$OBSCOLOR
 70
   257
  9
$OBSLTYPE
280
     0
  9
$INTERSECTIONDISPLAY
280
     0
  9
$INTERSECTIONCOLOR
 70
   257
  9
$DIMASSOC
280
     2
  9
$PROJECTNAME
  1

  0
ENDSEC
  0
SECTION
  2
CLASSES
  0
CLASS
  1
ACDBDICTIONARYWDFLT
  2
AcDbDictionaryWithDefault
  3
ObjectDBX Classes
 90
        0
 91
        4
280
     0
281
     0
  0
CLASS
  1
VISUALSTYLE
  2
AcDbVisualStyle
  3
ObjectDBX Classes
 90
     4095
 91
        4
280
     0
281
     0
  0
ENDSEC
  0
SECTION
  2
TABLES
  0
TABLE
  2
VPORT
  5
8
330
0
100
AcDbSymbolTable
 70
     1
  0
VPORT
  5
29
330
8
100
AcDbSymbolTableRecord
100
AcDbViewportTableRecord
  2
*Active
 70
     0
 10
0.0
 20
0.0
 11
1.0
 21
1.0
 12
457.2659077418926
 22
368.3939930564508
 13
0.0
 23
0.0
 14
0.5
 24
0.5
 15
0.5
 25
0.5
 16
0.0
 26
0.0
 36
1.0
 17
0.0
 27
0.0
 37
0.0
 40
751.5237414277298
 41
1.241206420785991
 42
50.0
 43
0.0
 44
0.0
 50
0.0
 51
0.0
 71
     0
 72
   100
 73
     1
 74
     3
 75
     0
 76
     0
 77
     0
 78
     0
281
     0
 65
     1
110
0.0
120
0.0
130
0.0
111
1.0
121
0.0
131
0.0
112
0.0
122
1.0
132
0.0
 79
     0
146
0.0
  0
ENDTAB
  0
TABLE
  2
LTYPE
  5
5
330
0
100
AcDbSymbolTable
 70
     1
  0
LTYPE
  5
14
330
5
100
AcDbSymbolTableRecord
100
AcDbLinetypeTableRecord
  2
ByBlock
 70
     0
  3

 72
    65
 73
     0
 40
0.0
  0
LTYPE
  5
15
330
5
100
AcDbSymbolTableRecord
100
AcDbLinetypeTableRecord
  2
ByLayer
 70
     0
  3

 72
    65
 73
     0
 40
0.0
  0
LTYPE
  5
16
330
5
100
AcDbSymbolTableRecord
100
AcDbLinetypeTableRecord
  2
Continuous
 70
     0
  3
Solid line
 72
    65
 73
     0
 40
0.0
  0
ENDTAB
  0
TABLE
  2
LAYER
  5
2
330
0
100
AcDbSymbolTable
 70
     2
  0
LAYER
  5
10
330
2
100
AcDbSymbolTableRecord
100
AcDbLayerTableRecord
  2
0
 70
     0
 62
     7
  6
Continuous
370
    -3
390
F
  0
LAYER
  5
3B
330
2
100
AcDbSymbolTableRecord
100
AcDbLayerTableRecord
  2
Predefinito
 70
     0
 62
     7
  6
Continuous
370
    -3
390
F
  0
ENDTAB
  0
TABLE
  2
STYLE
  5
3
330
0
100
AcDbSymbolTable
 70
     1
  0
STYLE
  5
11
330
3
100
AcDbSymbolTableRecord
100
AcDbTextStyleTableRecord
  2
Standard
 70
     0
 40
0.0
 41
1.0
 50
0.0
 71
     0
 42
0.2
  3
txt
  4

  0
ENDTAB
  0
TABLE
  2
VIEW
  5
6
330
0
100
AcDbSymbolTable
 70
     0
  0
ENDTAB
  0
TABLE
  2
UCS
  5
7
330
0
100
AcDbSymbolTable
 70
     0
  0
ENDTAB
  0
TABLE
  2
APPID
  5
9
330
0
100
AcDbSymbolTable
 70
     1
  0
APPID
  5
12
330
9
100
AcDbSymbolTableRecord
100
AcDbRegAppTableRecord
  2
ACAD
 70
     0
  0
ENDTAB
  0
TABLE
  2
DIMSTYLE
  5
A
330
0
100
AcDbSymbolTable
 70
     1
100
AcDbDimStyleTable
  0
DIMSTYLE
105
27
330
A
100
AcDbSymbolTableRecord
100
AcDbDimStyleTableRecord
  2
Standard
 70
     0
340
11
  0
ENDTAB
  0
TABLE
  2
BLOCK_RECORD
  5
1
330
0
100
AcDbSymbolTable
 70
     1
  0
BLOCK_RECORD
  5
1F
330
1
100
AcDbSymbolTableRecord
100
AcDbBlockTableRecord
  2
*Model_Space
340
22
  0
BLOCK_RECORD
  5
1B
330
1
100
AcDbSymbolTableRecord
100
AcDbBlockTableRecord
  2
*Paper_Space
340
1E
  0
BLOCK_RECORD
  5
23
330
1
100
AcDbSymbolTableRecord
100
AcDbBlockTableRecord
  2
*Paper_Space0
340
26
  0
ENDTAB
  0
ENDSEC
  0
SECTION
  2
BLOCKS
  0
BLOCK
  5
20
330
1F
100
AcDbEntity
  8
0
100
AcDbBlockBegin
  2
*Model_Space
 70
     0
 10
0.0
 20
0.0
 30
0.0
  3
*Model_Space
  1

  0
ENDBLK
  5
21
330
1F
100
AcDbEntity
  8
0
100
AcDbBlockEnd
  0
BLOCK
  5
1C
330
1B
100
AcDbEntity
 67
     1
  8
0
100
AcDbBlockBegin
  2
*Paper_Space
 70
     0
 10
0.0
 20
0.0
 30
0.0
  3
*Paper_Space
  1

  0
ENDBLK
  5
1D
330
1B
100
AcDbEntity
 67
     1
  8
0
100
AcDbBlockEnd
  0
BLOCK
  5
24
330
23
100
AcDbEntity
  8
0
100
AcDbBlockBegin
  2
*Paper_Space0
 70
     0
 10
0.0
 20
0.0
 30
0.0
  3
*Paper_Space0
  1

  0
ENDBLK
  5
25
330
23
100
AcDbEntity
  8
0
100
AcDbBlockEnd
  0
ENDSEC
  0
SECTION
  2
ENTITIES
  0
SPLINE
  5
3C
330
1F
100
AcDbEntity
  8
Predefinito
100
AcDbSpline
210
0.0
220
0.0
230
1.0
 70
    12
 71
     2
 72
     6
 73
     3
 74
     0
 42
0.0000000001
 43
0.0000000001
 40
0.0
 40
0.0
 40
0.0
 40
0.7237818517040723
 40
0.7237818517040723
 40
0.7237818517040723
 10
65.18533198229521
 20
713.559875483112
 30
0.0
 41
1.0
 10
65.54796809833486
 20
713.5398952481233
 30
0.0
 41
0.9946592487851901
 10
65.8987754816033
 20
713.4458827899549
 30
0.0
 41
1.0
  0
SPLINE
  5
3D
330
1F
100
AcDbEntity
  8
Predefinito
100
AcDbSpline
210
0.0
220
0.0
230
1.0
 70
    24
 71
     2
 72
     6
 73
     3
 74
     0
 42
0.0000000001
 43
0.0000000001
 40
-17.75515858442179
 40
-17.75515858442179
 40
-17.75515858442179
 40
0.0
 40
0.0
 40
0.0
 10
61.492340638648
 20
556.8600172959616
 30
0.0
 10
61.49256222769054
 20
565.737596585407
 30
0.0
 10
61.49278381673309
 20
574.6151758748524
 30
0.0
  0
SPLINE
  5
3E
330
1F
100
AcDbEntity
  8
Predefinito
100
AcDbSpline
210
0.0
220
0.0
230
1.0
 70
    24
 71
     2
 72
     6
 73
     3
 74
     0
 42
0.0000000001
 43
0.0000000001
 40
0.0
 40
0.0
 40
0.0
 40
46.01873256333477
 40
46.01873256333477
 40
46.01873256333477
 10
61.49278381673309
 20
574.6151758748524
 30
0.0
 10
61.49278381673282
 20
597.6245421565197
 30
0.0
 10
61.49278381673255
 20
620.6339084381871
 30
0.0
  0
SPLINE
  5
3F
330
1F
100
AcDbEntity
  8
Predefinito
100
AcDbSpline
210
0.0
220
0.0
230
1.0
 70
    24
 71
     2
 72
     6
 73
     3
 74
     0
 42
0.0000000001
 43
0.0000000001
 40
0.0
 40
0.0
 40
0.0
 40
76.40920375254314
 40
76.40920375254314
 40
76.40920375254314
 10
61.49278381673255
 20
620.6339084381871
 30
0.0
 10
61.49278381661087
 20
658.8385982640767
 30
0.0
 10
61.49278381648918
 20
697.0432880899664
 30
0.0
  0
SPLINE
  5
40
330
1F
100
AcDbEntity
  8
Predefinito
100
AcDbSpline
210
0.0
220
0.0
230
1.0
 70
    24
 71
     2
 72
     6
 73
     3
 74
     0
 42
0.0000000001
 43
0.0000000001
 40
0.0
 40
0.0
 40
0.0
 40
2.625872627710464
 40
2.625872627710464
 40
2.625872627710464
 10
61.49278381648918
 20
697.0432880899664
 30
0.0
 10
61.49278381488562
 20
698.3563123534726
 30
0.0
 10
61.49278381328206
 20
699.6693366169789
 30
0.0
  0
SPLINE
  5
41
330
1F
100
AcDbEntity
  8
Predefinito
100
AcDbSpline
210
0.0
220
0.0
230
1.0
 70
    12
 71
     2
 72
     6
 73
     3
 74
     0
 42
0.0000000001
 43
0.0000000001
 40
0.0
 40
0.0
 40
0.0
 40
0.8876514064621689
 40
0.8876514064621689
 40
0.8876514064621689
 10
61.49278381328206
 20
699.6693366169789
 30
0.0
 41
1.0
 10
61.49278380075601
 20
700.1131623202757
 30
0.0
 41
1.0
 10
61.49278380237381
 20
700.55698802371
 30
0.0
 41
1.0
  0
SPLINE
  5
42
330
1F
100
AcDbEntity
  8
Predefinito
100
AcDbSpline
210
0.0
220
0.0
230
1.0
 70
    24
 71
     2
 72
     6
 73
     3
 74
     0
 42
0.0000000001
 43
0.0000000001
 40
0.0
 40
0.0
 40
0.0
 40
0.2810240951390598
 40
0.2810240951390598
 40
0.2810240951390598
 10
61.49278380237381
 20
700.55698802371
 30
0.0
 10
61.49278379812476
 20
700.6975000708661
 30
0.0
 10
61.49278379387572
 20
700.8380121180222
 30
0.0
  0
SPLINE
  5
43
330
1F
100
AcDbEntity
  8
Predefinito
100
AcDbSpline
210
0.0
220
0.0
230
1.0
 70
    12
 71
     2
 72
     6
 73
     3
 74
     0
 42
0.0000000001
 43
0.0000000001
 40
0.0
 40
0.0
 40
0.0
 40
9.130287123482617
 40
9.130287123482617
 40
9.130287123482617
 10
61.49278379387572
 20
700.8380121180222
 30
0.0
 41
1.0
 10
61.49278378923459
 20
705.4031556792486
 30
0.0
 41
1.0
 10
61.49278386478693
 20
709.9723921913841
 30
0.0
 41
1.0
  0
SPLINE
  5
44
330
1F
100
AcDbEntity
  8
Predefinito
100
AcDbSpline
210
0.0
220
0.0
230
1.0
 70
    24
 71
     2
 72
     6
 73
     3
 74
     0
 42
0.0000000001
 43
0.0000000001
 40
0.0
 40
0.0
 40
0.0
 40
0.0284591635075913
 40
0.0284591635075913
 40
0.0284591635075913
 10
61.49278386478693
 20
709.9723921913841
 30
0.0
 10
61.4927838520119
 20
710.003867047106
 30
0.0
 10
61.49278383923686
 20
710.0353419028281
 30
0.0
  0
SPLINE
  5
45
330
1F
100
AcDbEntity
  8
Predefinito
100
AcDbSpline
210
0.0
220
0.0
230
1.0
 70
    12
 71
     2
 72
     8
 73
     5
 74
     0
 42
0.0000000001
 43
0.0000000001
 40
0.0
 40
0.0
 40
0.0
 40
2.947720963249652
 40
2.947720963249652
 40
5.497223539376765
 40
5.497223539376765
 40
5.497223539376765
 10
61.49278383923686
 20
710.0353419028281
 30
0.0
 41
1.0
 10
61.49303629911895
 20
711.6333760411286
 30
0.0
 41
0.9126386275150431
 10
62.6628395114046
 20
712.6769491501083
 30
0.0
 41
1.0
 10
63.65850573895824
 20
713.5651758959515
 30
0.0
 41
0.9344038018098587
 10
64.99278381669252
 20
713.5651758960357
 30
0.0
 41
1.0
  0
SPLINE
  5
46
330
1F
100
AcDbEntity
  8
Predefinito
100
AcDbSpline
210
0.0
220
0.0
230
1.0
 70
    12
 71
     2
 72
     6
 73
     3
 74
     0
 42
0.0000000001
 43
0.0000000001
 40
0.0
 40
0.0
 40
0.0
 40
1.940169077751922
 40
1.940169077751922
 40
1.940169077751922
 10
67.98549243558288
 20
711.8800299172194
 30
0.0
 41
1.0
 10
68.50179443412188
 20
711.0286438425769
 30
0.0
 41
0.9618348519979709
 10
68.49270970097773
 20
710.0329815128268
 30
0.0
 41
0.9999992824409142
  0
SPLINE
  5
47
330
1F
100
AcDbEntity
  8
Predefinito
100
AcDbSpline
210
0.0
220
0.0
230
1.0
 70
    24
 71
     2
 72
     6
 73
     3
 74
     0
 42
0.0000000001
 43
0.0000000001
 40
0.0
 40
0.0
 40
0.0
 40
0.0565441213434497
 40
0.0565441213434497
 40
0.0565441213434497
 10
68.49270970097773
 20
710.0329815128268
 30
0.0
 10
68.49274675833206
 20
710.0027765355937
 30
0.0
 10
68.4927838156864
 20
709.9725715583606
 30
0.0
  0
SPLINE
  5
48
330
1F
100
AcDbEntity
  8
Predefinito
100
AcDbSpline
210
0.0
220
0.0
230
1.0
 70
    12
 71
     2
 72
     6
 73
     3
 74
     0
 42
0.0000000001
 43
0.0000000001
 40
0.0
 40
0.0
 40
0.0
 40
9.603976136269582
 40
9.603976136269582
 40
9.603976136269582
 10
68.4927838156864
 20
709.9725715583606
 30
0.0
 41
1.0
 10
68.49278362032253
 20
705.1667003317485
 30
0.0
 41
0.9999999999999992
 10
68.49278381890906
 20
700.3647122636136
 30
0.0
 41
1.0
  0
SPLINE
  5
49
330
1F
100
AcDbEntity
  8
Predefinito
100
AcDbSpline
210
0.0
220
0.0
230
1.0
 70
    24
 71
     2
 72
     6
 73
     3
 74
     0
 42
0.0000000001
 43
0.0000000001
 40
0.0
 40
0.0
 40
0.0
 40
3.32090016151119
 40
3.32090016151119
 40
3.32090016151119
 10
68.49278381890906
 20
700.3647122636136
 30
0.0
 10
68.49278381794277
 20
698.7041751576044
 30
0.0
 10
68.49278381697647
 20
697.0436380515953
 30
0.0
  0
SPLINE
  5
4A
330
1F
100
AcDbEntity
  8
Predefinito
100
AcDbSpline
210
0.0
220
0.0
230
1.0
 70
    24
 71
     2
 72
     6
 73
     3
 74
     0
 42
0.0000000001
 43
0.0000000001
 40
0.0
 40
0.0
 40
0.0
 40
0.721966532227043
 40
0.721966532227043
 40
0.721966532227043
 10
68.49278381697647
 20
697.0436380515953
 30
0.0
 10
68.49278381683683
 20
696.6825677602283
 30
0.0
 10
68.4927838166972
 20
696.3214974688613
 30
0.0
  0
SPLINE
  5
4B
330
1F
100
AcDbEntity
  8
Predefinito
100
AcDbSpline
210
0.0
220
0.0
230
1.0
 70
    24
 71
     2
 72
     6
 73
     3
 74
     0
 42
0.0000000001
 43
0.0000000001
 40
0.0
 40
0.0
 40
0.0
 40
1.436477377755068
 40
1.436477377755068
 40
1.436477377755068
 10
68.4927838166972
 20
696.3214974688613
 30
0.0
 10
68.49278381671655
 20
695.6032587799837
 30
0.0
 10
68.49278381673591
 20
694.8850200911062
 30
0.0
  0
SPLINE
  5
4C
330
1F
100
AcDbEntity
  8
Predefinito
100
AcDbSpline
210
0.0
220
0.0
230
1.0
 70
    24
 71
     2
 72
     6
 73
     3
 74
     0
 42
0.0000000001
 43
0.0000000001
 40
0.0
 40
0.0
 40
0.0
 40
4.603566837428502
 40
4.603566837428502
 40
4.603566837428502
 10
68.49278381673591
 20
694.8850200911062
 30
0.0
 10
68.49278381673457
 20
682.9052837190407
 30
0.0
 10
68.49278381673324
 20
670.925547346975
 30
0.0
  0
SPLINE
  5
4D
330
1F
100
AcDbEntity
  8
Predefinito
100
AcDbSpline
210
0.0
220
0.0
230
1.0
 70
    24
 71
     2
 72
     6
 73
     3
 74
     0
 42
0.0000000001
 43
0.0000000001
 40
-30.99957869154503
 40
-30.99957869154503
 40
-30.99957869154503
 40
0.0
 40
0.0
 40
0.0
 10
68.49278381673324
 20
670.925547346975
 30
0.0
 10
68.49278381673318
 20
645.7478050478512
 30
0.0
 10
68.49278381673312
 20
620.5700627487273
 30
0.0
  0
SPLINE
  5
4E
330
1F
100
AcDbEntity
  8
Predefinito
100
AcDbSpline
210
0.0
220
0.0
230
1.0
 70
    24
 71
     2
 72
     6
 73
     3
 74
     0
 42
0.0000000001
 43
0.0000000001
 40
0.0
 40
0.0
 40
0.0
 40
45.95488687387501
 40
45.95488687387501
 40
45.95488687387501
 10
68.49278381673312
 20
620.5700627487273
 30
0.0
 10
68.49278381673308
 20
597.5926193117898
 30
0.0
 10
68.49278381673304
 20
574.6151758748524
 30
0.0
  0
SPLINE
  5
4F
330
1F
100
AcDbEntity
  8
Predefinito
100
AcDbSpline
210
0.0
220
0.0
230
1.0
 70
    24
 71
     2
 72
     6
 73
     3
 74
     0
 42
0.0000000001
 43
0.0000000001
 40
0.0
 40
0.0
 40
0.0
 40
17.75515928975915
 40
17.75515928975915
 40
17.75515928975915
 10
68.49278381673304
 20
574.6151758748524
 30
0.0
 10
68.49278381673302
 20
565.7375962299728
 30
0.0
 10
68.49278381673301
 20
556.8600165850933
 30
0.0
  0
SPLINE
  5
50
330
1F
100
AcDbEntity
  8
Predefinito
100
AcDbSpline
210
0.0
220
0.0
230
1.0
 70
    28
 71
     2
 72
     8
 73
     5
 74
     0
 42
0.0000000001
 43
0.0000000001
 40
4.123340357836604
 40
4.123340357836604
 40
4.123340357836604
 40
4.71238898038469
 40
4.71238898038469
 40
9.42477796076938
 40
9.42477796076938
 40
9.42477796076938
 10
62.04286771148185
 20
713.8379839523952
 30
0.0
 41
0.9359296083845573
 10
61.99278381673156
 20
713.8379839523952
 30
0.0
 41
0.9633883476483185
 10
61.99278381673156
 20
713.8379839523952
 30
0.0
 41
1.0
 10
61.99278381673156
 20
713.8379839523953
 30
0.0
 41
0.7071067811865476
 10
64.99278381673156
 20
713.8379839523953
 30
0.0
 41
1.0
  0
SPLINE
  5
51
330
1F
100
AcDbEntity
  8
Predefinito
100
AcDbSpline
210
0.0
220
0.0
230
1.0
 70
    12
 71
     2
 72
     8
 73
     5
 74
     0
 42
0.0000000001
 43
0.0000000001
 40
0.0
 40
0.0
 40
0.0
 40
0.0333720039437466
 40
0.0333720039437466
 40
9.256730987594743
 40
9.256730987594743
 40
9.256730987594743
 10
56.77615582067531
 20
703.4879841804504
 30
0.0
 41
1.0
 10
56.75946981870344
 20
703.4879841804506
 30
0.0
 41
1.0
 10
56.74278381673156
 20
703.4879841804507
 30
0.0
 41
1.0
 10
56.74278381673156
 20
703.4879839523953
 30
0.0
 41
0.7915391023928756
 10
61.49278448980878
 20
703.4879839523954
 30
0.0
 41
0.8798139640307999
  0
SPLINE
  5
52
330
1F
100
AcDbEntity
  8
Predefinito
100
AcDbSpline
210
0.0
220
0.0
230
1.0
 70
    12
 71
     2
 72
     6
 73
     3
 74
     0
 42
0.0000000001
 43
0.0000000001
 40
0.0
 40
0.0
 40
0.0
 40
5.029755498153277
 40
5.029755498153277
 40
5.029755498153277
 10
61.5223161462809
 20
707.0555742863964
 30
0.0
 41
1.0
 10
59.15006203582328
 20
707.8904553947575
 30
0.0
 41
0.9999992959793746
 10
56.77583325246256
 20
708.7197042801605
 30
0.0
 41
1.0
  0
SPLINE
  5
53
330
1F
100
AcDbEntity
  8
Predefinito
100
AcDbSpline
210
0.0
220
0.0
230
1.0
 70
    24
 71
     2
 72
     6
 73
     3
 74
     0
 42
0.0000000001
 43
0.0000000001
 40
0.0
 40
0.0
 40
0.0
 40
0.2999999999999545
 40
0.2999999999999545
 40
0.2999999999999545
 10
59.59278381673155
 20
734.9879839523953
 30
0.0
 10
59.59278381673155
 20
735.1379839523953
 30
0.0
 10
59.59278381673155
 20
735.2879839523953
 30
0.0
  0
SPLINE
  5
54
330
1F
100
AcDbEntity
  8
Predefinito
100
AcDbSpline
210
0.0
220
0.0
230
1.0
 70
    24
 71
     2
 72
     6
 73
     3
 74
     0
 42
0.0000000001
 43
0.0000000001
 40
0.0
 40
0.0
 40
0.0
 40
0.2999999999999545
 40
0.2999999999999545
 40
0.2999999999999545
 10
70.39278381673157
 20
735.2879839523953
 30
0.0
 10
70.39278381673157
 20
735.1379839523953
 30
0.0
 10
70.39278381673157
 20
734.9879839523953
 30
0.0
  0
SPLINE
  5
55
330
1F
100
AcDbEntity
  8
Predefinito
100
AcDbSpline
210
0.0
220
0.0
230
1.0
 70
    24
 71
     2
 72
     6
 73
     3
 74
     0
 42
0.0000000001
 43
0.0000000001
 40
0.0
 40
0.0
 40
0.0
 40
4.716627202044194
 40
4.716627202044194
 40
4.716627202044194
 10
68.49278461074363
 20
703.4879839523954
 30
0.0
 10
70.85526971225869
 20
703.4838124519024
 30
0.0
 10
73.21775481377377
 20
703.4796409514094
 30
0.0
  0
SPLINE
  5
56
330
1F
100
AcDbEntity
  8
Predefinito
100
AcDbSpline
210
0.0
220
0.0
230
1.0
 70
    24
 71
     2
 72
     6
 73
     3
 74
     0
 42
0.0000000001
 43
0.0000000001
 40
0.0
 40
0.0
 40
0.0
 40
0.6835092108961652
 40
0.6835092108961652
 40
0.6835092108961652
 10
73.21775481377377
 20
703.4796409514094
 30
0.0
 10
72.97243195069012
 20
703.2338125089161
 30
0.0
 10
72.72710908760648
 20
702.9879840664229
 30
0.0
  0
SPLINE
  5
57
330
1F
100
AcDbEntity
  8
Predefinito
100
AcDbSpline
210
0.0
220
0.0
230
1.0
 70
    12
 71
     2
 72
     8
 73
     5
 74
     0
 42
0.0000000001
 43
0.0000000001
 40
0.0
 40
0.0
 40
0.0
 40
0.0157038055526891
 40
0.0157038055526891
 40
8.465720122951389
 40
8.465720122951389
 40
8.465720122951389
 10
72.72710908760648
 20
702.9879840664229
 30
0.0
 41
1.0
 10
72.73494645216901
 20
702.9879841804502
 30
0.0
 41
1.0
 10
72.74278381673156
 20
702.9879841804502
 30
0.0
 41
1.0
 10
72.74278381673156
 20
702.9879839523953
 30
0.0
 41
0.7970727264964891
 10
68.4927844880276
 20
702.9879839523953
 30
0.0
 41
0.87533651981516
  0
SPLINE
  5
58
330
1F
100
AcDbEntity
  8
Predefinito
100
AcDbSpline
210
0.0
220
0.0
230
1.0
 70
    24
 71
     2
 72
     6
 73
     3
 74
     0
 42
0.0000000001
 43
0.0000000001
 40
0.0
 40
0.0
 40
0.0
 40
4.218650672569126
 40
4.218650672569126
 40
4.218650672569126
 10
61.49278394755088
 20
702.9879839523954
 30
0.0
 10
59.37562124670377
 20
702.9879839523953
 30
0.0
 10
57.25845854585666
 20
702.9879839523953
 30
0.0
  0
SPLINE
  5
59
330
1F
100
AcDbEntity
  8
Predefinito
100
AcDbSpline
210
0.0
220
0.0
230
1.0
 70
    24
 71
     2
 72
     6
 73
     3
 74
     0
 42
0.0000000001
 43
0.0000000001
 40
0.0
 40
0.0
 40
0.0
 40
0.6835092108961652
 40
0.6835092108961652
 40
0.6835092108961652
 10
57.25845854585666
 20
702.9879839523953
 30
0.0
 10
57.00479268178708
 20
703.2338124519024
 30
0.0
 10
56.7511268177175
 20
703.4796409514095
 30
0.0
  0
SPLINE
  5
5A
330
1F
100
AcDbEntity
  8
Predefinito
100
AcDbSpline
210
0.0
220
0.0
230
1.0
 70
    24
 71
     2
 72
     6
 73
     3
 74
     0
 42
0.0000000001
 43
0.0000000001
 40
0.0
 40
0.0
 40
0.0
 40
5.231720327765402
 40
5.231720327765402
 40
5.231720327765402
 10
56.7511268177175
 20
703.4796409514095
 30
0.0
 10
56.74695531722453
 20
706.1025600462838
 30
0.0
 10
56.74278381673156
 20
708.7254791411581
 30
0.0
  0
SPLINE
  5
5B
330
1F
100
AcDbEntity
  8
Predefinito
100
AcDbSpline
210
0.0
220
0.0
230
1.0
 70
    12
 71
     2
 72
     8
 73
     5
 74
     0
 42
0.0000000001
 43
0.0000000001
 40
0.0
 40
0.0
 40
0.0
 40
0.2874801694180799
 40
0.2874801694180799
 40
0.5749603388361598
 40
0.5749603388361598
 40
0.5749603388361598
 10
56.74278381673156
 20
708.7254791411581
 30
0.0
 41
1.0
 10
56.74357374558615
 20
708.8870101851518
 30
0.0
 41
0.8881806159360981
 10
56.87116270164628
 20
708.9763503822677
 30
0.0
 41
1.0
 10
56.9987516577064
 20
709.0656905793837
 30
0.0
 41
0.8881806159360981
 10
57.16109644545071
 20
709.0074450586883
 30
0.0
 41
1.0
  0
SPLINE
  5
5C
330
1F
100
AcDbEntity
  8
Predefinito
100
AcDbSpline
210
0.0
220
0.0
230
1.0
 70
    24
 71
     2
 72
     6
 73
     3
 74
     0
 42
0.0000000001
 43
0.0000000001
 40
-4.592966176139047
 40
-4.592966176139047
 40
-4.592966176139047
 40
0.0
 40
0.0
 40
0.0
 10
57.16109644545071
 20
709.0074450586883
 30
0.0
 10
59.32694009715476
 20
708.2191424374028
 30
0.0
 10
61.49278374885881
 20
707.4308398161173
 30
0.0
  0
SPLINE
  5
5D
330
1F
100
AcDbEntity
  8
Predefinito
100
AcDbSpline
210
0.0
220
0.0
230
1.0
 70
    12
 71
     2
 72
     6
 73
     3
 74
     0
 42
0.0000000001
 43
0.0000000001
 40
0.0
 40
0.0
 40
0.0
 40
0.6631437474730661
 40
0.6631437474730661
 40
0.6631437474730661
 10
68.49278381673011
 20
708.0306889746261
 30
0.0
 41
1.0
 10
68.66467243191224
 20
708.3152050309409
 30
0.0
 41
0.9962311989587778
 10
68.78480791198228
 20
708.6251555027238
 30
0.0
 41
1.0
  0
SPLINE
  5
5E
330
1F
100
AcDbEntity
  8
Predefinito
100
AcDbSpline
210
0.0
220
0.0
230
1.0
 70
    12
 71
     2
 72
     6
 73
     3
 74
     0
 42
0.0000000001
 43
0.0000000001
 40
0.0
 40
0.0
 40
0.0
 40
3.125586311533891
 40
3.125586311533891
 40
3.125586311533891
 10
68.78480791198228
 20
708.6251555027238
 30
0.0
 41
1.0
 10
69.35632238421341
 20
710.1744255059173
 30
0.0
 41
0.9214978078425164
 10
68.64431356118284
 20
711.6697518372765
 30
0.0
 41
1.0
  0
SPLINE
  5
5F
330
1F
100
AcDbEntity
  8
Predefinito
100
AcDbSpline
210
0.0
220
0.0
230
1.0
 70
    12
 71
     2
 72
     6
 73
     3
 74
     0
 42
0.0000000001
 43
0.0000000001
 40
0.0
 40
0.0
 40
0.0
 40
3.082715692723715
 40
3.082715692723715
 40
3.082715692723715
 10
68.64431356118284
 20
711.6697518372765
 30
0.0
 41
1.0
 10
67.90887458245618
 20
713.1205683644876
 30
0.0
 41
0.9273193962088077
 10
66.37699741566283
 20
713.6527851734603
 30
0.0
 41
1.0
  0
SPLINE
  5
60
330
1F
100
AcDbEntity
  8
Predefinito
100
AcDbSpline
210
0.0
220
0.0
230
1.0
 70
    24
 71
     2
 72
     6
 73
     3
 74
     0
 42
0.0000000001
 43
0.0000000001
 40
-1.466884367799639
 40
-1.466884367799639
 40
-1.466884367799639
 40
0.0
 40
0.0
 40
0.0
 10
66.37699741566283
 20
713.6527851734603
 30
0.0
 10
65.68489062504
 20
713.8955312161543
 30
0.0
 10
64.99278383441717
 20
714.1382772588483
 30
0.0
  0
SPLINE
  5
61
330
1F
100
AcDbEntity
  8
Predefinito
100
AcDbSpline
210
0.0
220
0.0
230
1.0
 70
     8
 71
     3
 72
    15
 73
    11
 74
     0
 42
0.0000000001
 43
0.0000000001
 40
-8.745818166363517
 40
-8.745818166363517
 40
-8.745818166363517
 40
-8.745818166363517
 40
-4.334354320101925
 40
-1.587445269293673
 40
-0.3536022731156528
 40
-0.1983896974660315
 40
-0.0666605239055382
 40
-0.0157040006815378
 40
-0.0043631970855902
 40
0.0
 40
0.0
 40
0.0
 40
0.0
 10
64.99278383441717
 20
714.1382772588483
 30
0.0
 10
63.60513924784027
 20
714.6244962021132
 30
0.0
 10
61.35531126740637
 20
715.4188219039256
 30
0.0
 10
58.71424255069078
 20
716.3401788295511
 30
0.0
 10
57.41348673305951
 20
716.7967126375942
 30
0.0
 10
56.93547900109964
 20
716.9653199107839
 30
0.0
 10
56.82887514819681
 20
717.0018044443135
 30
0.0
 10
56.76798589940975
 20
717.0232466189051
 30
0.0
 10
56.74670192063566
 20
717.0304771194124
 30
0.0
 10
56.7422902251025
 20
717.0320323005591
 30
0.0
 10
56.74459872976286
 20
717.0305602903758
 30
0.0
  0
SPLINE
  5
62
330
1F
100
AcDbEntity
  8
Predefinito
100
AcDbSpline
210
0.0
220
0.0
230
1.0
 70
    12
 71
     2
 72
     6
 73
     3
 74
     0
 42
0.0000000001
 43
0.0000000001
 40
-0.3638799128310219
 40
-0.3638799128310219
 40
-0.3638799128310219
 40
0.0
 40
0.0
 40
0.0
 10
56.74459872976286
 20
717.0305602903758
 30
0.0
 41
0.9999682897466227
 10
56.7474287608491
 20
716.8240602605463
 30
0.0
 41
0.8305998674603662
 10
56.96384658728896
 20
716.7413180976179
 30
0.0
 41
1.0
  0
SPLINE
  5
63
330
1F
100
AcDbEntity
  8
Predefinito
100
AcDbSpline
210
0.0
220
0.0
230
1.0
 70
    24
 71
     3
 72
    10
 73
     6
 74
     0
 42
0.0000000001
 43
0.0000000001
 40
0.0
 40
0.0
 40
0.0
 40
0.0
 40
0.0377332425899732
 40
0.0503758121302048
 40
9.930073016952123
 40
9.930073016952123
 40
9.930073016952123
 40
9.930073016952123
 10
56.96384658728896
 20
716.7413180976179
 30
0.0
 10
57.00387332895534
 20
716.7267495550765
 30
0.0
 10
56.92489360013955
 20
716.7554958254758
 30
0.0
 10
60.02224274030048
 20
715.6281529333269
 30
0.0
 10
63.13475327321721
 20
714.4952917455062
 30
0.0
 10
66.22405633270401
 20
713.3708773872244
 30
0.0
  0
SPLINE
  5
64
330
1F
100
AcDbEntity
  8
Predefinito
100
AcDbSpline
210
0.0
220
0.0
230
1.0
 70
    12
 71
     2
 72
     6
 73
     3
 74
     0
 42
0.0000000001
 43
0.0000000001
 40
0.0
 40
0.0
 40
0.0
 40
5.103649856505092
 40
5.103649856505092
 40
5.103649856505092
 10
66.22405633270401
 20
713.3708773872244
 30
0.0
 41
1.0
 10
69.12322563520596
 20
712.314419347748
 30
0.0
 41
0.7595967566121411
 10
68.52576408366711
 20
709.2871555785699
 30
0.0
 41
1.0
  0
SPLINE
  5
65
330
1F
100
AcDbEntity
  8
Predefinito
100
AcDbSpline
210
0.0
220
0.0
230
1.0
 70
    24
 71
     2
 72
     6
 73
     3
 74
     0
 42
0.0000000001
 43
0.0000000001
 40
0.0
 40
0.0
 40
0.0
 40
1.947642284956487
 40
1.947642284956487
 40
1.947642284956487
 10
56.74278381673156
 20
717.0403416674388
 30
0.0
 10
56.74278381673156
 20
718.014162809917
 30
0.0
 10
56.74278381673156
 20
718.9879839523953
 30
0.0
  0
SPLINE
  5
66
330
1F
100
AcDbEntity
  8
Predefinito
100
AcDbSpline
210
0.0
220
0.0
230
1.0
 70
    24
 71
     2
 72
     6
 73
     3
 74
     0
 42
0.0000000001
 43
0.0000000001
 40
0.0
 40
0.0
 40
0.0
 40
16.0
 40
16.0
 40
16.0
 10
56.74278381673156
 20
718.9879839523953
 30
0.0
 10
56.7511268177175
 20
726.9879839523953
 30
0.0
 10
56.75946981870344
 20
734.9879839523953
 30
0.0
  0
SPLINE
  5
67
330
1F
100
AcDbEntity
  8
Predefinito
100
AcDbSpline
210
0.0
220
0.0
230
1.0
 70
    28
 71
     2
 72
     8
 73
     5
 74
     0
 42
0.0000000001
 43
0.0000000001
 40
-39.68715094417731
 40
-39.68715094417731
 40
-39.68715094417731
 40
-39.10166777940605
 40
-39.10166777940605
 40
-25.91813939211579
 40
-25.91813939211579
 40
-25.91813939211579
 10
56.75946981870344
 20
734.9879839523953
 30
0.0
 41
0.9751404324310498
 10
56.74278381673155
 20
734.9879839523953
 30
0.0
 41
0.9869925528543434
 10
56.74278381673156
 20
734.9879839523953
 30
0.0
 41
1.0
 10
56.74278381673156
 20
734.9879839523953
 30
0.0
 41
0.7071067811865476
 10
64.99278381673156
 20
734.9879839523953
 30
0.0
 41
1.0
  0
SPLINE
  5
68
330
1F
100
AcDbEntity
  8
Predefinito
100
AcDbSpline
210
0.0
220
0.0
230
1.0
 70
    24
 71
     2
 72
     6
 73
     3
 74
     0
 42
0.0000000001
 43
0.0000000001
 40
0.0
 40
0.0
 40
0.0
 40
8.216627996056246
 40
8.216627996056246
 40
8.216627996056246
 10
64.99278381673156
 20
734.9879839523953
 30
0.0
 10
69.10944081574561
 20
734.9879839523953
 30
0.0
 10
73.22609781475968
 20
734.9879839523953
 30
0.0
  0
SPLINE
  5
69
330
1F
100
AcDbEntity
  8
Predefinito
100
AcDbSpline
210
0.0
220
0.0
230
1.0
 70
    24
 71
     2
 72
     6
 73
     3
 74
     0
 42
0.0000000001
 43
0.0000000001
 40
0.0
 40
0.0
 40
0.0
 40
16.0
 40
16.0
 40
16.0
 10
73.22609781475968
 20
734.9879839523953
 30
0.0
 10
73.23444081574561
 20
726.9879839523953
 30
0.0
 10
73.24278381673156
 20
718.9879839523953
 30
0.0
  0
SPLINE
  5
6A
330
1F
100
AcDbEntity
  8
Predefinito
100
AcDbSpline
210
0.0
220
0.0
230
1.0
 70
    24
 71
     2
 72
     6
 73
     3
 74
     0
 42
0.0000000001
 43
0.0000000001
 40
0.0
 40
0.0
 40
0.0
 40
15.5
 40
15.5
 40
15.5
 10
73.24278381673156
 20
718.9879839523953
 30
0.0
 10
73.24278381673156
 20
711.2379839523953
 30
0.0
 10
73.24278381673156
 20
703.4879839523953
 30
0.0
  0
SPLINE
  5
6B
330
1F
100
AcDbEntity
  8
Predefinito
100
AcDbSpline
210
0.0
220
0.0
230
1.0
 70
    24
 71
     2
 72
     6
 73
     3
 74
     0
 42
0.0000000001
 43
0.0000000001
 40
0.0
 40
0.0
 40
0.0
 40
1.5
 40
1.5
 40
1.5
 10
73.97458090548952
 20
736.7879839523953
 30
0.0
 10
73.97458090548952
 20
736.0379839523953
 30
0.0
 10
73.97458090548952
 20
735.2879839523953
 30
0.0
  0
SPLINE
  5
6C
330
1F
100
AcDbEntity
  8
Predefinito
100
AcDbSpline
210
0.0
220
0.0
230
1.0
 70
    28
 71
     2
 72
     8
 73
     5
 74
     0
 42
0.0000000001
 43
0.0000000001
 40
-43.29507375728434
 40
-43.29507375728434
 40
-43.29507375728434
 40
-42.65636485026108
 40
-42.65636485026108
 40
-28.27433388230814
 40
-28.27433388230814
 40
-28.27433388230814
 10
73.97458090548952
 20
735.2879839523953
 30
0.0
 41
0.9751404324310472
 10
73.99278381673156
 20
735.2879839523953
 30
0.0
 41
0.986992552854342
 10
73.99278381673156
 20
735.2879839523953
 30
0.0
 41
1.0
 10
73.99278381673156
 20
735.2879839523953
 30
0.0
 41
0.7071067811865476
 10
64.99278381673156
 20
735.2879839523954
 30
0.0
 41
1.0
  0
SPLINE
  5
6D
330
1F
100
AcDbEntity
  8
Predefinito
100
AcDbSpline
210
0.0
220
0.0
230
1.0
 70
    24
 71
     2
 72
     6
 73
     3
 74
     0
 42
0.0000000001
 43
0.0000000001
 40
0.0
 40
0.0
 40
0.0
 40
8.963594177515901
 40
8.963594177515901
 40
8.963594177515901
 10
64.99278381673156
 20
735.2879839523954
 30
0.0
 10
60.50188527235258
 20
735.2879839523953
 30
0.0
 10
56.01098672797361
 20
735.2879839523953
 30
0.0
  0
SPLINE
  5
6E
330
1F
100
AcDbEntity
  8
Predefinito
100
AcDbSpline
210
0.0
220
0.0
230
1.0
 70
    24
 71
     2
 72
     6
 73
     3
 74
     0
 42
0.0000000001
 43
0.0000000001
 40
0.0
 40
0.0
 40
0.0
 40
1.5
 40
1.5
 40
1.5
 10
56.01098672797361
 20
735.2879839523953
 30
0.0
 10
56.0109867279736
 20
736.0379839523953
 30
0.0
 10
56.0109867279736
 20
736.7879839523953
 30
0.0
  0
SPLINE
  5
6F
330
1F
100
AcDbEntity
  8
Predefinito
100
AcDbSpline
210
0.0
220
0.0
230
1.0
 70
    28
 71
     2
 72
     8
 73
     5
 74
     0
 42
0.0000000001
 43
0.0000000001
 40
-43.29507375728434
 40
-43.29507375728434
 40
-43.29507375728434
 40
-42.65636485026105
 40
-42.65636485026105
 40
-28.27433388230814
 40
-28.27433388230814
 40
-28.27433388230814
 10
56.0109867279736
 20
736.7879839523952
 30
0.0
 41
0.9751404324310461
 10
55.99278381673157
 20
736.7879839523953
 30
0.0
 41
0.9869925528543414
 10
55.99278381673156
 20
736.7879839523953
 30
0.0
 41
1.0
 10
55.99278381673157
 20
736.7879839523953
 30
0.0
 41
0.7071067811865476
 10
64.99278381673156
 20
736.7879839523954
 30
0.0
 41
1.0
  0
SPLINE
  5
70
330
1F
100
AcDbEntity
  8
Predefinito
100
AcDbSpline
210
0.0
220
0.0
230
1.0
 70
    24
 71
     2
 72
     6
 73
     3
 74
     0
 42
0.0000000001
 43
0.0000000001
 40
0.0
 40
0.0
 40
0.0
 40
8.963594177515915
 40
8.963594177515915
 40
8.963594177515915
 10
64.99278381673156
 20
736.7879839523954
 30
0.0
 10
69.48368236111054
 20
736.7879839523953
 30
0.0
 10
73.97458090548952
 20
736.7879839523953
 30
0.0
  0
SPLINE
  5
71
330
1F
100
AcDbEntity
  8
Predefinito
100
AcDbSpline
210
0.0
220
0.0
230
1.0
 70
    24
 71
     2
 72
     6
 73
     3
 74
     0
 42
0.0000000001
 43
0.0000000001
 40
0.0
 40
0.0
 40
0.0
 40
0.6347771305501198
 40
0.6347771305501198
 40
0.6347771305501198
 10
65.62756094728168
 20
713.5879839523952
 30
0.0
 10
65.31017238200661
 20
713.5879839523952
 30
0.0
 10
64.99278381673156
 20
713.5879839523952
 30
0.0
  0
SPLINE
  5
72
330
1F
100
AcDbEntity
  8
Predefinito
100
AcDbSpline
210
0.0
220
0.0
230
1.0
 70
    24
 71
     2
 72
     6
 73
     3
 74
     0
 42
0.0000000001
 43
0.0000000001
 40
0.0
 40
0.0
 40
0.0
 40
2.704089763145582
 40
2.704089763145582
 40
2.704089763145582
 10
64.99278381673156
 20
713.5879839523952
 30
0.0
 10
63.62926137594516
 20
713.5879839523952
 30
0.0
 10
62.26573893515875
 20
713.5879839523952
 30
0.0
  0
SPLINE
  5
73
330
1F
100
AcDbEntity
  8
Predefinito
100
AcDbSpline
210
0.0
220
0.0
230
1.0
 70
    24
 71
     2
 72
     6
 73
     3
 74
     0
 42
0.0000000001
 43
0.0000000001
 40
0.0
 40
0.0
 40
0.0
 40
0.318138728987032
 40
0.318138728987032
 40
0.318138728987032
 10
62.26573893515875
 20
713.5879839523952
 30
0.0
 10
62.13552186278893
 20
713.7067234655515
 30
0.0
 10
62.00530479041912
 20
713.8254629787076
 30
0.0
  0
SPLINE
  5
74
330
1F
100
AcDbEntity
  8
Predefinito
100
AcDbSpline
210
0.0
220
0.0
230
1.0
 70
    24
 71
     2
 72
     6
 73
     3
 74
     0
 42
0.0000000001
 43
0.0000000001
 40
0.0
 40
0.0
 40
0.0
 40
1.072950683057343
 40
1.072950683057343
 40
1.072950683057343
 10
62.00530479041912
 20
713.8254629787076
 30
0.0
 10
61.99904430357534
 20
714.36819880708
 30
0.0
 10
61.99278381673156
 20
714.9109346354526
 30
0.0
  0
SPLINE
  5
75
330
1F
100
AcDbEntity
  8
Predefinito
100
AcDbSpline
210
0.0
220
0.0
230
1.0
 70
    24
 71
     2
 72
     6
 73
     3
 74
     0
 42
0.0000000001
 43
0.0000000001
 40
0.0
 40
0.0
 40
0.0
 40
0.3000000000000682
 40
0.3000000000000682
 40
0.3000000000000682
 10
851.6275138131612
 20
734.9879839523967
 30
0.0
 10
851.6275138131612
 20
735.1379839523968
 30
0.0
 10
851.6275138131612
 20
735.2879839523968
 30
0.0
  0
SPLINE
  5
76
330
1F
100
AcDbEntity
  8
Predefinito
100
AcDbSpline
210
0.0
220
0.0
230
1.0
 70
    12
 71
     2
 72
     6
 73
     3
 74
     0
 42
0.0000000001
 43
0.0000000001
 40
0.0
 40
0.0
 40
0.0
 40
0.1722508165433608
 40
0.1722508165433608
 40
0.1722508165433608
 10
854.2967201383493
 20
713.4399199810621
 30
0.0
 41
1.0
 10
854.2606279749615
 20
713.3617204560973
 30
0.0
 41
0.9999773504984321
 10
854.2255916881321
 20
713.2830421962797
 30
0.0
 41
1.0
  0
SPLINE
  5
77
330
1F
100
AcDbEntity
  8
Predefinito
100
AcDbSpline
210
0.0
220
0.0
230
1.0
 70
     8
 71
     3
 72
    13
 73
     9
 74
     0
 42
0.0000000001
 43
0.0000000001
 40
0.0
 40
0.0
 40
0.0
 40
0.0
 40
1.440867025439929
 40
3.445053599609474
 40
8.815590954688245
 40
14.17294633865679
 40
16.15336302207335
 40
17.57706952953423
 40
17.57706952953423
 40
17.57706952953423
 40
17.57706952953423
 10
838.1332818071472
 20
706.4811389757368
 30
0.0
 10
838.3545529373816
 20
706.9149080196472
 30
0.0
 10
839.2389053414302
 20
707.6866983768016
 30
0.0
 10
841.9940380167978
 20
708.7828591215645
 30
0.0
 10
846.2499197776314
 20
709.2062086814573
 30
0.0
 10
850.4994873714014
 20
708.7752713403175
 30
0.0
 10
853.2329852888913
 20
707.6749275831039
 30
0.0
 10
854.103820394421
 20
706.9093623475458
 30
0.0
 10
854.3220067544211
 20
706.4805640793708
 30
0.0
  0
SPLINE
  5
78
330
1F
100
AcDbEntity
  8
Predefinito
100
AcDbSpline
210
0.0
220
0.0
230
1.0
 70
    12
 71
     2
 72
     6
 73
     3
 74
     0
 42
0.0000000001
 43
0.0000000001
 40
0.0
 40
0.0
 40
0.0
 40
0.0467529364679488
 40
0.0467529364679488
 40
0.0467529364679488
 10
838.1777567227942
 20
713.3974210777988
 30
0.0
 41
1.0
 10
838.1680514389344
 20
713.4186876666945
 30
0.0
 41
0.9999985301365067
 10
838.1582732864485
 20
713.4399208499701
 30
0.0
 41
1.0
  0
SPLINE
  5
79
330
1F
100
AcDbEntity
  8
Predefinito
100
AcDbSpline
210
0.0
220
0.0
230
1.0
 70
    24
 71
     2
 72
     6
 73
     3
 74
     0
 42
0.0000000001
 43
0.0000000001
 40
0.0
 40
0.0
 40
0.0
 40
0.2999999999999545
 40
0.2999999999999545
 40
0.2999999999999545
 10
840.8275138131612
 20
734.9879839523967
 30
0.0
 10
840.8275138131612
 20
735.1379839523967
 30
0.0
 10
840.8275138131612
 20
735.2879839523966
 30
0.0
  0
SPLINE
  5
7A
330
1F
100
AcDbEntity
  8
Predefinito
100
AcDbSpline
210
0.0
220
0.0
230
1.0
 70
    12
 71
     2
 72
     6
 73
     3
 74
     0
 42
0.0000000001
 43
0.0000000001
 40
0.0
 40
0.0
 40
0.0
 40
0.6138050427404903
 40
0.6138050427404903
 40
0.6138050427404903
 10
854.4735685051446
 20
714.1190844442909
 30
0.0
 41
1.0
 10
854.4705704160104
 20
713.8072732411306
 30
0.0
 41
0.9764854195087944
 10
854.3364881178744
 20
713.5255338128487
 30
0.0
 41
1.0
  0
SPLINE
  5
7B
330
1F
100
AcDbEntity
  8
Predefinito
100
AcDbSpline
210
0.0
220
0.0
230
1.0
 70
    12
 71
     2
 72
     6
 73
     3
 74
     0
 42
0.0000000001
 43
0.0000000001
 40
-0.3316499806318902
 40
-0.3316499806318902
 40
-0.3316499806318902
 40
0.0
 40
0.0
 40
0.0
 10
854.3364881178744
 20
713.5255338128487
 30
0.0
 41
1.0
 10
854.2528366139492
 20
713.3562998664138
 30
0.0
 41
0.8284069532519188
 10
854.0648136026243
 20
713.3708773872257
 30
0.0
 41
1.0
  0
SPLINE
  5
7C
330
1F
100
AcDbEntity
  8
Predefinito
100
AcDbSpline
210
0.0
220
0.0
230
1.0
 70
     8
 71
     3
 72
    17
 73
    13
 74
     0
 42
0.0000000001
 43
0.0000000001
 40
-18.96008482102376
 40
-18.96008482102376
 40
-18.96008482102376
 40
-18.96008482102376
 40
-18.31519406183153
 40
-17.62969723553421
 40
-15.67559690484284
 40
-12.83682995484877
 40
-9.469295184276907
 40
-6.101760413704982
 40
-3.26299346371119
 40
-1.308893132998775
 40
-0.623396306703678
 40
0.0
 40
0.0
 40
0.0
 40
0.0
 10
854.0648136026243
 20
713.3708773872257
 30
0.0
 10
854.1499631081783
 20
713.5602020879196
 30
0.0
 10
854.244988453886
 20
714.0305212953547
 30
0.0
 10
853.6878060513594
 20
715.024786062415
 30
0.0
 10
852.0616179746303
 20
715.9369797369252
 30
0.0
 10
849.4169425501351
 20
716.5947357259911
 30
0.0
 10
846.2275138131637
 20
716.8339720304913
 30
0.0
 10
843.0380850761884
 20
716.5947357259934
 30
0.0
 10
840.3934096516866
 20
715.9369797369179
 30
0.0
 10
838.7672215749433
 20
715.0247860624218
 30
0.0
 10
838.2136855035868
 20
714.0370279951313
 30
0.0
 10
838.3020776745301
 20
713.5753819012156
 30
0.0
 10
838.3465365738223
 20
713.3747559959
 30
0.0
  0
SPLINE
  5
7D
330
1F
100
AcDbEntity
  8
Predefinito
100
AcDbSpline
210
0.0
220
0.0
230
1.0
 70
    12
 71
     2
 72
     6
 73
     3
 74
     0
 42
0.0000000001
 43
0.0000000001
 40
0.0
 40
0.0
 40
0.0
 40
0.2436024666480512
 40
0.2436024666480512
 40
0.2436024666480512
 10
838.3465365738223
 20
713.3747559959
 30
0.0
 41
1.0
 10
838.1753183175259
 20
713.4074521364864
 30
0.0
 41
0.9003699226405719
 10
838.1185554826243
 20
713.5254997969457
 30
0.0
 41
1.0
  0
SPLINE
  5
7E
330
1F
100
AcDbEntity
  8
Predefinito
100
AcDbSpline
210
0.0
220
0.0
230
1.0
 70
    12
 71
     2
 72
     6
 73
     3
 74
     0
 42
0.0000000001
 43
0.0000000001
 40
0.0
 40
0.0
 40
0.0
 40
0.5797097144213188
 40
0.5797097144213188
 40
0.5797097144213188
 10
838.1185554826243
 20
713.5254997969457
 30
0.0
 41
1.0
 10
837.9923018457164
 20
713.7912213876439
 30
0.0
 41
0.9791812992369671
 10
837.9781631557623
 20
714.0848829753936
 30
0.0
 41
1.0
  0
SPLINE
  5
7F
330
1F
100
AcDbEntity
  8
Predefinito
100
AcDbSpline
210
0.0
220
0.0
230
1.0
 70
     8
 71
     3
 72
    13
 73
     9
 74
     0
 42
0.0000000001
 43
0.0000000001
 40
0.0
 40
0.0
 40
0.0
 40
0.0
 40
1.277472246507194
 40
3.374025060356776
 40
9.274980230771888
 40
15.25511888513087
 40
17.26832398756389
 40
18.59853787424078
 40
18.59853787424078
 40
18.59853787424078
 40
18.59853787424078
 10
837.9781631557623
 20
714.0848829753936
 30
0.0
 10
837.9444069794317
 20
714.5348779352256
 30
0.0
 10
838.6599332964589
 20
715.4831711321619
 30
0.0
 10
841.5323467886161
 20
716.7432367723377
 30
0.0
 10
846.2053115109123
 20
717.2333182298829
 30
0.0
 10
850.8454972908543
 20
716.7586982736594
 30
0.0
 10
853.7442680779445
 20
715.5165151791263
 30
0.0
 10
854.4817237697895
 20
714.6083179153504
 30
0.0
 10
854.4775138131612
 20
714.1382772650527
 30
0.0
  0
SPLINE
  5
80
330
1F
100
AcDbEntity
  8
Predefinito
100
AcDbSpline
210
0.0
220
0.0
230
1.0
 70
    24
 71
     2
 72
     6
 73
     3
 74
     0
 42
0.0000000001
 43
0.0000000001
 40
0.0
 40
0.0
 40
0.0
 40
4.849706687343996
 40
4.849706687343996
 40
4.849706687343996
 10
854.4775138131612
 20
714.1382772650527
 30
0.0
 10
854.4775138131612
 20
716.5631306087247
 30
0.0
 10
854.4775138131612
 20
718.9879839523967
 30
0.0
  0
SPLINE
  5
81
330
1F
100
AcDbEntity
  8
Predefinito
100
AcDbSpline
210
0.0
220
0.0
230
1.0
 70
    24
 71
     2
 72
     6
 73
     3
 74
     0
 42
0.0000000001
 43
0.0000000001
 40
0.0
 40
0.0
 40
0.0
 40
16.0
 40
16.0
 40
16.0
 10
854.4775138131612
 20
718.9879839523967
 30
0.0
 10
854.4775138131612
 20
726.9879839523967
 30
0.0
 10
854.4775138131612
 20
734.9879839523967
 30
0.0
  0
SPLINE
  5
82
330
1F
100
AcDbEntity
  8
Predefinito
100
AcDbSpline
210
0.0
220
0.0
230
1.0
 70
    24
 71
     2
 72
     6
 73
     3
 74
     0
 42
0.0000000001
 43
0.0000000001
 40
-16.46662799607179
 40
-16.46662799607179
 40
-16.46662799607179
 40
0.0
 40
0.0
 40
0.0
 10
854.4775138131612
 20
734.9879839523967
 30
0.0
 10
846.2358568141433
 20
734.9879839523967
 30
0.0
 10
837.9941998151253
 20
734.9879839523967
 30
0.0
  0
SPLINE
  5
83
330
1F
100
AcDbEntity
  8
Predefinito
100
AcDbSpline
210
0.0
220
0.0
230
1.0
 70
    24
 71
     2
 72
     6
 73
     3
 74
     0
 42
0.0000000001
 43
0.0000000001
 40
-16.0
 40
-16.0
 40
-16.0
 40
0.0
 40
0.0
 40
0.0
 10
837.9941998151253
 20
734.9879839523967
 30
0.0
 10
837.9858568141433
 20
726.9879839523967
 30
0.0
 10
837.9775138131612
 20
718.9879839523967
 30
0.0
  0
SPLINE
  5
84
330
1F
100
AcDbEntity
  8
Predefinito
100
AcDbSpline
210
0.0
220
0.0
230
1.0
 70
    24
 71
     2
 72
     6
 73
     3
 74
     0
 42
0.0000000001
 43
0.0000000001
 40
-4.850148297799706
 40
-4.850148297799706
 40
-4.850148297799706
 40
0.0
 40
0.0
 40
0.0
 10
837.9775138131612
 20
718.9879839523967
 30
0.0
 10
837.9775138131612
 20
716.5629098034968
 30
0.0
 10
837.9775138131612
 20
714.137835654597
 30
0.0
  0
SPLINE
  5
85
330
1F
100
AcDbEntity
  8
Predefinito
100
AcDbSpline
210
0.0
220
0.0
230
1.0
 70
    24
 71
     2
 72
     6
 73
     3
 74
     0
 42
0.0000000001
 43
0.0000000001
 40
0.0
 40
0.0
 40
0.0
 40
1.5
 40
1.5
 40
1.5
 10
837.2457167244032
 20
735.2879839523966
 30
0.0
 10
837.2366152687822
 20
736.0379839523966
 30
0.0
 10
837.2275138131612
 20
736.7879839523966
 30
0.0
  0
SPLINE
  5
86
330
1F
100
AcDbEntity
  8
Predefinito
100
AcDbSpline
210
0.0
220
0.0
230
1.0
 70
    24
 71
     2
 72
     6
 73
     3
 74
     0
 42
0.0000000001
 43
0.0000000001
 40
0.0
 40
0.0
 40
0.0
 40
17.9635941775158
 40
17.9635941775158
 40
17.9635941775158
 10
837.2275138131612
 20
736.7879839523966
 30
0.0
 10
846.21841235754
 20
736.7879839523966
 30
0.0
 10
855.209310901919
 20
736.7879839523968
 30
0.0
  0
SPLINE
  5
87
330
1F
100
AcDbEntity
  8
Predefinito
100
AcDbSpline
210
0.0
220
0.0
230
1.0
 70
    24
 71
     2
 72
     6
 73
     3
 74
     0
 42
0.0000000001
 43
0.0000000001
 40
-1.5
 40
-1.5
 40
-1.5
 40
0.0
 40
0.0
 40
0.0
 10
855.209310901919
 20
736.7879839523968
 30
0.0
 10
855.21841235754
 20
736.0379839523968
 30
0.0
 10
855.2275138131612
 20
735.2879839523968
 30
0.0
  0
SPLINE
  5
88
330
1F
100
AcDbEntity
  8
Predefinito
100
AcDbSpline
210
0.0
220
0.0
230
1.0
 70
    24
 71
     2
 72
     6
 73
     3
 74
     0
 42
0.0000000001
 43
0.0000000001
 40
0.0
 40
0.0
 40
0.0
 40
17.96359417751592
 40
17.96359417751592
 40
17.96359417751592
 10
855.2275138131612
 20
735.2879839523968
 30
0.0
 10
846.2366152687822
 20
735.2879839523966
 30
0.0
 10
837.2457167244032
 20
735.2879839523966
 30
0.0
  0
SPLINE
  5
89
330
1F
100
AcDbEntity
  8
Predefinito
100
AcDbSpline
210
0.0
220
0.0
230
1.0
 70
    24
 71
     2
 72
     6
 73
     3
 74
     0
 42
0.0000000001
 43
0.0000000001
 40
0.0
 40
0.0
 40
0.0
 40
2.604296838314667
 40
2.604296838314667
 40
2.604296838314667
 10
854.4775138131612
 20
703.4879839523967
 30
0.0
 10
854.4735945733407
 20
704.7975250859183
 30
0.0
 10
854.4696753335202
 20
706.1070662194398
 30
0.0
  0
SPLINE
  5
8A
330
1F
100
AcDbEntity
  8
Predefinito
100
AcDbSpline
210
0.0
220
0.0
230
1.0
 70
    12
 71
     2
 72
     6
 73
     3
 74
     0
 42
0.0000000001
 43
0.0000000001
 40
0.0
 40
0.0
 40
0.0
 40
0.225394005102531
 40
0.225394005102531
 40
0.225394005102531
 10
854.4696753335202
 20
706.1070662194398
 30
0.0
 41
1.0
 10
854.4085855243131
 20
706.221202622381
 30
0.0
 41
0.99966320750863
 10
854.3605607644911
 20
706.3231827313317
 30
0.0
 41
1.0
  0
SPLINE
  5
8B
330
1F
100
AcDbEntity
  8
Predefinito
100
AcDbSpline
210
0.0
220
0.0
230
1.0
 70
     8
 71
     3
 72
    15
 73
    11
 74
     0
 42
0.0000000001
 43
0.0000000001
 40
0.0
 40
0.0
 40
0.0
 40
0.0
 40
1.366639460552969
 40
3.412179877037743
 40
5.941117194297591
 40
8.764554078721064
 40
11.58751920199275
 40
14.11571590213592
 40
16.16155765683369
 40
17.52911535075924
 40
17.52911535075924
 40
17.52911535075924
 40
17.52911535075924
 10
854.3605607644911
 20
706.3231827313317
 30
0.0
 10
854.1555785443213
 20
706.7427351207084
 30
0.0
 10
853.2444116985091
 20
707.4619139072913
 30
0.0
 10
851.3825013435506
 20
708.1704799743884
 30
0.0
 10
848.9530223075417
 20
708.627219037716
 30
0.0
 10
846.2276707613044
 20
708.7859628335096
 30
0.0
 10
843.5025675005886
 20
708.6272608258664
 30
0.0
 10
841.073370704163
 20
708.1706787912863
 30
0.0
 10
839.2112449558474
 20
707.4622728083103
 30
0.0
 10
838.2995964744861
 20
706.7430260877749
 30
0.0
 10
838.0944668618313
 20
706.3231827313317
 30
0.0
  0
SPLINE
  5
8C
330
1F
100
AcDbEntity
  8
Predefinito
100
AcDbSpline
210
0.0
220
0.0
230
1.0
 70
    12
 71
     2
 72
     6
 73
     3
 74
     0
 42
0.0000000001
 43
0.0000000001
 40
-0.2107148738321221
 40
-0.2107148738321221
 40
-0.2107148738321221
 40
0.0
 40
0.0
 40
0.0
 10
838.0944668618313
 20
706.3231827313317
 30
0.0
 41
1.0
 10
838.0483781991394
 20
706.2284401167071
 30
0.0
 41
0.9999906529017829
 10
837.9955891413782
 20
706.1341946377722
 30
0.0
 41
1.0
  0
SPLINE
  5
8D
330
1F
100
AcDbEntity
  8
Predefinito
100
AcDbSpline
210
0.0
220
0.0
230
1.0
 70
    12
 71
     2
 72
     6
 73
     3
 74
     0
 42
0.0000000001
 43
0.0000000001
 40
-0.0361019934776769
 40
-0.0361019934776769
 40
-0.0361019934776769
 40
0.0
 40
0.0
 40
0.0
 10
837.9955891413782
 20
706.1341946377722
 30
0.0
 41
1.0
 10
837.9855854941416
 20
706.1171888707245
 30
0.0
 41
0.9984883842451001
 10
837.981298257556
 20
706.0965525168008
 30
0.0
 41
1.0
  0
SPLINE
  5
8E
330
1F
100
AcDbEntity
  8
Predefinito
100
AcDbSpline
210
0.0
220
0.0
230
1.0
 70
    24
 71
     2
 72
     6
 73
     3
 74
     0
 42
0.0000000001
 43
0.0000000001
 40
-2.60599442794296
 40
-2.60599442794296
 40
-2.60599442794296
 40
0.0
 40
0.0
 40
0.0
 10
837.981298257556
 20
706.0965525168008
 30
0.0
 10
837.9794060353586
 20
704.7922682345987
 30
0.0
 10
837.9775138131612
 20
703.4879839523967
 30
0.0
  0
SPLINE
  5
8F
330
1F
100
AcDbEntity
  8
Predefinito
100
AcDbSpline
210
0.0
220
0.0
230
1.0
 70
    24
 71
     2
 72
     6
 73
     3
 74
     0
 42
0.0000000001
 43
0.0000000001
 40
0.0
 40
0.0
 40
0.0
 40
0.3535533905932738
 40
0.3535533905932738
 40
0.3535533905932738
 10
849.2275138131612
 20
713.8379839523966
 30
0.0
 10
849.0910362539475
 20
713.7129839523966
 30
0.0
 10
848.9545586947339
 20
713.5879839523966
 30
0.0
  0
SPLINE
  5
90
330
1F
100
AcDbEntity
  8
Predefinito
100
AcDbSpline
210
0.0
220
0.0
230
1.0
 70
    24
 71
     2
 72
     6
 73
     3
 74
     0
 42
0.0000000001
 43
0.0000000001
 40
0.0
 40
0.0
 40
0.0
 40
5.454089763145475
 40
5.454089763145475
 40
5.454089763145475
 10
848.9545586947339
 20
713.5879839523966
 30
0.0
 10
846.2160362539475
 20
713.5879839523966
 30
0.0
 10
843.4775138131612
 20
713.5879839523966
 30
0.0
  0
SPLINE
  5
91
330
1F
100
AcDbEntity
  8
Predefinito
100
AcDbSpline
210
0.0
220
0.0
230
1.0
 70
    24
 71
     2
 72
     6
 73
     3
 74
     0
 42
0.0000000001
 43
0.0000000001
 40
0.0
 40
0.0
 40
0.0
 40
0.3535533905932738
 40
0.3535533905932738
 40
0.3535533905932738
 10
843.4775138131612
 20
713.5879839523966
 30
0.0
 10
843.3525138131612
 20
713.7129839523966
 30
0.0
 10
843.2275138131612
 20
713.8379839523966
 30
0.0
  0
SPLINE
  5
92
330
1F
100
AcDbEntity
  8
Predefinito
100
AcDbSpline
210
0.0
220
0.0
230
1.0
 70
    24
 71
     2
 72
     6
 73
     3
 74
     0
 42
0.0000000001
 43
0.0000000001
 40
0.0
 40
0.0
 40
0.0
 40
6.0
 40
6.0
 40
6.0
 10
843.2275138131612
 20
713.8379839523966
 30
0.0
 10
846.2275138131612
 20
713.8379839523966
 30
0.0
 10
849.2275138131612
 20
713.8379839523966
 30
0.0
  0
SPLINE
  5
93
330
1F
100
AcDbEntity
  8
Predefinito
100
AcDbSpline
210
0.0
220
0.0
230
1.0
 70
    24
 71
     2
 72
     6
 73
     3
 74
     0
 42
0.0000000001
 43
0.0000000001
 40
0.0
 40
0.0
 40
0.0
 40
0.7071067811865476
 40
0.7071067811865476
 40
0.7071067811865476
 10
854.4775138131612
 20
703.4879839523967
 30
0.0
 10
854.2275138131612
 20
703.2379839523967
 30
0.0
 10
853.9775138131612
 20
702.9879839523967
 30
0.0
  0
SPLINE
  5
94
330
1F
100
AcDbEntity
  8
Predefinito
100
AcDbSpline
210
0.0
220
0.0
230
1.0
 70
    24
 71
     2
 72
     6
 73
     3
 74
     0
 42
0.0000000001
 43
0.0000000001
 40
0.0
 40
0.0
 40
0.0
 40
15.46865054174987
 40
15.46865054174987
 40
15.46865054174987
 10
853.9775138131612
 20
702.9879839523967
 30
0.0
 10
846.2353511777237
 20
702.9879839523967
 30
0.0
 10
838.4931885422862
 20
702.9879839523967
 30
0.0
  0
SPLINE
  5
95
330
1F
100
AcDbEntity
  8
Predefinito
100
AcDbSpline
210
0.0
220
0.0
230
1.0
 70
    24
 71
     2
 72
     6
 73
     3
 74
     0
 42
0.0000000001
 43
0.0000000001
 40
0.0
 40
0.0
 40
0.0
 40
0.6835092108961954
 40
0.6835092108961954
 40
0.6835092108961954
 10
838.4931885422862
 20
702.9879839523967
 30
0.0
 10
838.2478656791986
 20
703.2338124519038
 30
0.0
 10
838.0025428161111
 20
703.4796409514108
 30
0.0
  0
SPLINE
  5
96
330
1F
100
AcDbEntity
  8
Predefinito
100
AcDbSpline
210
0.0
220
0.0
230
1.0
 70
    24
 71
     2
 72
     6
 73
     3
 74
     0
 42
0.0000000001
 43
0.0000000001
 40
0.0
 40
0.0
 40
0.0
 40
16.46662799607179
 40
16.46662799607179
 40
16.46662799607179
 10
838.0025428161111
 20
703.4796409514108
 30
0.0
 10
846.2400283146362
 20
703.4838124519038
 30
0.0
 10
854.4775138131612
 20
703.4879839523967
 30
0.0
  0
SPLINE
  5
97
330
1F
100
AcDbEntity
  8
Predefinito
100
AcDbSpline
210
0.0
220
0.0
230
1.0
 70
    24
 71
     2
 72
     6
 73
     3
 74
     0
 42
0.0000000001
 43
0.0000000001
 40
0.0
 40
0.0
 40
0.0
 40
0.5548772295352364
 40
0.5548772295352364
 40
0.5548772295352364
 10
853.509936373089
 20
713.3708773872257
 30
0.0
 10
853.7873749878565
 20
713.3708773872257
 30
0.0
 10
854.0648136026242
 20
713.3708773872257
 30
0.0
  0
SPLINE
  5
98
330
1F
100
AcDbEntity
  8
Predefinito
100
AcDbSpline
210
0.0
220
0.0
230
1.0
 70
    12
 71
     2
 72
     6
 73
     3
 74
     0
 42
0.0000000001
 43
0.0000000001
 40
0.0
 40
0.0
 40
0.0
 40
0.0694004934334369
 40
0.0694004934334369
 40
0.0694004934334369
 10
854.0648136026242
 20
713.3708773872257
 30
0.0
 41
1.0
 10
854.0491322213718
 20
713.3399224390396
 30
0.0
 41
0.9999953827094391
 10
854.033639263256
 20
713.3088727565288
 30
0.0
 41
1.0
  0
SPLINE
  5
99
330
1F
100
AcDbEntity
  8
Predefinito
100
AcDbSpline
210
0.0
220
0.0
230
1.0
 70
    24
 71
     2
 72
     6
 73
     3
 74
     0
 42
0.0000000001
 43
0.0000000001
 40
0.0
 40
0.0
 40
0.0
 40
21.00079969633882
 40
21.00079969633882
 40
21.00079969633882
 10
551.0424218806212
 20
713.7880056464187
 30
0.0
 10
551.1340568708606
 20
724.2880056464187
 30
0.0
 10
551.2256918611
 20
734.7880056464187
 30
0.0
  0
SPLINE
  5
9A
330
1F
100
AcDbEntity
  8
Predefinito
100
AcDbSpline
210
0.0
220
0.0
230
1.0
 70
    24
 71
     2
 72
     6
 73
     3
 74
     0
 42
0.0000000001
 43
0.0000000001
 40
0.0
 40
0.0
 40
0.0
 40
116.0018219520608
 40
116.0018219520608
 40
116.0018219520608
 10
551.2256918611
 20
734.7880056464187
 30
0.0
 10
609.2266028371305
 20
734.7880056464187
 30
0.0
 10
667.2275138131608
 20
734.7880056464187
 30
0.0
  0
SPLINE
  5
9B
330
1F
100
AcDbEntity
  8
Predefinito
100
AcDbSpline
210
0.0
220
0.0
230
1.0
 70
    24
 71
     2
 72
     6
 73
     3
 74
     0
 42
0.0000000001
 43
0.0000000001
 40
0.0
 40
0.0
 40
0.0
 40
21.00079964610048
 40
21.00079964610048
 40
21.00079964610048
 10
667.2275138131608
 20
734.7880056464187
 30
0.0
 10
667.3191459249638
 20
724.2880056464187
 30
0.0
 10
667.4107780367667
 20
713.7880056464187
 30
0.0
  0
SPLINE
  5
9C
330
1F
100
AcDbEntity
  8
Predefinito
100
AcDbSpline
210
0.0
220
0.0
230
1.0
 70
    24
 71
     2
 72
     6
 73
     3
 74
     0
 42
0.0000000001
 43
0.0000000001
 40
-130.0020418428269
 40
-130.0020418428269
 40
-130.0020418428269
 40
0.0
 40
0.0
 40
0.0
 10
544.225471970334
 20
713.7880056464187
 30
0.0
 10
609.2264928917474
 20
713.7880056464187
 30
0.0
 10
674.2275138131608
 20
713.7880056464187
 30
0.0
  0
SPLINE
  5
9D
330
1F
100
AcDbEntity
  8
Predefinito
100
AcDbSpline
210
0.0
220
0.0
230
1.0
 70
    24
 71
     2
 72
     6
 73
     3
 74
     0
 42
0.0000000001
 43
0.0000000001
 40
0.0
 40
0.0
 40
0.0
 40
4.5
 40
4.5
 40
4.5
 10
674.2275138131608
 20
713.7880056464187
 30
0.0
 10
674.2275138131608
 20
711.5380056464187
 30
0.0
 10
674.2275138131608
 20
709.2880056464187
 30
0.0
  0
SPLINE
  5
9E
330
1F
100
AcDbEntity
  8
Predefinito
100
AcDbSpline
210
0.0
220
0.0
230
1.0
 70
    24
 71
     2
 72
     6
 73
     3
 74
     0
 42
0.0000000001
 43
0.0000000001
 40
0.0
 40
0.0
 40
0.0
 40
130.0020418428269
 40
130.0020418428269
 40
130.0020418428269
 10
674.2275138131608
 20
709.2880056464187
 30
0.0
 10
609.2264928917474
 20
709.2880056464187
 30
0.0
 10
544.225471970334
 20
709.2880056464187
 30
0.0
  0
SPLINE
  5
9F
330
1F
100
AcDbEntity
  8
Predefinito
100
AcDbSpline
210
0.0
220
0.0
230
1.0
 70
    24
 71
     2
 72
     6
 73
     3
 74
     0
 42
0.0000000001
 43
0.0000000001
 40
0.0
 40
0.0
 40
0.0
 40
4.5
 40
4.5
 40
4.5
 10
544.225471970334
 20
709.2880056464187
 30
0.0
 10
544.225471970334
 20
711.5380056464187
 30
0.0
 10
544.225471970334
 20
713.7880056464187
 30
0.0
  0
SPLINE
  5
A0
330
1F
100
AcDbEntity
  8
Predefinito
100
AcDbSpline
210
0.0
220
0.0
230
1.0
 70
    28
 71
     3
 72
    13
 73
     9
 74
     0
 42
0.0000000001
 43
0.0000000001
 40
8.272516424956514
 40
8.272516424956514
 40
8.272516424956514
 40
8.272516424956514
 40
10.0294974290739
 40
20.12115681942599
 40
39.38903015665083
 40
63.35541638082086
 40
102.8064138767215
 40
104.5486558568043
 40
104.5486558568043
 40
104.5486558568043
 40
104.5486558568043
 10
73.24278381673155
 20
713.7880056464173
 30
0.0
 41
1.0
 10
73.81939699234515
 20
713.7880056464173
 30
0.0
 41
1.0
 10
77.70134590947778
 20
713.7880056464173
 30
0.0
 41
1.0
 10
87.7548980638521
 20
713.7880056464173
 30
0.0
 41
1.0
 10
103.7645664830135
 20
713.7880056464173
 30
0.0
 41
1.0
 10
123.4816109177846
 20
713.7880056464173
 30
0.0
 41
1.0
 10
130.1718880818611
 20
713.7880056464173
 30
0.0
 41
1.0
 10
129.9848640721756
 20
713.7880056464173
 30
0.0
 41
1.0
 10
129.9691155982762
 20
713.7880056464172
 30
0.0
 41
1.0
  0
SPLINE
  5
A1
330
1F
100
AcDbEntity
  8
Predefinito
100
AcDbSpline
210
0.0
220
0.0
230
1.0
 70
    24
 71
     2
 72
     6
 73
     3
 74
     0
 42
0.0000000001
 43
0.0000000001
 40
0.0
 40
0.0
 40
0.0
 40
4.499999999999886
 40
4.499999999999886
 40
4.499999999999886
 10
129.9691155982762
 20
713.7880056464172
 30
0.0
 10
129.9691155982762
 20
711.5380056464173
 30
0.0
 10
129.9691155982763
 20
709.2880056464173
 30
0.0
  0
SPLINE
  5
A2
330
1F
100
AcDbEntity
  8
Predefinito
100
AcDbSpline
210
0.0
220
0.0
230
1.0
 70
    28
 71
     3
 72
    13
 73
     9
 74
     0
 42
0.0000000001
 43
0.0000000001
 40
-104.5486558568043
 40
-104.5486558568043
 40
-104.5486558568043
 40
-104.5486558568043
 40
-102.8064138767229
 40
-63.35541638082164
 40
-39.38903015665129
 40
-20.12115681942617
 40
-10.02949742907393
 40
-8.272516424956457
 40
-8.272516424956457
 40
-8.272516424956457
 40
-8.272516424956457
 10
129.9691155982763
 20
709.2880056464173
 30
0.0
 41
1.0
 10
129.9848640721757
 20
709.2880056464173
 30
0.0
 41
1.0
 10
130.171888081861
 20
709.2880056464173
 30
0.0
 41
1.0
 10
123.4816109177846
 20
709.2880056464173
 30
0.0
 41
1.0
 10
103.7645664830135
 20
709.2880056464173
 30
0.0
 41
1.0
 10
87.75489806385218
 20
709.2880056464173
 30
0.0
 41
1.0
 10
77.70134590947778
 20
709.2880056464173
 30
0.0
 41
1.0
 10
73.81939699234513
 20
709.2880056464173
 30
0.0
 41
1.0
 10
73.24278381673152
 20
709.2880056464173
 30
0.0
 41
1.0
  0
SPLINE
  5
A3
330
1F
100
AcDbEntity
  8
Predefinito
100
AcDbSpline
210
0.0
220
0.0
230
1.0
 70
    28
 71
     3
 72
    13
 73
     9
 74
     0
 42
0.0000000001
 43
0.0000000001
 40
9.27730607034434
 40
9.27730607034434
 40
9.27730607034434
 40
9.27730607034434
 40
10.02200618118375
 40
20.1144654000932
 40
39.38386583952576
 40
63.35215155310355
 40
102.8062757929016
 40
104.5486558568043
 40
104.5486558568043
 40
104.5486558568043
 40
104.5486558568043
 10
73.24278381673156
 20
734.7880056464173
 30
0.0
 41
1.0
 10
73.46039406959721
 20
734.7880056464173
 30
0.0
 41
1.0
 10
76.62458818351475
 20
734.7880056464173
 30
0.0
 41
1.0
 10
85.3035934526238
 20
734.7880056464173
 30
0.0
 41
1.0
 10
99.58914373433709
 20
734.7880056464173
 30
0.0
 41
1.0
 10
117.182814153056
 20
734.7880056464173
 30
0.0
 41
1.0
 10
123.1525999302318
 20
734.7880056464173
 30
0.0
 41
1.0
 10
122.9857169677433
 20
734.7880056464173
 30
0.0
 41
1.0
 10
122.9716644833408
 20
734.7880056464173
 30
0.0
 41
1.0
  0
SPLINE
  5
A4
330
1F
100
AcDbEntity
  8
Predefinito
100
AcDbSpline
210
0.0
220
0.0
230
1.0
 70
    24
 71
     2
 72
     6
 73
     3
 74
     0
 42
0.0000000001
 43
0.0000000001
 40
0.0
 40
0.0
 40
0.0
 40
21.00042988407957
 40
21.00042988407957
 40
21.00042988407957
 10
122.9716644833408
 20
734.7880056464173
 30
0.0
 10
123.0738546521594
 20
724.2881905203881
 30
0.0
 10
123.176044820978
 20
713.7883753943589
 30
0.0
  0
SPLINE
  5
A5
330
1F
100
AcDbEntity
  8
Predefinito
100
AcDbSpline
210
0.0
220
0.0
230
1.0
 70
    24
 71
     2
 72
     6
 73
     3
 74
     0
 42
0.0000000001
 43
0.0000000001
 40
0.0
 40
0.0
 40
0.0
 40
61.44038690347187
 40
61.44038690347187
 40
61.44038690347187
 10
61.46622862920905
 20
709.2880056464173
 30
0.0
 10
30.73957474603882
 20
709.2880056464173
 30
0.0
 10
0.0129208628685908
 20
709.2880056464173
 30
0.0
  0
SPLINE
  5
A6
330
1F
100
AcDbEntity
  8
Predefinito
100
AcDbSpline
210
0.0
220
0.0
230
1.0
 70
    24
 71
     2
 72
     6
 73
     3
 74
     0
 42
0.0000000001
 43
0.0000000001
 40
0.0
 40
0.0
 40
0.0
 40
4.5
 40
4.5
 40
4.5
 10
0.0129208628685908
 20
709.2880056464173
 30
0.0
 10
0.01292086286861
 20
711.5380056464173
 30
0.0
 10
0.0129208628686292
 20
713.7880056464173
 30
0.0
  0
SPLINE
  5
A7
330
1F
100
AcDbEntity
  8
Predefinito
100
AcDbSpline
210
0.0
220
0.0
230
1.0
 70
    24
 71
     2
 72
     6
 73
     3
 74
     0
 42
0.0000000001
 43
0.0000000001
 40
-62.01702598569854
 40
-62.01702598569854
 40
-62.01702598569854
 40
0.0
 40
0.0
 40
0.0
 10
0.0129208628686292
 20
713.7880056464173
 30
0.0
 10
31.02789428715219
 20
713.7880056464173
 30
0.0
 10
62.04286771143575
 20
713.7880056464173
 30
0.0
  0
SPLINE
  5
A8
330
1F
100
AcDbEntity
  8
Predefinito
100
AcDbSpline
210
0.0
220
0.0
230
1.0
 70
    24
 71
     2
 72
     6
 73
     3
 74
     0
 42
0.0000000001
 43
0.0000000001
 40
0.0
 40
0.0
 40
0.0
 40
21.00059763198034
 40
21.00059763198034
 40
21.00059763198034
 10
6.81598075576898
 20
713.7882074753165
 30
0.0
 10
6.913082829484823
 20
724.2881065608669
 30
0.0
 10
7.010184903200667
 20
734.7880056464173
 30
0.0
  0
SPLINE
  5
A9
330
1F
100
AcDbEntity
  8
Predefinito
100
AcDbSpline
210
0.0
220
0.0
230
1.0
 70
    28
 71
     3
 72
    13
 73
     9
 74
     0
 42
0.0000000001
 43
0.0000000001
 40
304.526200331929
 40
304.526200331929
 40
304.526200331929
 40
304.526200331929
 40
318.6193497149732
 40
347.863059393
 40
369.081670787708
 40
388.3127193363499
 40
398.3850915320549
 40
399.1285811638504
 40
399.1285811638504
 40
399.1285811638504
 40
399.1285811638504
 10
7.010184903200667
 20
734.7880056464173
 30
0.0
 41
1.0
 10
6.929491850501872
 20
734.7880056464173
 30
0.0
 41
1.0
 10
8.050996598051691
 20
734.7880056464173
 30
0.0
 41
1.0
 10
16.03658618116209
 20
734.7880056464173
 30
0.0
 41
1.0
 10
31.11769945123089
 20
734.7880056464173
 30
0.0
 41
1.0
 10
44.6832595917295
 20
734.7880056464173
 30
0.0
 41
1.0
 10
53.36088424656482
 20
734.7880056464173
 30
0.0
 41
1.0
 10
56.52509628617701
 20
734.7880056464173
 30
0.0
 41
1.0
 10
56.7427838167316
 20
734.7880056464173
 30
0.0
 41
1.0
  0
SPLINE
  5
AA
330
1F
100
AcDbEntity
  8
Predefinito
100
AcDbSpline
210
0.0
220
0.0
230
1.0
 70
    24
 71
     2
 72
     6
 73
     3
 74
     0
 42
0.0000000001
 43
0.0000000001
 40
0.0
 40
0.0
 40
0.0
 40
3.279999999999973
 40
3.279999999999973
 40
3.279999999999973
 10
71.21278381673139
 20
556.6400165850932
 30
0.0
 10
71.21278381673139
 20
555.0000165850932
 30
0.0
 10
71.21278381673139
 20
553.3600165850933
 30
0.0
  0
SPLINE
  5
AB
330
1F
100
AcDbEntity
  8
Predefinito
100
AcDbSpline
210
0.0
220
0.0
230
1.0
 70
    24
 71
     2
 72
     6
 73
     3
 74
     0
 42
0.0000000001
 43
0.0000000001
 40
0.0
 40
0.0
 40
0.0
 40
3.279999999999973
 40
3.279999999999973
 40
3.279999999999973
 10
58.77278381673139
 20
553.3600165850933
 30
0.0
 10
58.77278381673139
 20
555.0000165850932
 30
0.0
 10
58.77278381673139
 20
556.6400165850932
 30
0.0
  0
SPLINE
  5
AC
330
1F
100
AcDbEntity
  8
Predefinito
100
AcDbSpline
210
0.0
220
0.0
230
1.0
 70
    24
 71
     2
 72
     6
 73
     3
 74
     0
 42
0.0000000001
 43
0.0000000001
 40
0.0
 40
0.0
 40
0.0
 40
6.219999999999999
 40
6.219999999999999
 40
6.219999999999999
 10
58.77278381673139
 20
556.6400165850932
 30
0.0
 10
61.88278381673139
 20
556.6400165850932
 30
0.0
 10
64.99278381673139
 20
556.6400165850932
 30
0.0
  0
SPLINE
  5
AD
330
1F
100
AcDbEntity
  8
Predefinito
100
AcDbSpline
210
0.0
220
0.0
230
1.0
 70
    24
 71
     2
 72
     6
 73
     3
 74
     0
 42
0.0000000001
 43
0.0000000001
 40
0.0
 40
0.0
 40
0.0
 40
6.219999999999999
 40
6.219999999999999
 40
6.219999999999999
 10
64.99278381673139
 20
556.6400165850932
 30
0.0
 10
68.10278381673139
 20
556.6400165850932
 30
0.0
 10
71.21278381673139
 20
556.6400165850932
 30
0.0
  0
SPLINE
  5
AE
330
1F
100
AcDbEntity
  8
Predefinito
100
AcDbSpline
210
0.0
220
0.0
230
1.0
 70
    24
 71
     2
 72
     6
 73
     3
 74
     0
 42
0.0000000001
 43
0.0000000001
 40
0.0
 40
0.0
 40
0.0
 40
0.3111269837220994
 40
0.3111269837220994
 40
0.3111269837220994
 10
71.21278381673139
 20
556.6400165850932
 30
0.0
 10
71.10278381673139
 20
556.7500165850932
 30
0.0
 10
70.99278381673139
 20
556.8600165850933
 30
0.0
  0
LINE
  5
AF
330
1F
100
AcDbEntity
  8
Predefinito
100
AcDbLine
 10
70.99278381673139
 20
556.8600165850933
 30
0.0
 11
70.83378321556043
 21
556.8600165850933
 31
0.0
  0
SPLINE
  5
B0
330
1F
100
AcDbEntity
  8
Predefinito
100
AcDbSpline
210
0.0
220
0.0
230
1.0
 70
    24
 71
     2
 72
     6
 73
     3
 74
     0
 42
0.0000000001
 43
0.0000000001
 40
0.0
 40
0.0
 40
0.0
 40
0.3090169943749572
 40
0.3090169943749572
 40
0.3090169943749572
 10
70.83378321556043
 20
556.8600165850933
 30
0.0
 10
70.67927471837295
 20
556.8600165850933
 30
0.0
 10
70.52476622118547
 20
556.8600165850933
 30
0.0
  0
SPLINE
  5
B1
330
1F
100
AcDbEntity
  8
Predefinito
100
AcDbSpline
210
0.0
220
0.0
230
1.0
 70
    24
 71
     2
 72
     6
 73
     3
 74
     0
 42
0.0000000001
 43
0.0000000001
 40
0.0
 40
0.0
 40
0.0
 40
0.4008716961399443
 40
0.4008716961399443
 40
0.4008716961399443
 10
70.52476622118547
 20
556.8600165850933
 30
0.0
 10
70.3243303731155
 20
556.8600165850933
 30
0.0
 10
70.12389452504553
 20
556.8600165850933
 30
0.0
  0
SPLINE
  5
B2
330
1F
100
AcDbEntity
  8
Predefinito
100
AcDbSpline
210
0.0
220
0.0
230
1.0
 70
    24
 71
     2
 72
     6
 73
     3
 74
     0
 42
0.0000000001
 43
0.0000000001
 40
0.0
 40
0.0
 40
0.0
 40
0.5877852522924627
 40
0.5877852522924627
 40
0.5877852522924627
 10
70.12389452504553
 20
556.8600165850933
 30
0.0
 10
69.8300018988993
 20
556.8600165850933
 30
0.0
 10
69.53610927275307
 20
556.8600165850933
 30
0.0
  0
SPLINE
  5
B3
330
1F
100
AcDbEntity
  8
Predefinito
100
AcDbSpline
210
0.0
220
0.0
230
1.0
 70
    24
 71
     2
 72
     6
 73
     3
 74
     0
 42
0.0000000001
 43
0.0000000001
 40
0.0
 40
0.0
 40
0.0
 40
0.6243723049026926
 40
0.6243723049026926
 40
0.6243723049026926
 10
69.53610927275307
 20
556.8600165850933
 30
0.0
 10
69.22392312030172
 20
556.8600165850933
 30
0.0
 10
68.91173696785037
 20
556.8600165850933
 30
0.0
  0
SPLINE
  5
B4
330
1F
100
AcDbEntity
  8
Predefinito
100
AcDbSpline
210
0.0
220
0.0
230
1.0
 70
    24
 71
     2
 72
     6
 73
     3
 74
     0
 42
0.0000000001
 43
0.0000000001
 40
0.0
 40
0.0
 40
0.0
 40
0.8090169943749572
 40
0.8090169943749572
 40
0.8090169943749572
 10
68.91173696785037
 20
556.8600165850933
 30
0.0
 10
68.5072284706629
 20
556.8600165850933
 30
0.0
 10
68.10271997347542
 20
556.8600165850933
 30
0.0
  0
SPLINE
  5
B5
330
1F
100
AcDbEntity
  8
Predefinito
100
AcDbSpline
210
0.0
220
0.0
230
1.0
 70
    24
 71
     2
 72
     6
 73
     3
 74
     0
 42
0.0000000001
 43
0.0000000001
 40
0.0
 40
0.0
 40
0.0
 40
0.786755002203904
 40
0.786755002203904
 40
0.786755002203904
 10
68.10271997347542
 20
556.8600165850933
 30
0.0
 10
67.70934247237346
 20
556.8600165850933
 30
0.0
 10
67.31596497127151
 20
556.8600165850933
 30
0.0
  0
SPLINE
  5
B6
330
1F
100
AcDbEntity
  8
Predefinito
100
AcDbSpline
210
0.0
220
0.0
230
1.0
 70
    24
 71
     2
 72
     6
 73
     3
 74
     0
 42
0.0000000001
 43
0.0000000001
 40
0.0
 40
0.0
 40
0.0
 40
0.9510565162951536
 40
0.9510565162951536
 40
0.9510565162951536
 10
67.31596497127151
 20
556.8600165850933
 30
0.0
 10
66.84043671312394
 20
556.8600165850933
 30
0.0
 10
66.36490845497636
 20
556.8600165850933
 30
0.0
  0
SPLINE
  5
B7
330
1F
100
AcDbEntity
  8
Predefinito
100
AcDbSpline
210
0.0
220
0.0
230
1.0
 70
    24
 71
     2
 72
     6
 73
     3
 74
     0
 42
0.0000000001
 43
0.0000000001
 40
0.0
 40
0.0
 40
0.0
 40
0.8721246382449976
 40
0.8721246382449976
 40
0.8721246382449976
 10
66.36490845497636
 20
556.8600165850933
 30
0.0
 10
65.92884613585386
 20
556.8600165850933
 30
0.0
 10
65.49278381673136
 20
556.8600165850933
 30
0.0
  0
SPLINE
  5
B8
330
1F
100
AcDbEntity
  8
Predefinito
100
AcDbSpline
210
0.0
220
0.0
230
1.0
 70
    24
 71
     2
 72
     6
 73
     3
 74
     0
 42
0.0000000001
 43
0.0000000001
 40
0.0
 40
0.0
 40
0.0
 40
0.9999999999999716
 40
0.9999999999999716
 40
0.9999999999999716
 10
65.49278381673136
 20
556.8600165850933
 30
0.0
 10
64.99278381673138
 20
556.8600165850933
 30
0.0
 10
64.49278381673139
 20
556.8600165850933
 30
0.0
  0
SPLINE
  5
B9
330
1F
100
AcDbEntity
  8
Predefinito
100
AcDbSpline
210
0.0
220
0.0
230
1.0
 70
    24
 71
     2
 72
     6
 73
     3
 74
     0
 42
0.0000000001
 43
0.0000000001
 40
0.0
 40
0.0
 40
0.0
 40
0.8721246382449976
 40
0.8721246382449976
 40
0.8721246382449976
 10
64.49278381673139
 20
556.8600165850933
 30
0.0
 10
64.05672149760889
 20
556.8600165850933
 30
0.0
 10
63.62065917848639
 20
556.8600165850933
 30
0.0
  0
SPLINE
  5
BA
330
1F
100
AcDbEntity
  8
Predefinito
100
AcDbSpline
210
0.0
220
0.0
230
1.0
 70
    24
 71
     2
 72
     6
 73
     3
 74
     0
 42
0.0000000001
 43
0.0000000001
 40
0.0
 40
0.0
 40
0.0
 40
0.9510565162951536
 40
0.9510565162951536
 40
0.9510565162951536
 10
63.62065917848639
 20
556.8600165850933
 30
0.0
 10
63.14513092033881
 20
556.8600165850933
 30
0.0
 10
62.66960266219124
 20
556.8600165850933
 30
0.0
  0
SPLINE
  5
BB
330
1F
100
AcDbEntity
  8
Predefinito
100
AcDbSpline
210
0.0
220
0.0
230
1.0
 70
    24
 71
     2
 72
     6
 73
     3
 74
     0
 42
0.0000000001
 43
0.0000000001
 40
0.0
 40
0.0
 40
0.0
 40
0.786755002203904
 40
0.786755002203904
 40
0.786755002203904
 10
62.66960266219124
 20
556.8600165850933
 30
0.0
 10
62.27622516108929
 20
556.8600165850933
 30
0.0
 10
61.88284765998733
 20
556.8600165850933
 30
0.0
  0
SPLINE
  5
BC
330
1F
100
AcDbEntity
  8
Predefinito
100
AcDbSpline
210
0.0
220
0.0
230
1.0
 70
    24
 71
     2
 72
     6
 73
     3
 74
     0
 42
0.0000000001
 43
0.0000000001
 40
0.0
 40
0.0
 40
0.0
 40
0.8090169943749288
 40
0.8090169943749288
 40
0.8090169943749288
 10
61.88284765998733
 20
556.8600165850933
 30
0.0
 10
61.47833916279987
 20
556.8600165850933
 30
0.0
 10
61.07383066561241
 20
556.8600165850933
 30
0.0
  0
SPLINE
  5
BD
330
1F
100
AcDbEntity
  8
Predefinito
100
AcDbSpline
210
0.0
220
0.0
230
1.0
 70
    24
 71
     2
 72
     6
 73
     3
 74
     0
 42
0.0000000001
 43
0.0000000001
 40
0.0
 40
0.0
 40
0.0
 40
0.6243723049026926
 40
0.6243723049026926
 40
0.6243723049026926
 10
61.07383066561241
 20
556.8600165850933
 30
0.0
 10
60.76164451316106
 20
556.8600165850933
 30
0.0
 10
60.44945836070971
 20
556.8600165850933
 30
0.0
  0
SPLINE
  5
BE
330
1F
100
AcDbEntity
  8
Predefinito
100
AcDbSpline
210
0.0
220
0.0
230
1.0
 70
    24
 71
     2
 72
     6
 73
     3
 74
     0
 42
0.0000000001
 43
0.0000000001
 40
0.0
 40
0.0
 40
0.0
 40
0.5877852522924627
 40
0.5877852522924627
 40
0.5877852522924627
 10
60.44945836070971
 20
556.8600165850933
 30
0.0
 10
60.15556573456348
 20
556.8600165850933
 30
0.0
 10
59.86167310841725
 20
556.8600165850933
 30
0.0
  0
SPLINE
  5
BF
330
1F
100
AcDbEntity
  8
Predefinito
100
AcDbSpline
210
0.0
220
0.0
230
1.0
 70
    24
 71
     2
 72
     6
 73
     3
 74
     0
 42
0.0000000001
 43
0.0000000001
 40
0.0
 40
0.0
 40
0.0
 40
0.4008716961399443
 40
0.4008716961399443
 40
0.4008716961399443
 10
59.86167310841725
 20
556.8600165850933
 30
0.0
 10
59.66123726034728
 20
556.8600165850933
 30
0.0
 10
59.46080141227731
 20
556.8600165850933
 30
0.0
  0
SPLINE
  5
C0
330
1F
100
AcDbEntity
  8
Predefinito
100
AcDbSpline
210
0.0
220
0.0
230
1.0
 70
    24
 71
     2
 72
     6
 73
     3
 74
     0
 42
0.0000000001
 43
0.0000000001
 40
0.0
 40
0.0
 40
0.0
 40
0.3090169943749288
 40
0.3090169943749288
 40
0.3090169943749288
 10
59.46080141227731
 20
556.8600165850933
 30
0.0
 10
59.30629291508984
 20
556.8600165850933
 30
0.0
 10
59.15178441790238
 20
556.8600165850933
 30
0.0
  0
LINE
  5
C1
330
1F
100
AcDbEntity
  8
Predefinito
100
AcDbLine
 10
59.15178441790238
 20
556.8600165850933
 30
0.0
 11
58.99278381667483
 21
556.8600165850933
 31
0.0
  0
SPLINE
  5
C2
330
1F
100
AcDbEntity
  8
Predefinito
100
AcDbSpline
210
0.0
220
0.0
230
1.0
 70
    24
 71
     2
 72
     6
 73
     3
 74
     0
 42
0.0000000001
 43
0.0000000001
 40
-0.3111269837235665
 40
-0.3111269837235665
 40
-0.3111269837235665
 40
0.0
 40
0.0
 40
0.0
 10
58.99278381667483
 20
556.8600165850933
 30
0.0
 10
58.88278381667379
 20
556.7500165850932
 30
0.0
 10
58.77278381667276
 20
556.6400165850932
 30
0.0
  0
POLYLINE
  5
C3
330
1F
100
AcDbEntity
  8
Predefinito
100
AcDb2dPolyline
 66
     1
 10
0.0
 20
0.0
 30
0.0
  0
VERTEX
  5
C4
330
C3
100
AcDbEntity
  8
Predefinito
100
AcDbVertex
100
AcDb2dVertex
 10
117.881334593843
 20
455.3600165850932
 30
0.0
  0
VERTEX
  5
C5
330
C3
100
AcDbEntity
  8
Predefinito
100
AcDbVertex
100
AcDb2dVertex
 10
12.104233039619
 20
455.3600165850933
 30
0.0
  0
SEQEND
  5
C6
330
C3
100
AcDbEntity
  8
Predefinito
  0
SPLINE
  5
C7
330
1F
100
AcDbEntity
  8
Predefinito
100
AcDbSpline
210
0.0
220
0.0
230
1.0
 70
    12
 71
     2
 72
    16
 73
    13
 74
     0
 42
0.0000000001
 43
0.0000000001
 40
0.0
 40
0.0
 40
0.0
 40
0.7853981633974279
 40
0.7853981633974279
 40
0.926417633032367
 40
0.926417633032367
 40
37.25146943681757
 40
37.25146943681757
 40
42.36864944661405
 40
42.36864944661405
 40
98.84242021230205
 40
98.84242021230205
 40
100.3870366003171
 40
100.3870366003171
 40
100.3870366003171
 10
12.104233039619
 20
455.3600165850933
 30
0.0
 41
1.0
 10
11.60423303961909
 20
455.3600165850933
 30
0.0
 41
0.7071067811866882
 10
11.60423303961898
 20
455.8600165850933
 30
0.0
 41
1.0
 10
11.60423303961899
 20
455.9309974651003
 30
0.0
 41
0.990073221694401
 10
11.6239880553027
 20
455.9991738883119
 30
0.0
 41
1.0
 10
16.67888430359299
 20
473.4440978221082
 30
0.0
 41
1.0
 10
21.73378055188331
 20
490.8890217559045
 30
0.0
 41
1.0
 10
22.4497838167306
 20
493.3600165850932
 30
0.0
 41
0.9918281755866485
 10
22.51712767874381
 20
495.9317749184905
 30
0.0
 41
1.0
 10
23.2562831677859
 20
524.1589842259458
 30
0.0
 41
1.0
 10
23.995438656828
 20
552.3861935334011
 30
0.0
 41
1.0
 10
24.02093911088192
 20
553.3600165850931
 30
0.0
 41
0.7163019434247393
 10
24.99509598180359
 20
553.3600165850934
 30
0.0
 41
1.0
  0
SPLINE
  5
C8
330
1F
100
AcDbEntity
  8
Predefinito
100
AcDbSpline
210
0.0
220
0.0
230
1.0
 70
    28
 71
     3
 72
    32
 73
    28
 74
     0
 42
0.0000000001
 43
0.0000000001
 40
-23.42542819872015
 40
-23.42542819872015
 40
-23.42542819872015
 40
-23.42542819872015
 40
-23.03833220234688
 40
-22.53567737777251
 40
-22.03302255319814
 40
-20.02240325490067
 40
-20.02240325490067
 40
-19.5197484303263
 40
-17.50912913202883
 40
-15.49850983373136
 40
-15.49850983373136
 40
-14.99585500915699
 40
-12.48258088628515
 40
-10.47196158798768
 40
-9.969306763413316
 40
-7.958687465115846
 40
-7.456032640541478
 40
-4.440103693095271
 40
-0.4188650965003298
 40
-0.4188650965003298
 40
-0.3884672311037072
 40
-0.2634569767130408
 40
-0.2634569767130408
 40
-0.2388791581934839
 40
-0.2388791581934839
 40
-0.1132154520498894
 40
0.0
 40
0.0
 40
0.0
 40
0.0
 10
24.99509598178673
 20
553.3600165850933
 30
0.0
 41
1.0
 10
24.99634225516152
 20
553.3600165850933
 30
0.0
 41
1.0
 10
24.99490147992321
 20
553.3600165850933
 30
0.0
 41
1.0
 10
25.00387643183424
 20
553.3600165850933
 30
0.0
 41
1.0
 10
25.03244034324263
 20
553.3600165850933
 30
0.0
 41
1.0
 10
25.08227255984079
 20
553.3600165850934
 30
0.0
 41
1.0
 10
25.15329547703544
 20
553.3600165850933
 30
0.0
 41
1.0
 10
25.22903498347294
 20
553.3600165850933
 30
0.0
 41
1.0
 10
25.41361406221071
 20
553.360016585094
 30
0.0
 41
1.0
 10
25.64291688124729
 20
553.3600165850933
 30
0.0
 41
1.0
 10
25.80750377455874
 20
553.3600165850933
 30
0.0
 41
1.0
 10
26.01004893163091
 20
553.3600165850936
 30
0.0
 41
1.0
 10
26.41155031392661
 20
553.3600165850927
 30
0.0
 41
1.0
 10
26.90271708791204
 20
553.3600165850935
 30
0.0
 41
1.0
 10
27.38921666985783
 20
553.3600165850933
 30
0.0
 41
1.0
 10
27.7448922293203
 20
553.3600165850929
 30
0.0
 41
1.0
 10
28.44712597646119
 20
553.3600165850941
 30
0.0
 41
1.0
 10
29.51060662223165
 20
553.3600165850926
 30
0.0
 41
1.0
 10
30.68328362597406
 20
553.3600165850931
 30
0.0
 41
1.0
 10
31.41694419535963
 20
553.3600165850934
 30
0.0
 41
1.0
 10
31.44875581936699
 20
553.3600165850928
 30
0.0
 41
1.0
 10
31.47412608023572
 20
553.3600165850933
 30
0.0
 41
1.0
 10
31.50152257111941
 20
553.3600165850933
 30
0.0
 41
1.0
 10
31.50958454373961
 20
553.3600165850933
 30
0.0
 41
1.0
 10
31.53778213609174
 20
553.3600165850933
 30
0.0
 41
1.0
 10
31.58452467493983
 20
553.3600165850921
 30
0.0
 41
1.0
 10
31.62773352711312
 20
553.3600165850409
 30
0.0
 41
1.0
 10
31.64861709063278
 20
553.3600165850934
 30
0.0
 41
1.0
  0
POLYLINE
  5
C9
330
1F
100
AcDbEntity
  8
Predefinito
100
AcDb2dPolyline
 66
     1
 10
0.0
 20
0.0
 30
0.0
  0
VERTEX
  5
CA
330
C9
100
AcDbEntity
  8
Predefinito
100
AcDbVertex
100
AcDb2dVertex
 10
31.64861709063278
 20
553.3600165850934
 30
0.0
  0
VERTEX
  5
CB
330
C9
100
AcDbEntity
  8
Predefinito
100
AcDbVertex
100
AcDb2dVertex
 10
104.9904716516585
 20
553.3600165850933
 30
0.0
  0
SEQEND
  5
CC
330
C9
100
AcDbEntity
  8
Predefinito
  0
SPLINE
  5
CD
330
1F
100
AcDbEntity
  8
Predefinito
100
AcDbSpline
210
0.0
220
0.0
230
1.0
 70
    12
 71
     2
 72
    16
 73
    13
 74
     0
 42
0.0000000001
 43
0.0000000001
 40
0.0
 40
0.0
 40
0.0
 40
1.544616388015007
 40
1.544616388015007
 40
58.018387153703
 40
58.018387153703
 40
63.13556716349949
 40
63.13556716349949
 40
99.4606189672847
 40
99.4606189672847
 40
99.60163843691953
 40
99.60163843691953
 40
100.387036600317
 40
100.387036600317
 40
100.387036600317
 10
104.9904716516585
 20
553.3600165850933
 30
0.0
 41
1.0
 10
105.9646285225802
 20
553.3600165850934
 30
0.0
 41
0.7163019434246454
 10
105.990128976634
 20
552.3861935334011
 30
0.0
 41
1.0
 10
106.7292844656761
 20
524.1589842259458
 30
0.0
 41
1.0
 10
107.4684399547182
 20
495.9317749184905
 30
0.0
 41
1.0
 10
107.5357838167314
 20
493.3600165850931
 30
0.0
 41
0.9918281755866472
 10
108.2517870815787
 20
490.8890217559045
 30
0.0
 41
1.0
 10
113.306683329869
 20
473.4440978221082
 30
0.0
 41
1.0
 10
118.3615795781593
 20
455.9991738883119
 30
0.0
 41
1.0
 10
118.381334593843
 20
455.9309974651004
 30
0.0
 41
0.9900732216944054
 10
118.381334593843
 20
455.8600165850933
 30
0.0
 41
1.0
 10
118.3813345938431
 20
455.3600165850932
 30
0.0
 41
0.7071067811864973
 10
117.881334593843
 20
455.3600165850932
 30
0.0
 41
1.0
  0
SPLINE
  5
CE
330
1F
100
AcDbEntity
  8
Predefinito
100
AcDbSpline
210
0.0
220
0.0
230
1.0
 70
    24
 71
     2
 72
     6
 73
     3
 74
     0
 42
0.0000000001
 43
0.0000000001
 40
-0.3111266751776184
 40
-0.3111266751776184
 40
-0.3111266751776184
 40
0.0
 40
0.0
 40
0.0
 10
867.3503707221175
 20
556.6400168112682
 30
0.0
 10
867.2403708272046
 20
556.7500166981814
 30
0.0
 10
867.1303709322917
 20
556.8600165850946
 30
0.0
  0
LINE
  5
CF
330
1F
100
AcDbEntity
  8
Predefinito
100
AcDbLine
 10
867.1303709322917
 20
556.8600165850946
 30
0.0
 11
866.971369894773
 21
556.8600165850946
 31
0.0
  0
SPLINE
  5
D0
330
1F
100
AcDbEntity
  8
Predefinito
100
AcDbSpline
210
0.0
220
0.0
230
1.0
 70
    24
 71
     2
 72
     6
 73
     3
 74
     0
 42
0.0000000001
 43
0.0000000001
 40
0.0
 40
0.0
 40
0.0
 40
0.3090169943749288
 40
0.3090169943749288
 40
0.3090169943749288
 10
866.971369894773
 20
556.8600165850946
 30
0.0
 10
866.8168613975856
 20
556.8600165850946
 30
0.0
 10
866.6623529003981
 20
556.8600165850946
 30
0.0
  0
SPLINE
  5
D1
330
1F
100
AcDbEntity
  8
Predefinito
100
AcDbSpline
210
0.0
220
0.0
230
1.0
 70
    24
 71
     2
 72
     6
 73
     3
 74
     0
 42
0.0000000001
 43
0.0000000001
 40
0.0
 40
0.0
 40
0.0
 40
0.4008716961399159
 40
0.4008716961399159
 40
0.4008716961399159
 10
866.6623529003981
 20
556.8600165850946
 30
0.0
 10
866.4619170523281
 20
556.8600165850946
 30
0.0
 10
866.2614812042582
 20
556.8600165850946
 30
0.0
  0
SPLINE
  5
D2
330
1F
100
AcDbEntity
  8
Predefinito
100
AcDbSpline
210
0.0
220
0.0
230
1.0
 70
    24
 71
     2
 72
     6
 73
     3
 74
     0
 42
0.0000000001
 43
0.0000000001
 40
0.0
 40
0.0
 40
0.0
 40
0.5877852522925195
 40
0.5877852522925195
 40
0.5877852522925195
 10
866.2614812042582
 20
556.8600165850946
 30
0.0
 10
865.9675885781119
 20
556.8600165850946
 30
0.0
 10
865.6736959519657
 20
556.8600165850946
 30
0.0
  0
SPLINE
  5
D3
330
1F
100
AcDbEntity
  8
Predefinito
100
AcDbSpline
210
0.0
220
0.0
230
1.0
 70
    24
 71
     2
 72
     6
 73
     3
 74
     0
 42
0.0000000001
 43
0.0000000001
 40
0.0
 40
0.0
 40
0.0
 40
0.6243723049026357
 40
0.6243723049026357
 40
0.6243723049026357
 10
865.6736959519657
 20
556.8600165850946
 30
0.0
 10
865.3615097995144
 20
556.8600165850946
 30
0.0
 10
865.049323647063
 20
556.8600165850946
 30
0.0
  0
SPLINE
  5
D4
330
1F
100
AcDbEntity
  8
Predefinito
100
AcDbSpline
210
0.0
220
0.0
230
1.0
 70
    24
 71
     2
 72
     6
 73
     3
 74
     0
 42
0.0000000001
 43
0.0000000001
 40
0.0
 40
0.0
 40
0.0
 40
0.8090169943749288
 40
0.8090169943749288
 40
0.8090169943749288
 10
865.049323647063
 20
556.8600165850946
 30
0.0
 10
864.6448151498755
 20
556.8600165850946
 30
0.0
 10
864.2403066526881
 20
556.8600165850946
 30
0.0
  0
SPLINE
  5
D5
330
1F
100
AcDbEntity
  8
Predefinito
100
AcDbSpline
210
0.0
220
0.0
230
1.0
 70
    24
 71
     2
 72
     6
 73
     3
 74
     0
 42
0.0000000001
 43
0.0000000001
 40
0.0
 40
0.0
 40
0.0
 40
0.7867550022040177
 40
0.7867550022040177
 40
0.7867550022040177
 10
864.2403066526881
 20
556.8600165850946
 30
0.0
 10
863.8469291515861
 20
556.8600165850946
 30
0.0
 10
863.4535516504841
 20
556.8600165850946
 30
0.0
  0
SPLINE
  5
D6
330
1F
100
AcDbEntity
  8
Predefinito
100
AcDbSpline
210
0.0
220
0.0
230
1.0
 70
    24
 71
     2
 72
     6
 73
     3
 74
     0
 42
0.0000000001
 43
0.0000000001
 40
0.0
 40
0.0
 40
0.0
 40
0.9510565162951252
 40
0.9510565162951252
 40
0.9510565162951252
 10
863.4535516504841
 20
556.8600165850946
 30
0.0
 10
862.9780233923366
 20
556.8600165850946
 30
0.0
 10
862.502495134189
 20
556.8600165850946
 30
0.0
  0
SPLINE
  5
D7
330
1F
100
AcDbEntity
  8
Predefinito
100
AcDbSpline
210
0.0
220
0.0
230
1.0
 70
    24
 71
     2
 72
     6
 73
     3
 74
     0
 42
0.0000000001
 43
0.0000000001
 40
0.0
 40
0.0
 40
0.0
 40
0.8721246382449408
 40
0.8721246382449408
 40
0.8721246382449408
 10
862.502495134189
 20
556.8600165850946
 30
0.0
 10
862.0664328150665
 20
556.8600165850946
 30
0.0
 10
861.630370495944
 20
556.8600165850946
 30
0.0
  0
SPLINE
  5
D8
330
1F
100
AcDbEntity
  8
Predefinito
100
AcDbSpline
210
0.0
220
0.0
230
1.0
 70
    24
 71
     2
 72
     6
 73
     3
 74
     0
 42
0.0000000001
 43
0.0000000001
 40
0.0
 40
0.0
 40
0.0
 40
0.5
 40
0.5
 40
0.5
 10
861.630370495944
 20
556.8600165850946
 30
0.0
 10
861.380370495944
 20
556.8600165850946
 30
0.0
 10
861.130370495944
 20
556.8600165850946
 30
0.0
  0
SPLINE
  5
D9
330
1F
100
AcDbEntity
  8
Predefinito
100
AcDbSpline
210
0.0
220
0.0
230
1.0
 70
    24
 71
     2
 72
     6
 73
     3
 74
     0
 42
0.0000000001
 43
0.0000000001
 40
0.0
 40
0.0
 40
0.0
 40
0.5
 40
0.5
 40
0.5
 10
861.130370495944
 20
556.8600165850946
 30
0.0
 10
860.880370495944
 20
556.8600165850946
 30
0.0
 10
860.630370495944
 20
556.8600165850946
 30
0.0
  0
SPLINE
  5
DA
330
1F
100
AcDbEntity
  8
Predefinito
100
AcDbSpline
210
0.0
220
0.0
230
1.0
 70
    24
 71
     2
 72
     6
 73
     3
 74
     0
 42
0.0000000001
 43
0.0000000001
 40
0.0
 40
0.0
 40
0.0
 40
0.8721246382450545
 40
0.8721246382450545
 40
0.8721246382450545
 10
860.630370495944
 20
556.8600165850946
 30
0.0
 10
860.1943081768216
 20
556.8600165850946
 30
0.0
 10
859.758245857699
 20
556.8600165850946
 30
0.0
  0
SPLINE
  5
DB
330
1F
100
AcDbEntity
  8
Predefinito
100
AcDbSpline
210
0.0
220
0.0
230
1.0
 70
    24
 71
     2
 72
     6
 73
     3
 74
     0
 42
0.0000000001
 43
0.0000000001
 40
0.0
 40
0.0
 40
0.0
 40
0.9510565162951252
 40
0.9510565162951252
 40
0.9510565162951252
 10
859.758245857699
 20
556.8600165850946
 30
0.0
 10
859.2827175995515
 20
556.8600165850946
 30
0.0
 10
858.8071893414038
 20
556.8600165850946
 30
0.0
  0
SPLINE
  5
DC
330
1F
100
AcDbEntity
  8
Predefinito
100
AcDbSpline
210
0.0
220
0.0
230
1.0
 70
    24
 71
     2
 72
     6
 73
     3
 74
     0
 42
0.0000000001
 43
0.0000000001
 40
0.0
 40
0.0
 40
0.0
 40
0.786755002203904
 40
0.786755002203904
 40
0.786755002203904
 10
858.8071893414038
 20
556.8600165850946
 30
0.0
 10
858.4138118403018
 20
556.8600165850946
 30
0.0
 10
858.0204343391999
 20
556.8600165850946
 30
0.0
  0
SPLINE
  5
DD
330
1F
100
AcDbEntity
  8
Predefinito
100
AcDbSpline
210
0.0
220
0.0
230
1.0
 70
    24
 71
     2
 72
     6
 73
     3
 74
     0
 42
0.0000000001
 43
0.0000000001
 40
0.0
 40
0.0
 40
0.0
 40
0.8090169943749288
 40
0.8090169943749288
 40
0.8090169943749288
 10
858.0204343391999
 20
556.8600165850946
 30
0.0
 10
857.6159258420125
 20
556.8600165850946
 30
0.0
 10
857.211417344825
 20
556.8600165850946
 30
0.0
  0
SPLINE
  5
DE
330
1F
100
AcDbEntity
  8
Predefinito
100
AcDbSpline
210
0.0
220
0.0
230
1.0
 70
    24
 71
     2
 72
     6
 73
     3
 74
     0
 42
0.0000000001
 43
0.0000000001
 40
0.0
 40
0.0
 40
0.0
 40
0.6243723049026357
 40
0.6243723049026357
 40
0.6243723049026357
 10
857.211417344825
 20
556.8600165850946
 30
0.0
 10
856.8992311923737
 20
556.8600165850946
 30
0.0
 10
856.5870450399224
 20
556.8600165850946
 30
0.0
  0
SPLINE
  5
DF
330
1F
100
AcDbEntity
  8
Predefinito
100
AcDbSpline
210
0.0
220
0.0
230
1.0
 70
    24
 71
     2
 72
     6
 73
     3
 74
     0
 42
0.0000000001
 43
0.0000000001
 40
0.0
 40
0.0
 40
0.0
 40
0.5877852522925195
 40
0.5877852522925195
 40
0.5877852522925195
 10
856.5870450399224
 20
556.8600165850946
 30
0.0
 10
856.2931524137762
 20
556.8600165850946
 30
0.0
 10
855.9992597876299
 20
556.8600165850946
 30
0.0
  0
SPLINE
  5
E0
330
1F
100
AcDbEntity
  8
Predefinito
100
AcDbSpline
210
0.0
220
0.0
230
1.0
 70
    24
 71
     2
 72
     6
 73
     3
 74
     0
 42
0.0000000001
 43
0.0000000001
 40
0.0
 40
0.0
 40
0.0
 40
0.4008716961399159
 40
0.4008716961399159
 40
0.4008716961399159
 10
855.9992597876299
 20
556.8600165850946
 30
0.0
 10
855.79882393956
 20
556.8600165850946
 30
0.0
 10
855.5983880914899
 20
556.8600165850946
 30
0.0
  0
SPLINE
  5
E1
330
1F
100
AcDbEntity
  8
Predefinito
100
AcDbSpline
210
0.0
220
0.0
230
1.0
 70
    24
 71
     2
 72
     6
 73
     3
 74
     0
 42
0.0000000001
 43
0.0000000001
 40
0.0
 40
0.0
 40
0.0
 40
0.3090169943749288
 40
0.3090169943749288
 40
0.3090169943749288
 10
855.5983880914899
 20
556.8600165850946
 30
0.0
 10
855.4438795943024
 20
556.8600165850946
 30
0.0
 10
855.289371097115
 20
556.8600165850946
 30
0.0
  0
LINE
  5
E2
330
1F
100
AcDbEntity
  8
Predefinito
100
AcDbLine
 10
855.289371097115
 20
556.8600165850946
 30
0.0
 11
855.1303700503347
 21
556.8600165850946
 31
0.0
  0
LINE
  5
E3
330
1F
100
AcDbEntity
  8
Predefinito
100
AcDbLine
 10
855.1303700503347
 20
556.8600165850946
 30
0.0
 11
854.91037026497
 21
556.6400168160686
 31
0.0
  0
SPLINE
  5
E4
330
1F
100
AcDbEntity
  8
Predefinito
100
AcDbSpline
210
0.0
220
0.0
230
1.0
 70
    24
 71
     2
 72
     6
 73
     3
 74
     0
 42
0.0000000001
 43
0.0000000001
 40
-3.279999999999859
 40
-3.279999999999859
 40
-3.279999999999859
 40
0.0
 40
0.0
 40
0.0
 10
854.910370495944
 20
553.3600165850947
 30
0.0
 10
854.910370495944
 20
555.0000165850947
 30
0.0
 10
854.910370495944
 20
556.6400165850946
 30
0.0
  0
LINE
  5
E5
330
1F
100
AcDbEntity
  8
Predefinito
100
AcDbLine
 10
854.910370495944
 20
556.6400165850946
 30
0.0
 11
861.1303704959596
 21
556.6400165850946
 31
0.0
  0
SPLINE
  5
E6
330
1F
100
AcDbEntity
  8
Predefinito
100
AcDbSpline
210
0.0
220
0.0
230
1.0
 70
    24
 71
     2
 72
     6
 73
     3
 74
     0
 42
0.0000000001
 43
0.0000000001
 40
0.0
 40
0.0
 40
0.0
 40
6.219999999984452
 40
6.219999999984452
 40
6.219999999984452
 10
861.1303704959596
 20
556.6400165850946
 30
0.0
 10
864.2403704959518
 20
556.6400165850946
 30
0.0
 10
867.350370495944
 20
556.6400165850946
 30
0.0
  0
SPLINE
  5
E7
330
1F
100
AcDbEntity
  8
Predefinito
100
AcDbSpline
210
0.0
220
0.0
230
1.0
 70
    24
 71
     2
 72
     6
 73
     3
 74
     0
 42
0.0000000001
 43
0.0000000001
 40
-3.279999999999745
 40
-3.279999999999745
 40
-3.279999999999745
 40
0.0
 40
0.0
 40
0.0
 10
867.350370495944
 20
556.6400165850946
 30
0.0
 10
867.350370495944
 20
555.0000165850947
 30
0.0
 10
867.350370495944
 20
553.3600165850949
 30
0.0
  0
SPLINE
  5
E8
330
1F
100
AcDbEntity
  8
Predefinito
100
AcDbSpline
210
0.0
220
0.0
230
1.0
 70
     8
 71
     3
 72
    22
 73
    18
 74
     0
 42
0.0000000001
 43
0.0000000001
 40
-100.3853336292963
 40
-100.3853336292963
 40
-100.3853336292963
 40
-100.3853336292963
 40
-100.1222738123697
 40
-99.91787194902744
 40
-99.70136830189304
 40
-99.46124449831987
 40
-68.79144322929616
 40
-63.23150045951603
 40
-63.00727440388275
 40
-60.12306446683928
 40
-58.05157057899289
 40
-57.97004253519351
 40
-57.85071629387838
 40
-1.553375941549196
 40
-1.525704736381675
 40
-0.7732646895054709
 40
0.0
 40
0.0
 40
0.0
 40
0.0
 10
914.0189239423391
 20
455.3600165851092
 30
0.0
 10
914.1066570357785
 20
455.3601354625744
 30
0.0
 10
914.2618999296843
 20
455.4032669589301
 30
0.0
 10
914.4263022608443
 20
455.5548703950126
 30
0.0
 10
914.5505338300384
 20
455.7710673257368
 30
0.0
 10
911.6857602698906
 20
465.7430310997362
 30
0.0
 10
908.2913920155733
 20
477.4163438414216
 30
0.0
 10
904.910714981037
 20
489.0878096799883
 30
0.0
 10
904.10751345906
 20
491.8634466632089
 30
0.0
 10
903.7578075269756
 20
493.5588911506275
 30
0.0
 10
903.6239817038045
 20
495.2348870014096
 30
0.0
 10
903.6044405133749
 20
495.9920862032876
 30
0.0
 10
903.1115732497228
 20
514.8184597052862
 30
0.0
 10
902.6187812832558
 20
533.6265342389559
 30
0.0
 10
902.121010756166
 20
552.6460918195526
 30
0.0
 10
901.892299596219
 20
553.1521254133527
 30
0.0
 10
901.3856713169697
 20
553.360342218583
 30
0.0
 10
901.1280587162514
 20
553.3600165850944
 30
0.0
  0
SPLINE
  5
E9
330
1F
100
AcDbEntity
  8
Predefinito
100
AcDbSpline
210
0.0
220
0.0
230
1.0
 70
    24
 71
     2
 72
     6
 73
     3
 74
     0
 42
0.0000000001
 43
0.0000000001
 40
0.0
 40
0.0
 40
0.0
 40
39.99768783502589
 40
39.99768783502589
 40
39.99768783502589
 10
901.1280587162514
 20
553.3600165850944
 30
0.0
 10
881.1292146060978
 20
553.3600165850945
 30
0.0
 10
861.1303704959441
 20
553.3600165850946
 30
0.0
  0
SPLINE
  5
EA
330
1F
100
AcDbEntity
  8
Predefinito
100
AcDbSpline
210
0.0
220
0.0
230
1.0
 70
    24
 71
     2
 72
     6
 73
     3
 74
     0
 42
0.0000000001
 43
0.0000000001
 40
0.0
 40
0.0
 40
0.0
 40
39.99768782330057
 40
39.99768782330057
 40
39.99768782330057
 10
861.1303704959441
 20
553.3600165850946
 30
0.0
 10
841.1315259093317
 20
553.3600165850937
 30
0.0
 10
821.1326813227192
 20
553.3600165850928
 30
0.0
  0
SPLINE
  5
EB
330
1F
100
AcDbEntity
  8
Predefinito
100
AcDbSpline
210
0.0
220
0.0
230
1.0
 70
     8
 71
     3
 72
    24
 73
    20
 74
     0
 42
0.0000000001
 43
0.0000000001
 40
-100.385940629058
 40
-100.385940629058
 40
-100.385940629058
 40
-100.385940629058
 40
-100.3550363343028
 40
-99.91652810309188
 40
-99.58646334523561
 40
-98.84769996719092
 40
-98.83797033005965
 40
-84.75832594207075
 40
-42.41599443651211
 40
-42.3344663927159
 40
-40.31423661949903
 40
-37.37876432679174
 40
-37.12959264258156
 40
-27.98804713505649
 40
-0.919308089307629
 40
-0.7403518539935331
 40
-0.4553459320629816
 40
-0.2479900269741042
 40
0.0
 40
0.0
 40
0.0
 40
0.0
 10
821.1326813227192
 20
553.3600165850928
 30
0.0
 10
821.1223794517628
 20
553.3600177566341
 30
0.0
 10
820.9658912000167
 20
553.3575896131036
 30
0.0
 10
820.7015621768458
 20
553.2898492089588
 30
0.0
 10
820.2911389748266
 20
552.9878820576841
 30
0.0
 10
820.1395625440406
 20
552.6348123705741
 30
0.0
 10
820.0100730876271
 20
547.6937713834869
 30
0.0
 10
819.5180111615836
 20
528.889611766779
 30
0.0
 10
819.024413911972
 20
510.0616369555524
 30
0.0
 10
818.6370864123053
 20
495.2519577362002
 30
0.0
 10
818.5049938575601
 20
493.5760791545024
 30
0.0
 10
818.1568567331653
 20
491.8715170868851
 30
0.0
 10
817.0099103567206
 20
487.9260655616845
 30
0.0
 10
813.6403722410447
 20
476.2495079723278
 30
0.0
 10
810.2420462229078
 20
464.6052561972826
 30
0.0
 10
807.7081854752404
 20
455.7846156491684
 30
0.0
 10
807.8146561675375
 20
455.5615740947072
 30
0.0
 10
808.0078465355966
 20
455.3995398069774
 30
0.0
 10
808.1591092300717
 20
455.360175356317
 30
0.0
 10
808.2418190175026
 20
455.3600165850959
 30
0.0
  0
SPLINE
  5
EC
330
1F
100
AcDbEntity
  8
Predefinito
100
AcDbSpline
210
0.0
220
0.0
230
1.0
 70
    24
 71
     2
 72
     6
 73
     3
 74
     0
 42
0.0000000001
 43
0.0000000001
 40
0.0
 40
0.0
 40
0.0
 40
52.88850005757968
 40
52.88850005757968
 40
52.88850005757968
 10
808.2418190175026
 20
455.3600165850959
 30
0.0
 10
834.6860821160342
 20
455.3600165850953
 30
0.0
 10
861.1303452145658
 20
455.3600165850946
 30
0.0
  0
SPLINE
  5
ED
330
1F
100
AcDbEntity
  8
Predefinito
100
AcDbSpline
210
0.0
220
0.0
230
1.0
 70
    24
 71
     2
 72
     6
 73
     3
 74
     0
 42
0.0000000001
 43
0.0000000001
 40
-52.88855072092269
 40
-52.88855072092269
 40
-52.88855072092269
 40
0.0
 40
0.0
 40
0.0
 10
861.1303452145658
 20
455.3600165850946
 30
0.0
 10
887.5746345784524
 20
455.3600165851019
 30
0.0
 10
914.0189239423391
 20
455.3600165851092
 30
0.0
  0
SPLINE
  5
EE
330
1F
100
AcDbEntity
  8
Predefinito
100
AcDbSpline
210
0.0
220
0.0
230
1.0
 70
    12
 71
     2
 72
     6
 73
     3
 74
     0
 42
0.0000000001
 43
0.0000000001
 40
0.0
 40
0.0
 40
0.0
 40
80.35987413048973
 40
80.35987413048973
 40
80.35987413048973
 10
807.8566802982623
 20
68.49278381678529
 30
0.0
 41
1.0
 10
811.1346080367289
 20
118.3809785729912
 30
0.0
 41
0.729921643132344
 10
861.1303757192537
 20
118.3813345938429
 30
0.0
 41
1.0
  0
SPLINE
  5
EF
330
1F
100
AcDbEntity
  8
Predefinito
100
AcDbSpline
210
0.0
220
0.0
230
1.0
 70
    12
 71
     2
 72
     8
 73
     5
 74
     0
 42
0.0000000001
 43
0.0000000001
 40
0.0
 40
0.0
 40
0.0
 40
83.86250757814686
 40
83.86250757814686
 40
167.7250151562937
 40
167.7250151562937
 40
167.7250151562937
 10
861.1303757192537
 20
118.3813345938429
 30
0.0
 41
1.0
 10
914.5188946209169
 20
118.3813027184034
 30
0.0
 41
0.7071069922744043
 10
914.5188946209167
 20
64.99278381673088
 30
0.0
 41
1.0
 10
914.5188946209169
 20
11.60426491505832
 30
0.0
 41
0.7071069922744043
 10
861.1303757192538
 20
11.60423303961882
 30
0.0
 41
1.0
  0
SPLINE
  5
F0
330
1F
100
AcDbEntity
  8
Predefinito
100
AcDbSpline
210
0.0
220
0.0
230
1.0
 70
    12
 71
     2
 72
     6
 73
     3
 74
     0
 42
0.0000000001
 43
0.0000000001
 40
0.0
 40
0.0
 40
0.0
 40
80.36002459932344
 40
80.36002459932344
 40
80.36002459932344
 10
861.1303757192538
 20
11.60423303961882
 30
0.0
 41
1.0
 10
811.1343022711357
 20
11.60426408389516
 30
0.0
 41
0.7299173497759283
 10
807.8566569177741
 20
61.49278381707802
 30
0.0
 41
1.0
  0
SPLINE
  5
F1
330
1F
100
AcDbEntity
  8
Predefinito
100
AcDbSpline
210
0.0
220
0.0
230
1.0
 70
    12
 71
     2
 72
     8
 73
     5
 74
     0
 42
0.0000000001
 43
0.0000000001
 40
0.0
 40
0.0
 40
0.0
 40
55.39976074961999
 40
55.39976074961999
 40
114.3046230044286
 40
114.3046230044286
 40
114.3046230044286
 10
823.7940663141019
 20
61.49278381633535
 30
0.0
 41
1.0
 10
826.9813122392617
 20
27.49278381673133
 30
0.0
 41
0.7393691004308661
 10
861.1303757192537
 20
27.49278381673123
 30
0.0
 41
1.0
 10
898.6303757192536
 20
27.49278381673125
 30
0.0
 41
0.7071067811865471
 10
898.6303757192537
 20
64.99278381673126
 30
0.0
 41
1.0
  0
SPLINE
  5
F2
330
1F
100
AcDbEntity
  8
Predefinito
100
AcDbSpline
210
0.0
220
0.0
230
1.0
 70
    12
 71
     2
 72
     8
 73
     5
 74
     0
 42
0.0000000001
 43
0.0000000001
 40
0.0
 40
0.0
 40
0.0
 40
58.90486225480866
 40
58.90486225480866
 40
114.3046230054862
 40
114.3046230054862
 40
114.3046230054862
 10
898.6303757192537
 20
64.99278381673126
 30
0.0
 41
1.0
 10
898.6303757192538
 20
102.4927838167314
 30
0.0
 41
0.7071067811865455
 10
861.1303757192537
 20
102.4927838167312
 30
0.0
 41
1.0
 10
826.9813122382943
 20
102.4927838167312
 30
0.0
 41
0.7393691004213716
 10
823.7940663140031
 20
68.49278381607431
 30
0.0
 41
1.0
  0
SPLINE
  5
F3
330
1F
100
AcDbEntity
  8
Predefinito
100
AcDbSpline
210
0.0
220
0.0
230
1.0
 70
    12
 71
     2
 72
     8
 73
     5
 74
     0
 42
0.0000000001
 43
0.0000000001
 40
0.0
 40
0.0
 40
0.0
 40
88.74429099416909
 40
88.74429099416909
 40
177.4885819883382
 40
177.4885819883382
 40
177.4885819883382
 10
665.7275190364705
 20
64.99278381673322
 30
0.0
 41
1.0
 10
665.7203576675189
 20
8.49899208314579
 30
0.0
 41
0.7071511836485326
 10
609.226565480069
 20
8.499058223242344
 30
0.0
 41
1.0
 10
552.732773292619
 20
8.499124363338897
 30
0.0
 41
0.7071511836485326
 10
552.7257442038594
 20
64.9929161135398
 30
0.0
 41
1.0
  0
SPLINE
  5
F4
330
1F
100
AcDbEntity
  8
Predefinito
100
AcDbSpline
210
0.0
220
0.0
230
1.0
 70
    12
 71
     2
 72
     8
 73
     5
 74
     0
 42
0.0000000001
 43
0.0000000001
 40
0.0
 40
0.0
 40
0.0
 40
88.75043286503208
 40
88.75043286503208
 40
177.5008657300642
 40
177.5008657300642
 40
177.5008657300642
 10
552.7257442038594
 20
64.9929161135398
 30
0.0
 41
1.0
 10
552.7267638969063
 20
121.4928499749227
 30
0.0
 41
0.7071127480592663
 10
609.2266977674519
 20
121.4927838276357
 30
0.0
 41
1.0
 10
665.7266316379976
 20
121.4927176803488
 30
0.0
 41
0.7071127480592663
 10
665.7275190364705
 20
64.99278381673322
 30
0.0
 41
1.0
  0
SPLINE
  5
F5
330
1F
100
AcDbEntity
  8
Predefinito
100
AcDbSpline
210
0.0
220
0.0
230
1.0
 70
    12
 71
     2
 72
     8
 73
     5
 74
     0
 42
0.0000000001
 43
0.0000000001
 40
0.0
 40
0.0
 40
0.0
 40
91.38818639381087
 40
91.38818639381087
 40
182.7763727876217
 40
182.7763727876217
 40
182.7763727876217
 10
667.4107832600764
 20
64.99278381673322
 30
0.0
 41
1.0
 10
667.4034085375648
 20
6.815912817995446
 30
0.0
 41
0.707151183648532
 10
609.2265370714427
 20
6.815980928556741
 30
0.0
 41
1.0
 10
551.049665605321
 20
6.81604903911807
 30
0.0
 41
0.707151183648532
 10
551.0424271039308
 20
64.99292005496427
 30
0.0
 41
1.0
  0
SPLINE
  5
F6
330
1F
100
AcDbEntity
  8
Predefinito
100
AcDbSpline
210
0.0
220
0.0
230
1.0
 70
    12
 71
     2
 72
     8
 73
     5
 74
     0
 42
0.0000000001
 43
0.0000000001
 40
0.0
 40
0.0
 40
0.0
 40
91.39451124505449
 40
91.39451124505449
 40
182.789022490109
 40
182.789022490109
 40
182.789022490109
 10
551.0424271039308
 20
64.99292005496427
 30
0.0
 41
1.0
 10
551.0434771759656
 20
123.1761161695326
 30
0.0
 41
0.7071127480592657
 10
609.2266732999697
 20
123.1760480515667
 30
0.0
 41
1.0
 10
667.4098694239738
 20
123.1759799336008
 30
0.0
 41
0.7071127480592657
 10
667.4107832600764
 20
64.99278381673322
 30
0.0
 41
1.0
  0
SPLINE
  5
F7
330
1F
100
AcDbEntity
  8
Predefinito
100
AcDbSpline
210
0.0
220
0.0
230
1.0
 70
    12
 71
     2
 72
     8
 73
     5
 74
     0
 42
0.0000000001
 43
0.0000000001
 40
0.0
 40
0.0
 40
0.0
 40
102.09520202869
 40
102.09520202869
 40
204.1904040573799
 40
204.1904040573799
 40
204.1904040573799
 10
674.2275190364705
 20
64.99278381673321
 30
0.0
 41
1.0
 10
674.2192802934289
 20
-0.0000739298716627
 30
0.0
 41
0.7071511836485329
 10
609.2264220246811
 20
0.0000021605049199
 30
0.0
 41
1.0
 10
544.2335637559336
 20
0.0000782508814848
 30
0.0
 41
0.7071511836485329
 10
544.2254771936437
 20
64.99293601659923
 30
0.0
 41
1.0
  0
SPLINE
  5
F8
330
1F
100
AcDbEntity
  8
Predefinito
100
AcDbSpline
210
0.0
220
0.0
230
1.0
 70
    12
 71
     2
 72
     8
 73
     5
 74
     0
 42
0.0000000001
 43
0.0000000001
 40
0.0
 40
0.0
 40
0.0
 40
102.1022678978248
 40
102.1022678978248
 40
204.2045357956496
 40
204.2045357956496
 40
204.2045357956496
 10
544.2254771936437
 20
64.99293601659924
 30
0.0
 41
1.0
 10
544.2266502918388
 20
129.9928599279249
 30
0.0
 41
0.707112748059266
 10
609.2265742137058
 20
129.9927838292761
 30
0.0
 41
1.0
 10
674.2264981355727
 20
129.9927077306274
 30
0.0
 41
0.707112748059266
 10
674.2275190364705
 20
64.99278381673321
 30
0.0
 41
1.0
  0
SPLINE
  5
F9
330
1F
100
AcDbEntity
  8
Predefinito
100
AcDbSpline
210
0.0
220
0.0
230
1.0
 70
    12
 71
     2
 72
     8
 73
     5
 74
     0
 42
0.0000000001
 43
0.0000000001
 40
0.0
 40
0.0
 40
0.0
 40
91.10033411790798
 40
91.10033411790798
 40
182.200668235816
 40
182.200668235816
 40
182.200668235816
 10
551.2256970844097
 20
64.99291962584444
 30
0.0
 41
1.0
 10
551.2329127861453
 20
6.999292696434755
 30
0.0
 41
0.7071511836485331
 10
609.2265401644123
 20
6.999224800406402
 30
0.0
 41
1.0
 10
667.2201675426795
 20
6.999156904378061
 30
0.0
 41
0.7071511836485331
 10
667.2275190364707
 20
64.9927838167332
 30
0.0
 41
1.0
  0
SPLINE
  5
FA
330
1F
100
AcDbEntity
  8
Predefinito
100
AcDbSpline
210
0.0
220
0.0
230
1.0
 70
    12
 71
     2
 72
     8
 73
     5
 74
     0
 42
0.0000000001
 43
0.0000000001
 40
-182.2132780945796
 40
-182.2132780945796
 40
-182.2132780945796
 40
-91.1066390472898
 40
-91.1066390472898
 40
0.0
 40
0.0
 40
0.0
 10
667.2275190364705
 20
64.99278381673321
 30
0.0
 41
1.0
 10
667.2266080787462
 20
122.9927159245157
 30
0.0
 41
0.7071127480592656
 10
609.2266759638497
 20
122.9927838279254
 30
0.0
 41
1.0
 10
551.226743848953
 20
122.992851731335
 30
0.0
 41
0.7071127480592656
 10
551.2256970844097
 20
64.99291962584444
 30
0.0
 41
1.0
  0
SPLINE
  5
FB
330
1F
100
AcDbEntity
  8
Predefinito
100
AcDbSpline
210
0.0
220
0.0
230
1.0
 70
    24
 71
     2
 72
     6
 73
     3
 74
     0
 42
0.0000000001
 43
0.0000000001
 40
0.0
 40
0.0
 40
0.0
 40
163.8028745482615
 40
163.8028745482615
 40
163.8028745482615
 10
674.1330825115249
 20
68.49278381761438
 30
0.0
 10
756.0345197856557
 20
68.4927838162302
 30
0.0
 10
837.9359570597863
 20
68.49278381484602
 30
0.0
  0
SPLINE
  5
FC
330
1F
100
AcDbEntity
  8
Predefinito
100
AcDbSpline
210
0.0
220
0.0
230
1.0
 70
    24
 71
     2
 72
     6
 73
     3
 74
     0
 42
0.0000000001
 43
0.0000000001
 40
0.0
 40
0.0
 40
0.0
 40
163.8028867203162
 40
163.8028867203162
 40
163.8028867203162
 10
837.9359570602085
 20
61.49278381761643
 30
0.0
 10
756.0345137000504
 20
61.49278381764154
 30
0.0
 10
674.1330703398922
 20
61.49278381766664
 30
0.0
  0
SPLINE
  5
FD
330
1F
100
AcDbEntity
  8
Predefinito
100
AcDbSpline
210
0.0
220
0.0
230
1.0
 70
    12
 71
     2
 72
     8
 73
     5
 74
     0
 42
0.0000000001
 43
0.0000000001
 40
0.0
 40
0.0
 40
0.0
 40
14.13716694115414
 40
14.13716694115414
 40
28.27433388230823
 40
28.27433388230823
 40
28.27433388230823
 10
855.2275190364709
 20
64.99278381673143
 30
0.0
 41
1.0
 10
855.2275190364708
 20
73.99278381673149
 30
0.0
 41
0.7071067811865447
 10
846.2275190364709
 20
73.9927838167315
 30
0.0
 41
1.0
 10
837.2275190364708
 20
73.99278381673145
 30
0.0
 41
0.7071067811865492
 10
837.2275190364709
 20
64.99278381673143
 30
0.0
 41
1.0
  0
SPLINE
  5
FE
330
1F
100
AcDbEntity
  8
Predefinito
100
AcDbSpline
210
0.0
220
0.0
230
1.0
 70
    12
 71
     2
 72
     8
 73
     5
 74
     0
 42
0.0000000001
 43
0.0000000001
 40
0.0
 40
0.0
 40
0.0
 40
14.1371669411541
 40
14.1371669411541
 40
28.27433388230816
 40
28.27433388230816
 40
28.27433388230816
 10
837.2275190364709
 20
64.99278381673143
 30
0.0
 41
1.0
 10
837.2275190364707
 20
55.99278381673133
 30
0.0
 41
0.7071067811865391
 10
846.2275190364709
 20
55.99278381673145
 30
0.0
 41
1.0
 10
855.2275190364709
 20
55.99278381673142
 30
0.0
 41
0.7071067811865465
 10
855.2275190364709
 20
64.99278381673143
 30
0.0
 41
1.0
  0
SPLINE
  5
FF
330
1F
100
AcDbEntity
  8
Predefinito
100
AcDbSpline
210
0.0
220
0.0
230
1.0
 70
    12
 71
     2
 72
     6
 73
     3
 74
     0
 42
0.0000000001
 43
0.0000000001
 40
0.0
 40
0.0
 40
0.0
 40
6.517016827080119
 40
6.517016827080119
 40
6.517016827080119
 10
854.5190810557799
 20
68.49278371408582
 30
0.0
 41
1.0
 10
857.7775894693197
 20
68.49278508534273
 30
0.0
 41
0.9999999999999191
 10
861.0360978885525
 20
68.49278383314947
 30
0.0
 41
1.0
  0
SPLINE
  5
100
330
1F
100
AcDbEntity
  8
Predefinito
100
AcDbSpline
210
0.0
220
0.0
230
1.0
 70
    24
 71
     2
 72
     6
 73
     3
 74
     0
 42
0.0000000001
 43
0.0000000001
 40
0.0
 40
0.0
 40
0.0
 40
0.0940596563639257
 40
0.0940596563639257
 40
0.0940596563639257
 10
861.0360978885525
 20
68.49278383314947
 30
0.0
 10
861.0831276552958
 20
68.49278382461678
 30
0.0
 10
861.1301574220392
 20
68.49278381608408
 30
0.0
  0
SPLINE
  5
101
330
1F
100
AcDbEntity
  8
Predefinito
100
AcDbSpline
210
0.0
220
0.0
230
1.0
 70
    12
 71
     2
 72
     6
 73
     3
 74
     0
 42
0.0000000001
 43
0.0000000001
 40
-2.54936010393364
 40
-2.54936010393364
 40
-2.54936010393364
 40
0.0
 40
0.0
 40
0.0
 10
861.1301574220392
 20
68.49278381608408
 30
0.0
 41
0.99999999323587
 10
862.4643538807634
 20
68.49282996476391
 30
0.0
 41
0.9344110100689893
 10
863.4601098525534
 20
67.6046574039764
 30
0.0
 41
1.0
  0
SPLINE
  5
102
330
1F
100
AcDbEntity
  8
Predefinito
100
AcDbSpline
210
0.0
220
0.0
230
1.0
 70
    12
 71
     2
 72
     8
 73
     5
 74
     0
 42
0.0000000001
 43
0.0000000001
 40
-8.445793148393612
 40
-8.445793148393612
 40
-8.445793148393612
 40
-2.948006243241536
 40
-2.948006243241536
 40
0.0
 40
0.0
 40
0.0
 10
863.4601098525534
 20
67.6046574039764
 30
0.0
 41
1.0
 10
866.0719917024785
 20
65.27466663021931
 30
0.0
 41
0.7071068918271094
 10
863.7420766468929
 20
62.66286801924175
 30
0.0
 41
1.0
 10
862.6984024259866
 20
61.49292542117536
 30
0.0
 41
0.9126219127885914
 10
861.1304441683776
 20
61.49278382363798
 30
0.0
 41
1.0
  0
SPLINE
  5
103
330
1F
100
AcDbEntity
  8
Predefinito
100
AcDbSpline
210
0.0
220
0.0
230
1.0
 70
    24
 71
     2
 72
     6
 73
     3
 74
     0
 42
0.0000000001
 43
0.0000000001
 40
0.0
 40
0.0
 40
0.0
 40
0.074064411341624
 40
0.074064411341624
 40
0.074064411341624
 10
861.1304441683776
 20
61.49278382363798
 30
0.0
 10
861.09333677541
 20
61.49278381717832
 30
0.0
 10
861.0562293824423
 20
61.49278381071866
 30
0.0
  0
SPLINE
  5
104
330
1F
100
AcDbEntity
  8
Predefinito
100
AcDbSpline
210
0.0
220
0.0
230
1.0
 70
    12
 71
     2
 72
     6
 73
     3
 74
     0
 42
0.0000000001
 43
0.0000000001
 40
0.0
 40
0.0
 40
0.0
 40
6.537148377264912
 40
6.537148377264912
 40
6.537148377264912
 10
861.0562293824423
 20
61.49278381071866
 30
0.0
 41
1.0
 10
857.7876551963514
 20
61.49278330790496
 30
0.0
 41
0.9999999999999881
 10
854.5190810102603
 20
61.4927838112751
 30
0.0
 41
1.0
  0
SPLINE
  5
105
330
1F
100
AcDbEntity
  8
Predefinito
100
AcDbSpline
210
0.0
220
0.0
230
1.0
 70
    12
 71
     2
 72
     6
 73
     3
 74
     0
 42
0.0000000001
 43
0.0000000001
 40
0.0
 40
0.0
 40
0.0
 40
6.052973265644819
 40
6.052973265644819
 40
6.052973265644819
 10
855.9885472465214
 20
61.49278382287415
 30
0.0
 41
1.0
 10
857.84002869039
 20
58.77278381672296
 30
0.0
 41
0.8839403157568138
 10
861.1303757192693
 20
58.77278381673129
 30
0.0
 41
1.0
  0
SPLINE
  5
106
330
1F
100
AcDbEntity
  8
Predefinito
100
AcDbSpline
210
0.0
220
0.0
230
1.0
 70
    12
 71
     2
 72
     6
 73
     3
 74
     0
 42
0.0000000001
 43
0.0000000001
 40
0.0
 40
0.0
 40
0.0
 40
9.770353152648754
 40
9.770353152648754
 40
9.770353152648754
 10
861.1303757192693
 20
58.77278381673129
 30
0.0
 41
1.0
 10
867.3503757192539
 20
58.77278381674672
 30
0.0
 41
0.7071067811874223
 10
867.3503757192537
 20
64.99278381673126
 30
0.0
 41
1.0
  0
SPLINE
  5
107
330
1F
100
AcDbEntity
  8
Predefinito
100
AcDbSpline
210
0.0
220
0.0
230
1.0
 70
    12
 71
     2
 72
     6
 73
     3
 74
     0
 42
0.0000000001
 43
0.0000000001
 40
0.0
 40
0.0
 40
0.0
 40
9.770353152664356
 40
9.770353152664356
 40
9.770353152664356
 10
867.3503757192537
 20
64.99278381673126
 30
0.0
 41
1.0
 10
867.3503757192539
 20
71.21278381673149
 30
0.0
 41
0.707106781186524
 10
861.1303757192537
 20
71.21278381673125
 30
0.0
 41
1.0
  0
SPLINE
  5
108
330
1F
100
AcDbEntity
  8
Predefinito
100
AcDbSpline
210
0.0
220
0.0
230
1.0
 70
    12
 71
     2
 72
     6
 73
     3
 74
     0
 42
0.0000000001
 43
0.0000000001
 40
0.0
 40
0.0
 40
0.0
 40
6.052973237485386
 40
6.052973237485386
 40
6.052973237485386
 10
861.1303757192537
 20
71.21278381673125
 30
0.0
 41
1.0
 10
857.8400287083945
 20
71.21278381673119
 30
0.0
 41
0.8839403168153023
 10
855.988547262358
 20
68.49278383385376
 30
0.0
 41
1.0
  0
SPLINE
  5
109
330
1F
100
AcDbEntity
  8
Predefinito
100
AcDbSpline
210
0.0
220
0.0
230
1.0
 70
    12
 71
     2
 72
     6
 73
     3
 74
     0
 42
0.0000000001
 43
0.0000000001
 40
0.0
 40
0.0
 40
0.0
 40
0.53353213838525
 40
0.53353213838525
 40
0.53353213838525
 10
856.2569785778325
 20
68.49278385987239
 30
0.0
 41
1.0
 10
856.412694739249
 20
68.70960291317687
 30
0.0
 41
0.999011772035442
 10
856.5870502632321
 20
68.91173696785025
 30
0.0
 41
1.0
  0
SPLINE
  5
10A
330
1F
100
AcDbEntity
  8
Predefinito
100
AcDbSpline
210
0.0
220
0.0
230
1.0
 70
    12
 71
     2
 72
     6
 73
     3
 74
     0
 42
0.0000000001
 43
0.0000000001
 40
0.0
 40
0.0
 40
0.0
 40
0.8837945528264726
 40
0.8837945528264726
 40
0.8837945528264726
 10
856.5870502632321
 20
68.91173696785025
 30
0.0
 41
1.0
 10
856.8762023847072
 20
69.24695715127767
 30
0.0
 41
0.9972890978998261
 10
857.2114225681347
 20
69.53610927275295
 30
0.0
 41
1.0
  0
SPLINE
  5
10B
330
1F
100
AcDbEntity
  8
Predefinito
100
AcDbSpline
210
0.0
220
0.0
230
1.0
 70
    12
 71
     2
 72
     6
 73
     3
 74
     0
 42
0.0000000001
 43
0.0000000001
 40
0.0
 40
0.0
 40
0.0
 40
1.001161039327353
 40
1.001161039327353
 40
1.001161039327353
 10
857.2114225681347
 20
69.53610927275295
 30
0.0
 41
1.0
 10
857.5913545292807
 20
69.86382859877438
 30
0.0
 41
0.9965217285918021
 10
858.0204395625096
 20
70.1238945250454
 30
0.0
 41
1.0
  0
SPLINE
  5
10C
330
1F
100
AcDbEntity
  8
Predefinito
100
AcDbSpline
210
0.0
220
0.0
230
1.0
 70
    12
 71
     2
 72
     6
 73
     3
 74
     0
 42
0.0000000001
 43
0.0000000001
 40
0.0
 40
0.0
 40
0.0
 40
0.8837945528265968
 40
0.8837945528265968
 40
0.8837945528265968
 10
858.0204395625096
 20
70.1238945250454
 30
0.0
 41
1.0
 10
858.399028305376
 20
70.3533549453922
 30
0.0
 41
0.9972890978998412
 10
858.8071945647137
 20
70.52476622118535
 30
0.0
 41
1.0
  0
SPLINE
  5
10D
330
1F
100
AcDbEntity
  8
Predefinito
100
AcDbSpline
210
0.0
220
0.0
230
1.0
 70
    12
 71
     2
 72
     6
 73
     3
 74
     0
 42
0.0000000001
 43
0.0000000001
 40
0.0
 40
0.0
 40
0.0
 40
1.001161039327354
 40
1.001161039327354
 40
1.001161039327354
 10
858.8071945647137
 20
70.52476622118535
 30
0.0
 41
1.0
 10
859.269802173236
 20
70.71904038901364
 30
0.0
 41
0.996521728591786
 10
859.7582510810088
 20
70.83378321556029
 30
0.0
 41
1.0
  0
SPLINE
  5
10E
330
1F
100
AcDbEntity
  8
Predefinito
100
AcDbSpline
210
0.0
220
0.0
230
1.0
 70
    12
 71
     2
 72
     6
 73
     3
 74
     0
 42
0.0000000001
 43
0.0000000001
 40
0.0
 40
0.0
 40
0.0
 40
0.8837945528264528
 40
0.8837945528264528
 40
0.8837945528264528
 10
859.7582510810088
 20
70.83378321556029
 30
0.0
 41
1.0
 10
860.1892175413311
 20
70.93502268813828
 30
0.0
 41
0.9972890978998324
 10
860.6303757192537
 20
70.97191418828194
 30
0.0
 41
1.0
  0
SPLINE
  5
10F
330
1F
100
AcDbEntity
  8
Predefinito
100
AcDbSpline
210
0.0
220
0.0
230
1.0
 70
    12
 71
     2
 72
     6
 73
     3
 74
     0
 42
0.0000000001
 43
0.0000000001
 40
0.0
 40
0.0
 40
0.0
 40
0.500580519678811
 40
0.500580519678811
 40
0.500580519678811
 10
860.6303757192537
 20
70.97191418828194
 30
0.0
 41
1.0
 10
860.8799401778698
 20
70.9927838167319
 30
0.0
 41
0.9991300537446495
 10
861.1303757192688
 20
70.99278381673128
 30
0.0
 41
1.0
  0
SPLINE
  5
110
330
1F
100
AcDbEntity
  8
Predefinito
100
AcDbSpline
210
0.0
220
0.0
230
1.0
 70
    12
 71
     2
 72
     6
 73
     3
 74
     0
 42
0.0000000001
 43
0.0000000001
 40
0.0
 40
0.0
 40
0.0
 40
0.5005805196485703
 40
0.5005805196485703
 40
0.5005805196485703
 10
861.1303757192688
 20
70.99278381673128
 30
0.0
 41
1.0
 10
861.3808112606528
 20
70.99278381673064
 30
0.0
 41
0.9991300537447511
 10
861.6303757192537
 20
70.97191418828196
 30
0.0
 41
1.0
  0
SPLINE
  5
111
330
1F
100
AcDbEntity
  8
Predefinito
100
AcDbSpline
210
0.0
220
0.0
230
1.0
 70
    12
 71
     2
 72
     6
 73
     3
 74
     0
 42
0.0000000001
 43
0.0000000001
 40
0.0
 40
0.0
 40
0.0
 40
0.8837945528265614
 40
0.8837945528265614
 40
0.8837945528265614
 10
861.6303757192537
 20
70.97191418828196
 30
0.0
 41
1.0
 10
862.0715338971762
 20
70.93502268813822
 30
0.0
 41
0.9972890978998428
 10
862.5025003574988
 20
70.8337832155603
 30
0.0
 41
1.0
  0
SPLINE
  5
112
330
1F
100
AcDbEntity
  8
Predefinito
100
AcDbSpline
210
0.0
220
0.0
230
1.0
 70
    12
 71
     2
 72
     6
 73
     3
 74
     0
 42
0.0000000001
 43
0.0000000001
 40
0.0
 40
0.0
 40
0.0
 40
1.001161039327358
 40
1.001161039327358
 40
1.001161039327358
 10
862.5025003574988
 20
70.8337832155603
 30
0.0
 41
1.0
 10
862.9909492652714
 20
70.71904038901371
 30
0.0
 41
0.9965217285917759
 10
863.4535568737939
 20
70.52476622118535
 30
0.0
 41
1.0
  0
SPLINE
  5
113
330
1F
100
AcDbEntity
  8
Predefinito
100
AcDbSpline
210
0.0
220
0.0
230
1.0
 70
    12
 71
     2
 72
     6
 73
     3
 74
     0
 42
0.0000000001
 43
0.0000000001
 40
0.0
 40
0.0
 40
0.0
 40
0.8837945528264932
 40
0.8837945528264932
 40
0.8837945528264932
 10
863.4535568737939
 20
70.52476622118535
 30
0.0
 41
1.0
 10
863.8617231331316
 20
70.35335494539214
 30
0.0
 41
0.9972890978998507
 10
864.2403118759978
 20
70.1238945250454
 30
0.0
 41
1.0
  0
SPLINE
  5
114
330
1F
100
AcDbEntity
  8
Predefinito
100
AcDbSpline
210
0.0
220
0.0
230
1.0
 70
    12
 71
     2
 72
     6
 73
     3
 74
     0
 42
0.0000000001
 43
0.0000000001
 40
0.0
 40
0.0
 40
0.0
 40
1.00116103932736
 40
1.00116103932736
 40
1.00116103932736
 10
864.2403118759978
 20
70.1238945250454
 30
0.0
 41
1.0
 10
864.6693969092267
 20
69.86382859877448
 30
0.0
 41
0.9965217285917783
 10
865.0493288703727
 20
69.53610927275294
 30
0.0
 41
1.0
  0
SPLINE
  5
115
330
1F
100
AcDbEntity
  8
Predefinito
100
AcDbSpline
210
0.0
220
0.0
230
1.0
 70
    12
 71
     2
 72
     6
 73
     3
 74
     0
 42
0.0000000001
 43
0.0000000001
 40
0.0
 40
0.0
 40
0.0
 40
0.8837945528265393
 40
0.8837945528265393
 40
0.8837945528265393
 10
865.0493288703727
 20
69.53610927275294
 30
0.0
 41
1.0
 10
865.3845490538001
 20
69.24695715127748
 30
0.0
 41
0.9972890978998701
 10
865.6737011752755
 20
68.91173696785025
 30
0.0
 41
1.0
  0
SPLINE
  5
116
330
1F
100
AcDbEntity
  8
Predefinito
100
AcDbSpline
210
0.0
220
0.0
230
1.0
 70
    12
 71
     2
 72
     6
 73
     3
 74
     0
 42
0.0000000001
 43
0.0000000001
 40
0.0
 40
0.0
 40
0.0
 40
1.001161039327355
 40
1.001161039327355
 40
1.001161039327355
 10
865.6737011752755
 20
68.91173696785025
 30
0.0
 41
1.0
 10
866.001420501297
 20
68.5318050067043
 30
0.0
 41
0.9965217285917645
 10
866.2614864275679
 20
68.10271997347529
 30
0.0
 41
1.0
  0
SPLINE
  5
117
330
1F
100
AcDbEntity
  8
Predefinito
100
AcDbSpline
210
0.0
220
0.0
230
1.0
 70
    12
 71
     2
 72
     6
 73
     3
 74
     0
 42
0.0000000001
 43
0.0000000001
 40
0.0
 40
0.0
 40
0.0
 40
0.8837945528264864
 40
0.8837945528264864
 40
0.8837945528264864
 10
866.2614864275679
 20
68.10271997347529
 30
0.0
 41
1.0
 10
866.4909468479148
 20
67.7241312306091
 30
0.0
 41
0.9972890978998294
 10
866.6623581237078
 20
67.31596497127138
 30
0.0
 41
1.0
  0
SPLINE
  5
118
330
1F
100
AcDbEntity
  8
Predefinito
100
AcDbSpline
210
0.0
220
0.0
230
1.0
 70
    12
 71
     2
 72
     6
 73
     3
 74
     0
 42
0.0000000001
 43
0.0000000001
 40
0.0
 40
0.0
 40
0.0
 40
1.001161039327381
 40
1.001161039327381
 40
1.001161039327381
 10
866.6623581237078
 20
67.31596497127138
 30
0.0
 41
1.0
 10
866.8566322915364
 20
66.853357362749
 30
0.0
 41
0.9965217285917626
 10
866.9713751180827
 20
66.36490845497623
 30
0.0
 41
1.0
  0
SPLINE
  5
119
330
1F
100
AcDbEntity
  8
Predefinito
100
AcDbSpline
210
0.0
220
0.0
230
1.0
 70
    12
 71
     2
 72
     6
 73
     3
 74
     0
 42
0.0000000001
 43
0.0000000001
 40
0.0
 40
0.0
 40
0.0
 40
0.8837945528265075
 40
0.8837945528265075
 40
0.8837945528265075
 10
866.9713751180827
 20
66.36490845497623
 30
0.0
 41
1.0
 10
867.0726145906607
 20
65.93394199465372
 30
0.0
 41
0.9972890978998527
 10
867.1095060908044
 20
65.49278381673123
 30
0.0
 41
1.0
  0
SPLINE
  5
11A
330
1F
100
AcDbEntity
  8
Predefinito
100
AcDbSpline
210
0.0
220
0.0
230
1.0
 70
    12
 71
     2
 72
     6
 73
     3
 74
     0
 42
0.0000000001
 43
0.0000000001
 40
0.0
 40
0.0
 40
0.0
 40
1.001161039327352
 40
1.001161039327352
 40
1.001161039327352
 10
867.1095060908044
 20
65.49278381673123
 30
0.0
 41
1.0
 10
867.1513181913048
 20
64.99278381673125
 30
0.0
 41
0.9965217285917819
 10
867.1095060908044
 20
64.49278381673126
 30
0.0
 41
1.0
  0
SPLINE
  5
11B
330
1F
100
AcDbEntity
  8
Predefinito
100
AcDbSpline
210
0.0
220
0.0
230
1.0
 70
    12
 71
     2
 72
     6
 73
     3
 74
     0
 42
0.0000000001
 43
0.0000000001
 40
0.0
 40
0.0
 40
0.0
 40
0.8837945528265072
 40
0.8837945528265072
 40
0.8837945528265072
 10
867.1095060908044
 20
64.49278381673126
 30
0.0
 41
1.0
 10
867.0726145906606
 20
64.05162563880876
 30
0.0
 41
0.997289097899853
 10
866.9713751180827
 20
63.62065917848626
 30
0.0
 41
1.0
  0
SPLINE
  5
11C
330
1F
100
AcDbEntity
  8
Predefinito
100
AcDbSpline
210
0.0
220
0.0
230
1.0
 70
    12
 71
     2
 72
     6
 73
     3
 74
     0
 42
0.0000000001
 43
0.0000000001
 40
0.0
 40
0.0
 40
0.0
 40
1.00116103932738
 40
1.00116103932738
 40
1.00116103932738
 10
866.9713751180827
 20
63.62065917848626
 30
0.0
 41
1.0
 10
866.8566322915362
 20
63.13221027071354
 30
0.0
 41
0.9965217285917644
 10
866.6623581237078
 20
62.66960266219111
 30
0.0
 41
1.0
  0
SPLINE
  5
11D
330
1F
100
AcDbEntity
  8
Predefinito
100
AcDbSpline
210
0.0
220
0.0
230
1.0
 70
    12
 71
     2
 72
     6
 73
     3
 74
     0
 42
0.0000000001
 43
0.0000000001
 40
0.0
 40
0.0
 40
0.0
 40
0.8837945528264881
 40
0.8837945528264881
 40
0.8837945528264881
 10
866.6623581237078
 20
62.66960266219111
 30
0.0
 41
1.0
 10
866.4909468479148
 20
62.26143640285339
 30
0.0
 41
0.9972890978998261
 10
866.2614864275679
 20
61.88284765998721
 30
0.0
 41
1.0
  0
SPLINE
  5
11E
330
1F
100
AcDbEntity
  8
Predefinito
100
AcDbSpline
210
0.0
220
0.0
230
1.0
 70
    12
 71
     2
 72
     6
 73
     3
 74
     0
 42
0.0000000001
 43
0.0000000001
 40
0.0
 40
0.0
 40
0.0
 40
1.001161039327402
 40
1.001161039327402
 40
1.001161039327402
 10
866.2614864275679
 20
61.88284765998721
 30
0.0
 41
1.0
 10
866.001420501297
 20
61.45376262675816
 30
0.0
 41
0.9965217285917537
 10
865.6737011752754
 20
61.07383066561228
 30
0.0
 41
1.0
  0
SPLINE
  5
11F
330
1F
100
AcDbEntity
  8
Predefinito
100
AcDbSpline
210
0.0
220
0.0
230
1.0
 70
    12
 71
     2
 72
     6
 73
     3
 74
     0
 42
0.0000000001
 43
0.0000000001
 40
0.0
 40
0.0
 40
0.0
 40
0.8837945528264641
 40
0.8837945528264641
 40
0.8837945528264641
 10
865.6737011752754
 20
61.07383066561228
 30
0.0
 41
1.0
 10
865.3845490538
 20
60.73861048218498
 30
0.0
 41
0.9972890978998549
 10
865.0493288703727
 20
60.44945836070958
 30
0.0
 41
1.0
  0
SPLINE
  5
120
330
1F
100
AcDbEntity
  8
Predefinito
100
AcDbSpline
210
0.0
220
0.0
230
1.0
 70
    12
 71
     2
 72
     6
 73
     3
 74
     0
 42
0.0000000001
 43
0.0000000001
 40
0.0
 40
0.0
 40
0.0
 40
1.00116103932736
 40
1.00116103932736
 40
1.00116103932736
 10
865.0493288703727
 20
60.44945836070958
 30
0.0
 41
1.0
 10
864.6693969092267
 20
60.12173903468803
 30
0.0
 41
0.9965217285917768
 10
864.2403118759978
 20
59.86167310841713
 30
0.0
 41
1.0
  0
SPLINE
  5
121
330
1F
100
AcDbEntity
  8
Predefinito
100
AcDbSpline
210
0.0
220
0.0
230
1.0
 70
    12
 71
     2
 72
     6
 73
     3
 74
     0
 42
0.0000000001
 43
0.0000000001
 40
0.0
 40
0.0
 40
0.0
 40
0.8837945528265984
 40
0.8837945528265984
 40
0.8837945528265984
 10
864.2403118759978
 20
59.86167310841713
 30
0.0
 41
1.0
 10
863.8617231331316
 20
59.6322126880703
 30
0.0
 41
0.9972890978998388
 10
863.4535568737938
 20
59.46080141227718
 30
0.0
 41
1.0
  0
SPLINE
  5
122
330
1F
100
AcDbEntity
  8
Predefinito
100
AcDbSpline
210
0.0
220
0.0
230
1.0
 70
    12
 71
     2
 72
     6
 73
     3
 74
     0
 42
0.0000000001
 43
0.0000000001
 40
0.0
 40
0.0
 40
0.0
 40
1.00116103932735
 40
1.00116103932735
 40
1.00116103932735
 10
863.4535568737938
 20
59.46080141227718
 30
0.0
 41
1.0
 10
862.9909492652714
 20
59.26652724444883
 30
0.0
 41
0.9965217285917765
 10
862.5025003574987
 20
59.15178441790225
 30
0.0
 41
1.0
  0
SPLINE
  5
123
330
1F
100
AcDbEntity
  8
Predefinito
100
AcDbSpline
210
0.0
220
0.0
230
1.0
 70
    12
 71
     2
 72
     6
 73
     3
 74
     0
 42
0.0000000001
 43
0.0000000001
 40
0.0
 40
0.0
 40
0.0
 40
0.8837945528264545
 40
0.8837945528264545
 40
0.8837945528264545
 10
862.5025003574987
 20
59.15178441790225
 30
0.0
 41
1.0
 10
862.0715338971762
 20
59.05054494532431
 30
0.0
 41
0.9972890978998411
 10
861.6303757192537
 20
59.01365344518057
 30
0.0
 41
1.0
  0
SPLINE
  5
124
330
1F
100
AcDbEntity
  8
Predefinito
100
AcDbSpline
210
0.0
220
0.0
230
1.0
 70
    12
 71
     2
 72
     6
 73
     3
 74
     0
 42
0.0000000001
 43
0.0000000001
 40
0.0
 40
0.0
 40
0.0
 40
0.5005805196636895
 40
0.5005805196636895
 40
0.5005805196636895
 10
861.6303757192537
 20
59.01365344518057
 30
0.0
 41
1.0
 10
861.3808112606454
 20
58.99278381673128
 30
0.0
 41
0.9991300537447045
 10
861.1303757192537
 20
58.99278381673126
 30
0.0
 41
1.0
  0
SPLINE
  5
125
330
1F
100
AcDbEntity
  8
Predefinito
100
AcDbSpline
210
0.0
220
0.0
230
1.0
 70
    12
 71
     2
 72
     6
 73
     3
 74
     0
 42
0.0000000001
 43
0.0000000001
 40
0.0
 40
0.0
 40
0.0
 40
0.5005805196636897
 40
0.5005805196636897
 40
0.5005805196636897
 10
861.1303757192537
 20
58.99278381673126
 30
0.0
 41
1.0
 10
860.8799401778621
 20
58.99278381673127
 30
0.0
 41
0.9991300537447027
 10
860.6303757192537
 20
59.01365344518057
 30
0.0
 41
1.0
  0
SPLINE
  5
126
330
1F
100
AcDbEntity
  8
Predefinito
100
AcDbSpline
210
0.0
220
0.0
230
1.0
 70
    12
 71
     2
 72
     6
 73
     3
 74
     0
 42
0.0000000001
 43
0.0000000001
 40
0.0
 40
0.0
 40
0.0
 40
0.8837945528265675
 40
0.8837945528265675
 40
0.8837945528265675
 10
860.6303757192537
 20
59.01365344518057
 30
0.0
 41
1.0
 10
860.1892175413311
 20
59.05054494532428
 30
0.0
 41
0.9972890978998378
 10
859.7582510810087
 20
59.15178441790225
 30
0.0
 41
1.0
  0
SPLINE
  5
127
330
1F
100
AcDbEntity
  8
Predefinito
100
AcDbSpline
210
0.0
220
0.0
230
1.0
 70
    12
 71
     2
 72
     6
 73
     3
 74
     0
 42
0.0000000001
 43
0.0000000001
 40
0.0
 40
0.0
 40
0.0
 40
1.001161039327345
 40
1.001161039327345
 40
1.001161039327345
 10
859.7582510810087
 20
59.15178441790225
 30
0.0
 41
1.0
 10
859.2698021732359
 20
59.26652724444891
 30
0.0
 41
0.9965217285917916
 10
858.8071945647135
 20
59.46080141227718
 30
0.0
 41
1.0
  0
SPLINE
  5
128
330
1F
100
AcDbEntity
  8
Predefinito
100
AcDbSpline
210
0.0
220
0.0
230
1.0
 70
    12
 71
     2
 72
     6
 73
     3
 74
     0
 42
0.0000000001
 43
0.0000000001
 40
0.0
 40
0.0
 40
0.0
 40
0.8837945528264927
 40
0.8837945528264927
 40
0.8837945528264927
 10
858.8071945647135
 20
59.46080141227718
 30
0.0
 41
1.0
 10
858.3990283053757
 20
59.63221268807037
 30
0.0
 41
0.9972890978998519
 10
858.0204395625096
 20
59.86167310841712
 30
0.0
 41
1.0
  0
SPLINE
  5
129
330
1F
100
AcDbEntity
  8
Predefinito
100
AcDbSpline
210
0.0
220
0.0
230
1.0
 70
    12
 71
     2
 72
     6
 73
     3
 74
     0
 42
0.0000000001
 43
0.0000000001
 40
0.0
 40
0.0
 40
0.0
 40
1.001161039327368
 40
1.001161039327368
 40
1.001161039327368
 10
858.0204395625096
 20
59.86167310841712
 30
0.0
 41
1.0
 10
857.5913545292807
 20
60.12173903468818
 30
0.0
 41
0.9965217285918029
 10
857.2114225681347
 20
60.44945836070961
 30
0.0
 41
1.0
  0
SPLINE
  5
12A
330
1F
100
AcDbEntity
  8
Predefinito
100
AcDbSpline
210
0.0
220
0.0
230
1.0
 70
    12
 71
     2
 72
     6
 73
     3
 74
     0
 42
0.0000000001
 43
0.0000000001
 40
0.0
 40
0.0
 40
0.0
 40
0.8837945528264521
 40
0.8837945528264521
 40
0.8837945528264521
 10
857.2114225681347
 20
60.44945836070961
 30
0.0
 41
1.0
 10
856.8762023847072
 20
60.73861048218487
 30
0.0
 41
0.9972890978998281
 10
856.5870502632321
 20
61.07383066561228
 30
0.0
 41
1.0
  0
SPLINE
  5
12B
330
1F
100
AcDbEntity
  8
Predefinito
100
AcDbSpline
210
0.0
220
0.0
230
1.0
 70
    12
 71
     2
 72
     6
 73
     3
 74
     0
 42
0.0000000001
 43
0.0000000001
 40
0.0
 40
0.0
 40
0.0
 40
0.5335322117060245
 40
0.5335322117060245
 40
0.5335322117060245
 10
856.5870502632321
 20
61.07383066561228
 30
0.0
 41
1.0
 10
856.4126947152565
 20
61.27596474810066
 30
0.0
 41
0.999011771763874
 10
856.2569785350621
 20
61.49278383314376
 30
0.0
 41
1.0
  0
SPLINE
  5
12C
330
1F
100
AcDbEntity
  8
Predefinito
100
AcDbSpline
210
0.0
220
0.0
230
1.0
 70
    24
 71
     2
 72
     6
 73
     3
 74
     0
 42
0.0000000001
 43
0.0000000001
 40
0.0
 40
0.0
 40
0.0
 40
17.75515928975915
 40
17.75515928975915
 40
17.75515928975915
 10
857.6303704959432
 20
556.8600165850946
 30
0.0
 10
857.6303704959433
 20
565.7375962299742
 30
0.0
 10
857.6303704959435
 20
574.6151758748538
 30
0.0
  0
SPLINE
  5
12D
330
1F
100
AcDbEntity
  8
Predefinito
100
AcDbSpline
210
0.0
220
0.0
230
1.0
 70
    24
 71
     2
 72
     6
 73
     3
 74
     0
 42
0.0000000001
 43
0.0000000001
 40
0.0
 40
0.0
 40
0.0
 40
5.748219839010517
 40
5.748219839010517
 40
5.748219839010517
 10
857.6303704959435
 20
574.6151758748538
 30
0.0
 10
857.6303704961117
 20
577.4892857943589
 30
0.0
 10
857.6303704962799
 20
580.3633957138642
 30
0.0
  0
SPLINE
  5
12E
330
1F
100
AcDbEntity
  8
Predefinito
100
AcDbSpline
210
0.0
220
0.0
230
1.0
 70
    24
 71
     2
 72
     6
 73
     3
 74
     0
 42
0.0000000001
 43
0.0000000001
 40
0.0
 40
0.0
 40
0.0
 40
11.71771485657439
 40
11.71771485657439
 40
11.71771485657439
 10
857.6303704962799
 20
580.3633957138642
 30
0.0
 10
857.6303704964116
 20
586.2222531421514
 30
0.0
 10
857.6303704965433
 20
592.0811105704386
 30
0.0
  0
SPLINE
  5
12F
330
1F
100
AcDbEntity
  8
Predefinito
100
AcDbSpline
210
0.0
220
0.0
230
1.0
 70
    24
 71
     2
 72
     6
 73
     3
 74
     0
 42
0.0000000001
 43
0.0000000001
 40
0.0
 40
0.0
 40
0.0
 40
2.726656222502356
 40
2.726656222502356
 40
2.726656222502356
 10
857.6303704965433
 20
592.0811105704386
 30
0.0
 10
857.6303704965409
 20
593.4444386816897
 30
0.0
 10
857.6303704965385
 20
594.8077667929409
 30
0.0
  0
SPLINE
  5
130
330
1F
100
AcDbEntity
  8
Predefinito
100
AcDbSpline
210
0.0
220
0.0
230
1.0
 70
    24
 71
     2
 72
     6
 73
     3
 74
     0
 42
0.0000000001
 43
0.0000000001
 40
0.0
 40
0.0
 40
0.0
 40
1.437054953603933
 40
1.437054953603933
 40
1.437054953603933
 10
857.6303704965385
 20
594.8077667929409
 30
0.0
 10
857.630370496533
 20
595.526294269743
 30
0.0
 10
857.6303704965276
 20
596.2448217465449
 30
0.0
  0
SPLINE
  5
131
330
1F
100
AcDbEntity
  8
Predefinito
100
AcDbSpline
210
0.0
220
0.0
230
1.0
 70
    24
 71
     2
 72
     6
 73
     3
 74
     0
 42
0.0000000001
 43
0.0000000001
 40
0.0
 40
0.0
 40
0.0
 40
11.49643967127054
 40
11.49643967127054
 40
11.49643967127054
 10
857.6303704965276
 20
596.2448217465449
 30
0.0
 10
857.6303704964041
 20
601.9930415821801
 30
0.0
 10
857.6303704962805
 20
607.7412614178154
 30
0.0
  0
POLYLINE
  5
132
330
1F
100
AcDbEntity
  8
Predefinito
100
AcDb2dPolyline
 66
     1
 10
0.0
 20
0.0
 30
0.0
  0
VERTEX
  5
133
330
132
100
AcDbEntity
  8
Predefinito
100
AcDbVertex
100
AcDb2dVertex
 10
857.6303704962805
 20
607.7412614178154
 30
0.0
  0
VERTEX
  5
134
330
132
100
AcDbEntity
  8
Predefinito
100
AcDbVertex
100
AcDb2dVertex
 10
857.6303704973343
 20
695.3607458751679
 30
0.0
  0
SEQEND
  5
135
330
132
100
AcDbEntity
  8
Predefinito
  0
SPLINE
  5
136
330
1F
100
AcDbEntity
  8
Predefinito
100
AcDbSpline
210
0.0
220
0.0
230
1.0
 70
    12
 71
     3
 72
     8
 73
     4
 74
     0
 42
0.0000000001
 43
0.0000000001
 40
-0.9585608906579455
 40
-0.9585608906579455
 40
-0.9585608906579455
 40
-0.9585608906579455
 40
0.0
 40
0.0
 40
0.0
 40
0.0
 10
857.6303704973343
 20
695.3607458751679
 30
0.0
 41
1.0
 10
857.630370434812
 20
695.680266172054
 30
0.0
 41
1.0
 10
857.6303705744292
 20
695.9997778037202
 30
0.0
 41
1.0
 10
857.6303705119069
 20
696.3192981006063
 30
0.0
 41
1.0
  0
SPLINE
  5
137
330
1F
100
AcDbEntity
  8
Predefinito
100
AcDbSpline
210
0.0
220
0.0
230
1.0
 70
    12
 71
     2
 72
     6
 73
     3
 74
     0
 42
0.0000000001
 43
0.0000000001
 40
0.0
 40
0.0
 40
0.0
 40
0.7218021115980843
 40
0.7218021115980843
 40
0.7218021115980843
 10
857.6303705119069
 20
696.3192981006063
 30
0.0
 41
1.0
 10
857.6304442138818
 20
696.6801991626063
 30
0.0
 41
0.9999999429487819
 10
857.6302740978947
 20
697.0411002602582
 30
0.0
 41
1.0
  0
SPLINE
  5
138
330
1F
100
AcDbEntity
  8
Predefinito
100
AcDbSpline
210
0.0
220
0.0
230
1.0
 70
     8
 71
     3
 72
    12
 73
     8
 74
     0
 42
0.0000000001
 43
0.0000000001
 40
0.0
 40
0.0
 40
0.0
 40
0.0
 40
2.428517939625868
 40
4.208044390468717
 40
6.892403298536703
 40
8.608916355523238
 40
10.43124540191944
 40
10.43124540191944
 40
10.43124540191944
 40
10.43124540191944
 10
857.6302740978947
 20
697.0411002602582
 30
0.0
 10
857.622172970782
 20
697.8514209757122
 30
0.0
 10
857.6351666647952
 20
699.2523485006868
 30
0.0
 10
857.4898921716695
 20
701.5497233179316
 30
0.0
 10
857.2114327453846
 20
703.5911328543383
 30
0.0
 10
856.2536867474226
 20
705.5068126695538
 30
0.0
 10
855.0446559968818
 20
705.9609014479958
 30
0.0
 10
854.4824657836567
 20
706.1108250901482
 30
0.0
  0
SPLINE
  5
139
330
1F
100
AcDbEntity
  8
Predefinito
100
AcDbSpline
210
0.0
220
0.0
230
1.0
 70
     8
 71
     3
 72
    27
 73
    23
 74
     0
 42
0.0000000001
 43
0.0000000001
 40
0.0
 40
0.0
 40
0.0
 40
0.0
 40
10.30036954138884
 40
17.50302872461545
 40
26.43217194046624
 40
45.05406594597047
 40
55.81669896609657
 40
94.23927360041822
 40
118.0189038381847
 40
161.7424809861728
 40
180.5417577725652
 40
196.4612545018641
 40
210.1783031498961
 40
221.8340026982443
 40
233.6767833730779
 40
244.8205966575976
 40
256.3837038192733
 40
269.5009476857805
 40
284.6294119251063
 40
302.824289313898
 40
324.6550459308073
 40
356.2597784069687
 40
356.2597784069687
 40
356.2597784069687
 40
356.2597784069687
 10
838.0922646550956
 20
706.3391362035663
 30
0.0
 10
834.6730317306003
 20
705.8554911122894
 30
0.0
 10
829.2252378467317
 20
703.621921236432
 30
0.0
 10
821.5952051002643
 20
699.2318711285086
 30
0.0
 10
811.9442241757955
 20
692.7996643473177
 30
0.0
 10
801.7172179741931
 20
685.1575798896336
 30
0.0
 10
783.8297008249415
 20
671.3337220000983
 30
0.0
 10
764.7916667467078
 20
656.1984349019353
 30
0.0
 10
736.6268520006631
 20
634.9051406392306
 30
0.0
 10
712.9516975429264
 20
618.5127168380415
 30
0.0
 10
690.0688066038285
 20
605.8009453509509
 30
0.0
 10
675.2673240479621
 20
599.3050688551092
 30
0.0
 10
662.0454986772013
 20
595.3498377188345
 30
0.0
 10
649.6648280808779
 20
593.8936984620973
 30
0.0
 10
638.0851326897296
 20
595.4130121568265
 30
0.0
 10
627.6716482059587
 20
600.7777460995119
 30
0.0
 10
619.5013128465189
 20
609.6984901569929
 30
0.0
 10
613.5630116174473
 20
621.6643918779254
 30
0.0
 10
609.4676649755515
 20
636.640257249809
 30
0.0
 10
606.9498412475044
 20
654.8763371582909
 30
0.0
 10
605.6978895396438
 20
678.7331962519177
 30
0.0
 10
605.7275020505336
 20
696.5477751546379
 30
0.0
 10
605.7275138118526
 20
707.0825002740166
 30
0.0
  0
SPLINE
  5
13A
330
1F
100
AcDbEntity
  8
Predefinito
100
AcDbSpline
210
0.0
220
0.0
230
1.0
 70
    24
 71
     2
 72
     6
 73
     3
 74
     0
 42
0.0000000001
 43
0.0000000001
 40
0.0
 40
0.0
 40
0.0
 40
1.438775244594922
 40
1.438775244594922
 40
1.438775244594922
 10
605.7275138118526
 20
707.0825002740166
 30
0.0
 10
605.7275138149672
 20
707.8018878963142
 30
0.0
 10
605.7275138180818
 20
708.5212755186118
 30
0.0
  0
SPLINE
  5
13B
330
1F
100
AcDbEntity
  8
Predefinito
100
AcDbSpline
210
0.0
220
0.0
230
1.0
 70
    24
 71
     2
 72
     6
 73
     3
 74
     0
 42
0.0000000001
 43
0.0000000001
 40
0.0
 40
0.0
 40
0.0
 40
0.0905567079261118
 40
0.0905567079261118
 40
0.0905567079261118
 10
605.7275138180818
 20
708.5212755186118
 30
0.0
 10
605.7275138179782
 20
708.5665538725748
 30
0.0
 10
605.7275138178746
 20
708.6118322265379
 30
0.0
  0
SPLINE
  5
13C
330
1F
100
AcDbEntity
  8
Predefinito
100
AcDbSpline
210
0.0
220
0.0
230
1.0
 70
    24
 71
     2
 72
     6
 73
     3
 74
     0
 42
0.0000000001
 43
0.0000000001
 40
0.0
 40
0.0
 40
0.0
 40
0.6761734326394162
 40
0.6761734326394162
 40
0.6761734326394162
 10
605.7275138178746
 20
708.6118322265379
 30
0.0
 10
605.7275138165378
 20
708.9499189428576
 30
0.0
 10
605.7275138152011
 20
709.2880056591773
 30
0.0
  0
SPLINE
  5
13D
330
1F
100
AcDbEntity
  8
Predefinito
100
AcDbSpline
210
0.0
220
0.0
230
1.0
 70
    24
 71
     2
 72
     6
 73
     3
 74
     0
 42
0.0000000001
 43
0.0000000001
 40
-0.5401190742019253
 40
-0.5401190742019253
 40
-0.5401190742019253
 40
0.0
 40
0.0
 40
0.0
 10
612.727513815298
 20
709.2880056464189
 30
0.0
 10
612.7275138163502
 20
709.017946109318
 30
0.0
 10
612.7275138174023
 20
708.747886572217
 30
0.0
  0
SPLINE
  5
13E
330
1F
100
AcDbEntity
  8
Predefinito
100
AcDbSpline
210
0.0
220
0.0
230
1.0
 70
    24
 71
     2
 72
     6
 73
     3
 74
     0
 42
0.0000000001
 43
0.0000000001
 40
0.0
 40
0.0
 40
0.0
 40
1.665386221846234
 40
1.665386221846234
 40
1.665386221846234
 10
612.7275138174023
 20
708.747886572217
 30
0.0
 10
612.7275138145906
 20
707.9151934612939
 30
0.0
 10
612.7275138117787
 20
707.0825003503708
 30
0.0
  0
SPLINE
  5
13F
330
1F
100
AcDbEntity
  8
Predefinito
100
AcDbSpline
210
0.0
220
0.0
230
1.0
 70
    24
 71
     2
 72
     6
 73
     3
 74
     0
 42
0.0000000001
 43
0.0000000001
 40
0.0
 40
0.0
 40
0.0
 40
0.2396009383329556
 40
0.2396009383329556
 40
0.2396009383329556
 10
612.7275138117787
 20
707.0825003503708
 30
0.0
 10
612.7275138104374
 20
706.723005175249
 30
0.0
 10
612.727513809096
 20
706.3635100001272
 30
0.0
  0
SPLINE
  5
140
330
1F
100
AcDbEntity
  8
Predefinito
100
AcDbSpline
210
0.0
220
0.0
230
1.0
 70
    24
 71
     2
 72
     6
 73
     3
 74
     0
 42
0.0000000001
 43
0.0000000001
 40
-0.119446494840986
 40
-0.119446494840986
 40
-0.119446494840986
 40
0.0
 40
0.0
 40
0.0
 10
612.727513809096
 20
706.3635100001272
 30
0.0
 10
612.727513811684
 20
706.0640920467514
 30
0.0
 10
612.727513814272
 20
705.7646740933756
 30
0.0
  0
SPLINE
  5
141
330
1F
100
AcDbEntity
  8
Predefinito
100
AcDbSpline
210
0.0
220
0.0
230
1.0
 70
    12
 71
     2
 72
     6
 73
     3
 74
     0
 42
0.0000000001
 43
0.0000000001
 40
-0.3593158351504371
 40
-0.3593158351504371
 40
-0.3593158351504371
 40
0.0
 40
0.0
 40
0.0
 10
612.727513814272
 20
705.7646740933756
 30
0.0
 41
1.0
 10
612.7275090300627
 20
705.5850161758216
 30
0.0
 41
0.9999999996444345
 10
612.7275138277437
 20
705.4053582582677
 30
0.0
 41
1.0
  0
SPLINE
  5
142
330
1F
100
AcDbEntity
  8
Predefinito
100
AcDbSpline
210
0.0
220
0.0
230
1.0
 70
     8
 71
     3
 72
    28
 73
    24
 74
     0
 42
0.0000000001
 43
0.0000000001
 40
0.0
 40
0.0
 40
0.0
 40
0.0
 40
29.36886407430446
 40
50.08462384102598
 40
67.34731093649981
 40
81.44604888502397
 40
93.43628437956775
 40
103.5063009471304
 40
112.9815231777428
 40
123.430293883969
 40
133.7714883107698
 40
145.8384149671712
 40
159.8212943453946
 40
176.2975256420532
 40
219.2137418128693
 40
243.7354767516355
 40
282.7662156347442
 40
296.1517322625228
 40
317.3990578959939
 40
327.5419794851448
 40
335.3859079511004
 40
341.7981669832935
 40
348.1622853193636
 40
348.1622853193636
 40
348.1622853193636
 40
348.1622853193636
 10
612.7275138277437
 20
705.4053582582677
 30
0.0
 10
612.7271198956992
 20
695.615856130298
 30
0.0
 10
612.7251116997303
 20
678.9187507123116
 30
0.0
 10
613.8611052414643
 20
656.4877530006653
 30
0.0
 10
616.1255352504577
 20
639.2564417639105
 30
0.0
 10
619.7615147581191
 20
625.2321020537693
 30
0.0
 10
624.9332128255522
 20
614.2548176002316
 30
0.0
 10
632.0315986820374
 20
606.2972074825096
 30
0.0
 10
641.2121431990055
 20
601.8392203906201
 30
0.0
 10
651.3925349918524
 20
601.0053815776666
 30
0.0
 10
662.2504830722378
 20
602.6406014505957
 30
0.0
 10
673.8494223733843
 20
606.3159413701039
 30
0.0
 10
686.8139992823151
 20
612.067345884177
 30
0.0
 10
708.2769032852934
 20
623.847105229589
 30
0.0
 10
731.3435123981275
 20
639.7369110832242
 30
0.0
 10
759.6870899475173
 20
661.0739273946998
 30
0.0
 10
779.7652226661643
 20
677.0496861007368
 30
0.0
 10
799.1936481928207
 20
692.0532103530927
 30
0.0
 10
811.21011290949
 20
700.9219129741857
 30
0.0
 10
822.3060921543913
 20
707.8634765944173
 30
0.0
 10
829.6271316070895
 20
711.4371915360633
 30
0.0
 10
836.2553301484949
 20
713.407141035467
 30
0.0
 10
840.5402332246836
 20
713.5870036613
 30
0.0
 10
842.6577987732469
 20
713.5651758482007
 30
0.0
  0
SPLINE
  5
143
330
1F
100
AcDbEntity
  8
Predefinito
100
AcDbSpline
210
0.0
220
0.0
230
1.0
 70
    12
 71
     2
 72
     6
 73
     3
 74
     0
 42
0.0000000001
 43
0.0000000001
 40
0.0
 40
0.0
 40
0.0
 40
0.0819827711343847
 40
0.0819827711343847
 40
0.0819827711343847
 10
842.6577987732469
 20
713.5651758482007
 30
0.0
 41
1.0
 10
842.6987901947166
 20
713.565175935908
 30
0.0
 41
0.9999999999983241
 10
842.7436843196687
 20
713.5651758736701
 30
0.0
 41
1.0
  0
SPLINE
  5
144
330
1F
100
AcDbEntity
  8
Predefinito
100
AcDbSpline
210
0.0
220
0.0
230
1.0
 70
    24
 71
     2
 72
     6
 73
     3
 74
     0
 42
0.0000000001
 43
0.0000000001
 40
0.0
 40
0.0
 40
0.0
 40
0.1677887703662009
 40
0.1677887703662009
 40
0.1677887703662009
 10
842.7436843196687
 20
713.5651758736701
 30
0.0
 10
842.8295300745442
 20
713.5651758747463
 30
0.0
 10
842.9153758294198
 20
713.5651758758224
 30
0.0
  0
SPLINE
  5
145
330
1F
100
AcDbEntity
  8
Predefinito
100
AcDbSpline
210
0.0
220
0.0
230
1.0
 70
    24
 71
     2
 72
     6
 73
     3
 74
     0
 42
0.0000000001
 43
0.0000000001
 40
0.0
 40
0.0
 40
0.0
 40
0.5621379839009251
 40
0.5621379839009251
 40
0.5621379839009251
 10
842.9153758294198
 20
713.5651758758224
 30
0.0
 10
843.1964448213703
 20
713.5651758752631
 30
0.0
 10
843.4775138133207
 20
713.5651758747039
 30
0.0
  0
POLYLINE
  5
146
330
1F
100
AcDbEntity
  8
Predefinito
100
AcDb2dPolyline
 66
     1
 10
0.0
 20
0.0
 30
0.0
  0
VERTEX
  5
147
330
146
100
AcDbEntity
  8
Predefinito
100
AcDbVertex
100
AcDb2dVertex
 10
843.4775138133207
 20
713.5651758747039
 30
0.0
  0
VERTEX
  5
148
330
146
100
AcDbEntity
  8
Predefinito
100
AcDbVertex
100
AcDb2dVertex
 10
847.7323406347456
 20
713.5651758659797
 30
0.0
  0
SEQEND
  5
149
330
146
100
AcDbEntity
  8
Predefinito
  0
SPLINE
  5
14A
330
1F
100
AcDbEntity
  8
Predefinito
100
AcDbSpline
210
0.0
220
0.0
230
1.0
 70
    24
 71
     2
 72
     6
 73
     3
 74
     0
 42
0.0000000001
 43
0.0000000001
 40
0.0
 40
0.0
 40
0.0
 40
0.1437422480937616
 40
0.1437422480937616
 40
0.1437422480937616
 10
847.7323406347456
 20
713.5651758659797
 30
0.0
 10
847.8042117711025
 20
713.5651758810084
 30
0.0
 10
847.8760829074592
 20
713.5651758960371
 30
0.0
  0
SPLINE
  5
14B
330
1F
100
AcDbEntity
  8
Predefinito
100
AcDbSpline
210
0.0
220
0.0
230
1.0
 70
     8
 71
     3
 72
    13
 73
     9
 74
     0
 42
0.0000000001
 43
0.0000000001
 40
0.0
 40
0.0
 40
0.0
 40
0.0
 40
4.884716894137242
 40
8.285589855728633
 40
14.06321346943191
 40
19.87727209369682
 40
23.34777858274134
 40
28.06087936339635
 40
28.06087936339635
 40
28.06087936339635
 40
28.06087936339635
 10
847.8760829074592
 20
713.5651758960371
 30
0.0
 10
849.494351587735
 20
713.5813824290565
 30
0.0
 10
852.282288124443
 20
713.5461035241569
 30
0.0
 10
856.9123044831923
 20
712.9738200122434
 30
0.0
 10
861.6053534851116
 20
710.6562779650154
 30
0.0
 10
863.9548125510814
 20
705.9585722613492
 30
0.0
 10
864.585931705899
 20
701.3613151189737
 30
0.0
 10
864.6400429232957
 20
698.6092201820542
 30
0.0
 10
864.630272539539
 20
697.0458277189211
 30
0.0
  0
SPLINE
  5
14C
330
1F
100
AcDbEntity
  8
Predefinito
100
AcDbSpline
210
0.0
220
0.0
230
1.0
 70
    12
 71
     2
 72
     6
 73
     3
 74
     0
 42
0.0000000001
 43
0.0000000001
 40
0.0
 40
0.0
 40
0.0
 40
2.152693975214318
 40
2.152693975214318
 40
2.152693975214318
 10
864.630272539539
 20
697.0458277189211
 30
0.0
 41
1.0
 10
864.630686926669
 20
695.9694807126253
 30
0.0
 41
0.9999999423730979
 10
864.6303704961394
 20
694.8931337301806
 30
0.0
 41
1.0
  0
SPLINE
  5
14D
330
1F
100
AcDbEntity
  8
Predefinito
100
AcDbSpline
210
0.0
220
0.0
230
1.0
 70
    12
 71
     2
 72
     6
 73
     3
 74
     0
 42
0.0000000001
 43
0.0000000001
 40
0.0
 40
0.0
 40
0.0
 40
4.597599462789163
 40
4.597599462789163
 40
4.597599462789163
 10
864.6303704961394
 20
694.8931337301806
 30
0.0
 41
1.0
 10
864.6303705418551
 20
692.594333998786
 30
0.0
 41
0.9999999999999998
 10
864.6303705024261
 20
690.2955342673914
 30
0.0
 41
1.0
  0
SPLINE
  5
14E
330
1F
100
AcDbEntity
  8
Predefinito
100
AcDbSpline
210
0.0
220
0.0
230
1.0
 70
    24
 71
     2
 72
     6
 73
     3
 74
     0
 42
0.0000000001
 43
0.0000000001
 40
0.0
 40
0.0
 40
0.0
 40
45.98576722152882
 40
45.98576722152882
 40
45.98576722152882
 10
864.6303705024261
 20
690.2955342673914
 30
0.0
 10
864.6303704988811
 20
667.3026506566271
 30
0.0
 10
864.6303704953361
 20
644.3097670458626
 30
0.0
  0
SPLINE
  5
14F
330
1F
100
AcDbEntity
  8
Predefinito
100
AcDbSpline
210
0.0
220
0.0
230
1.0
 70
    24
 71
     2
 72
     6
 73
     3
 74
     0
 42
0.0000000001
 43
0.0000000001
 40
0.0
 40
0.0
 40
0.0
 40
2.701719382834085
 40
2.701719382834085
 40
2.701719382834085
 10
864.6303704953361
 20
644.3097670458626
 30
0.0
 10
864.6303704953411
 20
642.9589073544441
 30
0.0
 10
864.630370495346
 20
641.6080476630257
 30
0.0
  0
SPLINE
  5
150
330
1F
100
AcDbEntity
  8
Predefinito
100
AcDbSpline
210
0.0
220
0.0
230
1.0
 70
    24
 71
     2
 72
     6
 73
     3
 74
     0
 42
0.0000000001
 43
0.0000000001
 40
-0.1698174893751911
 40
-0.1698174893751911
 40
-0.1698174893751911
 40
0.0
 40
0.0
 40
0.0
 10
864.630370495346
 20
641.6080476630257
 30
0.0
 10
864.6303704953466
 20
641.5231389183366
 30
0.0
 10
864.6303704953473
 20
641.4382301736475
 30
0.0
  0
SPLINE
  5
151
330
1F
100
AcDbEntity
  8
Predefinito
100
AcDbSpline
210
0.0
220
0.0
230
1.0
 70
    24
 71
     2
 72
     6
 73
     3
 74
     0
 42
0.0000000001
 43
0.0000000001
 40
-0.7185274765024587
 40
-0.7185274765024587
 40
-0.7185274765024587
 40
0.0
 40
0.0
 40
0.0
 10
864.6303704953473
 20
641.4382301736475
 30
0.0
 10
864.6303704953502
 20
641.0789664353963
 30
0.0
 10
864.6303704953531
 20
640.7197026971451
 30
0.0
  0
SPLINE
  5
152
330
1F
100
AcDbEntity
  8
Predefinito
100
AcDbSpline
210
0.0
220
0.0
230
1.0
 70
    24
 71
     2
 72
     6
 73
     3
 74
     0
 42
0.0000000001
 43
0.0000000001
 40
-2.874109908050968
 40
-2.874109908050968
 40
-2.874109908050968
 40
0.0
 40
0.0
 40
0.0
 10
864.6303704953531
 20
640.7197026971451
 30
0.0
 10
864.63037049537
 20
639.2826477431196
 30
0.0
 10
864.630370495387
 20
637.8455927890941
 30
0.0
  0
SPLINE
  5
153
330
1F
100
AcDbEntity
  8
Predefinito
100
AcDbSpline
210
0.0
220
0.0
230
1.0
 70
    24
 71
     2
 72
     6
 73
     3
 74
     0
 42
0.0000000001
 43
0.0000000001
 40
-11.49643964675988
 40
-11.49643964675988
 40
-11.49643964675988
 40
0.0
 40
0.0
 40
0.0
 10
864.630370495387
 20
637.8455927890941
 30
0.0
 10
864.6303704955208
 20
632.0973729657142
 30
0.0
 10
864.6303704956547
 20
626.3491531423342
 30
0.0
  0
SPLINE
  5
154
330
1F
100
AcDbEntity
  8
Predefinito
100
AcDbSpline
210
0.0
220
0.0
230
1.0
 70
    24
 71
     2
 72
     6
 73
     3
 74
     0
 42
0.0000000001
 43
0.0000000001
 40
-5.748219812625507
 40
-5.748219812625507
 40
-5.748219812625507
 40
0.0
 40
0.0
 40
0.0
 10
864.6303704956547
 20
626.3491531423342
 30
0.0
 10
864.6303704957451
 20
623.4750432360215
 30
0.0
 10
864.6303704958355
 20
620.6009333297087
 30
0.0
  0
SPLINE
  5
155
330
1F
100
AcDbEntity
  8
Predefinito
100
AcDbSpline
210
0.0
220
0.0
230
1.0
 70
    24
 71
     2
 72
     6
 73
     3
 74
     0
 42
0.0000000001
 43
0.0000000001
 40
0.0
 40
0.0
 40
0.0
 40
45.98575745485505
 40
45.98575745485505
 40
45.98575745485505
 10
864.6303704958355
 20
620.6009333297087
 30
0.0
 10
864.6303704958895
 20
597.6080546022813
 30
0.0
 10
864.6303704959435
 20
574.6151758748538
 30
0.0
  0
SPLINE
  5
156
330
1F
100
AcDbEntity
  8
Predefinito
100
AcDbSpline
210
0.0
220
0.0
230
1.0
 70
    24
 71
     2
 72
     6
 73
     3
 74
     0
 42
0.0000000001
 43
0.0000000001
 40
0.0
 40
0.0
 40
0.0
 40
17.75515928975915
 40
17.75515928975915
 40
17.75515928975915
 10
864.6303704959435
 20
574.6151758748538
 30
0.0
 10
864.6303704959433
 20
565.7375962299742
 30
0.0
 10
864.6303704959432
 20
556.8600165850946
 30
0.0
  0
SPLINE
  5
157
330
1F
100
AcDbEntity
  8
Predefinito
100
AcDbSpline
210
0.0
220
0.0
230
1.0
 70
    24
 71
     2
 72
     6
 73
     3
 74
     0
 42
0.0000000001
 43
0.0000000001
 40
0.0
 40
0.0
 40
0.0
 40
0.7185274764199221
 40
0.7185274764199221
 40
0.7185274764199221
 10
857.6303704962805
 20
607.7412614178154
 30
0.0
 10
857.6303704962693
 20
608.1005251560254
 30
0.0
 10
857.6303704962579
 20
608.4597888942353
 30
0.0
  0
SPLINE
  5
158
330
1F
100
AcDbEntity
  8
Predefinito
100
AcDbSpline
210
0.0
220
0.0
230
1.0
 70
    24
 71
     2
 72
     6
 73
     3
 74
     0
 42
0.0000000001
 43
0.0000000001
 40
0.0
 40
0.0
 40
0.0
 40
0.238883648576234
 40
0.238883648576234
 40
0.238883648576234
 10
68.49278382422366
 20
709.6765370873231
 30
0.0
 10
68.49278382514534
 20
709.5570952630351
 30
0.0
 10
68.49278382606701
 20
709.4376534387469
 30
0.0
  0
SPLINE
  5
159
330
1F
100
AcDbEntity
  8
Predefinito
100
AcDbSpline
210
0.0
220
0.0
230
1.0
 70
    24
 71
     2
 72
     6
 73
     3
 74
     0
 42
0.0000000001
 43
0.0000000001
 40
0.0
 40
0.0
 40
0.0
 40
0.119754579390019
 40
0.119754579390019
 40
0.119754579390019
 10
857.6303704962579
 20
608.4597888942353
 30
0.0
 10
857.630370496256
 20
608.5196661839303
 30
0.0
 10
857.630370496254
 20
608.5795434736253
 30
0.0
  0
ENDSEC
  0
SECTION
  2
OBJECTS
  0
DICTIONARY
  5
C
330
0
100
AcDbDictionary
281
     1
  3
ACAD_GROUP
350
D
  3
ACAD_LAYOUT
350
1A
  3
ACAD_MLEADERSTYLE
350
15B
  3
ACAD_MLINESTYLE
350
17
  3
ACAD_PLOTSETTINGS
350
19
  3
ACAD_PLOTSTYLENAME
350
E
  3
ACAD_TABLESTYLE
350
15A
  3
ACAD_VISUALSTYLE
350
2A
  0
DICTIONARY
  5
D
102
{ACAD_REACTORS
330
C
102
}
330
C
100
AcDbDictionary
281
     1
  0
DICTIONARY
  5
1A
102
{ACAD_REACTORS
330
C
102
}
330
C
100
AcDbDictionary
281
     1
  3
Layout1
350
1E
  3
Layout2
350
26
  3
Model
350
22
  0
DICTIONARY
  5
15B
102
{ACAD_REACTORS
330
C
102
}
330
C
100
AcDbDictionary
281
     1
  0
DICTIONARY
  5
17
102
{ACAD_REACTORS
330
C
102
}
330
C
100
AcDbDictionary
281
     1
  3
Standard
350
18
  0
DICTIONARY
  5
19
102
{ACAD_REACTORS
330
C
102
}
330
C
100
AcDbDictionary
281
     1
  0
ACDBDICTIONARYWDFLT
  5
E
102
{ACAD_REACTORS
330
C
102
}
330
C
100
AcDbDictionary
281
     1
  3
Normal
350
F
100
AcDbDictionaryWithDefault
340
F
  0
DICTIONARY
  5
15A
102
{ACAD_REACTORS
330
C
102
}
330
C
100
AcDbDictionary
281
     1
  0
DICTIONARY
  5
2A
102
{ACAD_REACTORS
330
C
102
}
330
C
100
AcDbDictionary
281
     1
  3
2dWireframe
350
2F
  3
3D Hidden
350
31
  3
3dWireframe
350
30
  3
Basic
350
32
  3
Brighten
350
36
  3
ColorChange
350
3A
  3
Conceptual
350
34
  3
Dim
350
35
  3
Facepattern
350
39
  3
Flat
350
2B
  3
FlatWithEdges
350
2C
  3
Gouraud
350
2D
  3
GouraudWithEdges
350
2E
  3
Linepattern
350
38
  3
Realistic
350
33
  3
Thicken
350
37
  0
LAYOUT
  5
1E
102
{ACAD_REACTORS
330
1A
102
}
330
1A
100
AcDbPlotSettings
  1

  2
none_device
  4

  6

 40
0.0
 41
0.0
 42
0.0
 43
0.0
 44
0.0
 45
0.0
 46
0.0
 47
0.0
 48
0.0
 49
0.0
140
0.0
141
0.0
142
1.0
143
1.0
 70
   688
 72
     0
 73
     0
 74
     5
  7

 75
    16
 76
     0
 77
     2
 78
   300
147
1.0
148
0.0
149
0.0
100
AcDbLayout
  1
Layout1
 70
     1
 71
     1
 10
0.0
 20
0.0
 11
12.0
 21
9.0
 12
0.0
 22
0.0
 32
0.0
 14
1.000000000000000E+20
 24
1.000000000000000E+20
 34
1.000000000000000E+20
 15
-1.000000000000000E+20
 25
-1.000000000000000E+20
 35
-1.000000000000000E+20
146
0.0
 13
0.0
 23
0.0
 33
0.0
 16
1.0
 26
0.0
 36
0.0
 17
0.0
 27
1.0
 37
0.0
 76
     0
330
1B
  0
LAYOUT
  5
26
102
{ACAD_REACTORS
330
1A
102
}
330
1A
100
AcDbPlotSettings
  1

  2
none_device
  4

  6

 40
0.0
 41
0.0
 42
0.0
 43
0.0
 44
0.0
 45
0.0
 46
0.0
 47
0.0
 48
0.0
 49
0.0
140
0.0
141
0.0
142
1.0
143
1.0
 70
   688
 72
     0
 73
     0
 74
     5
  7

 75
    16
 76
     0
 77
     2
 78
   300
147
1.0
148
0.0
149
0.0
100
AcDbLayout
  1
Layout2
 70
     1
 71
     2
 10
0.0
 20
0.0
 11
0.0
 21
0.0
 12
0.0
 22
0.0
 32
0.0
 14
0.0
 24
0.0
 34
0.0
 15
0.0
 25
0.0
 35
0.0
146
0.0
 13
0.0
 23
0.0
 33
0.0
 16
1.0
 26
0.0
 36
0.0
 17
0.0
 27
1.0
 37
0.0
 76
     0
330
23
  0
LAYOUT
  5
22
102
{ACAD_REACTORS
330
1A
102
}
330
1A
100
AcDbPlotSettings
  1

  2
none_device
  4

  6

 40
0.0
 41
0.0
 42
0.0
 43
0.0
 44
0.0
 45
0.0
 46
0.0
 47
0.0
 48
0.0
 49
0.0
140
0.0
141
0.0
142
1.0
143
1.0
 70
  1712
 72
     0
 73
     0
 74
     0
  7

 75
     0
 76
     0
 77
     2
 78
   300
147
1.0
148
0.0
149
0.0
100
AcDbLayout
  1
Model
 70
     1
 71
     0
 10
0.0
 20
0.0
 11
12.0
 21
9.0
 12
0.0
 22
0.0
 32
0.0
 14
0.0129208628685908
 24
0.0000021605049199
 34
0.0
 15
914.5188946209167
 25
736.7879839523968
 35
0.0
146
0.0
 13
0.0
 23
0.0
 33
0.0
 16
1.0
 26
0.0
 36
0.0
 17
0.0
 27
1.0
 37
0.0
 76
     0
330
1F
331
29
  0
MLINESTYLE
  5
18
102
{ACAD_REACTORS
330
17
102
}
330
17
100
AcDbMlineStyle
  2
Standard
 70
     0
  3

 62
   256
 51
90.0
 52
90.0
 71
     2
 49
0.5
 62
   256
  6
BYLAYER
 49
-0.5
 62
   256
  6
BYLAYER
  0
ACDBPLACEHOLDER
  5
F
102
{ACAD_REACTORS
330
E
102
}
330
E
  0
VISUALSTYLE
  5
2F
102
{ACAD_REACTORS
330
2A
102
}
330
2A
100
AcDbVisualStyle
  2
2dWireframe
 70
     4
 71
     0
 72
     2
 73
     0
 90
        0
 40
-0.6
 41
-30.0
 62
     5
 63
     7
421
 16777215
 74
     1
 91
        4
 64
     7
 65
   257
 75
     1
175
     1
 42
1.0
 92
        0
 66
   257
 43
1.0
 76
     1
 77
     6
 78
     2
 67
     7
 79
     5
170
     0
171
     0
290
     0
174
     0
 93
        1
 44
0.0
173
     0
291
     0
 45
0.0
1001
ACAD
1000
AcDbSavedByObjectVersion
1070
     0
  0
VISUALSTYLE
  5
31
102
{ACAD_REACTORS
330
2A
102
}
330
2A
100
AcDbVisualStyle
  2
3D Hidden
 70
     6
 71
     1
 72
     2
 73
     2
 90
        0
 40
-0.6
 41
-30.0
 62
     5
 63
     7
421
 16777215
 74
     2
 91
        2
 64
     7
 65
   257
 75
     2
175
     1
 42
40.0
 92
        0
 66
   257
 43
1.0
 76
     1
 77
     6
 78
     2
 67
     7
 79
     3
170
     0
171
     0
290
     0
174
     0
 93
        1
 44
0.0
173
     0
291
     0
 45
0.0
1001
ACAD
1000
AcDbSavedByObjectVersion
1070
     0
  0
VISUALSTYLE
  5
30
102
{ACAD_REACTORS
330
2A
102
}
330
2A
100
AcDbVisualStyle
  2
3dWireframe
 70
     5
 71
     0
 72
     2
 73
     0
 90
        0
 40
-0.6
 41
-30.0
 62
     5
 63
     7
421
 16777215
 74
     1
 91
        4
 64
     7
 65
   257
 75
     1
175
     1
 42
1.0
 92
        0
 66
   257
 43
1.0
 76
     1
 77
     6
 78
     2
 67
     7
 79
     5
170
     0
171
     0
290
     0
174
     0
 93
        1
 44
0.0
173
     0
291
     0
 45
0.0
1001
ACAD
1000
AcDbSavedByObjectVersion
1070
     0
  0
VISUALSTYLE
  5
32
102
{ACAD_REACTORS
330
2A
102
}
330
2A
100
AcDbVisualStyle
  2
Basic
 70
     7
 71
     1
 72
     0
 73
     1
 90
        0
 40
-0.6
 41
-30.0
 62
     5
 63
     7
421
 16777215
 74
     0
 91
        4
 64
     7
 65
   257
 75
     1
175
     1
 42
1.0
 92
        8
 66
     7
 43
1.0
 76
     1
 77
     6
 78
     2
 67
     7
 79
     5
170
     0
171
     0
290
     0
174
     0
 93
        1
 44
0.0
173
     0
291
     1
 45
0.0
1001
ACAD
1000
AcDbSavedByObjectVersion
1070
     0
  0
VISUALSTYLE
  5
36
102
{ACAD_REACTORS
330
2A
102
}
330
2A
100
AcDbVisualStyle
  2
Brighten
 70
    12
 71
     2
 72
     2
 73
     0
 90
        0
 40
-0.6
 41
-30.0
 62
     5
 63
     7
421
 16777215
 74
     1
 91
        4
 64
     7
 65
   257
 75
     1
175
     1
 42
1.0
 92
        8
 66
     7
 43
1.0
 76
     1
 77
     6
 78
     2
 67
     7
 79
     5
170
     0
171
     0
290
     0
174
     0
 93
        1
 44
50.0
173
     0
291
     1
 45
0.0
1001
ACAD
1000
AcDbSavedByObjectVersion
1070
     0
  0
VISUALSTYLE
  5
3A
102
{ACAD_REACTORS
330
2A
102
}
330
2A
100
AcDbVisualStyle
  2
ColorChange
 70
    16
 71
     2
 72
     2
 73
     3
 90
        0
 40
-0.6
 41
-30.0
 62
     5
 63
     8
421
  8421504
 74
     1
 91
        4
 64
     7
 65
   257
 75
     1
175
     1
 42
1.0
 92
        8
 66
     8
424
  8421504
 43
1.0
 76
     1
 77
     6
 78
     2
 67
     7
 79
     5
170
     0
171
     0
290
     0
174
     0
 93
        1
 44
0.0
173
     0
291
     1
 45
0.0
1001
ACAD
1000
AcDbSavedByObjectVersion
1070
     0
  0
VISUALSTYLE
  5
34
102
{ACAD_REACTORS
330
2A
102
}
330
2A
100
AcDbVisualStyle
  2
Conceptual
 70
     9
 71
     3
 72
     2
 73
     0
 90
        0
 40
-0.6
 41
-30.0
 62
     5
 63
     7
421
 16777215
 74
     2
 91
        2
 64
     7
 65
   257
 75
     1
175
     1
 42
40.0
 92
        8
 66
     7
 43
1.0
 76
     1
 77
     6
 78
     2
 67
     7
 79
     3
170
     0
171
     0
290
     0
174
     0
 93
        1
 44
0.0
173
     0
291
     0
 45
0.0
1001
ACAD
1000
AcDbSavedByObjectVersion
1070
     0
  0
VISUALSTYLE
  5
35
102
{ACAD_REACTORS
330
2A
102
}
330
2A
100
AcDbVisualStyle
  2
Dim
 70
    11
 71
     2
 72
     2
 73
     0
 90
        0
 40
-0.6
 41
-30.0
 62
     5
 63
     7
421
 16777215
 74
     1
 91
        4
 64
     7
 65
   257
 75
     1
175
     1
 42
1.0
 92
        8
 66
     7
 43
1.0
 76
     1
 77
     6
 78
     2
 67
     7
 79
     5
170
     0
171
     0
290
     0
174
     0
 93
        1
 44
-50.0
173
     0
291
     1
 45
0.0
1001
ACAD
1000
AcDbSavedByObjectVersion
1070
     0
  0
VISUALSTYLE
  5
39
102
{ACAD_REACTORS
330
2A
102
}
330
2A
100
AcDbVisualStyle
  2
Facepattern
 70
    15
 71
     2
 72
     2
 73
     0
 90
        0
 40
-0.6
 41
-30.0
 62
     5
 63
     7
421
 16777215
 74
     1
 91
        4
 64
     7
 65
   257
 75
     1
175
     1
 42
1.0
 92
        8
 66
     7
 43
1.0
 76
     1
 77
     6
 78
     2
 67
     7
 79
     5
170
     0
171
     0
290
     0
174
     0
 93
        1
 44
0.0
173
     0
291
     1
 45
0.0
1001
ACAD
1000
AcDbSavedByObjectVersion
1070
     0
  0
VISUALSTYLE
  5
2B
102
{ACAD_REACTORS
330
2A
102
}
330
2A
100
AcDbVisualStyle
  2
Flat
 70
     0
 71
     2
 72
     1
 73
     1
 90
        2
 40
-0.6
 41
30.0
 62
     5
 63
     7
421
 16777215
 74
     0
 91
        4
 64
     7
 65
   257
 75
     1
175
     1
 42
1.0
 92
        8
 66
     7
 43
1.0
 76
     1
 77
     6
 78
     2
 67
     7
 79
     5
170
     0
171
     0
290
     0
174
     0
 93
       13
 44
0.0
173
     0
291
     1
 45
0.0
1001
ACAD
1000
AcDbSavedByObjectVersion
1070
     0
  0
VISUALSTYLE
  5
2C
102
{ACAD_REACTORS
330
2A
102
}
330
2A
100
AcDbVisualStyle
  2
FlatWithEdges
 70
     1
 71
     2
 72
     1
 73
     1
 90
        2
 40
-0.6
 41
30.0
 62
     5
 63
     7
421
 16777215
 74
     1
 91
        4
 64
     7
 65
   257
 75
     1
175
     1
 42
1.0
 92
        0
 66
   257
 43
1.0
 76
     1
 77
     6
 78
     2
 67
     7
 79
     5
170
     0
171
     0
290
     0
174
     0
 93
       13
 44
0.0
173
     0
291
     1
 45
0.0
1001
ACAD
1000
AcDbSavedByObjectVersion
1070
     0
  0
VISUALSTYLE
  5
2D
102
{ACAD_REACTORS
330
2A
102
}
330
2A
100
AcDbVisualStyle
  2
Gouraud
 70
     2
 71
     2
 72
     2
 73
     1
 90
        2
 40
-0.6
 41
30.0
 62
     5
 63
     7
421
 16777215
 74
     0
 91
        4
 64
     7
 65
   257
 75
     1
175
     1
 42
1.0
 92
        0
 66
     7
 43
1.0
 76
     1
 77
     6
 78
     2
 67
     7
 79
     5
170
     0
171
     0
290
     0
174
     0
 93
       13
 44
0.0
173
     0
291
     1
 45
0.0
1001
ACAD
1000
AcDbSavedByObjectVersion
1070
     0
  0
VISUALSTYLE
  5
2E
102
{ACAD_REACTORS
330
2A
102
}
330
2A
100
AcDbVisualStyle
  2
GouraudWithEdges
 70
     3
 71
     2
 72
     2
 73
     1
 90
        2
 40
-0.6
 41
30.0
 62
     5
 63
     7
421
 16777215
 74
     1
 91
        4
 64
     7
 65
   257
 75
     1
175
     1
 42
1.0
 92
        0
 66
   257
 43
1.0
 76
     1
 77
     6
 78
     2
 67
     7
 79
     5
170
     0
171
     0
290
     0
174
     0
 93
       13
 44
0.0
173
     0
291
     1
 45
0.0
1001
ACAD
1000
AcDbSavedByObjectVersion
1070
     0
  0
VISUALSTYLE
  5
38
102
{ACAD_REACTORS
330
2A
102
}
330
2A
100
AcDbVisualStyle
  2
Linepattern
 70
    14
 71
     2
 72
     2
 73
     0
 90
        0
 40
-0.6
 41
-30.0
 62
     5
 63
     7
421
 16777215
 74
     1
 91
        4
 64
     7
 65
   257
 75
     7
175
     7
 42
1.0
 92
        8
 66
     7
 43
1.0
 76
     1
 77
     6
 78
     2
 67
     7
 79
     5
170
     0
171
     0
290
     0
174
     0
 93
        1
 44
0.0
173
     0
291
     1
 45
0.0
1001
ACAD
1000
AcDbSavedByObjectVersion
1070
     0
  0
VISUALSTYLE
  5
33
102
{ACAD_REACTORS
330
2A
102
}
330
2A
100
AcDbVisualStyle
  2
Realistic
 70
     8
 71
     2
 72
     2
 73
     0
 90
        0
 40
-0.6
 41
-30.0
 62
     5
 63
     7
421
 16777215
 74
     1
 91
        0
 64
     7
 65
   257
 75
     1
175
     1
 42
1.0
 92
        8
 66
     8
424
  7895160
 43
1.0
 76
     1
 77
     6
 78
     2
 67
     7
 79
     5
170
     0
171
     0
290
     0
174
     0
 93
       13
 44
0.0
173
     0
291
     0
 45
0.0
1001
ACAD
1000
AcDbSavedByObjectVersion
1070
     0
  0
VISUALSTYLE
  5
37
102
{ACAD_REACTORS
330
2A
102
}
330
2A
100
AcDbVisualStyle
  2
Thicken
 70
    13
 71
     2
 72
     2
 73
     0
 90
        0
 40
-0.6
 41
-30.0
 62
     5
 63
     7
421
 16777215
 74
     1
 91
        4
 64
     7
 65
   257
 75
     1
175
     1
 42
1.0
 92
       12
 66
     7
 43
1.0
 76
     1
 77
     6
 78
     2
 67
     7
 79
     5
170
     0
171
     0
290
     0
174
     0
 93
        1
 44
0.0
173
     0
291
     1
 45
0.0
1001
ACAD
1000
AcDbSavedByObjectVersion
1070
     0
  0
ENDSEC
  0
EOF
