  0
SECTION
  2
HEADER
  9
$ACADVER
  1
AC1018
  9
$ACADMAINTVER
 70
     0
  9
$DWGCODEPAGE
  3
ANSI_1252
  9
$INSBASE
 10
0.0
 20
0.0
 30
0.0
  9
$EXTMIN
 10
0.0122850343239595
 20
-0.0092579871400744
 30
0.0
  9
$EXTMAX
 10
340.3497778265467
 20
995.8560456616283
 30
0.0
  9
$LIMMIN
 10
0.0
 20
0.0
  9
$LIMMAX
 10
12.0
 20
9.0
  9
$ORTHOMODE
 70
     0
  9
$REGENMODE
 70
     1
  9
$FILLMODE
 70
     1
  9
$QTEXTMODE
 70
     0
  9
$MIRRTEXT
 70
     1
  9
$LTSCALE
 40
1.0
  9
$ATTMODE
 70
     1
  9
$TEXTSIZE
 40
0.2
  9
$TRACEWID
 40
0.05
  9
$TEXTSTYLE
  7
Standard
  9
$CLAYER
  8
Predefinito
  9
$CELTYPE
  6
ByLayer
  9
$CECOLOR
 62
   256
  9
$CELTSCALE
 40
1.0
  9
$DISPSILH
 70
     0
  9
$DIMSCALE
 40
1.0
  9
$DIMASZ
 40
0.18
  9
$DIMEXO
 40
0.0625
  9
$DIMDLI
 40
0.38
  9
$DIMRND
 40
0.0
  9
$DIMDLE
 40
0.0
  9
$DIMEXE
 40
0.18
  9
$DIMTP
 40
0.0
  9
$DIMTM
 40
0.0
  9
$DIMTXT
 40
0.18
  9
$DIMCEN
 40
0.09
  9
$DIMTSZ
 40
0.0
  9
$DIMTOL
 70
     0
  9
$DIMLIM
 70
     0
  9
$DIMTIH
 70
     1
  9
$DIMTOH
 70
     1
  9
$DIMSE1
 70
     0
  9
$DIMSE2
 70
     0
  9
$DIMTAD
 70
     0
  9
$DIMZIN
 70
     0
  9
$DIMBLK
  1

  9
$DIMASO
 70
     1
  9
$DIMSHO
 70
     1
  9
$DIMPOST
  1

  9
$DIMAPOST
  1

  9
$DIMALT
 70
     0
  9
$DIMALTD
 70
     2
  9
$DIMALTF
 40
25.4
  9
$DIMLFAC
 40
1.0
  9
$DIMTOFL
 70
     0
  9
$DIMTVP
 40
0.0
  9
$DIMTIX
 70
     0
  9
$DIMSOXD
 70
     0
  9
$DIMSAH
 70
     0
  9
$DIMBLK1
  1

  9
$DIMBLK2
  1

  9
$DIMSTYLE
  2
Standard
  9
$DIMCLRD
 70
     0
  9
$DIMCLRE
 70
     0
  9
$DIMCLRT
 70
     0
  9
$DIMTFAC
 40
1.0
  9
$DIMGAP
 40
0.09
  9
$DIMJUST
 70
     0
  9
$DIMSD1
 70
     0
  9
$DIMSD2
 70
     0
  9
$DIMTOLJ
 70
     1
  9
$DIMTZIN
 70
     0
  9
$DIMALTZ
 70
     0
  9
$DIMALTTZ
 70
     0
  9
$DIMUPT
 70
     0
  9
$DIMDEC
 70
     4
  9
$DIMTDEC
 70
     4
  9
$DIMALTU
 70
     2
  9
$DIMALTTD
 70
     2
  9
$DIMTXSTY
  7
Standard
  9
$DIMAUNIT
 70
     0
  9
$DIMADEC
 70
     0
  9
$DIMALTRND
 40
0.0
  9
$DIMAZIN
 70
     0
  9
$DIMDSEP
 70
    46
  9
$DIMATFIT
 70
     3
  9
$DIMFRAC
 70
     0
  9
$DIMLDRBLK
  1

  9
$DIMLUNIT
 70
     2
  9
$DIMLWD
 70
    -2
  9
$DIMLWE
 70
    -2
  9
$DIMTMOVE
 70
     2
  9
$LUNITS
 70
     2
  9
$LUPREC
 70
     3
  9
$SKETCHINC
 40
0.1
  9
$FILLETRAD
 40
0.5
  9
$AUNITS
 70
     0
  9
$AUPREC
 70
     0
  9
$MENU
  1
.
  9
$ELEVATION
 40
0.0
  9
$PELEVATION
 40
0.0
  9
$THICKNESS
 40
0.0
  9
$LIMCHECK
 70
     0
  9
$CHAMFERA
 40
0.5
  9
$CHAMFERB
 40
0.5
  9
$CHAMFERC
 40
1.0
  9
$CHAMFERD
 40
0.0
  9
$SKPOLY
 70
     0
  9
$TDCREATE
 40
2458325.65500368
  9
$TDUCREATE
 40
2458325.571670347
  9
$TDUPDATE
 40
2458325.655003692
  9
$TDUUPDATE
 40
2458325.571670359
  9
$TDINDWG
 40
0.0000000116
  9
$TDUSRTIMER
 40
0.0000000116
  9
$USRTIMER
 70
     1
  9
$ANGBASE
 50
0.0
  9
$ANGDIR
 70
     0
  9
$PDMODE
 70
     0
  9
$PDSIZE
 40
0.0
  9
$PLINEWID
 40
0.0
  9
$SPLFRAME
 70
     0
  9
$SPLINETYPE
 70
     6
  9
$SPLINESEGS
 70
     8
  9
$HANDSEED
  5
D3
  9
$SURFTAB1
 70
     6
  9
$SURFTAB2
 70
     6
  9
$SURFTYPE
 70
     6
  9
$SURFU
 70
     6
  9
$SURFV
 70
     6
  9
$UCSBASE
  2

  9
$UCSNAME
  2

  9
$UCSORG
 10
0.0
 20
0.0
 30
0.0
  9
$UCSXDIR
 10
1.0
 20
0.0
 30
0.0
  9
$UCSYDIR
 10
0.0
 20
1.0
 30
0.0
  9
$UCSORTHOREF
  2

  9
$UCSORTHOVIEW
 70
     0
  9
$UCSORGTOP
 10
0.0
 20
0.0
 30
0.0
  9
$UCSORGBOTTOM
 10
0.0
 20
0.0
 30
0.0
  9
$UCSORGLEFT
 10
0.0
 20
0.0
 30
0.0
  9
$UCSORGRIGHT
 10
0.0
 20
0.0
 30
0.0
  9
$UCSORGFRONT
 10
0.0
 20
0.0
 30
0.0
  9
$UCSORGBACK
 10
0.0
 20
0.0
 30
0.0
  9
$PUCSBASE
  2

  9
$PUCSNAME
  2

  9
$PUCSORG
 10
0.0
 20
0.0
 30
0.0
  9
$PUCSXDIR
 10
1.0
 20
0.0
 30
0.0
  9
$PUCSYDIR
 10
0.0
 20
1.0
 30
0.0
  9
$PUCSORTHOREF
  2

  9
$PUCSORTHOVIEW
 70
     0
  9
$PUCSORGTOP
 10
0.0
 20
0.0
 30
0.0
  9
$PUCSORGBOTTOM
 10
0.0
 20
0.0
 30
0.0
  9
$PUCSORGLEFT
 10
0.0
 20
0.0
 30
0.0
  9
$PUCSORGRIGHT
 10
0.0
 20
0.0
 30
0.0
  9
$PUCSORGFRONT
 10
0.0
 20
0.0
 30
0.0
  9
$PUCSORGBACK
 10
0.0
 20
0.0
 30
0.0
  9
$USERI1
 70
     0
  9
$USERI2
 70
     0
  9
$USERI3
 70
     0
  9
$USERI4
 70
     0
  9
$USERI5
 70
     0
  9
$USERR1
 40
0.0
  9
$USERR2
 40
0.0
  9
$USERR3
 40
0.0
  9
$USERR4
 40
0.0
  9
$USERR5
 40
0.0
  9
$WORLDVIEW
 70
     1
  9
$SHADEDGE
 70
     3
  9
$SHADEDIF
 70
    70
  9
$TILEMODE
 70
     0
  9
$MAXACTVP
 70
    64
  9
$PINSBASE
 10
0.0
 20
0.0
 30
0.0
  9
$PLIMCHECK
 70
     0
  9
$PEXTMIN
 10
0.0
 20
0.0
 30
0.0
  9
$PEXTMAX
 10
0.0
 20
0.0
 30
0.0
  9
$PLIMMIN
 10
0.0
 20
0.0
  9
$PLIMMAX
 10
12.0
 20
9.0
  9
$UNITMODE
 70
     0
  9
$VISRETAIN
 70
     1
  9
$PLINEGEN
 70
     0
  9
$PSLTSCALE
 70
     1
  9
$TREEDEPTH
 70
  3020
  9
$CMLSTYLE
  2
Standard
  9
$CMLJUST
 70
     0
  9
$CMLSCALE
 40
1.0
  9
$PROXYGRAPHICS
 70
     1
  9
$MEASUREMENT
 70
     0
  9
$CELWEIGHT
370
    -1
  9
$ENDCAPS
280
     0
  9
$JOINSTYLE
280
     0
  9
$LWDISPLAY
290
     0
  9
$INSUNITS
 70
     4
  9
$HYPERLINKBASE
  1

  9
$STYLESHEET
  1

  9
$XEDIT
290
     1
  9
$CEPSNTYPE
380
     0
  9
$PSTYLEMODE
290
     1
  9
$FINGERPRINTGUID
  2
{A5D2F92B-A819-4244-BC55-A742AE331D1D}
  9
$VERSIONGUID
  2
{FAEB1C32-E019-11D5-929B-00C0DF256EC4}
  9
$EXTNAMES
290
     1
  9
$PSVPSCALE
 40
0.0
  9
$OLESTARTUP
290
     0
  9
$SORTENTS
280
   127
  9
$INDEXCTL
280
     0
  9
$HIDETEXT
280
     1
  9
$XCLIPFRAME
290
     0
  9
$HALOGAP
280
     0
  9
$OBSCOLOR
 70
   257
  9
$OBSLTYPE
280
     0
  9
$INTERSECTIONDISPLAY
280
     0
  9
$INTERSECTIONCOLOR
 70
   257
  9
$DIMASSOC
280
     2
  9
$PROJECTNAME
  1

  0
ENDSEC
  0
SECTION
  2
CLASSES
  0
CLASS
  1
ACDBDICTIONARYWDFLT
  2
AcDbDictionaryWithDefault
  3
ObjectDBX Classes
 90
        0
 91
        4
280
     0
281
     0
  0
CLASS
  1
VISUALSTYLE
  2
AcDbVisualStyle
  3
ObjectDBX Classes
 90
     4095
 91
        4
280
     0
281
     0
  0
CLASS
  1
SCALE
  2
AcDbScale
  3
ObjectDBX Classes
 90
     1153
 91
        4
280
     0
281
     0
  0
CLASS
  1
DICTIONARYVAR
  2
AcDbDictionaryVar
  3
ObjectDBX Classes
 90
        0
 91
        4
280
     0
281
     0
  0
ENDSEC
  0
SECTION
  2
TABLES
  0
TABLE
  2
VPORT
  5
8
330
0
100
AcDbSymbolTable
 70
     1
  0
VPORT
  5
29
330
8
100
AcDbSymbolTableRecord
100
AcDbViewportTableRecord
  2
*Active
 70
     0
 10
0.0
 20
0.0
 11
1.0
 21
1.0
 12
170.1810314304353
 22
497.9233938372441
 13
0.0
 23
0.0
 14
0.5
 24
0.5
 15
0.5
 25
0.5
 16
0.0
 26
0.0
 36
1.0
 17
0.0
 27
0.0
 37
0.0
 40
1015.782609721744
 41
0.3417505274511063
 42
50.0
 43
0.0
 44
0.0
 50
0.0
 51
0.0
 71
     0
 72
   100
 73
     1
 74
     3
 75
     0
 76
     0
 77
     0
 78
     0
281
     0
 65
     1
110
0.0
120
0.0
130
0.0
111
1.0
121
0.0
131
0.0
112
0.0
122
1.0
132
0.0
 79
     0
146
0.0
  0
ENDTAB
  0
TABLE
  2
LTYPE
  5
5
330
0
100
AcDbSymbolTable
 70
     1
  0
LTYPE
  5
14
330
5
100
AcDbSymbolTableRecord
100
AcDbLinetypeTableRecord
  2
ByBlock
 70
     0
  3

 72
    65
 73
     0
 40
0.0
  0
LTYPE
  5
15
330
5
100
AcDbSymbolTableRecord
100
AcDbLinetypeTableRecord
  2
ByLayer
 70
     0
  3

 72
    65
 73
     0
 40
0.0
  0
LTYPE
  5
16
330
5
100
AcDbSymbolTableRecord
100
AcDbLinetypeTableRecord
  2
Continuous
 70
     0
  3
Solid line
 72
    65
 73
     0
 40
0.0
  0
ENDTAB
  0
TABLE
  2
LAYER
  5
2
330
0
100
AcDbSymbolTable
 70
     2
  0
LAYER
  5
10
330
2
100
AcDbSymbolTableRecord
100
AcDbLayerTableRecord
  2
0
 70
     0
 62
     7
  6
Continuous
370
    -3
390
F
  0
LAYER
  5
3B
330
2
100
AcDbSymbolTableRecord
100
AcDbLayerTableRecord
  2
Predefinito
 70
     0
 62
     7
  6
Continuous
370
    -3
390
F
  0
ENDTAB
  0
TABLE
  2
STYLE
  5
3
330
0
100
AcDbSymbolTable
 70
     1
  0
STYLE
  5
11
330
3
100
AcDbSymbolTableRecord
100
AcDbTextStyleTableRecord
  2
Standard
 70
     0
 40
0.0
 41
1.0
 50
0.0
 71
     0
 42
0.2
  3
txt
  4

  0
ENDTAB
  0
TABLE
  2
VIEW
  5
6
330
0
100
AcDbSymbolTable
 70
     0
  0
ENDTAB
  0
TABLE
  2
UCS
  5
7
330
0
100
AcDbSymbolTable
 70
     0
  0
ENDTAB
  0
TABLE
  2
APPID
  5
9
330
0
100
AcDbSymbolTable
 70
     1
  0
APPID
  5
12
330
9
100
AcDbSymbolTableRecord
100
AcDbRegAppTableRecord
  2
ACAD
 70
     0
  0
ENDTAB
  0
TABLE
  2
DIMSTYLE
  5
A
330
0
100
AcDbSymbolTable
 70
     1
100
AcDbDimStyleTable
  0
DIMSTYLE
105
27
330
A
100
AcDbSymbolTableRecord
100
AcDbDimStyleTableRecord
  2
Standard
 70
     0
340
11
  0
ENDTAB
  0
TABLE
  2
BLOCK_RECORD
  5
1
330
0
100
AcDbSymbolTable
 70
     3
  0
BLOCK_RECORD
  5
1F
330
1
100
AcDbSymbolTableRecord
100
AcDbBlockTableRecord
  2
*Model_Space
340
22
  0
BLOCK_RECORD
  5
A8
330
1
100
AcDbSymbolTableRecord
100
AcDbBlockTableRecord
  2
*Paper_Space
340
A9
  0
BLOCK_RECORD
  5
23
330
1
100
AcDbSymbolTableRecord
100
AcDbBlockTableRecord
  2
*Paper_Space0
340
26
  0
BLOCK_RECORD
  5
1B
330
1
100
AcDbSymbolTableRecord
100
AcDbBlockTableRecord
  2
*Paper_Space1
340
1E
  0
BLOCK_RECORD
  5
A3
330
1
100
AcDbSymbolTableRecord
100
AcDbBlockTableRecord
  2
*Paper_Space2
340
A4
  0
ENDTAB
  0
ENDSEC
  0
SECTION
  2
BLOCKS
  0
BLOCK
  5
20
330
1F
100
AcDbEntity
  8
0
100
AcDbBlockBegin
  2
*Model_Space
 70
     0
 10
0.0
 20
0.0
 30
0.0
  3
*Model_Space
  1

  0
ENDBLK
  5
21
330
1F
100
AcDbEntity
  8
0
100
AcDbBlockEnd
  0
BLOCK
  5
AA
330
A8
100
AcDbEntity
 67
     1
  8
0
100
AcDbBlockBegin
  2
*Paper_Space
 70
     0
 10
0.0
 20
0.0
 30
0.0
  3
*Paper_Space
  1

  0
ENDBLK
  5
AB
330
A8
100
AcDbEntity
 67
     1
  8
0
100
AcDbBlockEnd
  0
BLOCK
  5
24
330
23
100
AcDbEntity
  8
0
100
AcDbBlockBegin
  2
*Paper_Space0
 70
     0
 10
0.0
 20
0.0
 30
0.0
  3
*Paper_Space0
  1

  0
ENDBLK
  5
25
330
23
100
AcDbEntity
  8
0
100
AcDbBlockEnd
  0
BLOCK
  5
1C
330
1B
100
AcDbEntity
  8
0
100
AcDbBlockBegin
  2
*Paper_Space1
 70
     0
 10
0.0
 20
0.0
 30
0.0
  3
*Paper_Space1
  1

  0
ENDBLK
  5
1D
330
1B
100
AcDbEntity
  8
0
100
AcDbBlockEnd
  0
BLOCK
  5
A5
330
A3
100
AcDbEntity
  8
0
100
AcDbBlockBegin
  2
*Paper_Space2
 70
     0
 10
0.0
 20
0.0
 30
0.0
  3
*Paper_Space2
  1

  0
VIEWPORT
  5
A7
330
A3
100
AcDbEntity
  8
0
100
AcDbViewport
 10
6.0
 20
4.5
 30
0.0
 40
12.696
 41
9.522
 68
     1
 69
     1
 12
6.0
 22
4.5
 13
0.0
 23
0.0
 14
0.5
 24
0.5
 15
0.5
 25
0.5
 16
0.0
 26
0.0
 36
1.0
 17
0.0
 27
0.0
 37
0.0
 42
50.0
 43
0.0
 44
0.0
 45
9.522
 50
0.0
 51
0.0
 72
   100
 90
   557152
  1

281
     0
 71
     1
 74
     0
110
0.0
120
0.0
130
0.0
111
1.0
121
0.0
131
0.0
112
0.0
122
1.0
132
0.0
 79
     0
146
0.0
170
     0
  0
ENDBLK
  5
A6
330
A3
100
AcDbEntity
  8
0
100
AcDbBlockEnd
  0
ENDSEC
  0
SECTION
  2
ENTITIES
  0
SPLINE
  5
3C
330
1F
100
AcDbEntity
  8
Predefinito
100
AcDbSpline
210
0.0
220
0.0
230
1.0
 70
    24
 71
     2
 72
     6
 73
     3
 74
     0
 42
0.0000000001
 43
0.0000000001
 40
0.0
 40
0.0
 40
0.0
 40
3.280000000000086
 40
3.280000000000086
 40
3.280000000000086
 10
58.77278381673059
 20
636.1008646778457
 30
0.0
 10
58.77278381673059
 20
637.7408646778458
 30
0.0
 10
58.77278381673059
 20
639.3808646778458
 30
0.0
  0
SPLINE
  5
3D
330
1F
100
AcDbEntity
  8
Predefinito
100
AcDbSpline
210
0.0
220
0.0
230
1.0
 70
    24
 71
     2
 72
     6
 73
     3
 74
     0
 42
0.0000000001
 43
0.0000000001
 40
0.0
 40
0.0
 40
0.0
 40
6.219999999999999
 40
6.219999999999999
 40
6.219999999999999
 10
58.77278381673059
 20
639.3808646778458
 30
0.0
 10
61.88278381673059
 20
639.3808646778458
 30
0.0
 10
64.9927838167306
 20
639.3808646778458
 30
0.0
  0
LINE
  5
3E
330
1F
100
AcDbEntity
  8
Predefinito
100
AcDbLine
 10
64.9927838167306
 20
639.3808646778458
 30
0.0
 11
71.21278381673059
 21
639.3808646778458
 31
0.0
  0
SPLINE
  5
3F
330
1F
100
AcDbEntity
  8
Predefinito
100
AcDbSpline
210
0.0
220
0.0
230
1.0
 70
    24
 71
     2
 72
     6
 73
     3
 74
     0
 42
0.0000000001
 43
0.0000000001
 40
0.0
 40
0.0
 40
0.0
 40
3.280000000000086
 40
3.280000000000086
 40
3.280000000000086
 10
71.21278381673059
 20
639.3808646778458
 30
0.0
 10
71.21278381673059
 20
637.7408646778458
 30
0.0
 10
71.21278381673059
 20
636.1008646778457
 30
0.0
  0
SPLINE
  5
40
330
1F
100
AcDbEntity
  8
Predefinito
100
AcDbSpline
210
0.0
220
0.0
230
1.0
 70
    24
 71
     2
 72
     6
 73
     3
 74
     0
 42
0.0000000001
 43
0.0000000001
 40
0.0
 40
0.0
 40
0.0
 40
0.3111269837234861
 40
0.3111269837234861
 40
0.3111269837234861
 10
58.77278381667196
 20
639.3808646778458
 30
0.0
 10
58.882783816673
 20
639.4908646778458
 30
0.0
 10
58.99278381667403
 20
639.6008646778457
 30
0.0
  0
LINE
  5
41
330
1F
100
AcDbEntity
  8
Predefinito
100
AcDbLine
 10
58.99278381667403
 20
639.6008646778457
 30
0.0
 11
59.15178441790157
 21
639.6008646778457
 31
0.0
  0
SPLINE
  5
42
330
1F
100
AcDbEntity
  8
Predefinito
100
AcDbSpline
210
0.0
220
0.0
230
1.0
 70
    24
 71
     2
 72
     6
 73
     3
 74
     0
 42
0.0000000001
 43
0.0000000001
 40
0.0
 40
0.0
 40
0.0
 40
0.309016994374943
 40
0.309016994374943
 40
0.309016994374943
 10
59.15178441790157
 20
639.6008646778457
 30
0.0
 10
59.30629291508904
 20
639.6008646778457
 30
0.0
 10
59.46080141227651
 20
639.6008646778457
 30
0.0
  0
SPLINE
  5
43
330
1F
100
AcDbEntity
  8
Predefinito
100
AcDbSpline
210
0.0
220
0.0
230
1.0
 70
    24
 71
     2
 72
     6
 73
     3
 74
     0
 42
0.0000000001
 43
0.0000000001
 40
0.0
 40
0.0
 40
0.0
 40
0.4008716961399301
 40
0.4008716961399301
 40
0.4008716961399301
 10
59.46080141227651
 20
639.6008646778457
 30
0.0
 10
59.66123726034647
 20
639.6008646778457
 30
0.0
 10
59.86167310841644
 20
639.6008646778457
 30
0.0
  0
SPLINE
  5
44
330
1F
100
AcDbEntity
  8
Predefinito
100
AcDbSpline
210
0.0
220
0.0
230
1.0
 70
    24
 71
     2
 72
     6
 73
     3
 74
     0
 42
0.0000000001
 43
0.0000000001
 40
0.0
 40
0.0
 40
0.0
 40
0.5877852522924698
 40
0.5877852522924698
 40
0.5877852522924698
 10
59.86167310841644
 20
639.6008646778457
 30
0.0
 10
60.15556573456267
 20
639.6008646778457
 30
0.0
 10
60.44945836070891
 20
639.6008646778457
 30
0.0
  0
SPLINE
  5
45
330
1F
100
AcDbEntity
  8
Predefinito
100
AcDbSpline
210
0.0
220
0.0
230
1.0
 70
    24
 71
     2
 72
     6
 73
     3
 74
     0
 42
0.0000000001
 43
0.0000000001
 40
0.0
 40
0.0
 40
0.0
 40
0.6243723049026784
 40
0.6243723049026784
 40
0.6243723049026784
 10
60.44945836070891
 20
639.6008646778457
 30
0.0
 10
60.76164451316025
 20
639.6008646778457
 30
0.0
 10
61.07383066561159
 20
639.6008646778457
 30
0.0
  0
SPLINE
  5
46
330
1F
100
AcDbEntity
  8
Predefinito
100
AcDbSpline
210
0.0
220
0.0
230
1.0
 70
    24
 71
     2
 72
     6
 73
     3
 74
     0
 42
0.0000000001
 43
0.0000000001
 40
0.0
 40
0.0
 40
0.0
 40
0.8090169943749501
 40
0.8090169943749501
 40
0.8090169943749501
 10
61.07383066561159
 20
639.6008646778457
 30
0.0
 10
61.47833916279906
 20
639.6008646778457
 30
0.0
 10
61.88284765998654
 20
639.6008646778457
 30
0.0
  0
SPLINE
  5
47
330
1F
100
AcDbEntity
  8
Predefinito
100
AcDbSpline
210
0.0
220
0.0
230
1.0
 70
    24
 71
     2
 72
     6
 73
     3
 74
     0
 42
0.0000000001
 43
0.0000000001
 40
0.0
 40
0.0
 40
0.0
 40
0.786755002203904
 40
0.786755002203904
 40
0.786755002203904
 10
61.88284765998654
 20
639.6008646778457
 30
0.0
 10
62.27622516108849
 20
639.6008646778457
 30
0.0
 10
62.66960266219044
 20
639.6008646778457
 30
0.0
  0
SPLINE
  5
48
330
1F
100
AcDbEntity
  8
Predefinito
100
AcDbSpline
210
0.0
220
0.0
230
1.0
 70
    24
 71
     2
 72
     6
 73
     3
 74
     0
 42
0.0000000001
 43
0.0000000001
 40
0.0
 40
0.0
 40
0.0
 40
0.9510565162951465
 40
0.9510565162951465
 40
0.9510565162951465
 10
62.66960266219044
 20
639.6008646778457
 30
0.0
 10
63.14513092033802
 20
639.6008646778457
 30
0.0
 10
63.62065917848559
 20
639.6008646778457
 30
0.0
  0
SPLINE
  5
49
330
1F
100
AcDbEntity
  8
Predefinito
100
AcDbSpline
210
0.0
220
0.0
230
1.0
 70
    24
 71
     2
 72
     6
 73
     3
 74
     0
 42
0.0000000001
 43
0.0000000001
 40
-0.8721246382449763
 40
-0.8721246382449763
 40
-0.8721246382449763
 40
0.0
 40
0.0
 40
0.0
 10
63.62065917848559
 20
639.6008646778457
 30
0.0
 10
64.05672149760808
 20
639.6008646778457
 30
0.0
 10
64.49278381673057
 20
639.6008646778457
 30
0.0
  0
SPLINE
  5
4A
330
1F
100
AcDbEntity
  8
Predefinito
100
AcDbSpline
210
0.0
220
0.0
230
1.0
 70
    24
 71
     2
 72
     6
 73
     3
 74
     0
 42
0.0000000001
 43
0.0000000001
 40
0.0
 40
0.0
 40
0.0
 40
1.0
 40
1.0
 40
1.0
 10
64.49278381673057
 20
639.6008646778457
 30
0.0
 10
64.99278381673057
 20
639.6008646778457
 30
0.0
 10
65.49278381673057
 20
639.6008646778457
 30
0.0
  0
SPLINE
  5
4B
330
1F
100
AcDbEntity
  8
Predefinito
100
AcDbSpline
210
0.0
220
0.0
230
1.0
 70
    24
 71
     2
 72
     6
 73
     3
 74
     0
 42
0.0000000001
 43
0.0000000001
 40
-0.8721246382449976
 40
-0.8721246382449976
 40
-0.8721246382449976
 40
0.0
 40
0.0
 40
0.0
 10
65.49278381673057
 20
639.6008646778457
 30
0.0
 10
65.92884613585306
 20
639.6008646778457
 30
0.0
 10
66.36490845497556
 20
639.6008646778457
 30
0.0
  0
SPLINE
  5
4C
330
1F
100
AcDbEntity
  8
Predefinito
100
AcDbSpline
210
0.0
220
0.0
230
1.0
 70
    24
 71
     2
 72
     6
 73
     3
 74
     0
 42
0.0000000001
 43
0.0000000001
 40
0.0
 40
0.0
 40
0.0
 40
0.9510565162951536
 40
0.9510565162951536
 40
0.9510565162951536
 10
66.36490845497556
 20
639.6008646778457
 30
0.0
 10
66.84043671312314
 20
639.6008646778457
 30
0.0
 10
67.31596497127072
 20
639.6008646778457
 30
0.0
  0
SPLINE
  5
4D
330
1F
100
AcDbEntity
  8
Predefinito
100
AcDbSpline
210
0.0
220
0.0
230
1.0
 70
    24
 71
     2
 72
     6
 73
     3
 74
     0
 42
0.0000000001
 43
0.0000000001
 40
0.0
 40
0.0
 40
0.0
 40
0.786755002203904
 40
0.786755002203904
 40
0.786755002203904
 10
67.31596497127072
 20
639.6008646778457
 30
0.0
 10
67.70934247237267
 20
639.6008646778457
 30
0.0
 10
68.10271997347462
 20
639.6008646778457
 30
0.0
  0
SPLINE
  5
4E
330
1F
100
AcDbEntity
  8
Predefinito
100
AcDbSpline
210
0.0
220
0.0
230
1.0
 70
    24
 71
     2
 72
     6
 73
     3
 74
     0
 42
0.0000000001
 43
0.0000000001
 40
0.0
 40
0.0
 40
0.0
 40
0.809016994374943
 40
0.809016994374943
 40
0.809016994374943
 10
68.10271997347462
 20
639.6008646778457
 30
0.0
 10
68.50722847066208
 20
639.6008646778457
 30
0.0
 10
68.91173696784956
 20
639.6008646778457
 30
0.0
  0
SPLINE
  5
4F
330
1F
100
AcDbEntity
  8
Predefinito
100
AcDbSpline
210
0.0
220
0.0
230
1.0
 70
    24
 71
     2
 72
     6
 73
     3
 74
     0
 42
0.0000000001
 43
0.0000000001
 40
0.0
 40
0.0
 40
0.0
 40
0.6243723049026784
 40
0.6243723049026784
 40
0.6243723049026784
 10
68.91173696784956
 20
639.6008646778457
 30
0.0
 10
69.2239231203009
 20
639.6008646778457
 30
0.0
 10
69.53610927275224
 20
639.6008646778457
 30
0.0
  0
SPLINE
  5
50
330
1F
100
AcDbEntity
  8
Predefinito
100
AcDbSpline
210
0.0
220
0.0
230
1.0
 70
    24
 71
     2
 72
     6
 73
     3
 74
     0
 42
0.0000000001
 43
0.0000000001
 40
0.0
 40
0.0
 40
0.0
 40
0.5877852522924769
 40
0.5877852522924769
 40
0.5877852522924769
 10
69.53610927275224
 20
639.6008646778457
 30
0.0
 10
69.83000189889847
 20
639.6008646778457
 30
0.0
 10
70.12389452504472
 20
639.6008646778457
 30
0.0
  0
SPLINE
  5
51
330
1F
100
AcDbEntity
  8
Predefinito
100
AcDbSpline
210
0.0
220
0.0
230
1.0
 70
    24
 71
     2
 72
     6
 73
     3
 74
     0
 42
0.0000000001
 43
0.0000000001
 40
0.0
 40
0.0
 40
0.0
 40
0.4008716961399443
 40
0.4008716961399443
 40
0.4008716961399443
 10
70.12389452504472
 20
639.6008646778457
 30
0.0
 10
70.32433037311469
 20
639.6008646778457
 30
0.0
 10
70.52476622118466
 20
639.6008646778457
 30
0.0
  0
SPLINE
  5
52
330
1F
100
AcDbEntity
  8
Predefinito
100
AcDbSpline
210
0.0
220
0.0
230
1.0
 70
    24
 71
     2
 72
     6
 73
     3
 74
     0
 42
0.0000000001
 43
0.0000000001
 40
0.0
 40
0.0
 40
0.0
 40
0.309016994374943
 40
0.309016994374943
 40
0.309016994374943
 10
70.52476622118466
 20
639.6008646778457
 30
0.0
 10
70.67927471837214
 20
639.6008646778457
 30
0.0
 10
70.8337832155596
 20
639.6008646778457
 30
0.0
  0
LINE
  5
53
330
1F
100
AcDbEntity
  8
Predefinito
100
AcDbLine
 10
70.8337832155596
 20
639.6008646778457
 30
0.0
 11
70.99278381684967
 21
639.6008646778457
 31
0.0
  0
LINE
  5
54
330
1F
100
AcDbEntity
  8
Predefinito
100
AcDbLine
 10
70.99278381684967
 20
639.6008646778457
 30
0.0
 11
71.21278381679237
 21
639.3808646779075
 31
0.0
  0
SPLINE
  5
55
330
1F
100
AcDbEntity
  8
Predefinito
100
AcDbSpline
210
0.0
220
0.0
230
1.0
 70
    24
 71
     2
 72
     6
 73
     3
 74
     0
 42
0.0000000001
 43
0.0000000001
 40
0.0
 40
0.0
 40
0.0
 40
3.280000000000086
 40
3.280000000000086
 40
3.280000000000086
 10
269.1297726032363
 20
636.1008646778457
 30
0.0
 10
269.1297726032363
 20
637.7408646778458
 30
0.0
 10
269.1297726032363
 20
639.3808646778458
 30
0.0
  0
SPLINE
  5
56
330
1F
100
AcDbEntity
  8
Predefinito
100
AcDbSpline
210
0.0
220
0.0
230
1.0
 70
    24
 71
     2
 72
     6
 73
     3
 74
     0
 42
0.0000000001
 43
0.0000000001
 40
0.0
 40
0.0
 40
0.0
 40
6.220000000015602
 40
6.220000000015602
 40
6.220000000015602
 10
269.1297726032363
 20
639.3808646778458
 30
0.0
 10
272.2397726032441
 20
639.3808646778458
 30
0.0
 10
275.3497726032519
 20
639.3808646778458
 30
0.0
  0
SPLINE
  5
57
330
1F
100
AcDbEntity
  8
Predefinito
100
AcDbSpline
210
0.0
220
0.0
230
1.0
 70
    24
 71
     2
 72
     6
 73
     3
 74
     0
 42
0.0000000001
 43
0.0000000001
 40
0.0
 40
0.0
 40
0.0
 40
6.219999999984395
 40
6.219999999984395
 40
6.219999999984395
 10
275.3497726032519
 20
639.3808646778458
 30
0.0
 10
278.4597726032441
 20
639.3808646778458
 30
0.0
 10
281.5697726032363
 20
639.3808646778458
 30
0.0
  0
SPLINE
  5
58
330
1F
100
AcDbEntity
  8
Predefinito
100
AcDbSpline
210
0.0
220
0.0
230
1.0
 70
    24
 71
     2
 72
     6
 73
     3
 74
     0
 42
0.0000000001
 43
0.0000000001
 40
0.0
 40
0.0
 40
0.0
 40
3.279999999999973
 40
3.279999999999973
 40
3.279999999999973
 10
281.5697726032363
 20
639.3808646778458
 30
0.0
 10
281.5697726032363
 20
637.7408646778458
 30
0.0
 10
281.5697726032363
 20
636.1008646778458
 30
0.0
  0
SPLINE
  5
59
330
1F
100
AcDbEntity
  8
Predefinito
100
AcDbSpline
210
0.0
220
0.0
230
1.0
 70
    24
 71
     2
 72
     6
 73
     3
 74
     0
 42
0.0000000001
 43
0.0000000001
 40
0.0
 40
0.0
 40
0.0
 40
0.3111266686287904
 40
0.3111266686287904
 40
0.3111266686287904
 10
269.1297723722622
 20
639.3808649088198
 30
0.0
 10
269.2397722649446
 20
639.4908647933328
 30
0.0
 10
269.3497721576269
 20
639.6008646778457
 30
0.0
  0
LINE
  5
5A
330
1F
100
AcDbEntity
  8
Predefinito
100
AcDbLine
 10
269.3497721576269
 20
639.6008646778457
 30
0.0
 11
269.5087732044072
 21
639.6008646778457
 31
0.0
  0
SPLINE
  5
5B
330
1F
100
AcDbEntity
  8
Predefinito
100
AcDbSpline
210
0.0
220
0.0
230
1.0
 70
    24
 71
     2
 72
     6
 73
     3
 74
     0
 42
0.0000000001
 43
0.0000000001
 40
0.0
 40
0.0
 40
0.0
 40
0.3090169943749288
 40
0.3090169943749288
 40
0.3090169943749288
 10
269.5087732044072
 20
639.6008646778457
 30
0.0
 10
269.6632817015947
 20
639.6008646778457
 30
0.0
 10
269.8177901987822
 20
639.6008646778457
 30
0.0
  0
SPLINE
  5
5C
330
1F
100
AcDbEntity
  8
Predefinito
100
AcDbSpline
210
0.0
220
0.0
230
1.0
 70
    24
 71
     2
 72
     6
 73
     3
 74
     0
 42
0.0000000001
 43
0.0000000001
 40
0.0
 40
0.0
 40
0.0
 40
0.4008716961399159
 40
0.4008716961399159
 40
0.4008716961399159
 10
269.8177901987822
 20
639.6008646778457
 30
0.0
 10
270.0182260468521
 20
639.6008646778457
 30
0.0
 10
270.2186618949221
 20
639.6008646778457
 30
0.0
  0
SPLINE
  5
5D
330
1F
100
AcDbEntity
  8
Predefinito
100
AcDbSpline
210
0.0
220
0.0
230
1.0
 70
    24
 71
     2
 72
     6
 73
     3
 74
     0
 42
0.0000000001
 43
0.0000000001
 40
0.0
 40
0.0
 40
0.0
 40
0.5877852522925195
 40
0.5877852522925195
 40
0.5877852522925195
 10
270.2186618949221
 20
639.6008646778457
 30
0.0
 10
270.5125545210684
 20
639.6008646778457
 30
0.0
 10
270.8064471472146
 20
639.6008646778457
 30
0.0
  0
SPLINE
  5
5E
330
1F
100
AcDbEntity
  8
Predefinito
100
AcDbSpline
210
0.0
220
0.0
230
1.0
 70
    24
 71
     2
 72
     6
 73
     3
 74
     0
 42
0.0000000001
 43
0.0000000001
 40
0.0
 40
0.0
 40
0.0
 40
0.6243723049026357
 40
0.6243723049026357
 40
0.6243723049026357
 10
270.8064471472146
 20
639.6008646778457
 30
0.0
 10
271.1186332996659
 20
639.6008646778457
 30
0.0
 10
271.4308194521172
 20
639.6008646778457
 30
0.0
  0
SPLINE
  5
5F
330
1F
100
AcDbEntity
  8
Predefinito
100
AcDbSpline
210
0.0
220
0.0
230
1.0
 70
    24
 71
     2
 72
     6
 73
     3
 74
     0
 42
0.0000000001
 43
0.0000000001
 40
0.0
 40
0.0
 40
0.0
 40
0.8090169943749856
 40
0.8090169943749856
 40
0.8090169943749856
 10
271.4308194521172
 20
639.6008646778457
 30
0.0
 10
271.8353279493048
 20
639.6008646778457
 30
0.0
 10
272.2398364464922
 20
639.6008646778457
 30
0.0
  0
SPLINE
  5
60
330
1F
100
AcDbEntity
  8
Predefinito
100
AcDbSpline
210
0.0
220
0.0
230
1.0
 70
    24
 71
     2
 72
     6
 73
     3
 74
     0
 42
0.0000000001
 43
0.0000000001
 40
0.0
 40
0.0
 40
0.0
 40
0.786755002203904
 40
0.786755002203904
 40
0.786755002203904
 10
272.2398364464922
 20
639.6008646778457
 30
0.0
 10
272.6332139475942
 20
639.6008646778457
 30
0.0
 10
273.0265914486961
 20
639.6008646778457
 30
0.0
  0
SPLINE
  5
61
330
1F
100
AcDbEntity
  8
Predefinito
100
AcDbSpline
210
0.0
220
0.0
230
1.0
 70
    24
 71
     2
 72
     6
 73
     3
 74
     0
 42
0.0000000001
 43
0.0000000001
 40
0.0
 40
0.0
 40
0.0
 40
0.9510565162951252
 40
0.9510565162951252
 40
0.9510565162951252
 10
273.0265914486961
 20
639.6008646778457
 30
0.0
 10
273.5021197068437
 20
639.6008646778457
 30
0.0
 10
273.9776479649913
 20
639.6008646778457
 30
0.0
  0
SPLINE
  5
62
330
1F
100
AcDbEntity
  8
Predefinito
100
AcDbSpline
210
0.0
220
0.0
230
1.0
 70
    24
 71
     2
 72
     6
 73
     3
 74
     0
 42
0.0000000001
 43
0.0000000001
 40
0.0
 40
0.0
 40
0.0
 40
0.8721246382449976
 40
0.8721246382449976
 40
0.8721246382449976
 10
273.9776479649913
 20
639.6008646778457
 30
0.0
 10
274.4137102841138
 20
639.6008646778457
 30
0.0
 10
274.8497726032363
 20
639.6008646778457
 30
0.0
  0
SPLINE
  5
63
330
1F
100
AcDbEntity
  8
Predefinito
100
AcDbSpline
210
0.0
220
0.0
230
1.0
 70
    24
 71
     2
 72
     6
 73
     3
 74
     0
 42
0.0000000001
 43
0.0000000001
 40
0.0
 40
0.0
 40
0.0
 40
0.5
 40
0.5
 40
0.5
 10
274.8497726032363
 20
639.6008646778457
 30
0.0
 10
275.0997726032363
 20
639.6008646778457
 30
0.0
 10
275.3497726032363
 20
639.6008646778457
 30
0.0
  0
SPLINE
  5
64
330
1F
100
AcDbEntity
  8
Predefinito
100
AcDbSpline
210
0.0
220
0.0
230
1.0
 70
    24
 71
     2
 72
     6
 73
     3
 74
     0
 42
0.0000000001
 43
0.0000000001
 40
0.0
 40
0.0
 40
0.0
 40
0.5
 40
0.5
 40
0.5
 10
275.3497726032363
 20
639.6008646778457
 30
0.0
 10
275.5997726032363
 20
639.6008646778457
 30
0.0
 10
275.8497726032363
 20
639.6008646778457
 30
0.0
  0
SPLINE
  5
65
330
1F
100
AcDbEntity
  8
Predefinito
100
AcDbSpline
210
0.0
220
0.0
230
1.0
 70
    24
 71
     2
 72
     6
 73
     3
 74
     0
 42
0.0000000001
 43
0.0000000001
 40
0.0
 40
0.0
 40
0.0
 40
0.8721246382449976
 40
0.8721246382449976
 40
0.8721246382449976
 10
275.8497726032363
 20
639.6008646778457
 30
0.0
 10
276.2858349223587
 20
639.6008646778457
 30
0.0
 10
276.7218972414813
 20
639.6008646778457
 30
0.0
  0
SPLINE
  5
66
330
1F
100
AcDbEntity
  8
Predefinito
100
AcDbSpline
210
0.0
220
0.0
230
1.0
 70
    24
 71
     2
 72
     6
 73
     3
 74
     0
 42
0.0000000001
 43
0.0000000001
 40
0.0
 40
0.0
 40
0.0
 40
0.9510565162951252
 40
0.9510565162951252
 40
0.9510565162951252
 10
276.7218972414813
 20
639.6008646778457
 30
0.0
 10
277.1974254996288
 20
639.6008646778457
 30
0.0
 10
277.6729537577764
 20
639.6008646778457
 30
0.0
  0
SPLINE
  5
67
330
1F
100
AcDbEntity
  8
Predefinito
100
AcDbSpline
210
0.0
220
0.0
230
1.0
 70
    24
 71
     2
 72
     6
 73
     3
 74
     0
 42
0.0000000001
 43
0.0000000001
 40
0.0
 40
0.0
 40
0.0
 40
0.786755002203904
 40
0.786755002203904
 40
0.786755002203904
 10
277.6729537577764
 20
639.6008646778457
 30
0.0
 10
278.0663312588783
 20
639.6008646778457
 30
0.0
 10
278.4597087599803
 20
639.6008646778457
 30
0.0
  0
SPLINE
  5
68
330
1F
100
AcDbEntity
  8
Predefinito
100
AcDbSpline
210
0.0
220
0.0
230
1.0
 70
    24
 71
     2
 72
     6
 73
     3
 74
     0
 42
0.0000000001
 43
0.0000000001
 40
0.0
 40
0.0
 40
0.0
 40
0.8090169943749856
 40
0.8090169943749856
 40
0.8090169943749856
 10
278.4597087599803
 20
639.6008646778457
 30
0.0
 10
278.8642172571678
 20
639.6008646778457
 30
0.0
 10
279.2687257543553
 20
639.6008646778457
 30
0.0
  0
SPLINE
  5
69
330
1F
100
AcDbEntity
  8
Predefinito
100
AcDbSpline
210
0.0
220
0.0
230
1.0
 70
    24
 71
     2
 72
     6
 73
     3
 74
     0
 42
0.0000000001
 43
0.0000000001
 40
0.0
 40
0.0
 40
0.0
 40
0.6243723049026357
 40
0.6243723049026357
 40
0.6243723049026357
 10
279.2687257543553
 20
639.6008646778457
 30
0.0
 10
279.5809119068066
 20
639.6008646778457
 30
0.0
 10
279.8930980592579
 20
639.6008646778457
 30
0.0
  0
SPLINE
  5
6A
330
1F
100
AcDbEntity
  8
Predefinito
100
AcDbSpline
210
0.0
220
0.0
230
1.0
 70
    24
 71
     2
 72
     6
 73
     3
 74
     0
 42
0.0000000001
 43
0.0000000001
 40
0.0
 40
0.0
 40
0.0
 40
0.5877852522925195
 40
0.5877852522925195
 40
0.5877852522925195
 10
279.8930980592579
 20
639.6008646778457
 30
0.0
 10
280.1869906854042
 20
639.6008646778457
 30
0.0
 10
280.4808833115504
 20
639.6008646778457
 30
0.0
  0
SPLINE
  5
6B
330
1F
100
AcDbEntity
  8
Predefinito
100
AcDbSpline
210
0.0
220
0.0
230
1.0
 70
    24
 71
     2
 72
     6
 73
     3
 74
     0
 42
0.0000000001
 43
0.0000000001
 40
0.0
 40
0.0
 40
0.0
 40
0.4008716961399159
 40
0.4008716961399159
 40
0.4008716961399159
 10
280.4808833115504
 20
639.6008646778457
 30
0.0
 10
280.6813191596204
 20
639.6008646778457
 30
0.0
 10
280.8817550076903
 20
639.6008646778457
 30
0.0
  0
SPLINE
  5
6C
330
1F
100
AcDbEntity
  8
Predefinito
100
AcDbSpline
210
0.0
220
0.0
230
1.0
 70
    24
 71
     2
 72
     6
 73
     3
 74
     0
 42
0.0000000001
 43
0.0000000001
 40
0.0
 40
0.0
 40
0.0
 40
0.3090169943749288
 40
0.3090169943749288
 40
0.3090169943749288
 10
280.8817550076903
 20
639.6008646778457
 30
0.0
 10
281.0362635048778
 20
639.6008646778457
 30
0.0
 10
281.1907720020653
 20
639.6008646778457
 30
0.0
  0
LINE
  5
6D
330
1F
100
AcDbEntity
  8
Predefinito
100
AcDbLine
 10
281.1907720020653
 20
639.6008646778457
 30
0.0
 11
281.349773039584
 21
639.6008646778457
 31
0.0
  0
SPLINE
  5
6E
330
1F
100
AcDbEntity
  8
Predefinito
100
AcDbSpline
210
0.0
220
0.0
230
1.0
 70
    24
 71
     2
 72
     6
 73
     3
 74
     0
 42
0.0000000001
 43
0.0000000001
 40
0.0
 40
0.0
 40
0.0
 40
0.3111266751775782
 40
0.3111266751775782
 40
0.3111266751775782
 10
281.349773039584
 20
639.6008646778457
 30
0.0
 10
281.459772934497
 20
639.4908647909326
 30
0.0
 10
281.5697728294099
 20
639.3808649040194
 30
0.0
  0
SPLINE
  5
6F
330
1F
100
AcDbEntity
  8
Predefinito
100
AcDbSpline
210
0.0
220
0.0
230
1.0
 70
    12
 71
     2
 72
     6
 73
     3
 74
     0
 42
0.0000000001
 43
0.0000000001
 40
3.499999999999659
 40
3.499999999999659
 40
3.499999999999659
 40
145.0458802884224
 40
145.0458802884224
 40
145.0458802884224
 10
61.49278259391947
 20
639.6008646778457
 30
0.0
 41
1.0
 10
61.49278261681032
 20
710.3738048220571
 30
0.0
 41
1.0
 10
61.49278261681032
 20
781.1467449662684
 30
0.0
 41
1.0
  0
SPLINE
  5
70
330
1F
100
AcDbEntity
  8
Predefinito
100
AcDbSpline
210
0.0
220
0.0
230
1.0
 70
    12
 71
     2
 72
     6
 73
     3
 74
     0
 42
0.0000000001
 43
0.0000000001
 40
-141.5458809737409
 40
-141.5458809737409
 40
-141.5458809737409
 40
0.0
 40
0.0
 40
0.0
 10
68.49279775254405
 20
639.6008646778457
 30
0.0
 41
1.0
 10
68.49279762017493
 20
710.3738051647161
 30
0.0
 41
1.0
 10
68.49279022216797
 20
781.1467456515866
 30
0.0
 41
1.0
  0
SPLINE
  5
71
330
1F
100
AcDbEntity
  8
Predefinito
100
AcDbSpline
210
0.0
220
0.0
230
1.0
 70
    12
 71
     2
 72
     6
 73
     3
 74
     0
 42
0.0000000001
 43
0.0000000001
 40
3.499999999999703
 40
3.499999999999703
 40
3.499999999999703
 40
145.0459485867666
 40
145.0459485867666
 40
145.0459485867666
 10
271.8497628655119
 20
639.6008646778457
 30
0.0
 41
0.9999999999999976
 10
271.849752137116
 20
710.3738389712306
 30
0.0
 41
0.9999999999999497
 10
271.8497857830171
 20
781.1468132646085
 30
0.0
 41
1.0
  0
SPLINE
  5
72
330
1F
100
AcDbEntity
  8
Predefinito
100
AcDbSpline
210
0.0
220
0.0
230
1.0
 70
    12
 71
     2
 72
     6
 73
     3
 74
     0
 42
0.0000000001
 43
0.0000000001
 40
0.0
 40
0.0
 40
0.0
 40
110.4498002592267
 40
110.4498002592267
 40
110.4498002592267
 10
278.8519103103215
 20
750.0506649782224
 30
0.0
 41
1.0
 10
278.849895330434
 20
694.8257648086885
 30
0.0
 41
0.9999999999997821
 10
278.8498083876282
 20
639.6008646778457
 30
0.0
 41
0.9999999999999867
  0
SPLINE
  5
73
330
1F
100
AcDbEntity
  8
Predefinito
100
AcDbSpline
210
0.0
220
0.0
230
1.0
 70
    15
 71
     2
 72
    12
 73
     9
 74
     0
 42
0.0000000001
 43
0.0000000001
 40
0.0
 40
0.0
 40
0.0
 40
102.1033648855317
 40
102.1033648855317
 40
204.2067297710635
 40
204.2067297710635
 40
306.3100946565953
 40
306.3100946565953
 40
408.413459542127
 40
408.413459542127
 40
408.413459542127
 10
340.3497778265467
 20
64.99278381673321
 30
0.0
 41
1.0
 10
340.3487569260477
 20
129.9938047201074
 30
0.0
 41
0.7071067811865476
 10
275.3477360226734
 20
129.9927838196084
 30
0.0
 41
1.0
 10
210.3467151192992
 20
129.9917629191094
 30
0.0
 41
0.7071067811865476
 10
210.3477360197982
 20
64.99074201573514
 30
0.0
 41
1.0
 10
210.3487569202973
 20
-0.0102788876391019
 30
0.0
 41
0.7071067811865476
 10
275.3497778236715
 20
-0.0092579871400744
 30
0.0
 41
1.0
 10
340.3507987270457
 20
-0.0082370866410562
 30
0.0
 41
0.7071067811865476
 10
340.3497778265467
 20
64.99278381673321
 30
0.0
 41
1.0
  0
SPLINE
  5
74
330
1F
100
AcDbEntity
  8
Predefinito
100
AcDbSpline
210
0.0
220
0.0
230
1.0
 70
    15
 71
     2
 72
    12
 73
     9
 74
     0
 42
0.0000000001
 43
0.0000000001
 40
0.0
 40
0.0
 40
0.0
 40
91.39549318852518
 40
91.39549318852518
 40
182.7909863770504
 40
182.7909863770504
 40
274.1864795655756
 40
274.1864795655756
 40
365.5819727541007
 40
365.5819727541007
 40
365.5819727541007
 10
333.5330420501526
 20
64.99278381673324
 30
0.0
 41
1.0
 10
333.5321282144066
 20
123.1769618786586
 30
0.0
 41
0.7071067811865476
 10
275.3479501524812
 20
123.1760480429127
 30
0.0
 41
1.0
 10
217.1637720905559
 20
123.1751342071668
 30
0.0
 41
0.7071067811865476
 10
217.1646859263018
 20
64.99095614524136
 30
0.0
 41
1.0
 10
217.1655997620477
 20
6.806778083315936
 30
0.0
 41
0.7071067811865476
 10
275.3497778239732
 20
6.807691919061867
 30
0.0
 41
1.0
 10
333.5339558858986
 20
6.808605754807801
 30
0.0
 41
0.7071067811865476
 10
333.5330420501526
 20
64.99278381673324
 30
0.0
 41
1.0
  0
SPLINE
  5
75
330
1F
100
AcDbEntity
  8
Predefinito
100
AcDbSpline
210
0.0
220
0.0
230
1.0
 70
    24
 71
     2
 72
     6
 73
     3
 74
     0
 42
0.0000000001
 43
0.0000000001
 40
0.0
 40
0.0
 40
0.0
 40
0.1832642236059883
 40
0.1832642236059883
 40
0.1832642236059883
 10
333.3497778265466
 20
64.99278381673321
 30
0.0
 10
333.4414099383496
 20
64.99278381673322
 30
0.0
 10
333.5330420501526
 20
64.99278381673324
 30
0.0
  0
SPLINE
  5
76
330
1F
100
AcDbEntity
  8
Predefinito
100
AcDbSpline
210
0.0
220
0.0
230
1.0
 70
    15
 71
     2
 72
    12
 73
     9
 74
     0
 42
0.0000000001
 43
0.0000000001
 40
0.0
 40
0.0
 40
0.0
 40
91.10761789785901
 40
91.10761789785901
 40
182.215235795718
 40
182.215235795718
 40
273.322853693577
 40
273.322853693577
 40
364.4304715914361
 40
364.4304715914361
 40
364.4304715914361
 10
333.3497778265466
 20
64.99278381673321
 30
0.0
 41
1.0
 10
333.3488668691783
 20
122.9936947766671
 30
0.0
 41
0.7071067811865476
 10
275.3479559092444
 20
122.9927838192987
 30
0.0
 41
1.0
 10
217.3470449493105
 20
122.9918728619304
 30
0.0
 41
0.7071067811865476
 10
217.3479559066789
 20
64.99096190199649
 30
0.0
 41
1.0
 10
217.3488668640472
 20
6.990050942062607
 30
0.0
 41
0.7071067811865476
 10
275.3497778239811
 20
6.990961899430957
 30
0.0
 41
1.0
 10
333.350688783915
 20
6.991872856799309
 30
0.0
 41
0.7071067811865476
 10
333.3497778265466
 20
64.99278381673321
 30
0.0
 41
1.0
  0
SPLINE
  5
77
330
1F
100
AcDbEntity
  8
Predefinito
100
AcDbSpline
210
0.0
220
0.0
230
1.0
 70
    12
 71
     2
 72
     6
 73
     3
 74
     0
 42
0.0000000001
 43
0.0000000001
 40
0.0
 40
0.0
 40
0.0
 40
37.10471283340816
 40
37.10471283340816
 40
37.10471283340816
 10
271.8497624908341
 20
933.2513328286777
 30
0.0
 41
1.0
 10
271.8497098370087
 20
951.8036892453637
 30
0.0
 41
0.9999999999954031
 10
271.8497696822916
 20
970.3560456620284
 30
0.0
 41
1.0
  0
SPLINE
  5
78
330
1F
100
AcDbEntity
  8
Predefinito
100
AcDbSpline
210
0.0
220
0.0
230
1.0
 70
    12
 71
     2
 72
     6
 73
     3
 74
     0
 42
0.0000000001
 43
0.0000000001
 40
0.0
 40
0.0
 40
0.0
 40
152.1045195640814
 40
152.1045195640814
 40
152.1045195640814
 10
271.8497857830171
 20
781.1468132646085
 30
0.0
 41
1.0
 10
271.849822629618
 20
857.1990730466505
 30
0.0
 41
0.9999999999997966
 10
271.8497624908341
 20
933.2513328286777
 30
0.0
 41
1.0
  0
LINE
  5
79
330
1F
100
AcDbEntity
  8
Predefinito
100
AcDbLine
 10
278.8497748306087
 20
970.3560456616264
 30
0.0
 11
278.8519103103215
 21
750.0506649782224
 31
0.0
  0
SPLINE
  5
7A
330
1F
100
AcDbEntity
  8
Predefinito
100
AcDbSpline
210
0.0
220
0.0
230
1.0
 70
    12
 71
     2
 72
     6
 73
     3
 74
     0
 42
0.0000000001
 43
0.0000000001
 40
0.0
 40
0.0
 40
0.0
 40
5.098481795245337
 40
5.098481795245337
 40
5.098481795245337
 10
61.49278321436603
 20
934.2183610052771
 30
0.0
 41
1.0
 10
61.49278379145562
 20
967.8068047639031
 30
0.0
 41
0.9999999999999996
 10
61.49278378685786
 20
970.3560456615257
 30
0.0
 41
1.0
  0
SPLINE
  5
7B
330
1F
100
AcDbEntity
  8
Predefinito
100
AcDbSpline
210
0.0
220
0.0
230
1.0
 70
    12
 71
     2
 72
     6
 73
     3
 74
     0
 42
0.0000000001
 43
0.0000000001
 40
0.0
 40
0.0
 40
0.0
 40
122.0324131780053
 40
122.0324131780053
 40
122.0324131780053
 10
61.49278261681032
 20
781.1467449662684
 30
0.0
 41
1.0
 10
61.49278254381377
 20
842.1629515552711
 30
0.0
 41
1.0
 10
61.49278321436603
 20
934.2183610052771
 30
0.0
 41
1.0
  0
SPLINE
  5
7C
330
1F
100
AcDbEntity
  8
Predefinito
100
AcDbSpline
210
0.0
220
0.0
230
1.0
 70
    12
 71
     2
 72
     6
 73
     3
 74
     0
 42
0.0000000001
 43
0.0000000001
 40
-5.098506822480773
 40
-5.098506822480773
 40
-5.098506822480773
 40
0.0
 40
0.0
 40
0.0
 10
68.49278319341958
 20
934.2183494077806
 30
0.0
 41
1.0
 10
68.49278382718698
 20
967.8067922504471
 30
0.0
 41
0.9999999999999998
 10
68.49278382956982
 20
970.3560456616875
 30
0.0
 41
1.0
  0
SPLINE
  5
7D
330
1F
100
AcDbEntity
  8
Predefinito
100
AcDbSpline
210
0.0
220
0.0
230
1.0
 70
    12
 71
     2
 72
     6
 73
     3
 74
     0
 42
0.0000000001
 43
0.0000000001
 40
0.0
 40
0.0
 40
0.0
 40
122.0324143247678
 40
122.0324143247678
 40
122.0324143247678
 10
68.49279022216797
 20
781.1467456515866
 30
0.0
 41
1.0
 10
68.49278262743101
 20
842.1629528139705
 30
0.0
 41
1.0
 10
68.49278319341958
 20
934.2183494077806
 30
0.0
 41
1.0
  0
SPLINE
  5
7E
330
1F
100
AcDbEntity
  8
Predefinito
100
AcDbSpline
210
0.0
220
0.0
230
1.0
 70
    24
 71
     3
 72
    10
 73
     6
 74
     0
 42
0.0000000001
 43
0.0000000001
 40
-130.0452598758891
 40
-130.0452598758891
 40
-130.0452598758891
 40
-130.0452598758891
 40
-0.0432180330621748
 40
-0.0326423779911806
 40
0.0
 40
0.0
 40
0.0
 40
0.0
 10
340.3497778265467
 20
970.3560456616271
 30
0.0
 10
297.0179791988925
 20
970.3560456616266
 30
0.0
 10
253.6734903731193
 20
970.3560456616259
 30
0.0
 10
210.3329576595726
 20
970.356045661626
 30
0.0
 10
210.4066844351385
 20
970.3560456616289
 30
0.0
 10
210.369342388596
 20
970.356045661627
 30
0.0
  0
SPLINE
  5
7F
330
1F
100
AcDbEntity
  8
Predefinito
100
AcDbSpline
210
0.0
220
0.0
230
1.0
 70
    24
 71
     2
 72
     6
 73
     3
 74
     0
 42
0.0000000001
 43
0.0000000001
 40
0.0
 40
0.0
 40
0.0
 40
4.5
 40
4.5
 40
4.5
 10
340.3497778265467
 20
974.8560456616271
 30
0.0
 10
340.3497778265467
 20
972.6060456616271
 30
0.0
 10
340.3497778265467
 20
970.3560456616271
 30
0.0
  0
SPLINE
  5
80
330
1F
100
AcDbEntity
  8
Predefinito
100
AcDbSpline
210
0.0
220
0.0
230
1.0
 70
    24
 71
     3
 72
    10
 73
     6
 74
     0
 42
0.0000000001
 43
0.0000000001
 40
0.0
 40
0.0
 40
0.0
 40
0.0
 40
0.0326423779911806
 40
0.0432180330621748
 40
130.0452598758891
 40
130.0452598758891
 40
130.0452598758891
 40
130.0452598758891
 10
210.369342388596
 20
974.8560456616271
 30
0.0
 10
210.4066844351386
 20
974.8560456616271
 30
0.0
 10
210.3329576595725
 20
974.8560456616264
 30
0.0
 10
253.6734903731193
 20
974.856045661626
 30
0.0
 10
297.0179791988928
 20
974.8560456616276
 30
0.0
 10
340.3497778265467
 20
974.8560456616271
 30
0.0
  0
SPLINE
  5
81
330
1F
100
AcDbEntity
  8
Predefinito
100
AcDbSpline
210
0.0
220
0.0
230
1.0
 70
    24
 71
     2
 72
     6
 73
     3
 74
     0
 42
0.0000000001
 43
0.0000000001
 40
0.0
 40
0.0
 40
0.0
 40
4.500000000000114
 40
4.500000000000114
 40
4.500000000000114
 10
210.369342388596
 20
970.356045661627
 30
0.0
 10
210.369342388596
 20
972.6060456616271
 30
0.0
 10
210.369342388596
 20
974.8560456616271
 30
0.0
  0
SPLINE
  5
82
330
1F
100
AcDbEntity
  8
Predefinito
100
AcDbSpline
210
0.0
220
0.0
230
1.0
 70
    24
 71
     2
 72
     6
 73
     3
 74
     0
 42
0.0000000001
 43
0.0000000001
 40
0.0
 40
0.0
 40
0.0
 40
21.00079964610048
 40
21.00079964610048
 40
21.00079964610048
 10
333.3497778265466
 20
995.8560456616271
 30
0.0
 10
333.4414099383496
 20
985.3560456616271
 30
0.0
 10
333.5330420501526
 20
974.8560456616271
 30
0.0
  0
SPLINE
  5
83
330
1F
100
AcDbEntity
  8
Predefinito
100
AcDbSpline
210
0.0
220
0.0
230
1.0
 70
    24
 71
     3
 72
     9
 73
     5
 74
     0
 42
0.0000000001
 43
0.0000000001
 40
0.0
 40
0.0
 40
0.0
 40
0.0
 40
0.0334973730160315
 40
116.0403857354086
 40
116.0403857354086
 40
116.0403857354086
 40
116.0403857354086
 10
217.36723543576
 20
995.8560456616271
 30
0.0
 10
217.3321061284027
 20
995.8560456616283
 30
0.0
 10
255.9943268254153
 20
995.8560456616281
 30
0.0
 10
294.6870604951239
 20
995.8560456616275
 30
0.0
 10
333.3497778265466
 20
995.8560456616271
 30
0.0
  0
SPLINE
  5
84
330
1F
100
AcDbEntity
  8
Predefinito
100
AcDbSpline
210
0.0
220
0.0
230
1.0
 70
    24
 71
     2
 72
     6
 73
     3
 74
     0
 42
0.0000000001
 43
0.0000000001
 40
0.0
 40
0.0
 40
0.0
 40
21.000462053472
 40
21.000462053472
 40
21.000462053472
 10
217.164684165027
 20
974.8563832917653
 30
0.0
 10
217.2659598003935
 20
985.3562144766962
 30
0.0
 10
217.36723543576
 20
995.8560456616271
 30
0.0
  0
SPLINE
  5
85
330
1F
100
AcDbEntity
  8
Predefinito
100
AcDbSpline
210
0.0
220
0.0
230
1.0
 70
    24
 71
     2
 72
     6
 73
     3
 74
     0
 42
0.0000000001
 43
0.0000000001
 40
0.0
 40
0.0
 40
0.0
 40
21.00043052434445
 40
21.00043052434445
 40
21.00043052434445
 10
122.9717010527182
 20
995.8560456616271
 30
0.0
 10
123.0738729396418
 20
985.3562302154778
 30
0.0
 10
123.1760448265653
 20
974.8564147693284
 30
0.0
  0
SPLINE
  5
86
330
1F
100
AcDbEntity
  8
Predefinito
100
AcDbSpline
210
0.0
220
0.0
230
1.0
 70
    24
 71
     2
 72
     6
 73
     3
 74
     0
 42
0.0000000001
 43
0.0000000001
 40
0.0
 40
0.0
 40
0.0
 40
57.9578344646129
 40
57.9578344646129
 40
57.9578344646129
 10
64.9927838167333
 20
995.8560456616273
 30
0.0
 10
93.98224243472576
 20
995.8560456616271
 30
0.0
 10
122.9717010527182
 20
995.8560456616271
 30
0.0
  0
SPLINE
  5
87
330
1F
100
AcDbEntity
  8
Predefinito
100
AcDbSpline
210
0.0
220
0.0
230
1.0
 70
    28
 71
     3
 72
    13
 73
     9
 74
     0
 42
0.0000000001
 43
0.0000000001
 40
304.5262003319289
 40
304.5262003319289
 40
304.5262003319289
 40
304.5262003319289
 40
318.61231927004
 40
347.841440562962
 40
369.0494669368974
 40
388.2709219714034
 40
398.3382695089466
 40
408.4056170464897
 40
408.4056170464897
 40
408.4056170464897
 40
408.4056170464897
 10
7.010184903200598
 20
995.856045661627
 30
0.0
 41
1.0
 10
6.929491850501782
 20
995.856045661627
 30
0.0
 41
1.0
 10
8.05099659805159
 20
995.8560456616271
 30
0.0
 41
1.0
 10
16.03658618116211
 20
995.8560456616273
 30
0.0
 41
1.0
 10
31.11769945123085
 20
995.8560456616271
 30
0.0
 41
1.0
 10
44.68325959172942
 20
995.8560456616269
 30
0.0
 41
1.0
 10
56.05508941858551
 20
995.856045661627
 30
0.0
 41
1.0
 10
62.01365680055605
 20
995.8560456616271
 30
0.0
 41
1.0
 10
64.9927838167333
 20
995.8560456616273
 30
0.0
 41
1.0
  0
SPLINE
  5
88
330
1F
100
AcDbEntity
  8
Predefinito
100
AcDbSpline
210
0.0
220
0.0
230
1.0
 70
    24
 71
     2
 72
     6
 73
     3
 74
     0
 42
0.0000000001
 43
0.0000000001
 40
0.0
 40
0.0
 40
0.0
 40
21.00060756424739
 40
21.00060756424739
 40
21.00060756424739
 10
6.815980669104297
 20
974.8562375586373
 30
0.0
 10
6.913082786152447
 20
985.3561416101322
 30
0.0
 10
7.010184903200598
 20
995.856045661627
 30
0.0
  0
SPLINE
  5
89
330
1F
100
AcDbEntity
  8
Predefinito
100
AcDbSpline
210
0.0
220
0.0
230
1.0
 70
    24
 71
     2
 72
     6
 73
     3
 74
     0
 42
0.0000000001
 43
0.0000000001
 40
0.0
 40
0.0
 40
0.0
 40
64.95274552068692
 40
64.95274552068692
 40
64.95274552068692
 10
64.99278381673332
 20
974.8560456616271
 30
0.0
 10
97.48097019896628
 20
974.8560456616271
 30
0.0
 10
129.9691565811992
 20
974.8560456616271
 30
0.0
  0
SPLINE
  5
8A
330
1F
100
AcDbEntity
  8
Predefinito
100
AcDbSpline
210
0.0
220
0.0
230
1.0
 70
    28
 71
     3
 72
    13
 73
     9
 74
     0
 42
0.0000000001
 43
0.0000000001
 40
304.5262003319289
 40
304.5262003319289
 40
304.5262003319289
 40
304.5262003319289
 40
318.61231927004
 40
347.8414405629621
 40
369.0494669368974
 40
388.2709219714035
 40
398.3382695089466
 40
408.4056170464897
 40
408.4056170464897
 40
408.4056170464897
 40
408.4056170464897
 10
0.012285034325899
 20
974.856045661627
 30
0.0
 41
1.0
 10
-0.0781468350779553
 20
974.856045661627
 30
0.0
 41
1.0
 10
1.178711933727866
 20
974.8560456616271
 30
0.0
 41
1.0
 10
10.12807956997253
 20
974.8560456616271
 30
0.0
 41
1.0
 10
27.02932720022189
 20
974.8560456616273
 30
0.0
 41
1.0
 10
42.23211011629797
 20
974.8560456616269
 30
0.0
 41
1.0
 10
54.97640216363662
 20
974.8560456616271
 30
0.0
 41
1.0
 10
61.65410698825882
 20
974.8560456616271
 30
0.0
 41
1.0
 10
64.99278381673332
 20
974.8560456616271
 30
0.0
 41
1.0
  0
SPLINE
  5
8B
330
1F
100
AcDbEntity
  8
Predefinito
100
AcDbSpline
210
0.0
220
0.0
230
1.0
 70
    24
 71
     2
 72
     6
 73
     3
 74
     0
 42
0.0000000001
 43
0.0000000001
 40
0.0
 40
0.0
 40
0.0
 40
4.500000000000114
 40
4.500000000000114
 40
4.500000000000114
 10
0.0122850343258853
 20
970.3560456616269
 30
0.0
 10
0.0122850343258921
 20
972.6060456616269
 30
0.0
 10
0.012285034325899
 20
974.856045661627
 30
0.0
  0
SPLINE
  5
8C
330
1F
100
AcDbEntity
  8
Predefinito
100
AcDbSpline
210
0.0
220
0.0
230
1.0
 70
    28
 71
     3
 72
    13
 73
     9
 74
     0
 42
0.0000000001
 43
0.0000000001
 40
-408.4056170464897
 40
-408.4056170464897
 40
-408.4056170464897
 40
-408.4056170464897
 40
-398.3382695089466
 40
-388.2709219714034
 40
-369.0494669368974
 40
-347.841440562962
 40
-318.61231927004
 40
-304.5262003319289
 40
-304.5262003319289
 40
-304.5262003319289
 40
-304.5262003319289
 10
64.99278381673335
 20
970.356045661627
 30
0.0
 41
1.0
 10
61.65410698825885
 20
970.356045661627
 30
0.0
 41
1.0
 10
54.97640216363665
 20
970.3560456616267
 30
0.0
 41
1.0
 10
42.232110116298
 20
970.3560456616269
 30
0.0
 41
1.0
 10
27.02932720022189
 20
970.356045661627
 30
0.0
 41
1.0
 10
10.12807956997256
 20
970.3560456616271
 30
0.0
 41
1.0
 10
1.17871193372788
 20
970.356045661627
 30
0.0
 41
1.0
 10
-0.0781468350779611
 20
970.3560456616269
 30
0.0
 41
1.0
 10
0.0122850343258853
 20
970.3560456616269
 30
0.0
 41
1.0
  0
SPLINE
  5
8D
330
1F
100
AcDbEntity
  8
Predefinito
100
AcDbSpline
210
0.0
220
0.0
230
1.0
 70
    24
 71
     2
 72
     6
 73
     3
 74
     0
 42
0.0000000001
 43
0.0000000001
 40
-64.95274552068689
 40
-64.95274552068689
 40
-64.95274552068689
 40
0.0
 40
0.0
 40
0.0
 10
129.9691565811992
 20
970.3560456616269
 30
0.0
 10
97.48097019896629
 20
970.3560456616269
 30
0.0
 10
64.99278381673335
 20
970.356045661627
 30
0.0
  0
SPLINE
  5
8E
330
1F
100
AcDbEntity
  8
Predefinito
100
AcDbSpline
210
0.0
220
0.0
230
1.0
 70
    24
 71
     2
 72
     6
 73
     3
 74
     0
 42
0.0000000001
 43
0.0000000001
 40
0.0
 40
0.0
 40
0.0
 40
4.500000000000227
 40
4.500000000000227
 40
4.500000000000227
 10
129.9691565811992
 20
974.8560456616271
 30
0.0
 10
129.9691565811992
 20
972.606045661627
 30
0.0
 10
129.9691565811992
 20
970.3560456616269
 30
0.0
  0
SPLINE
  5
8F
330
1F
100
AcDbEntity
  8
Predefinito
100
AcDbSpline
210
0.0
220
0.0
230
1.0
 70
     8
 71
     3
 72
    24
 73
    20
 74
     0
 42
0.0000000001
 43
0.0000000001
 40
-100.3859406116211
 40
-100.3859406116211
 40
-100.3859406116211
 40
-100.3859406116211
 40
-100.3550363300113
 40
-99.9165281271825
 40
-99.58646333822071
 40
-98.84769996017674
 40
-98.83797032304571
 40
-84.75832593505697
 40
-42.41599442949838
 40
-42.33446638570189
 40
-40.31423661248508
 40
-37.37876431977789
 40
-37.12959263556784
 40
-27.98804712804293
 40
-0.9193080822935882
 40
-0.7403518469795234
 40
-0.4553459237468052
 40
-0.2479899981183522
 40
0.0
 40
0.0
 40
0.0
 40
0.0
 10
24.99509463762907
 20
636.1008646778444
 30
0.0
 10
24.98479277648873
 20
636.1008658523548
 30
0.0
 10
24.82830454229939
 20
636.0984376781324
 30
0.0
 10
24.56397551918353
 20
636.0306972900282
 30
0.0
 10
24.15355229335207
 20
635.7287301716658
 30
0.0
 10
24.00197586508106
 20
635.3756604629892
 30
0.0
 10
23.87248640841212
 20
630.434619476241
 30
0.0
 10
23.3804244823733
 20
611.630459859538
 30
0.0
 10
22.88682723275381
 20
592.8024850483016
 30
0.0
 10
22.49949973309438
 20
577.9928058289585
 30
0.0
 10
22.36740717831633
 20
576.3169272472234
 30
0.0
 10
22.01927005398949
 20
574.6123651796817
 30
0.0
 10
20.87232367735275
 20
570.6669136542637
 30
0.0
 10
17.50278556242662
 20
558.9903560657553
 30
0.0
 10
14.10445954299506
 20
547.3461042892453
 30
0.0
 10
11.57059879631661
 20
538.5254637419782
 30
0.0
 10
11.67706948871987
 20
538.3024221748659
 30
0.0
 10
11.87025987614998
 20
538.140387914631
 30
0.0
 10
12.02152255945959
 20
538.101023453065
 30
0.0
 10
12.10423148018056
 20
538.1008646778486
 30
0.0
  0
SPLINE
  5
90
330
1F
100
AcDbEntity
  8
Predefinito
100
AcDbSpline
210
0.0
220
0.0
230
1.0
 70
    24
 71
     2
 72
     6
 73
     3
 74
     0
 42
0.0000000001
 43
0.0000000001
 40
0.0
 40
0.0
 40
0.0
 40
6.492059621782694
 40
6.492059621782694
 40
6.492059621782694
 10
31.48715560345349
 20
636.1008646778462
 30
0.0
 10
28.24112512054128
 20
636.1008646778453
 30
0.0
 10
24.99509463762907
 20
636.1008646778444
 30
0.0
  0
SPLINE
  5
91
330
1F
100
AcDbEntity
  8
Predefinito
100
AcDbSpline
210
0.0
220
0.0
230
1.0
 70
    24
 71
     2
 72
     6
 73
     3
 74
     0
 42
0.0000000001
 43
0.0000000001
 40
-0.0548101022345975
 40
-0.0548101022345975
 40
-0.0548101022345975
 40
0.0
 40
0.0
 40
0.0
 10
31.54196570568578
 20
636.1008646778462
 30
0.0
 10
31.51456065456964
 20
636.1008646778462
 30
0.0
 10
31.48715560345349
 20
636.1008646778462
 30
0.0
  0
SPLINE
  5
92
330
1F
100
AcDbEntity
  8
Predefinito
100
AcDbSpline
210
0.0
220
0.0
230
1.0
 70
    24
 71
     2
 72
     6
 73
     3
 74
     0
 42
0.0000000001
 43
0.0000000001
 40
0.0
 40
0.0
 40
0.0
 40
11.56664101674417
 40
11.56664101674417
 40
11.56664101674417
 10
43.10860672243068
 20
636.1008646778462
 30
0.0
 10
37.32528621405822
 20
636.1008646778462
 30
0.0
 10
31.54196570568578
 20
636.1008646778462
 30
0.0
  0
POLYLINE
  5
93
330
1F
100
AcDbEntity
  8
Predefinito
100
AcDb2dPolyline
 66
     1
 10
0.0
 20
0.0
 30
0.0
  0
VERTEX
  5
94
330
93
100
AcDbEntity
  8
Predefinito
100
AcDbVertex
100
AcDb2dVertex
 10
104.9904716516577
 20
636.1008646778461
 30
0.0
  0
VERTEX
  5
95
330
93
100
AcDbEntity
  8
Predefinito
100
AcDbVertex
100
AcDb2dVertex
 10
43.10860672243068
 20
636.1008646778462
 30
0.0
  0
SEQEND
  5
96
330
93
100
AcDbEntity
  8
Predefinito
  0
SPLINE
  5
97
330
1F
100
AcDbEntity
  8
Predefinito
100
AcDbSpline
210
0.0
220
0.0
230
1.0
 70
    12
 71
     2
 72
    16
 73
    13
 74
     0
 42
0.0000000001
 43
0.0000000001
 40
0.0
 40
0.0
 40
0.0
 40
0.7853981633974421
 40
0.7853981633974421
 40
0.9264176330322788
 40
0.9264176330322788
 40
37.2514694368174
 40
37.2514694368174
 40
42.36864944661405
 40
42.36864944661405
 40
98.84242021230207
 40
98.84242021230207
 40
100.3870366003172
 40
100.3870366003172
 40
100.3870366003172
 10
117.8813345938422
 20
538.1008646778461
 30
0.0
 41
1.0
 10
118.3813345938421
 20
538.100864677846
 30
0.0
 41
0.7071067811866781
 10
118.3813345938422
 20
538.6008646778461
 30
0.0
 41
1.0
 10
118.3813345938422
 20
538.6718455578533
 30
0.0
 41
0.9900732216942939
 10
118.3615795781585
 20
538.7400219810646
 30
0.0
 41
1.0
 10
113.3066833298681
 20
556.1849459148609
 30
0.0
 41
1.0
 10
108.2517870815778
 20
573.6298698486572
 30
0.0
 41
1.0
 10
107.5357838167306
 20
576.1008646778461
 30
0.0
 41
0.9918281755866506
 10
107.4684399547173
 20
578.6726230112434
 30
0.0
 41
1.0
 10
106.7292844656753
 20
606.8998323186987
 30
0.0
 41
1.0
 10
105.9901289766332
 20
635.127041626154
 30
0.0
 41
1.0
 10
105.9646285225795
 20
636.1008646778462
 30
0.0
 41
0.7163019434245772
 10
104.9904716516577
 20
636.1008646778461
 30
0.0
 41
1.0
  0
POLYLINE
  5
98
330
1F
100
AcDbEntity
  8
Predefinito
100
AcDb2dPolyline
 66
     1
 10
0.0
 20
0.0
 30
0.0
  0
VERTEX
  5
99
330
98
100
AcDbEntity
  8
Predefinito
100
AcDbVertex
100
AcDb2dVertex
 10
12.10423148018056
 20
538.1008646778486
 30
0.0
  0
VERTEX
  5
9A
330
98
100
AcDbEntity
  8
Predefinito
100
AcDbVertex
100
AcDb2dVertex
 10
117.8813345938422
 20
538.1008646778461
 30
0.0
  0
SEQEND
  5
9B
330
98
100
AcDbEntity
  8
Predefinito
  0
SPLINE
  5
9C
330
1F
100
AcDbEntity
  8
Predefinito
100
AcDbSpline
210
0.0
220
0.0
230
1.0
 70
     8
 71
     3
 72
    24
 73
    20
 74
     0
 42
0.0000000001
 43
0.0000000001
 40
-100.3859406168603
 40
-100.3859406168603
 40
-100.3859406168603
 40
-100.3859406168603
 40
-100.3550363384242
 40
-99.91652814243734
 40
-99.58646334595832
 40
-98.84769996791452
 40
-98.83797033078349
 40
-84.75832594279458
 40
-42.41599443723583
 40
-42.33446639343946
 40
-40.31423662022263
 40
-37.37876432751545
 40
-37.12959264330527
 40
-27.98804713578035
 40
-0.9193080900310403
 40
-0.7403518547170072
 40
-0.4553459328623986
 40
-0.2479900291387719
 40
0.0
 40
0.0
 40
0.0
 40
0.0
 10
235.3520873033997
 20
636.1008646778424
 30
0.0
 10
235.3417867872558
 20
636.1008658530653
 30
0.0
 10
235.1852985572896
 20
636.0984376715367
 30
0.0
 10
234.920969534203
 20
636.0306972872067
 30
0.0
 10
234.5105463026269
 20
635.7287301767958
 30
0.0
 10
234.3589698749583
 20
635.3756604629065
 30
0.0
 10
234.2294804182297
 20
630.434619476242
 30
0.0
 10
233.7374184921833
 20
611.6304598595319
 30
0.0
 10
233.2438212425761
 20
592.8024850483077
 30
0.0
 10
232.8564937429067
 20
577.9928058289539
 30
0.0
 10
232.7244011881656
 20
576.3169272472601
 30
0.0
 10
232.3762640637646
 20
574.6123651796355
 30
0.0
 10
231.2293176873382
 20
570.6669136544552
 30
0.0
 10
227.8597795715932
 20
558.99035606502
 30
0.0
 10
224.461453553571
 20
547.3461042901102
 30
0.0
 10
221.9275928058134
 20
538.5254637419031
 30
0.0
 10
222.0340634982048
 20
538.3024221884082
 30
0.0
 10
222.2272538646054
 20
538.1403878983147
 30
0.0
 10
222.3785165599837
 20
538.101023448265
 30
0.0
 10
222.461225489997
 20
538.1008646778484
 30
0.0
  0
SPLINE
  5
9D
330
1F
100
AcDbEntity
  8
Predefinito
100
AcDbSpline
210
0.0
220
0.0
230
1.0
 70
    24
 71
     2
 72
     6
 73
     3
 74
     0
 42
0.0000000001
 43
0.0000000001
 40
0.0
 40
0.0
 40
0.0
 40
79.9953756213448
 40
79.9953756213448
 40
79.9953756213448
 10
315.3474660468148
 20
636.100864677846
 30
0.0
 10
275.3497780434811
 20
636.100864677846
 30
0.0
 10
235.3520900401473
 20
636.1008646778461
 30
0.0
  0
SPLINE
  5
9E
330
1F
100
AcDbEntity
  8
Predefinito
100
AcDbSpline
210
0.0
220
0.0
230
1.0
 70
     8
 71
     3
 72
    22
 73
    18
 74
     0
 42
0.0000000001
 43
0.0000000001
 40
-100.3853377332953
 40
-100.3853377332953
 40
-100.3853377332953
 40
-100.3853377332953
 40
-100.1222754488752
 40
-99.9178719934576
 40
-99.70136829377716
 40
-99.46124449020412
 40
-68.79144322118016
 40
-63.23150045140032
 40
-63.00727439576711
 40
-60.12306445872342
 40
-58.05157057087715
 40
-57.97004252707771
 40
-57.85071628576291
 40
-1.55337593343377
 40
-1.525704728265795
 40
-0.7732646745666889
 40
0.0
 40
0.0
 40
0.0
 40
0.0
 10
328.2383301631547
 20
538.1008646778486
 30
0.0
 10
328.3260614125768
 20
538.1009821831932
 30
0.0
 10
328.4813059947285
 20
538.1441135441366
 30
0.0
 10
328.6457092991064
 20
538.2957179957722
 30
0.0
 10
328.769941155794
 20
538.5119153908267
 30
0.0
 10
325.9051676035137
 20
548.4838791954858
 30
0.0
 10
322.5107993461745
 20
560.1571919341708
 30
0.0
 10
319.1301223116404
 20
571.8286577727379
 30
0.0
 10
318.3269207896617
 20
574.6042947559581
 30
0.0
 10
317.9772148575768
 20
576.2997392433763
 30
0.0
 10
317.8433890344085
 20
577.97573509416
 30
0.0
 10
317.8238478439752
 20
578.7329342960353
 30
0.0
 10
317.3309805809866
 20
597.5593077986871
 30
0.0
 10
316.8381886127304
 20
616.3673823305936
 30
0.0
 10
316.3404180873897
 20
635.3869399152467
 30
0.0
 10
316.1117069212526
 20
635.89297350159
 30
0.0
 10
315.6050786366168
 20
636.101190294339
 30
0.0
 10
315.3474660468148
 20
636.100864677846
 30
0.0
  0
POLYLINE
  5
9F
330
1F
100
AcDbEntity
  8
Predefinito
100
AcDb2dPolyline
 66
     1
 10
0.0
 20
0.0
 30
0.0
  0
VERTEX
  5
A0
330
9F
100
AcDbEntity
  8
Predefinito
100
AcDbVertex
100
AcDb2dVertex
 10
222.461225489997
 20
538.1008646778484
 30
0.0
  0
VERTEX
  5
A1
330
9F
100
AcDbEntity
  8
Predefinito
100
AcDbVertex
100
AcDb2dVertex
 10
328.2383301631547
 20
538.1008646778486
 30
0.0
  0
SEQEND
  5
A2
330
9F
100
AcDbEntity
  8
Predefinito
  0
VIEWPORT
  5
AC
330
A8
100
AcDbEntity
 67
     1
  8
0
100
AcDbViewport
 10
6.0
 20
4.5
 30
0.0
 40
12.696
 41
9.522
 68
     1
 69
     1
 12
6.0
 22
4.5
 13
0.0
 23
0.0
 14
0.5
 24
0.5
 15
0.5
 25
0.5
 16
0.0
 26
0.0
 36
1.0
 17
0.0
 27
0.0
 37
0.0
 42
50.0
 43
0.0
 44
0.0
 45
9.522
 50
0.0
 51
0.0
 72
   100
 90
   557152
  1

281
     0
 71
     1
 74
     0
110
0.0
120
0.0
130
0.0
111
1.0
121
0.0
131
0.0
112
0.0
122
1.0
132
0.0
 79
     0
146
0.0
170
     0
  0
ENDSEC
  0
SECTION
  2
OBJECTS
  0
DICTIONARY
  5
C
330
0
100
AcDbDictionary
281
     1
  3
ACAD_GROUP
350
D
  3
ACAD_LAYOUT
350
1A
  3
ACAD_MLEADERSTYLE
350
D2
  3
ACAD_MLINESTYLE
350
17
  3
ACAD_PLOTSETTINGS
350
19
  3
ACAD_PLOTSTYLENAME
350
E
  3
ACAD_SCALELIST
350
AD
  3
ACAD_TABLESTYLE
350
D1
  3
ACAD_VISUALSTYLE
350
2A
  3
AcDbVariableDictionary
350
CF
  0
DICTIONARY
  5
D
102
{ACAD_REACTORS
330
C
102
}
330
C
100
AcDbDictionary
281
     1
  0
DICTIONARY
  5
1A
102
{ACAD_REACTORS
330
C
102
}
330
C
100
AcDbDictionary
281
     1
  3
Layout1
350
A4
  3
Layout2
350
A9
  3
Model
350
22
  0
DICTIONARY
  5
D2
102
{ACAD_REACTORS
330
C
102
}
330
C
100
AcDbDictionary
281
     1
  0
DICTIONARY
  5
17
102
{ACAD_REACTORS
330
C
102
}
330
C
100
AcDbDictionary
281
     1
  3
Standard
350
18
  0
DICTIONARY
  5
19
102
{ACAD_REACTORS
330
C
102
}
330
C
100
AcDbDictionary
281
     1
  0
ACDBDICTIONARYWDFLT
  5
E
102
{ACAD_REACTORS
330
C
102
}
330
C
100
AcDbDictionary
281
     1
  3
Normal
350
F
100
AcDbDictionaryWithDefault
340
F
  0
DICTIONARY
  5
AD
102
{ACAD_REACTORS
330
C
102
}
330
C
100
AcDbDictionary
281
     1
  3
A0
350
AE
  3
A1
350
AF
  3
A2
350
B0
  3
A3
350
B1
  3
A4
350
B2
  3
A5
350
B3
  3
A6
350
B4
  3
A7
350
B5
  3
A8
350
B6
  3
A9
350
B7
  3
B0
350
B8
  3
B1
350
B9
  3
B2
350
BA
  3
B3
350
BB
  3
B4
350
BC
  3
B5
350
BD
  3
B6
350
BE
  3
B7
350
BF
  3
B8
350
C0
  3
B9
350
C1
  3
C0
350
C2
  3
C1
350
C3
  3
C2
350
C4
  3
C3
350
C5
  3
C4
350
C6
  3
C5
350
C7
  3
C6
350
C8
  3
C7
350
C9
  3
C8
350
CA
  3
C9
350
CB
  3
D0
350
CC
  3
D1
350
CD
  3
D2
350
CE
  0
DICTIONARY
  5
D1
102
{ACAD_REACTORS
330
C
102
}
330
C
100
AcDbDictionary
281
     1
  0
DICTIONARY
  5
2A
102
{ACAD_REACTORS
330
C
102
}
330
C
100
AcDbDictionary
281
     1
  3
2dWireframe
350
2F
  3
3D Hidden
350
31
  3
3dWireframe
350
30
  3
Basic
350
32
  3
Brighten
350
36
  3
ColorChange
350
3A
  3
Conceptual
350
34
  3
Dim
350
35
  3
Facepattern
350
39
  3
Flat
350
2B
  3
FlatWithEdges
350
2C
  3
Gouraud
350
2D
  3
GouraudWithEdges
350
2E
  3
Linepattern
350
38
  3
Realistic
350
33
  3
Thicken
350
37
  0
DICTIONARY
  5
CF
102
{ACAD_REACTORS
330
C
102
}
330
C
100
AcDbDictionary
281
     1
  3
CANNOSCALE
350
D0
  0
LAYOUT
  5
A4
102
{ACAD_REACTORS
330
1A
102
}
330
1A
100
AcDbPlotSettings
  1

  2
none_device
  4
Letter_(8.50_x_11.00_Inches)
  6

 40
6.35
 41
6.35
 42
6.35000508
 43
6.35000508
 44
215.9
 45
279.4
 46
0.0
 47
0.0
 48
0.0
 49
0.0
140
0.0
141
0.0
142
1.0
143
1.0
 70
   688
 72
     0
 73
     1
 74
     5
  7

 75
    16
 76
     0
 77
     2
 78
   300
147
1.0
148
0.0
149
0.0
100
AcDbLayout
  1
Layout1
 70
     1
 71
     1
 10
0.0
 20
0.0
 11
0.0
 21
0.0
 12
0.0
 22
0.0
 32
0.0
 14
0.0
 24
0.0
 34
0.0
 15
0.0
 25
0.0
 35
0.0
146
0.0
 13
0.0
 23
0.0
 33
0.0
 16
1.0
 26
0.0
 36
0.0
 17
0.0
 27
1.0
 37
0.0
 76
     0
330
A3
331
A7
  0
LAYOUT
  5
A9
102
{ACAD_REACTORS
330
1A
102
}
330
1A
100
AcDbPlotSettings
  1

  2
none_device
  4
Letter_(8.50_x_11.00_Inches)
  6

 40
6.35
 41
6.35
 42
6.35000508
 43
6.35000508
 44
215.9
 45
279.4
 46
0.0
 47
0.0
 48
0.0
 49
0.0
140
0.0
141
0.0
142
1.0
143
1.0
 70
   688
 72
     0
 73
     1
 74
     5
  7

 75
    16
 76
     0
 77
     2
 78
   300
147
1.0
148
0.0
149
0.0
100
AcDbLayout
  1
Layout2
 70
     1
 71
     2
 10
0.0
 20
0.0
 11
0.0
 21
0.0
 12
0.0
 22
0.0
 32
0.0
 14
0.0
 24
0.0
 34
0.0
 15
0.0
 25
0.0
 35
0.0
146
0.0
 13
0.0
 23
0.0
 33
0.0
 16
1.0
 26
0.0
 36
0.0
 17
0.0
 27
1.0
 37
0.0
 76
     0
330
A8
331
AC
  0
LAYOUT
  5
22
102
{ACAD_REACTORS
330
1A
102
}
330
1A
100
AcDbPlotSettings
  1

  2
none_device
  4

  6

 40
0.0
 41
0.0
 42
0.0
 43
0.0
 44
0.0
 45
0.0
 46
0.0
 47
0.0
 48
0.0
 49
0.0
140
0.0
141
0.0
142
1.0
143
1.0
 70
  1712
 72
     0
 73
     0
 74
     0
  7

 75
     0
 76
     0
 77
     2
 78
   300
147
1.0
148
0.0
149
0.0
100
AcDbLayout
  1
Model
 70
     1
 71
     0
 10
0.0
 20
0.0
 11
12.0
 21
9.0
 12
0.0
 22
0.0
 32
0.0
 14
0.0122850343239595
 24
-0.0092579871400744
 34
0.0
 15
340.3497778265467
 25
995.8560456616283
 35
0.0
146
0.0
 13
0.0
 23
0.0
 33
0.0
 16
1.0
 26
0.0
 36
0.0
 17
0.0
 27
1.0
 37
0.0
 76
     0
330
1F
331
29
  0
MLINESTYLE
  5
18
102
{ACAD_REACTORS
330
17
102
}
330
17
100
AcDbMlineStyle
  2
Standard
 70
     0
  3

 62
   256
 51
90.0
 52
90.0
 71
     2
 49
0.5
 62
   256
  6
BYLAYER
 49
-0.5
 62
   256
  6
BYLAYER
  0
ACDBPLACEHOLDER
  5
F
102
{ACAD_REACTORS
330
E
102
}
330
E
  0
SCALE
  5
AE
102
{ACAD_REACTORS
330
AD
102
}
330
AD
100
AcDbScale
 70
     0
300
1:1
140
1.0
141
1.0
290
     1
  0
SCALE
  5
AF
102
{ACAD_REACTORS
330
AD
102
}
330
AD
100
AcDbScale
 70
     0
300
1:2
140
1.0
141
2.0
290
     0
  0
SCALE
  5
B0
102
{ACAD_REACTORS
330
AD
102
}
330
AD
100
AcDbScale
 70
     0
300
1:4
140
1.0
141
4.0
290
     0
  0
SCALE
  5
B1
102
{ACAD_REACTORS
330
AD
102
}
330
AD
100
AcDbScale
 70
     0
300
1:5
140
1.0
141
5.0
290
     0
  0
SCALE
  5
B2
102
{ACAD_REACTORS
330
AD
102
}
330
AD
100
AcDbScale
 70
     0
300
1:8
140
1.0
141
8.0
290
     0
  0
SCALE
  5
B3
102
{ACAD_REACTORS
330
AD
102
}
330
AD
100
AcDbScale
 70
     0
300
1:10
140
1.0
141
10.0
290
     0
  0
SCALE
  5
B4
102
{ACAD_REACTORS
330
AD
102
}
330
AD
100
AcDbScale
 70
     0
300
1:16
140
1.0
141
16.0
290
     0
  0
SCALE
  5
B5
102
{ACAD_REACTORS
330
AD
102
}
330
AD
100
AcDbScale
 70
     0
300
1:20
140
1.0
141
20.0
290
     0
  0
SCALE
  5
B6
102
{ACAD_REACTORS
330
AD
102
}
330
AD
100
AcDbScale
 70
     0
300
1:30
140
1.0
141
30.0
290
     0
  0
SCALE
  5
B7
102
{ACAD_REACTORS
330
AD
102
}
330
AD
100
AcDbScale
 70
     0
300
1:40
140
1.0
141
40.0
290
     0
  0
SCALE
  5
B8
102
{ACAD_REACTORS
330
AD
102
}
330
AD
100
AcDbScale
 70
     0
300
1:50
140
1.0
141
50.0
290
     0
  0
SCALE
  5
B9
102
{ACAD_REACTORS
330
AD
102
}
330
AD
100
AcDbScale
 70
     0
300
1:100
140
1.0
141
100.0
290
     0
  0
SCALE
  5
BA
102
{ACAD_REACTORS
330
AD
102
}
330
AD
100
AcDbScale
 70
     0
300
2:1
140
2.0
141
1.0
290
     0
  0
SCALE
  5
BB
102
{ACAD_REACTORS
330
AD
102
}
330
AD
100
AcDbScale
 70
     0
300
4:1
140
4.0
141
1.0
290
     0
  0
SCALE
  5
BC
102
{ACAD_REACTORS
330
AD
102
}
330
AD
100
AcDbScale
 70
     0
300
8:1
140
8.0
141
1.0
290
     0
  0
SCALE
  5
BD
102
{ACAD_REACTORS
330
AD
102
}
330
AD
100
AcDbScale
 70
     0
300
10:1
140
10.0
141
1.0
290
     0
  0
SCALE
  5
BE
102
{ACAD_REACTORS
330
AD
102
}
330
AD
100
AcDbScale
 70
     0
300
100:1
140
100.0
141
1.0
290
     0
  0
SCALE
  5
BF
102
{ACAD_REACTORS
330
AD
102
}
330
AD
100
AcDbScale
 70
     0
300
1/128" = 1'-0"
140
0.0078125
141
12.0
290
     0
  0
SCALE
  5
C0
102
{ACAD_REACTORS
330
AD
102
}
330
AD
100
AcDbScale
 70
     0
300
1/64" = 1'-0"
140
0.015625
141
12.0
290
     0
  0
SCALE
  5
C1
102
{ACAD_REACTORS
330
AD
102
}
330
AD
100
AcDbScale
 70
     0
300
1/32" = 1'-0"
140
0.03125
141
12.0
290
     0
  0
SCALE
  5
C2
102
{ACAD_REACTORS
330
AD
102
}
330
AD
100
AcDbScale
 70
     0
300
1/16" = 1'-0"
140
0.0625
141
12.0
290
     0
  0
SCALE
  5
C3
102
{ACAD_REACTORS
330
AD
102
}
330
AD
100
AcDbScale
 70
     0
300
3/32" = 1'-0"
140
0.09375
141
12.0
290
     0
  0
SCALE
  5
C4
102
{ACAD_REACTORS
330
AD
102
}
330
AD
100
AcDbScale
 70
     0
300
1/8" = 1'-0"
140
0.125
141
12.0
290
     0
  0
SCALE
  5
C5
102
{ACAD_REACTORS
330
AD
102
}
330
AD
100
AcDbScale
 70
     0
300
3/16" = 1'-0"
140
0.1875
141
12.0
290
     0
  0
SCALE
  5
C6
102
{ACAD_REACTORS
330
AD
102
}
330
AD
100
AcDbScale
 70
     0
300
1/4" = 1'-0"
140
0.25
141
12.0
290
     0
  0
SCALE
  5
C7
102
{ACAD_REACTORS
330
AD
102
}
330
AD
100
AcDbScale
 70
     0
300
3/8" = 1'-0"
140
0.375
141
12.0
290
     0
  0
SCALE
  5
C8
102
{ACAD_REACTORS
330
AD
102
}
330
AD
100
AcDbScale
 70
     0
300
1/2" = 1'-0"
140
0.5
141
12.0
290
     0
  0
SCALE
  5
C9
102
{ACAD_REACTORS
330
AD
102
}
330
AD
100
AcDbScale
 70
     0
300
3/4" = 1'-0"
140
0.75
141
12.0
290
     0
  0
SCALE
  5
CA
102
{ACAD_REACTORS
330
AD
102
}
330
AD
100
AcDbScale
 70
     0
300
1" = 1'-0"
140
1.0
141
12.0
290
     0
  0
SCALE
  5
CB
102
{ACAD_REACTORS
330
AD
102
}
330
AD
100
AcDbScale
 70
     0
300
1-1/2" = 1'-0"
140
1.5
141
12.0
290
     0
  0
SCALE
  5
CC
102
{ACAD_REACTORS
330
AD
102
}
330
AD
100
AcDbScale
 70
     0
300
3" = 1'-0"
140
3.0
141
12.0
290
     0
  0
SCALE
  5
CD
102
{ACAD_REACTORS
330
AD
102
}
330
AD
100
AcDbScale
 70
     0
300
6" = 1'-0"
140
6.0
141
12.0
290
     0
  0
SCALE
  5
CE
102
{ACAD_REACTORS
330
AD
102
}
330
AD
100
AcDbScale
 70
     0
300
1'-0" = 1'-0"
140
12.0
141
12.0
290
     0
  0
VISUALSTYLE
  5
2F
102
{ACAD_REACTORS
330
2A
102
}
330
2A
100
AcDbVisualStyle
  2
2dWireframe
 70
     4
 71
     0
 72
     2
 73
     0
 90
        0
 40
-0.6
 41
-30.0
 62
     5
 63
     7
421
 16777215
 74
     1
 91
        4
 64
     7
 65
   257
 75
     1
175
     1
 42
1.0
 92
        0
 66
   257
 43
1.0
 76
     1
 77
     6
 78
     2
 67
     7
 79
     5
170
     0
171
     0
290
     0
174
     0
 93
        1
 44
0.0
173
     0
291
     0
 45
0.0
1001
ACAD
1000
AcDbSavedByObjectVersion
1070
     0
  0
VISUALSTYLE
  5
31
102
{ACAD_REACTORS
330
2A
102
}
330
2A
100
AcDbVisualStyle
  2
3D Hidden
 70
     6
 71
     1
 72
     2
 73
     2
 90
        0
 40
-0.6
 41
-30.0
 62
     5
 63
     7
421
 16777215
 74
     2
 91
        2
 64
     7
 65
   257
 75
     2
175
     1
 42
40.0
 92
        0
 66
   257
 43
1.0
 76
     1
 77
     6
 78
     2
 67
     7
 79
     3
170
     0
171
     0
290
     0
174
     0
 93
        1
 44
0.0
173
     0
291
     0
 45
0.0
1001
ACAD
1000
AcDbSavedByObjectVersion
1070
     0
  0
VISUALSTYLE
  5
30
102
{ACAD_REACTORS
330
2A
102
}
330
2A
100
AcDbVisualStyle
  2
3dWireframe
 70
     5
 71
     0
 72
     2
 73
     0
 90
        0
 40
-0.6
 41
-30.0
 62
     5
 63
     7
421
 16777215
 74
     1
 91
        4
 64
     7
 65
   257
 75
     1
175
     1
 42
1.0
 92
        0
 66
   257
 43
1.0
 76
     1
 77
     6
 78
     2
 67
     7
 79
     5
170
     0
171
     0
290
     0
174
     0
 93
        1
 44
0.0
173
     0
291
     0
 45
0.0
1001
ACAD
1000
AcDbSavedByObjectVersion
1070
     0
  0
VISUALSTYLE
  5
32
102
{ACAD_REACTORS
330
2A
102
}
330
2A
100
AcDbVisualStyle
  2
Basic
 70
     7
 71
     1
 72
     0
 73
     1
 90
        0
 40
-0.6
 41
-30.0
 62
     5
 63
     7
421
 16777215
 74
     0
 91
        4
 64
     7
 65
   257
 75
     1
175
     1
 42
1.0
 92
        8
 66
     7
 43
1.0
 76
     1
 77
     6
 78
     2
 67
     7
 79
     5
170
     0
171
     0
290
     0
174
     0
 93
        1
 44
0.0
173
     0
291
     1
 45
0.0
1001
ACAD
1000
AcDbSavedByObjectVersion
1070
     0
  0
VISUALSTYLE
  5
36
102
{ACAD_REACTORS
330
2A
102
}
330
2A
100
AcDbVisualStyle
  2
Brighten
 70
    12
 71
     2
 72
     2
 73
     0
 90
        0
 40
-0.6
 41
-30.0
 62
     5
 63
     7
421
 16777215
 74
     1
 91
        4
 64
     7
 65
   257
 75
     1
175
     1
 42
1.0
 92
        8
 66
     7
 43
1.0
 76
     1
 77
     6
 78
     2
 67
     7
 79
     5
170
     0
171
     0
290
     0
174
     0
 93
        1
 44
50.0
173
     0
291
     1
 45
0.0
1001
ACAD
1000
AcDbSavedByObjectVersion
1070
     0
  0
VISUALSTYLE
  5
3A
102
{ACAD_REACTORS
330
2A
102
}
330
2A
100
AcDbVisualStyle
  2
ColorChange
 70
    16
 71
     2
 72
     2
 73
     3
 90
        0
 40
-0.6
 41
-30.0
 62
     5
 63
     8
421
  8421504
 74
     1
 91
        4
 64
     7
 65
   257
 75
     1
175
     1
 42
1.0
 92
        8
 66
     8
424
  8421504
 43
1.0
 76
     1
 77
     6
 78
     2
 67
     7
 79
     5
170
     0
171
     0
290
     0
174
     0
 93
        1
 44
0.0
173
     0
291
     1
 45
0.0
1001
ACAD
1000
AcDbSavedByObjectVersion
1070
     0
  0
VISUALSTYLE
  5
34
102
{ACAD_REACTORS
330
2A
102
}
330
2A
100
AcDbVisualStyle
  2
Conceptual
 70
     9
 71
     3
 72
     2
 73
     0
 90
        0
 40
-0.6
 41
-30.0
 62
     5
 63
     7
421
 16777215
 74
     2
 91
        2
 64
     7
 65
   257
 75
     1
175
     1
 42
40.0
 92
        8
 66
     7
 43
1.0
 76
     1
 77
     6
 78
     2
 67
     7
 79
     3
170
     0
171
     0
290
     0
174
     0
 93
        1
 44
0.0
173
     0
291
     0
 45
0.0
1001
ACAD
1000
AcDbSavedByObjectVersion
1070
     0
  0
VISUALSTYLE
  5
35
102
{ACAD_REACTORS
330
2A
102
}
330
2A
100
AcDbVisualStyle
  2
Dim
 70
    11
 71
     2
 72
     2
 73
     0
 90
        0
 40
-0.6
 41
-30.0
 62
     5
 63
     7
421
 16777215
 74
     1
 91
        4
 64
     7
 65
   257
 75
     1
175
     1
 42
1.0
 92
        8
 66
     7
 43
1.0
 76
     1
 77
     6
 78
     2
 67
     7
 79
     5
170
     0
171
     0
290
     0
174
     0
 93
        1
 44
-50.0
173
     0
291
     1
 45
0.0
1001
ACAD
1000
AcDbSavedByObjectVersion
1070
     0
  0
VISUALSTYLE
  5
39
102
{ACAD_REACTORS
330
2A
102
}
330
2A
100
AcDbVisualStyle
  2
Facepattern
 70
    15
 71
     2
 72
     2
 73
     0
 90
        0
 40
-0.6
 41
-30.0
 62
     5
 63
     7
421
 16777215
 74
     1
 91
        4
 64
     7
 65
   257
 75
     1
175
     1
 42
1.0
 92
        8
 66
     7
 43
1.0
 76
     1
 77
     6
 78
     2
 67
     7
 79
     5
170
     0
171
     0
290
     0
174
     0
 93
        1
 44
0.0
173
     0
291
     1
 45
0.0
1001
ACAD
1000
AcDbSavedByObjectVersion
1070
     0
  0
VISUALSTYLE
  5
2B
102
{ACAD_REACTORS
330
2A
102
}
330
2A
100
AcDbVisualStyle
  2
Flat
 70
     0
 71
     2
 72
     1
 73
     1
 90
        2
 40
-0.6
 41
30.0
 62
     5
 63
     7
421
 16777215
 74
     0
 91
        4
 64
     7
 65
   257
 75
     1
175
     1
 42
1.0
 92
        8
 66
     7
 43
1.0
 76
     1
 77
     6
 78
     2
 67
     7
 79
     5
170
     0
171
     0
290
     0
174
     0
 93
       13
 44
0.0
173
     0
291
     1
 45
0.0
1001
ACAD
1000
AcDbSavedByObjectVersion
1070
     0
  0
VISUALSTYLE
  5
2C
102
{ACAD_REACTORS
330
2A
102
}
330
2A
100
AcDbVisualStyle
  2
FlatWithEdges
 70
     1
 71
     2
 72
     1
 73
     1
 90
        2
 40
-0.6
 41
30.0
 62
     5
 63
     7
421
 16777215
 74
     1
 91
        4
 64
     7
 65
   257
 75
     1
175
     1
 42
1.0
 92
        0
 66
   257
 43
1.0
 76
     1
 77
     6
 78
     2
 67
     7
 79
     5
170
     0
171
     0
290
     0
174
     0
 93
       13
 44
0.0
173
     0
291
     1
 45
0.0
1001
ACAD
1000
AcDbSavedByObjectVersion
1070
     0
  0
VISUALSTYLE
  5
2D
102
{ACAD_REACTORS
330
2A
102
}
330
2A
100
AcDbVisualStyle
  2
Gouraud
 70
     2
 71
     2
 72
     2
 73
     1
 90
        2
 40
-0.6
 41
30.0
 62
     5
 63
     7
421
 16777215
 74
     0
 91
        4
 64
     7
 65
   257
 75
     1
175
     1
 42
1.0
 92
        0
 66
     7
 43
1.0
 76
     1
 77
     6
 78
     2
 67
     7
 79
     5
170
     0
171
     0
290
     0
174
     0
 93
       13
 44
0.0
173
     0
291
     1
 45
0.0
1001
ACAD
1000
AcDbSavedByObjectVersion
1070
     0
  0
VISUALSTYLE
  5
2E
102
{ACAD_REACTORS
330
2A
102
}
330
2A
100
AcDbVisualStyle
  2
GouraudWithEdges
 70
     3
 71
     2
 72
     2
 73
     1
 90
        2
 40
-0.6
 41
30.0
 62
     5
 63
     7
421
 16777215
 74
     1
 91
        4
 64
     7
 65
   257
 75
     1
175
     1
 42
1.0
 92
        0
 66
   257
 43
1.0
 76
     1
 77
     6
 78
     2
 67
     7
 79
     5
170
     0
171
     0
290
     0
174
     0
 93
       13
 44
0.0
173
     0
291
     1
 45
0.0
1001
ACAD
1000
AcDbSavedByObjectVersion
1070
     0
  0
VISUALSTYLE
  5
38
102
{ACAD_REACTORS
330
2A
102
}
330
2A
100
AcDbVisualStyle
  2
Linepattern
 70
    14
 71
     2
 72
     2
 73
     0
 90
        0
 40
-0.6
 41
-30.0
 62
     5
 63
     7
421
 16777215
 74
     1
 91
        4
 64
     7
 65
   257
 75
     7
175
     7
 42
1.0
 92
        8
 66
     7
 43
1.0
 76
     1
 77
     6
 78
     2
 67
     7
 79
     5
170
     0
171
     0
290
     0
174
     0
 93
        1
 44
0.0
173
     0
291
     1
 45
0.0
1001
ACAD
1000
AcDbSavedByObjectVersion
1070
     0
  0
VISUALSTYLE
  5
33
102
{ACAD_REACTORS
330
2A
102
}
330
2A
100
AcDbVisualStyle
  2
Realistic
 70
     8
 71
     2
 72
     2
 73
     0
 90
        0
 40
-0.6
 41
-30.0
 62
     5
 63
     7
421
 16777215
 74
     1
 91
        0
 64
     7
 65
   257
 75
     1
175
     1
 42
1.0
 92
        8
 66
     8
424
  7895160
 43
1.0
 76
     1
 77
     6
 78
     2
 67
     7
 79
     5
170
     0
171
     0
290
     0
174
     0
 93
       13
 44
0.0
173
     0
291
     0
 45
0.0
1001
ACAD
1000
AcDbSavedByObjectVersion
1070
     0
  0
VISUALSTYLE
  5
37
102
{ACAD_REACTORS
330
2A
102
}
330
2A
100
AcDbVisualStyle
  2
Thicken
 70
    13
 71
     2
 72
     2
 73
     0
 90
        0
 40
-0.6
 41
-30.0
 62
     5
 63
     7
421
 16777215
 74
     1
 91
        4
 64
     7
 65
   257
 75
     1
175
     1
 42
1.0
 92
       12
 66
     7
 43
1.0
 76
     1
 77
     6
 78
     2
 67
     7
 79
     5
170
     0
171
     0
290
     0
174
     0
 93
        1
 44
0.0
173
     0
291
     1
 45
0.0
1001
ACAD
1000
AcDbSavedByObjectVersion
1070
     0
  0
DICTIONARYVAR
  5
D0
102
{ACAD_REACTORS
330
CF
102
}
330
CF
100
DictionaryVariables
280
     0
  1
1:1
  0
ENDSEC
  0
EOF
