  0
SECTION
  2
HEADER
  9
$ACADVER
  1
AC1018
  9
$ACADMAINTVER
 70
     0
  9
$DWGCODEPAGE
  3
ANSI_1252
  9
$INSBASE
 10
0.0
 20
0.0
 30
0.0
  9
$EXTMIN
 10
0.0005077034866293
 20
-0.0067139579752951
 30
-0.0000000000001137
  9
$EXTMAX
 10
3498.118312092955
 20
2365.939941407444
 30
0.0
  9
$LIMMIN
 10
0.0
 20
0.0
  9
$LIMMAX
 10
12.0
 20
9.0
  9
$ORTHOMODE
 70
     0
  9
$REGENMODE
 70
     1
  9
$FILLMODE
 70
     1
  9
$QTEXTMODE
 70
     0
  9
$MIRRTEXT
 70
     1
  9
$LTSCALE
 40
1.0
  9
$ATTMODE
 70
     1
  9
$TEXTSIZE
 40
0.2
  9
$TRACEWID
 40
0.05
  9
$TEXTSTYLE
  7
Standard
  9
$CLAYER
  8
Predefinito
  9
$CELTYPE
  6
ByLayer
  9
$CECOLOR
 62
   256
  9
$CELTSCALE
 40
1.0
  9
$DISPSILH
 70
     0
  9
$DIMSCALE
 40
1.0
  9
$DIMASZ
 40
0.18
  9
$DIMEXO
 40
0.0625
  9
$DIMDLI
 40
0.38
  9
$DIMRND
 40
0.0
  9
$DIMDLE
 40
0.0
  9
$DIMEXE
 40
0.18
  9
$DIMTP
 40
0.0
  9
$DIMTM
 40
0.0
  9
$DIMTXT
 40
0.18
  9
$DIMCEN
 40
0.09
  9
$DIMTSZ
 40
0.0
  9
$DIMTOL
 70
     0
  9
$DIMLIM
 70
     0
  9
$DIMTIH
 70
     1
  9
$DIMTOH
 70
     1
  9
$DIMSE1
 70
     0
  9
$DIMSE2
 70
     0
  9
$DIMTAD
 70
     0
  9
$DIMZIN
 70
     0
  9
$DIMBLK
  1

  9
$DIMASO
 70
     1
  9
$DIMSHO
 70
     1
  9
$DIMPOST
  1

  9
$DIMAPOST
  1

  9
$DIMALT
 70
     0
  9
$DIMALTD
 70
     2
  9
$DIMALTF
 40
25.4
  9
$DIMLFAC
 40
1.0
  9
$DIMTOFL
 70
     0
  9
$DIMTVP
 40
0.0
  9
$DIMTIX
 70
     0
  9
$DIMSOXD
 70
     0
  9
$DIMSAH
 70
     0
  9
$DIMBLK1
  1

  9
$DIMBLK2
  1

  9
$DIMSTYLE
  2
Standard
  9
$DIMCLRD
 70
     0
  9
$DIMCLRE
 70
     0
  9
$DIMCLRT
 70
     0
  9
$DIMTFAC
 40
1.0
  9
$DIMGAP
 40
0.09
  9
$DIMJUST
 70
     0
  9
$DIMSD1
 70
     0
  9
$DIMSD2
 70
     0
  9
$DIMTOLJ
 70
     1
  9
$DIMTZIN
 70
     0
  9
$DIMALTZ
 70
     0
  9
$DIMALTTZ
 70
     0
  9
$DIMUPT
 70
     0
  9
$DIMDEC
 70
     4
  9
$DIMTDEC
 70
     4
  9
$DIMALTU
 70
     2
  9
$DIMALTTD
 70
     2
  9
$DIMTXSTY
  7
Standard
  9
$DIMAUNIT
 70
     0
  9
$DIMADEC
 70
     0
  9
$DIMALTRND
 40
0.0
  9
$DIMAZIN
 70
     0
  9
$DIMDSEP
 70
    46
  9
$DIMATFIT
 70
     3
  9
$DIMFRAC
 70
     0
  9
$DIMLDRBLK
  1

  9
$DIMLUNIT
 70
     2
  9
$DIMLWD
 70
    -2
  9
$DIMLWE
 70
    -2
  9
$DIMTMOVE
 70
     2
  9
$LUNITS
 70
     2
  9
$LUPREC
 70
     3
  9
$SKETCHINC
 40
0.1
  9
$FILLETRAD
 40
0.5
  9
$AUNITS
 70
     0
  9
$AUPREC
 70
     0
  9
$MENU
  1
.
  9
$ELEVATION
 40
0.0
  9
$PELEVATION
 40
0.0
  9
$THICKNESS
 40
0.0
  9
$LIMCHECK
 70
     0
  9
$CHAMFERA
 40
0.5
  9
$CHAMFERB
 40
0.5
  9
$CHAMFERC
 40
1.0
  9
$CHAMFERD
 40
0.0
  9
$SKPOLY
 70
     0
  9
$TDCREATE
 40
2455918.62381537
  9
$TDUCREATE
 40
2455918.582148704
  9
$TDUPDATE
 40
2455918.623815382
  9
$TDUUPDATE
 40
2455918.582148715
  9
$TDINDWG
 40
0.0000000116
  9
$TDUSRTIMER
 40
0.0000000116
  9
$USRTIMER
 70
     1
  9
$ANGBASE
 50
0.0
  9
$ANGDIR
 70
     0
  9
$PDMODE
 70
     0
  9
$PDSIZE
 40
0.0
  9
$PLINEWID
 40
0.0
  9
$SPLFRAME
 70
     0
  9
$SPLINETYPE
 70
     6
  9
$SPLINESEGS
 70
     8
  9
$HANDSEED
  5
88F
  9
$SURFTAB1
 70
     6
  9
$SURFTAB2
 70
     6
  9
$SURFTYPE
 70
     6
  9
$SURFU
 70
     6
  9
$SURFV
 70
     6
  9
$UCSBASE
  2

  9
$UCSNAME
  2

  9
$UCSORG
 10
0.0
 20
0.0
 30
0.0
  9
$UCSXDIR
 10
1.0
 20
0.0
 30
0.0
  9
$UCSYDIR
 10
0.0
 20
1.0
 30
0.0
  9
$UCSORTHOREF
  2

  9
$UCSORTHOVIEW
 70
     0
  9
$UCSORGTOP
 10
0.0
 20
0.0
 30
0.0
  9
$UCSORGBOTTOM
 10
0.0
 20
0.0
 30
0.0
  9
$UCSORGLEFT
 10
0.0
 20
0.0
 30
0.0
  9
$UCSORGRIGHT
 10
0.0
 20
0.0
 30
0.0
  9
$UCSORGFRONT
 10
0.0
 20
0.0
 30
0.0
  9
$UCSORGBACK
 10
0.0
 20
0.0
 30
0.0
  9
$PUCSBASE
  2

  9
$PUCSNAME
  2

  9
$PUCSORG
 10
0.0
 20
0.0
 30
0.0
  9
$PUCSXDIR
 10
1.0
 20
0.0
 30
0.0
  9
$PUCSYDIR
 10
0.0
 20
1.0
 30
0.0
  9
$PUCSORTHOREF
  2

  9
$PUCSORTHOVIEW
 70
     0
  9
$PUCSORGTOP
 10
0.0
 20
0.0
 30
0.0
  9
$PUCSORGBOTTOM
 10
0.0
 20
0.0
 30
0.0
  9
$PUCSORGLEFT
 10
0.0
 20
0.0
 30
0.0
  9
$PUCSORGRIGHT
 10
0.0
 20
0.0
 30
0.0
  9
$PUCSORGFRONT
 10
0.0
 20
0.0
 30
0.0
  9
$PUCSORGBACK
 10
0.0
 20
0.0
 30
0.0
  9
$USERI1
 70
     0
  9
$USERI2
 70
     0
  9
$USERI3
 70
     0
  9
$USERI4
 70
     0
  9
$USERI5
 70
     0
  9
$USERR1
 40
0.0
  9
$USERR2
 40
0.0
  9
$USERR3
 40
0.0
  9
$USERR4
 40
0.0
  9
$USERR5
 40
0.0
  9
$WORLDVIEW
 70
     1
  9
$SHADEDGE
 70
     3
  9
$SHADEDIF
 70
    70
  9
$TILEMODE
 70
     1
  9
$MAXACTVP
 70
    64
  9
$PINSBASE
 10
0.0
 20
0.0
 30
0.0
  9
$PLIMCHECK
 70
     0
  9
$PEXTMIN
 10
1.000000000000000E+20
 20
1.000000000000000E+20
 30
1.000000000000000E+20
  9
$PEXTMAX
 10
-1.000000000000000E+20
 20
-1.000000000000000E+20
 30
-1.000000000000000E+20
  9
$PLIMMIN
 10
0.0
 20
0.0
  9
$PLIMMAX
 10
12.0
 20
9.0
  9
$UNITMODE
 70
     0
  9
$VISRETAIN
 70
     1
  9
$PLINEGEN
 70
     0
  9
$PSLTSCALE
 70
     1
  9
$TREEDEPTH
 70
  3020
  9
$CMLSTYLE
  2
Standard
  9
$CMLJUST
 70
     0
  9
$CMLSCALE
 40
1.0
  9
$PROXYGRAPHICS
 70
     1
  9
$MEASUREMENT
 70
     0
  9
$CELWEIGHT
370
    -1
  9
$ENDCAPS
280
     0
  9
$JOINSTYLE
280
     0
  9
$LWDISPLAY
290
     0
  9
$INSUNITS
 70
     4
  9
$HYPERLINKBASE
  1

  9
$STYLESHEET
  1

  9
$XEDIT
290
     1
  9
$CEPSNTYPE
380
     0
  9
$PSTYLEMODE
290
     1
  9
$FINGERPRINTGUID
  2
{7571F100-B141-4336-9B05-9E152DE131AC}
  9
$VERSIONGUID
  2
{FAEB1C32-E019-11D5-929B-00C0DF256EC4}
  9
$EXTNAMES
290
     1
  9
$PSVPSCALE
 40
0.0
  9
$OLESTARTUP
290
     0
  9
$SORTENTS
280
   127
  9
$INDEXCTL
280
     0
  9
$HIDETEXT
280
     1
  9
$XCLIPFRAME
290
     0
  9
$HALOGAP
280
     0
  9
$OBSCOLOR
 70
   257
  9
$OBSLTYPE
280
     0
  9
$INTERSECTIONDISPLAY
280
     0
  9
$INTERSECTIONCOLOR
 70
   257
  9
$DIMASSOC
280
     2
  9
$PROJECTNAME
  1

  0
ENDSEC
  0
SECTION
  2
CLASSES
  0
CLASS
  1
ACDBDICTIONARYWDFLT
  2
AcDbDictionaryWithDefault
  3
ObjectDBX Classes
 90
        0
 91
        4
280
     0
281
     0
  0
CLASS
  1
VISUALSTYLE
  2
AcDbVisualStyle
  3
ObjectDBX Classes
 90
     4095
 91
        4
280
     0
281
     0
  0
ENDSEC
  0
SECTION
  2
TABLES
  0
TABLE
  2
VPORT
  5
8
330
0
100
AcDbSymbolTable
 70
     1
  0
VPORT
  5
29
330
8
100
AcDbSymbolTableRecord
100
AcDbViewportTableRecord
  2
*Active
 70
     0
 10
0.0
 20
0.0
 11
1.0
 21
1.0
 12
1749.059409898221
 22
1182.966613724735
 13
0.0
 23
0.0
 14
0.5
 24
0.5
 15
0.5
 25
0.5
 16
0.0
 26
0.0
 36
1.0
 17
0.0
 27
0.0
 37
0.0
 40
2413.265588472728
 41
1.478527758204754
 42
50.0
 43
0.0
 44
0.0
 50
0.0
 51
0.0
 71
     0
 72
   100
 73
     1
 74
     3
 75
     0
 76
     0
 77
     0
 78
     0
281
     0
 65
     1
110
0.0
120
0.0
130
0.0
111
1.0
121
0.0
131
0.0
112
0.0
122
1.0
132
0.0
 79
     0
146
0.0
  0
ENDTAB
  0
TABLE
  2
LTYPE
  5
5
330
0
100
AcDbSymbolTable
 70
     1
  0
LTYPE
  5
14
330
5
100
AcDbSymbolTableRecord
100
AcDbLinetypeTableRecord
  2
ByBlock
 70
     0
  3

 72
    65
 73
     0
 40
0.0
  0
LTYPE
  5
15
330
5
100
AcDbSymbolTableRecord
100
AcDbLinetypeTableRecord
  2
ByLayer
 70
     0
  3

 72
    65
 73
     0
 40
0.0
  0
LTYPE
  5
16
330
5
100
AcDbSymbolTableRecord
100
AcDbLinetypeTableRecord
  2
Continuous
 70
     0
  3
Solid line
 72
    65
 73
     0
 40
0.0
  0
ENDTAB
  0
TABLE
  2
LAYER
  5
2
330
0
100
AcDbSymbolTable
 70
     3
  0
LAYER
  5
10
330
2
100
AcDbSymbolTableRecord
100
AcDbLayerTableRecord
  2
0
 70
     0
 62
     7
  6
Continuous
370
    -3
390
F
  0
LAYER
  5
3B
330
2
100
AcDbSymbolTableRecord
100
AcDbLayerTableRecord
  2
Linee visibili 2D
 70
     0
 62
     7
  6
Continuous
370
    -3
390
F
  0
LAYER
  5
100
330
2
100
AcDbSymbolTableRecord
100
AcDbLayerTableRecord
  2
Predefinito
 70
     0
 62
     7
  6
Continuous
370
    -3
390
F
  0
ENDTAB
  0
TABLE
  2
STYLE
  5
3
330
0
100
AcDbSymbolTable
 70
     1
  0
STYLE
  5
11
330
3
100
AcDbSymbolTableRecord
100
AcDbTextStyleTableRecord
  2
Standard
 70
     0
 40
0.0
 41
1.0
 50
0.0
 71
     0
 42
0.2
  3
txt
  4

  0
ENDTAB
  0
TABLE
  2
VIEW
  5
6
330
0
100
AcDbSymbolTable
 70
     0
  0
ENDTAB
  0
TABLE
  2
UCS
  5
7
330
0
100
AcDbSymbolTable
 70
     0
  0
ENDTAB
  0
TABLE
  2
APPID
  5
9
330
0
100
AcDbSymbolTable
 70
     1
  0
APPID
  5
12
330
9
100
AcDbSymbolTableRecord
100
AcDbRegAppTableRecord
  2
ACAD
 70
     0
  0
ENDTAB
  0
TABLE
  2
DIMSTYLE
  5
A
330
0
100
AcDbSymbolTable
 70
     1
100
AcDbDimStyleTable
  0
DIMSTYLE
105
27
330
A
100
AcDbSymbolTableRecord
100
AcDbDimStyleTableRecord
  2
Standard
 70
     0
340
11
  0
ENDTAB
  0
TABLE
  2
BLOCK_RECORD
  5
1
330
0
100
AcDbSymbolTable
 70
     1
  0
BLOCK_RECORD
  5
1F
330
1
100
AcDbSymbolTableRecord
100
AcDbBlockTableRecord
  2
*Model_Space
340
22
  0
BLOCK_RECORD
  5
1B
330
1
100
AcDbSymbolTableRecord
100
AcDbBlockTableRecord
  2
*Paper_Space
340
1E
  0
BLOCK_RECORD
  5
23
330
1
100
AcDbSymbolTableRecord
100
AcDbBlockTableRecord
  2
*Paper_Space0
340
26
  0
ENDTAB
  0
ENDSEC
  0
SECTION
  2
BLOCKS
  0
BLOCK
  5
20
330
1F
100
AcDbEntity
  8
0
100
AcDbBlockBegin
  2
*Model_Space
 70
     0
 10
0.0
 20
0.0
 30
0.0
  3
*Model_Space
  1

  0
ENDBLK
  5
21
330
1F
100
AcDbEntity
  8
0
100
AcDbBlockEnd
  0
BLOCK
  5
1C
330
1B
100
AcDbEntity
 67
     1
  8
0
100
AcDbBlockBegin
  2
*Paper_Space
 70
     0
 10
0.0
 20
0.0
 30
0.0
  3
*Paper_Space
  1

  0
ENDBLK
  5
1D
330
1B
100
AcDbEntity
 67
     1
  8
0
100
AcDbBlockEnd
  0
BLOCK
  5
24
330
23
100
AcDbEntity
  8
0
100
AcDbBlockBegin
  2
*Paper_Space0
 70
     0
 10
0.0
 20
0.0
 30
0.0
  3
*Paper_Space0
  1

  0
ENDBLK
  5
25
330
23
100
AcDbEntity
  8
0
100
AcDbBlockEnd
  0
ENDSEC
  0
SECTION
  2
ENTITIES
  0
LINE
  5
3C
330
1F
100
AcDbEntity
  8
Linee visibili 2D
100
AcDbLine
 10
296.2160562534879
 20
2365.902722144102
 30
0.0
 11
264.0301231638304
 21
2336.204156323021
 31
0.0
  0
LINE
  5
3D
330
1F
100
AcDbEntity
  8
Linee visibili 2D
100
AcDbLine
 10
178.4825303124068
 20
2336.204163204743
 30
0.0
 11
146.2966051256903
 21
2365.902721733657
 31
0.0
  0
SPLINE
  5
3E
330
1F
100
AcDbEntity
  8
Linee visibili 2D
100
AcDbSpline
210
0.0
220
0.0
230
1.0
 70
     8
 71
     3
 72
    20
 73
    16
 74
     0
 42
0.0000000001
 43
0.0000000001
 40
0.0
 40
0.0
 40
0.0
 40
0.0
 40
46.53315279315908
 40
84.65871248626836
 40
100.1117159559922
 40
113.8430280632179
 40
126.4650390027187
 40
138.2451897617572
 40
149.9284453945941
 40
162.6116630857008
 40
176.4748107467384
 40
192.180155912197
 40
210.4401876389271
 40
231.2709758381403
 40
280.4775376482467
 40
280.4775376482467
 40
280.4775376482467
 40
280.4775376482467
 10
223.9092796339712
 20
1799.179678884478
 30
0.0
 10
234.6306669461153
 20
1810.39924973736
 30
0.0
 10
255.3530505812718
 20
1829.628371106305
 30
0.0
 10
283.523701944455
 20
1847.901572705026
 30
0.0
 10
304.6288740333479
 20
1855.823124159743
 30
0.0
 10
318.4533686156412
 20
1858.075499695901
 30
0.0
 10
331.2390822117514
 20
1857.149236903276
 30
0.0
 10
342.6226089422814
 20
1852.847609357108
 30
0.0
 10
352.2831649548614
 20
1845.455570178564
 30
0.0
 10
360.0168983091175
 20
1835.196571482225
 30
0.0
 10
365.8367696803099
 20
1822.301734791076
 30
0.0
 10
369.8419192862439
 20
1806.824254005207
 30
0.0
 10
372.075973812685
 20
1788.66768196109
 30
0.0
 10
372.7522606436481
 20
1759.213412352556
 30
0.0
 10
370.5224826643371
 20
1735.913986790347
 30
0.0
 10
368.2280270909833
 20
1719.680707871609
 30
0.0
  0
ARC
  5
3F
330
1F
100
AcDbEntity
  8
Linee visibili 2D
100
AcDbCircle
 10
530.3025276533405
 20
1508.21040633441
 30
0.0
 40
422.544280793185
100
AcDbArc
 50
136.7257329276248
 51
142.9160659103119
  0
SPLINE
  5
40
330
1F
100
AcDbEntity
  8
Linee visibili 2D
100
AcDbSpline
210
0.0
220
0.0
230
1.0
 70
     8
 71
     3
 72
    15
 73
    11
 74
     0
 42
0.0000000001
 43
0.0000000001
 40
0.0
 40
0.0
 40
0.0
 40
0.0
 40
29.95552208107664
 40
57.50919891146836
 40
82.40146876772904
 40
106.6106785603525
 40
131.4003336152837
 40
157.6669380901465
 40
185.4912476535182
 40
215.5523721726672
 40
215.5523721726672
 40
215.5523721726672
 40
215.5523721726672
 10
223.909279633953
 20
1774.392169887418
 30
0.0
 10
233.5044783413385
 20
1777.145905517317
 30
0.0
 10
252.3404629770518
 20
1781.084192617794
 30
0.0
 10
279.9457269029124
 20
1781.578518277351
 30
0.0
 10
305.1253825381365
 20
1776.138181040184
 30
0.0
 10
327.1310500751468
 20
1764.55137656752
 30
0.0
 10
345.5421683787802
 20
1747.188572190558
 30
0.0
 10
359.595486967598
 20
1724.732218718995
 30
0.0
 10
368.7011276030483
 20
1698.029862983394
 30
0.0
 10
371.2344175289891
 20
1678.82201369643
 30
0.0
 10
371.7282594716348
 20
1668.814216483218
 30
0.0
  0
SPLINE
  5
41
330
1F
100
AcDbEntity
  8
Linee visibili 2D
100
AcDbSpline
210
0.0
220
0.0
230
1.0
 70
     8
 71
     3
 72
    17
 73
    13
 74
     0
 42
0.0000000001
 43
0.0000000001
 40
0.0
 40
0.0
 40
0.0
 40
0.0
 40
9.61761205730598
 40
19.44037769677126
 40
29.97990388421026
 40
43.77255841462459
 40
70.03968572588566
 40
100.2074343780473
 40
160.8657913001056
 40
250.8143523892389
 40
290.6618246208629
 40
327.2595719778623
 40
327.2595719778623
 40
327.2595719778623
 40
327.2595719778623
 10
2.149941573391652
 20
1552.186138496871
 30
0.0
 10
1.006095053664765
 20
1555.180510359674
 30
0.0
 10
-0.4128977299675707
 20
1561.5783401681
 30
0.0
 10
0.412133775495142
 20
1571.64621039436
 30
0.0
 10
4.325494536354475
 20
1582.414842385245
 30
0.0
 10
12.9441353362948
 20
1596.950026936102
 30
0.0
 10
26.39296087824419
 20
1616.104318843374
 30
0.0
 10
50.37992533244619
 20
1646.945720217235
 30
0.0
 10
90.58575204503826
 20
1691.831647563127
 30
0.0
 10
138.9299003829759
 20
1733.508737788132
 30
0.0
 10
187.1939954296664
 20
1761.209118013806
 30
0.0
 10
210.9430431348216
 20
1770.57195483344
 30
0.0
 10
222.6561910913884
 20
1774.027828267635
 30
0.0
  0
SPLINE
  5
42
330
1F
100
AcDbEntity
  8
Linee visibili 2D
100
AcDbSpline
210
0.0
220
0.0
230
1.0
 70
     8
 71
     3
 72
    15
 73
    11
 74
     0
 42
0.0000000001
 43
0.0000000001
 40
0.0
 40
0.0
 40
0.0
 40
0.0
 40
21.13731024366271
 40
40.13705829276677
 40
57.00829038204238
 40
72.79802459087817
 40
88.30991243847953
 40
103.9064752992827
 40
120.0905814442487
 40
137.6315119962643
 40
137.6315119962643
 40
137.6315119962643
 40
137.6315119962643
 10
223.9092796339624
 20
1718.235400728349
 30
0.0
 10
230.6929451836928
 20
1720.136655893292
 30
0.0
 10
243.795060143882
 20
1722.999575111975
 30
0.0
 10
262.8340191063313
 20
1724.144321017136
 30
0.0
 10
279.9968978644654
 20
1721.788477984145
 30
0.0
 10
295.0471913384985
 20
1715.819216596035
 30
0.0
 10
307.6534324364805
 20
1706.324632672932
 30
0.0
 10
317.234969069583
 20
1693.61087816074
 30
0.0
 10
323.3052875337837
 20
1678.18887401251
 30
0.0
 10
324.8532101217526
 20
1666.984371386998
 30
0.0
 10
325.1105839887168
 20
1661.145337880022
 30
0.0
  0
SPLINE
  5
43
330
1F
100
AcDbEntity
  8
Linee visibili 2D
100
AcDbSpline
210
0.0
220
0.0
230
1.0
 70
     8
 71
     3
 72
    13
 73
     9
 74
     0
 42
0.0000000001
 43
0.0000000001
 40
0.0
 40
0.0
 40
0.0
 40
0.0
 40
9.531491616467612
 40
23.1353086741973
 40
92.93654726469404
 40
127.7925941538007
 40
166.5279425514326
 40
199.7056595344157
 40
199.7056595344157
 40
199.7056595344157
 40
199.7056595344157
 10
52.33666388102574
 20
1615.380102344243
 30
0.0
 10
55.05063221282686
 20
1617.032050957186
 30
0.0
 10
61.49269898233529
 20
1621.275195339444
 30
0.0
 10
86.92357731209536
 20
1638.963914344856
 30
0.0
 10
118.3968131895504
 20
1662.734647331287
 30
0.0
 10
158.3531170686414
 20
1689.000291672922
 30
0.0
 10
189.6366556162143
 20
1706.080949026683
 30
0.0
 10
212.0236044575162
 20
1714.819620769182
 30
0.0
 10
222.6561910915235
 20
1717.879189318727
 30
0.0
  0
LINE
  5
44
330
1F
100
AcDbEntity
  8
Linee visibili 2D
100
AcDbLine
 10
325.11058409221
 20
1661.145335534595
 30
0.0
 11
325.1914876996473
 21
1654.839210896132
 31
0.0
  0
SPLINE
  5
45
330
1F
100
AcDbEntity
  8
Linee visibili 2D
100
AcDbSpline
210
0.0
220
0.0
230
1.0
 70
     8
 71
     3
 72
    14
 73
    10
 74
     0
 42
0.0000000001
 43
0.0000000001
 40
0.0
 40
0.0
 40
0.0
 40
0.0
 40
9.223390665698691
 40
33.77638848493459
 40
47.2217201018945
 40
76.43061826532107
 40
107.0228955427989
 40
122.7823500063582
 40
145.8850072281663
 40
145.8850072281663
 40
145.8850072281663
 40
145.8850072281663
 10
224.1276680717358
 20
1526.710425063783
 30
0.0
 10
221.0759970743891
 20
1526.323598360689
 30
0.0
 10
209.990190730507
 20
1524.349474048031
 30
0.0
 10
194.6765339859762
 20
1520.65718485277
 30
0.0
 10
172.6321420865137
 20
1516.671348684933
 30
0.0
 10
148.294358941275
 20
1514.152160288697
 30
0.0
 10
123.0652446823577
 20
1515.067025285642
 30
0.0
 10
100.0939648938168
 20
1517.999192332019
 30
0.0
 10
87.34881348582617
 20
1520.342349153776
 30
0.0
 10
79.7493757539487
 20
1521.583627994187
 30
0.0
  0
LINE
  5
46
330
1F
100
AcDbEntity
  8
Linee visibili 2D
100
AcDbLine
 10
325.1434518112782
 20
1652.89823708936
 30
0.0
 11
321.3768597072922
 21
1611.6449500487
 31
0.0
  0
LINE
  5
47
330
1F
100
AcDbEntity
  8
Linee visibili 2D
100
AcDbLine
 10
367.9752187885149
 20
1717.932613456208
 30
0.0
 11
365.9052879645039
 21
1704.985262774205
 31
0.0
  0
SPLINE
  5
48
330
1F
100
AcDbEntity
  8
Linee visibili 2D
100
AcDbSpline
210
0.0
220
0.0
230
1.0
 70
     8
 71
     3
 72
    25
 73
    21
 74
     0
 42
0.0000000001
 43
0.0000000001
 40
0.0
 40
0.0
 40
0.0
 40
0.0
 40
32.80702247080476
 40
67.44393563655395
 40
133.979677950988
 40
159.6890298990088
 40
191.6778520102089
 40
220.4432325926215
 40
229.7341485560162
 40
248.6351267533225
 40
317.7539262434295
 40
355.3791746029717
 40
393.896948241389
 40
431.0959683856555
 40
465.9780948818531
 40
483.2649212216276
 40
501.2106627162009
 40
509.9210692661442
 40
516.5904269171768
 40
527.213704826422
 40
527.213704826422
 40
527.213704826422
 40
527.213704826422
 10
371.757054427745
 20
1668.216498190698
 30
0.0
 10
372.2545942768099
 20
1657.29333255148
 30
0.0
 10
371.3137120937344
 20
1634.756976929654
 30
0.0
 10
363.0808477293761
 20
1590.78826923304
 30
0.0
 10
347.1656649315387
 20
1551.115605677041
 30
0.0
 10
323.1543075947249
 20
1517.189091665411
 30
0.0
 10
302.4778145708909
 20
1496.911000052349
 30
0.0
 10
282.6674213666575
 20
1484.3083996736
 30
0.0
 10
265.5369628234313
 20
1476.142258296874
 30
0.0
 10
235.059924168074
 20
1464.726344556333
 30
0.0
 10
192.8205265594322
 20
1460.232166588783
 30
0.0
 10
144.6550408517832
 20
1465.64847894748
 30
0.0
 10
107.9070231723184
 20
1474.933148946971
 30
0.0
 10
73.6445649694869
 20
1488.725856045078
 30
0.0
 10
47.88967117908929
 20
1503.917859057639
 30
0.0
 10
29.57730173052292
 20
1518.487172721334
 30
0.0
 10
19.14617424077222
 20
1528.800993241934
 30
0.0
 10
11.74212884321983
 20
1537.081621489512
 30
0.0
 10
6.327056253218921
 20
1543.855899582891
 30
0.0
 10
3.401227343328777
 20
1548.864101429711
 30
0.0
 10
2.149941573472501
 20
1552.186138496902
 30
0.0
  0
SPLINE
  5
49
330
1F
100
AcDbEntity
  8
Linee visibili 2D
100
AcDbSpline
210
0.0
220
0.0
230
1.0
 70
     8
 71
     3
 72
    13
 73
     9
 74
     0
 42
0.0000000001
 43
0.0000000001
 40
0.0
 40
0.0
 40
0.0
 40
0.0
 40
60.25843725005922
 40
91.37109476231522
 40
148.5694213891265
 40
199.6422799963222
 40
224.3448487776081
 40
307.2261809117651
 40
307.2261809117651
 40
307.2261809117651
 40
307.2261809117651
 10
222.6561910911034
 20
2028.633243933681
 30
0.0
 10
219.9719346201043
 20
2048.534450282554
 30
0.0
 10
215.4927520745013
 20
2078.674604442216
 30
0.0
 10
209.4156705832527
 20
2127.808223341786
 30
0.0
 10
205.8816135782597
 20
2174.20608687953
 30
0.0
 10
207.6144759946803
 20
2218.552341731805
 30
0.0
 10
212.0582056215794
 20
2271.241163806337
 30
0.0
 10
215.7731739276794
 20
2306.919992474526
 30
0.0
 10
217.9427068107354
 20
2334.460342820105
 30
0.0
  0
ARC
  5
4A
330
1F
100
AcDbEntity
  8
Linee visibili 2D
100
AcDbCircle
 10
-554.3290028512565
 20
1896.597519378056
 30
0.0
 40
787.8548770642757
100
AcDbArc
 50
353.2055016407856
 51
8.961235970409035
  0
SPLINE
  5
4B
330
1F
100
AcDbEntity
  8
Linee visibili 2D
100
AcDbSpline
210
0.0
220
0.0
230
1.0
 70
     8
 71
     3
 72
    12
 73
     8
 74
     0
 42
0.0000000001
 43
0.0000000001
 40
0.0
 40
0.0
 40
0.0
 40
0.0
 40
47.87455766354962
 40
81.48603041731009
 40
137.034433278121
 40
189.0429314872943
 40
254.2632567593027
 40
254.2632567593027
 40
254.2632567593027
 40
254.2632567593027
 10
223.9092796339644
 20
2063.112237477893
 30
0.0
 10
226.1273503244105
 20
2047.311347195925
 30
0.0
 10
229.9492904432396
 20
2020.411652113388
 30
0.0
 10
235.5174719658595
 20
1975.083854063633
 30
0.0
 10
239.6744943939997
 20
1928.173355860224
 30
0.0
 10
239.5755138914463
 20
1870.526578663018
 30
0.0
 10
236.4479071668808
 20
1831.554956318017
 30
0.0
 10
234.5891651712294
 20
1809.897806819551
 30
0.0
  0
SPLINE
  5
4C
330
1F
100
AcDbEntity
  8
Linee visibili 2D
100
AcDbSpline
210
0.0
220
0.0
230
1.0
 70
     8
 71
     3
 72
    12
 73
     8
 74
     0
 42
0.0000000001
 43
0.0000000001
 40
0.0
 40
0.0
 40
0.0
 40
0.0
 40
64.47588560619545
 40
88.73374496033578
 40
134.6429849652622
 40
184.9830473435484
 40
247.6131143969707
 40
247.6131143969707
 40
247.6131143969707
 40
247.6131143969707
 10
222.6561910913864
 20
2318.750845478445
 30
0.0
 10
220.8178655264734
 20
2297.339824934628
 30
0.0
 10
217.8250640459581
 20
2267.905482915581
 30
0.0
 10
214.0110540237249
 20
2223.196492853073
 30
0.0
 10
211.991773609696
 20
2183.03779761892
 30
0.0
 10
214.8439849803106
 20
2130.086428799551
 30
0.0
 10
219.7823120415988
 20
2092.746853146261
 30
0.0
 10
222.6561910919418
 20
2072.068528263653
 30
0.0
  0
SPLINE
  5
4D
330
1F
100
AcDbEntity
  8
Linee visibili 2D
100
AcDbSpline
210
0.0
220
0.0
230
1.0
 70
    28
 71
     2
 72
     8
 73
     5
 74
     0
 42
0.0000000001
 43
0.0000000001
 40
30.63052837249997
 40
30.63052837249997
 40
30.63052837249997
 40
37.69911184307689
 40
37.69911184307689
 40
50.26548245743585
 40
50.26548245743585
 40
50.26548245743585
 10
215.4365313966288
 20
2365.939883919987
 30
0.0
 41
0.8558416188652539
 10
214.8700855132778
 20
2365.939883919988
 30
0.0
 41
0.835247564417433
 10
217.4377943117288
 20
2365.939883919986
 30
0.0
 41
1.0
 10
222.8298386933836
 20
2365.939883919988
 30
0.0
 41
0.7071067811865476
 10
228.7396489598905
 20
2365.939883919986
 30
0.0
 41
1.0
  0
LINE
  5
4E
330
1F
100
AcDbEntity
  8
Linee visibili 2D
100
AcDbLine
 10
228.7396489598905
 20
2365.939883919986
 30
0.0
 11
231.258677759848
 21
2365.939883919987
 31
0.0
  0
LINE
  5
4F
330
1F
100
AcDbEntity
  8
Linee visibili 2D
100
AcDbLine
 10
229.3476045782625
 20
2336.203465881059
 30
0.0
 11
263.9780721240153
 21
2336.204135090671
 31
0.0
  0
LINE
  5
50
330
1F
100
AcDbEntity
  8
Linee visibili 2D
100
AcDbLine
 10
296.1817663842836
 20
2365.93988391757
 30
0.0
 11
231.3476045027778
 21
2365.939941407444
 31
0.0
  0
LINE
  5
51
330
1F
100
AcDbEntity
  8
Linee visibili 2D
100
AcDbLine
 10
215.3476046023311
 20
2365.939883920013
 30
0.0
 11
146.3308953736553
 21
2365.939883919619
 31
0.0
  0
LINE
  5
52
330
1F
100
AcDbEntity
  8
Linee visibili 2D
100
AcDbLine
 10
178.5345215990683
 20
2336.204184437566
 30
0.0
 11
217.3476045782303
 21
2336.203416214835
 31
0.0
  0
ARC
  5
53
330
1F
100
AcDbEntity
  8
Linee visibili 2D
100
AcDbCircle
 10
223.2563295594564
 20
1601.779702726654
 30
0.0
 40
75.00000000000281
100
AcDbArc
 50
90.45847691068755
 51
0.0000000000022581
  0
ARC
  5
54
330
1F
100
AcDbEntity
  8
Linee visibili 2D
100
AcDbCircle
 10
223.2563295594348
 20
1601.779702726633
 30
0.0
 40
75.00000000002433
100
AcDbArc
 50
0.0000000000184123
 51
89.50117658514428
  0
LINE
  5
55
330
1F
100
AcDbEntity
  8
Linee visibili 2D
100
AcDbLine
 10
222.6561910914024
 20
2323.440117827413
 30
0.0
 11
222.6561910914024
 21
1676.777301580355
 31
0.0
  0
LINE
  5
56
330
1F
100
AcDbEntity
  8
Linee visibili 2D
100
AcDbLine
 10
223.9092796339537
 20
2323.440117827413
 30
0.0
 11
223.9092796339537
 21
1676.776860380808
 31
0.0
  0
SPLINE
  5
57
330
1F
100
AcDbEntity
  8
Linee visibili 2D
100
AcDbSpline
210
0.0
220
0.0
230
1.0
 70
    15
 71
     2
 72
    12
 73
     9
 74
     0
 42
0.0000000001
 43
0.0000000001
 40
0.0
 40
0.0
 40
0.0
 40
12.56637061435896
 40
12.56637061435896
 40
25.13274122871793
 40
25.13274122871793
 40
37.69911184307689
 40
37.69911184307689
 40
50.26548245743585
 40
50.26548245743585
 40
50.26548245743585
 10
1155.612424038641
 20
764.7748381975288
 30
0.0
 41
3608.695327761154
 10
1153.537448297179
 20
766.2091537858024
 30
0.0
 41
2557.192748433009
 10
1145.981283706984
 20
766.0339376152434
 30
0.0
 41
3615.471655549239
 10
1138.421168028027
 20
765.8586298248379
 30
0.0
 41
2555.856301220232
 10
1140.46487061761
 20
764.4228122420152
 30
0.0
 41
3606.805305987449
 10
1142.517342171734
 20
762.9808339616743
 30
0.0
 41
2544.936679346461
 10
1150.108812458856
 20
763.1576491760753
 30
0.0
 41
3600.028978199365
 10
1157.696298256176
 20
763.3343715865277
 30
0.0
 41
2546.273126559237
 10
1155.612424038641
 20
764.7748381975288
 30
0.0
 41
3608.695327761154
  0
POLYLINE
  5
58
330
1F
100
AcDbEntity
  8
Linee visibili 2D
100
AcDb2dPolyline
 66
     1
 10
0.0
 20
0.0
 30
0.0
  0
VERTEX
  5
59
330
58
100
AcDbEntity
  8
Linee visibili 2D
100
AcDbVertex
100
AcDb2dVertex
 10
102.4824057946043
 20
889.8692441269642
 30
0.0
  0
VERTEX
  5
5A
330
58
100
AcDbEntity
  8
Linee visibili 2D
100
AcDbVertex
100
AcDb2dVertex
 10
98.58952078685385
 20
889.231053619339
 30
0.0
  0
VERTEX
  5
5B
330
58
100
AcDbEntity
  8
Linee visibili 2D
100
AcDbVertex
100
AcDb2dVertex
 10
94.22095481174297
 20
888.6197948015785
 30
0.0
  0
VERTEX
  5
5C
330
58
100
AcDbEntity
  8
Linee visibili 2D
100
AcDbVertex
100
AcDb2dVertex
 10
89.39613280283245
 20
888.0476883102006
 30
0.0
  0
VERTEX
  5
5D
330
58
100
AcDbEntity
  8
Linee visibili 2D
100
AcDbVertex
100
AcDb2dVertex
 10
84.1514681369831
 20
887.5272773431927
 30
0.0
  0
VERTEX
  5
5E
330
58
100
AcDbEntity
  8
Linee visibili 2D
100
AcDbVertex
100
AcDb2dVertex
 10
72.63533984030475
 20
886.6894762082266
 30
0.0
  0
VERTEX
  5
5F
330
58
100
AcDbEntity
  8
Linee visibili 2D
100
AcDbVertex
100
AcDb2dVertex
 10
60.2910516486883
 20
886.1878775152171
 30
0.0
  0
VERTEX
  5
60
330
58
100
AcDbEntity
  8
Linee visibili 2D
100
AcDbVertex
100
AcDb2dVertex
 10
47.90160864099422
 20
886.067084845887
 30
0.0
  0
VERTEX
  5
61
330
58
100
AcDbEntity
  8
Linee visibili 2D
100
AcDbVertex
100
AcDb2dVertex
 10
36.25748498090103
 20
886.3232908753479
 30
0.0
  0
VERTEX
  5
62
330
58
100
AcDbEntity
  8
Linee visibili 2D
100
AcDbVertex
100
AcDb2dVertex
 10
30.92359302254153
 20
886.5788125625974
 30
0.0
  0
VERTEX
  5
63
330
58
100
AcDbEntity
  8
Linee visibili 2D
100
AcDbVertex
100
AcDb2dVertex
 10
25.99681891933037
 20
886.9073605349486
 30
0.0
  0
VERTEX
  5
64
330
58
100
AcDbEntity
  8
Linee visibili 2D
100
AcDbVertex
100
AcDb2dVertex
 10
21.51684962289355
 20
887.2982913268866
 30
0.0
  0
VERTEX
  5
65
330
58
100
AcDbEntity
  8
Linee visibili 2D
100
AcDbVertex
100
AcDb2dVertex
 10
17.50628856356448
 20
887.7403910078838
 30
0.0
  0
VERTEX
  5
66
330
58
100
AcDbEntity
  8
Linee visibili 2D
100
AcDbVertex
100
AcDb2dVertex
 10
13.84716756511573
 20
888.2414299466104
 30
0.0
  0
VERTEX
  5
67
330
58
100
AcDbEntity
  8
Linee visibili 2D
100
AcDbVertex
100
AcDb2dVertex
 10
12.11689125673135
 20
888.5198235947872
 30
0.0
  0
VERTEX
  5
68
330
58
100
AcDbEntity
  8
Linee visibili 2D
100
AcDbVertex
100
AcDb2dVertex
 10
10.46577772129965
 20
888.81665257457
 30
0.0
  0
VERTEX
  5
69
330
58
100
AcDbEntity
  8
Linee visibili 2D
100
AcDbVertex
100
AcDb2dVertex
 10
8.903598353951267
 20
889.13162357606
 30
0.0
  0
VERTEX
  5
6A
330
58
100
AcDbEntity
  8
Linee visibili 2D
100
AcDbVertex
100
AcDb2dVertex
 10
7.440011592305824
 20
889.4642877742306
 30
0.0
  0
VERTEX
  5
6B
330
58
100
AcDbEntity
  8
Linee visibili 2D
100
AcDbVertex
100
AcDb2dVertex
 10
6.084430690429366
 20
889.8140357155337
 30
0.0
  0
VERTEX
  5
6C
330
58
100
AcDbEntity
  8
Linee visibili 2D
100
AcDbVertex
100
AcDb2dVertex
 10
5.44998310804296
 20
889.9950810634617
 30
0.0
  0
VERTEX
  5
6D
330
58
100
AcDbEntity
  8
Linee visibili 2D
100
AcDbVertex
100
AcDb2dVertex
 10
4.845885565623763
 20
890.1800949233711
 30
0.0
  0
VERTEX
  5
6E
330
58
100
AcDbEntity
  8
Linee visibili 2D
100
AcDbVertex
100
AcDb2dVertex
 10
4.273183793292712
 20
890.3689553672701
 30
0.0
  0
VERTEX
  5
6F
330
58
100
AcDbEntity
  8
Linee visibili 2D
100
AcDbVertex
100
AcDb2dVertex
 10
3.732881986691161
 20
890.5615305351441
 30
0.0
  0
VERTEX
  5
70
330
58
100
AcDbEntity
  8
Linee visibili 2D
100
AcDbVertex
100
AcDb2dVertex
 10
3.225938524311241
 20
890.7576788359596
 30
0.0
  0
VERTEX
  5
71
330
58
100
AcDbEntity
  8
Linee visibili 2D
100
AcDbVertex
100
AcDb2dVertex
 10
2.753261795107892
 20
890.9572492024035
 30
0.0
  0
VERTEX
  5
72
330
58
100
AcDbEntity
  8
Linee visibili 2D
100
AcDbVertex
100
AcDb2dVertex
 10
2.530042662862467
 20
891.0582679353247
 30
0.0
  0
VERTEX
  5
73
330
58
100
AcDbEntity
  8
Linee visibili 2D
100
AcDbVertex
100
AcDb2dVertex
 10
2.315706168851145
 20
891.160081399242
 30
0.0
  0
VERTEX
  5
74
330
58
100
AcDbEntity
  8
Linee visibili 2D
100
AcDbVertex
100
AcDb2dVertex
 10
2.110350036297964
 20
891.262668191552
 30
0.0
  0
VERTEX
  5
75
330
58
100
AcDbEntity
  8
Linee visibili 2D
100
AcDbVertex
100
AcDb2dVertex
 10
1.914068141450091
 20
891.3660063846739
 30
0.0
  0
VERTEX
  5
76
330
58
100
AcDbEntity
  8
Linee visibili 2D
100
AcDbVertex
100
AcDb2dVertex
 10
1.726950404901373
 20
891.4700735401536
 30
0.0
  0
VERTEX
  5
77
330
58
100
AcDbEntity
  8
Linee visibili 2D
100
AcDbVertex
100
AcDb2dVertex
 10
1.549082686857336
 20
891.5748467235401
 30
0.0
  0
VERTEX
  5
78
330
58
100
AcDbEntity
  8
Linee visibili 2D
100
AcDbVertex
100
AcDb2dVertex
 10
1.380546686566831
 20
891.6803025200113
 30
0.0
  0
VERTEX
  5
79
330
58
100
AcDbEntity
  8
Linee visibili 2D
100
AcDbVertex
100
AcDb2dVertex
 10
1.221419846138433
 20
891.786417050734
 30
0.0
  0
VERTEX
  5
7A
330
58
100
AcDbEntity
  8
Linee visibili 2D
100
AcDbVertex
100
AcDb2dVertex
 10
1.071775258951824
 20
891.893165989932
 30
0.0
  0
VERTEX
  5
7B
330
58
100
AcDbEntity
  8
Linee visibili 2D
100
AcDbVertex
100
AcDb2dVertex
 10
0.9316815828657857
 20
892.0005245826425
 30
0.0
  0
VERTEX
  5
7C
330
58
100
AcDbEntity
  8
Linee visibili 2D
100
AcDbVertex
100
AcDb2dVertex
 10
0.8012029584151701
 20
892.108467663131
 30
0.0
  0
VERTEX
  5
7D
330
58
100
AcDbEntity
  8
Linee visibili 2D
100
AcDbVertex
100
AcDb2dVertex
 10
0.6803989321791862
 20
892.2169696739423
 30
0.0
  0
VERTEX
  5
7E
330
58
100
AcDbEntity
  8
Linee visibili 2D
100
AcDbVertex
100
AcDb2dVertex
 10
0.5693243854927577
 20
892.3260046855531
 30
0.0
  0
VERTEX
  5
7F
330
58
100
AcDbEntity
  8
Linee visibili 2D
100
AcDbVertex
100
AcDb2dVertex
 10
0.4680294686614363
 20
892.4355464165998
 30
0.0
  0
VERTEX
  5
80
330
58
100
AcDbEntity
  8
Linee visibili 2D
100
AcDbVertex
100
AcDb2dVertex
 10
0.3765595408285402
 20
892.5455682546453
 30
0.0
  0
VERTEX
  5
81
330
58
100
AcDbEntity
  8
Linee visibili 2D
100
AcDbVertex
100
AcDb2dVertex
 10
0.2949551156308243
 20
892.6560432774563
 30
0.0
  0
VERTEX
  5
82
330
58
100
AcDbEntity
  8
Linee visibili 2D
100
AcDbVertex
100
AcDb2dVertex
 10
0.2232518127661248
 20
892.7669442747497
 30
0.0
  0
VERTEX
  5
83
330
58
100
AcDbEntity
  8
Linee visibili 2D
100
AcDbVertex
100
AcDb2dVertex
 10
0.161480315583108
 20
892.8782437703759
 30
0.0
  0
VERTEX
  5
84
330
58
100
AcDbEntity
  8
Linee visibili 2D
100
AcDbVertex
100
AcDb2dVertex
 10
0.109666334789534
 20
892.9899140448997
 30
0.0
  0
VERTEX
  5
85
330
58
100
AcDbEntity
  8
Linee visibili 2D
100
AcDbVertex
100
AcDb2dVertex
 10
0.0678305783613719
 20
893.1019271585401
 30
0.0
  0
VERTEX
  5
86
330
58
100
AcDbEntity
  8
Linee visibili 2D
100
AcDbVertex
100
AcDb2dVertex
 10
0.0359887277207274
 20
893.2142549744299
 30
0.0
  0
VERTEX
  5
87
330
58
100
AcDbEntity
  8
Linee visibili 2D
100
AcDbVertex
100
AcDb2dVertex
 10
0.0141514202359141
 20
893.3268691821539
 30
0.0
  0
VERTEX
  5
88
330
58
100
AcDbEntity
  8
Linee visibili 2D
100
AcDbVertex
100
AcDb2dVertex
 10
0.0023242380821789
 20
893.4397413215238
 30
0.0
  0
VERTEX
  5
89
330
58
100
AcDbEntity
  8
Linee visibili 2D
100
AcDbVertex
100
AcDb2dVertex
 10
0.0005077034866293
 20
893.5528428065501
 30
0.0
  0
VERTEX
  5
8A
330
58
100
AcDbEntity
  8
Linee visibili 2D
100
AcDbVertex
100
AcDb2dVertex
 10
0.0086972803658663
 20
893.6661449495658
 30
0.0
  0
VERTEX
  5
8B
330
58
100
AcDbEntity
  8
Linee visibili 2D
100
AcDbVertex
100
AcDb2dVertex
 10
0.0268833823497531
 20
893.7796189854612
 30
0.0
  0
VERTEX
  5
8C
330
58
100
AcDbEntity
  8
Linee visibili 2D
100
AcDbVertex
100
AcDb2dVertex
 10
0.0550513871697128
 20
893.8932360959865
 30
0.0
  0
VERTEX
  5
8D
330
58
100
AcDbEntity
  8
Linee visibili 2D
100
AcDbVertex
100
AcDb2dVertex
 10
0.0931816573749932
 20
894.0069674340773
 30
0.0
  0
VERTEX
  5
8E
330
58
100
AcDbEntity
  8
Linee visibili 2D
100
AcDbVertex
100
AcDb2dVertex
 10
0.1412495673255315
 20
894.1207841481638
 30
0.0
  0
VERTEX
  5
8F
330
58
100
AcDbEntity
  8
Linee visibili 2D
100
AcDbVertex
100
AcDb2dVertex
 10
0.1992255363954416
 20
894.2346574064164
 30
0.0
  0
VERTEX
  5
90
330
58
100
AcDbEntity
  8
Linee visibili 2D
100
AcDbVertex
100
AcDb2dVertex
 10
0.2670750683067938
 20
894.3485584208889
 30
0.0
  0
VERTEX
  5
91
330
58
100
AcDbEntity
  8
Linee visibili 2D
100
AcDbVertex
100
AcDb2dVertex
 10
0.3447587964993106
 20
894.4624584715156
 30
0.0
  0
VERTEX
  5
92
330
58
100
AcDbEntity
  8
Linee visibili 2D
100
AcDbVertex
100
AcDb2dVertex
 10
0.4322325354279128
 20
894.5763289299186
 30
0.0
  0
VERTEX
  5
93
330
58
100
AcDbEntity
  8
Linee visibili 2D
100
AcDbVertex
100
AcDb2dVertex
 10
0.5294473376667729
 20
894.6901412829907
 30
0.0
  0
VERTEX
  5
94
330
58
100
AcDbEntity
  8
Linee visibili 2D
100
AcDbVertex
100
AcDb2dVertex
 10
0.6363495566857029
 20
894.8038671562061
 30
0.0
  0
VERTEX
  5
95
330
58
100
AcDbEntity
  8
Linee visibili 2D
100
AcDbVertex
100
AcDb2dVertex
 10
0.7528809151523842
 20
894.9174783366259
 30
0.0
  0
VERTEX
  5
96
330
58
100
AcDbEntity
  8
Linee visibili 2D
100
AcDbVertex
100
AcDb2dVertex
 10
0.8789785786021571
 20
895.0309467955553
 30
0.0
  0
VERTEX
  5
97
330
58
100
AcDbEntity
  8
Linee visibili 2D
100
AcDbVertex
100
AcDb2dVertex
 10
1.014575234305889
 20
895.1442447108215
 30
0.0
  0
VERTEX
  5
98
330
58
100
AcDbEntity
  8
Linee visibili 2D
100
AcDbVertex
100
AcDb2dVertex
 10
1.159599175155849
 20
895.2573444886293
 30
0.0
  0
VERTEX
  5
99
330
58
100
AcDbEntity
  8
Linee visibili 2D
100
AcDbVertex
100
AcDb2dVertex
 10
1.313974388379578
 20
895.3702187849663
 30
0.0
  0
VERTEX
  5
9A
330
58
100
AcDbEntity
  8
Linee visibili 2D
100
AcDbVertex
100
AcDb2dVertex
 10
1.477620648882493
 20
895.4828405265199
 30
0.0
  0
VERTEX
  5
9B
330
58
100
AcDbEntity
  8
Linee visibili 2D
100
AcDbVertex
100
AcDb2dVertex
 10
1.650453617011393
 20
895.5951829310787
 30
0.0
  0
VERTEX
  5
9C
330
58
100
AcDbEntity
  8
Linee visibili 2D
100
AcDbVertex
100
AcDb2dVertex
 10
1.832384940523212
 20
895.7072195273843
 30
0.0
  0
VERTEX
  5
9D
330
58
100
AcDbEntity
  8
Linee visibili 2D
100
AcDbVertex
100
AcDb2dVertex
 10
2.023322360536294
 20
895.8189241744074
 30
0.0
  0
VERTEX
  5
9E
330
58
100
AcDbEntity
  8
Linee visibili 2D
100
AcDbVertex
100
AcDb2dVertex
 10
2.223169821235103
 20
895.9302710800215
 30
0.0
  0
VERTEX
  5
9F
330
58
100
AcDbEntity
  8
Linee visibili 2D
100
AcDbVertex
100
AcDb2dVertex
 10
2.431827583093785
 20
896.0412348190489
 30
0.0
  0
VERTEX
  5
A0
330
58
100
AcDbEntity
  8
Linee visibili 2D
100
AcDbVertex
100
AcDb2dVertex
 10
2.875157335689731
 20
896.261913035067
 30
0.0
  0
VERTEX
  5
A1
330
58
100
AcDbEntity
  8
Linee visibili 2D
100
AcDbVertex
100
AcDb2dVertex
 10
3.352444528950834
 20
896.4807634040355
 30
0.0
  0
VERTEX
  5
A2
330
58
100
AcDbEntity
  8
Linee visibili 2D
100
AcDbVertex
100
AcDb2dVertex
 10
3.862770884288253
 20
896.6975974204005
 30
0.0
  0
VERTEX
  5
A3
330
58
100
AcDbEntity
  8
Linee visibili 2D
100
AcDbVertex
100
AcDb2dVertex
 10
4.405171031563157
 20
896.9122339465309
 30
0.0
  0
VERTEX
  5
A4
330
58
100
AcDbEntity
  8
Linee visibili 2D
100
AcDbVertex
100
AcDb2dVertex
 10
4.97863672111495
 20
897.124499619824
 30
0.0
  0
VERTEX
  5
A5
330
58
100
AcDbEntity
  8
Linee visibili 2D
100
AcDbVertex
100
AcDb2dVertex
 10
5.582121118159214
 20
897.3342292107136
 30
0.0
  0
VERTEX
  5
A6
330
58
100
AcDbEntity
  8
Linee visibili 2D
100
AcDbVertex
100
AcDb2dVertex
 10
6.214543148067982
 20
897.5412659309136
 30
0.0
  0
VERTEX
  5
A7
330
58
100
AcDbEntity
  8
Linee visibili 2D
100
AcDbVertex
100
AcDb2dVertex
 10
7.56173079257698
 20
897.9466773124196
 30
0.0
  0
VERTEX
  5
A8
330
58
100
AcDbEntity
  8
Linee visibili 2D
100
AcDbVertex
100
AcDb2dVertex
 10
9.011031695706684
 20
898.3396568606966
 30
0.0
  0
VERTEX
  5
A9
330
58
100
AcDbEntity
  8
Linee visibili 2D
100
AcDbVertex
100
AcDb2dVertex
 10
10.55300608921506
 20
898.7192741652663
 30
0.0
  0
VERTEX
  5
AA
330
58
100
AcDbEntity
  8
Linee visibili 2D
100
AcDbVertex
100
AcDb2dVertex
 10
12.17807361591611
 20
899.0847466987899
 30
0.0
  0
VERTEX
  5
AB
330
58
100
AcDbEntity
  8
Linee visibili 2D
100
AcDbVertex
100
AcDb2dVertex
 10
13.87663625591827
 20
899.4354384790355
 30
0.0
  0
VERTEX
  5
AC
330
58
100
AcDbEntity
  8
Linee visibili 2D
100
AcDbVertex
100
AcDb2dVertex
 10
17.45642917185428
 20
900.0906438984035
 30
0.0
  0
VERTEX
  5
AD
330
58
100
AcDbEntity
  8
Linee visibili 2D
100
AcDbVertex
100
AcDb2dVertex
 10
21.364890518975
 20
900.7037750766852
 30
0.0
  0
VERTEX
  5
AE
330
58
100
AcDbEntity
  8
Linee visibili 2D
100
AcDbVertex
100
AcDb2dVertex
 10
25.71670428030814
 20
901.2883848284956
 30
0.0
  0
VERTEX
  5
AF
330
58
100
AcDbEntity
  8
Linee visibili 2D
100
AcDbVertex
100
AcDb2dVertex
 10
30.4899940209408
 20
901.8332179335116
 30
0.0
  0
VERTEX
  5
B0
330
58
100
AcDbEntity
  8
Linee visibili 2D
100
AcDbVertex
100
AcDb2dVertex
 10
35.64766653647162
 20
902.3268741291998
 30
0.0
  0
VERTEX
  5
B1
330
58
100
AcDbEntity
  8
Linee visibili 2D
100
AcDbVertex
100
AcDb2dVertex
 10
46.89153572804388
 20
903.1177357904104
 30
0.0
  0
VERTEX
  5
B2
330
58
100
AcDbEntity
  8
Linee visibili 2D
100
AcDbVertex
100
AcDb2dVertex
 10
58.86827673299213
 20
903.5889632309173
 30
0.0
  0
VERTEX
  5
B3
330
58
100
AcDbEntity
  8
Linee visibili 2D
100
AcDbVertex
100
AcDb2dVertex
 10
70.8611249403761
 20
903.7021895464451
 30
0.0
  0
VERTEX
  5
B4
330
58
100
AcDbEntity
  8
Linee visibili 2D
100
AcDbVertex
100
AcDb2dVertex
 10
82.15291354490519
 20
903.4619156880451
 30
0.0
  0
VERTEX
  5
B5
330
58
100
AcDbEntity
  8
Linee visibili 2D
100
AcDbVertex
100
AcDb2dVertex
 10
87.34606436120988
 20
903.2218444340635
 30
0.0
  0
VERTEX
  5
B6
330
58
100
AcDbEntity
  8
Linee visibili 2D
100
AcDbVertex
100
AcDb2dVertex
 10
92.16210160681192
 20
902.9125160500583
 30
0.0
  0
VERTEX
  5
B7
330
58
100
AcDbEntity
  8
Linee visibili 2D
100
AcDbVertex
100
AcDb2dVertex
 10
96.56347843472587
 20
902.5435032850684
 30
0.0
  0
VERTEX
  5
B8
330
58
100
AcDbEntity
  8
Linee visibili 2D
100
AcDbVertex
100
AcDb2dVertex
 10
100.5277444797249
 20
902.1249402382355
 30
0.0
  0
VERTEX
  5
B9
330
58
100
AcDbEntity
  8
Linee visibili 2D
100
AcDbVertex
100
AcDb2dVertex
 10
104.1713325699416
 20
901.6489638445428
 30
0.0
  0
VERTEX
  5
BA
330
58
100
AcDbEntity
  8
Linee visibili 2D
100
AcDbVertex
100
AcDb2dVertex
 10
107.5695221182959
 20
901.1003911576604
 30
0.0
  0
VERTEX
  5
BB
330
58
100
AcDbEntity
  8
Linee visibili 2D
100
AcDbVertex
100
AcDb2dVertex
 10
109.1530543779216
 20
900.7990461930142
 30
0.0
  0
VERTEX
  5
BC
330
58
100
AcDbEntity
  8
Linee visibili 2D
100
AcDbVertex
100
AcDb2dVertex
 10
110.6468653943132
 20
900.4800275247035
 30
0.0
  0
VERTEX
  5
BD
330
58
100
AcDbEntity
  8
Linee visibili 2D
100
AcDbVertex
100
AcDb2dVertex
 10
112.0415667193522
 20
900.1437965274054
 30
0.0
  0
VERTEX
  5
BE
330
58
100
AcDbEntity
  8
Linee visibili 2D
100
AcDbVertex
100
AcDb2dVertex
 10
113.3280186170785
 20
899.7909706933477
 30
0.0
  0
VERTEX
  5
BF
330
58
100
AcDbEntity
  8
Linee visibili 2D
100
AcDbVertex
100
AcDb2dVertex
 10
113.927895654586
 20
899.6085709712311
 30
0.0
  0
VERTEX
  5
C0
330
58
100
AcDbEntity
  8
Linee visibili 2D
100
AcDbVertex
100
AcDb2dVertex
 10
114.497463555836
 20
899.4223258484675
 30
0.0
  0
VERTEX
  5
C1
330
58
100
AcDbEntity
  8
Linee visibili 2D
100
AcDbVertex
100
AcDb2dVertex
 10
115.0357096801288
 20
899.232356929456
 30
0.0
  0
VERTEX
  5
C2
330
58
100
AcDbEntity
  8
Linee visibili 2D
100
AcDbVertex
100
AcDb2dVertex
 10
115.5416622577145
 20
899.038795457251
 30
0.0
  0
VERTEX
  5
C3
330
58
100
AcDbEntity
  8
Linee visibili 2D
100
AcDbVertex
100
AcDb2dVertex
 10
116.0143945304144
 20
898.8417821178112
 30
0.0
  0
VERTEX
  5
C4
330
58
100
AcDbEntity
  8
Linee visibili 2D
100
AcDbVertex
100
AcDb2dVertex
 10
116.2380267441708
 20
898.7420274844474
 30
0.0
  0
VERTEX
  5
C5
330
58
100
AcDbEntity
  8
Linee visibili 2D
100
AcDbVertex
100
AcDb2dVertex
 10
116.4530287873425
 20
898.6414667925417
 30
0.0
  0
VERTEX
  5
C6
330
58
100
AcDbEntity
  8
Linee visibili 2D
100
AcDbVertex
100
AcDb2dVertex
 10
116.6592992496007
 20
898.540120164986
 30
0.0
  0
VERTEX
  5
C7
330
58
100
AcDbEntity
  8
Linee visibili 2D
100
AcDbVertex
100
AcDb2dVertex
 10
116.8567402646533
 20
898.4380082591996
 30
0.0
  0
VERTEX
  5
C8
330
58
100
AcDbEntity
  8
Linee visibili 2D
100
AcDbVertex
100
AcDb2dVertex
 10
117.0452576225064
 20
898.3351522550025
 30
0.0
  0
VERTEX
  5
C9
330
58
100
AcDbEntity
  8
Linee visibili 2D
100
AcDbVertex
100
AcDb2dVertex
 10
117.2247608784101
 20
898.2315738417163
 30
0.0
  0
VERTEX
  5
CA
330
58
100
AcDbEntity
  8
Linee visibili 2D
100
AcDbVertex
100
AcDb2dVertex
 10
117.3951634582567
 20
898.1272952045057
 30
0.0
  0
VERTEX
  5
CB
330
58
100
AcDbEntity
  8
Linee visibili 2D
100
AcDbVertex
100
AcDb2dVertex
 10
117.5563827602115
 20
898.0223390099748
 30
0.0
  0
VERTEX
  5
CC
330
58
100
AcDbEntity
  8
Linee visibili 2D
100
AcDbVertex
100
AcDb2dVertex
 10
117.7083402523562
 20
897.9167283910366
 30
0.0
  0
VERTEX
  5
CD
330
58
100
AcDbEntity
  8
Linee visibili 2D
100
AcDbVertex
100
AcDb2dVertex
 10
117.8509615661354
 20
897.8104869310735
 30
0.0
  0
VERTEX
  5
CE
330
58
100
AcDbEntity
  8
Linee visibili 2D
100
AcDbVertex
100
AcDb2dVertex
 10
117.9841765854015
 20
897.7036386474081
 30
0.0
  0
VERTEX
  5
CF
330
58
100
AcDbEntity
  8
Linee visibili 2D
100
AcDbVertex
100
AcDb2dVertex
 10
118.1079195308639
 20
897.5962079741081
 30
0.0
  0
VERTEX
  5
D0
330
58
100
AcDbEntity
  8
Linee visibili 2D
100
AcDbVertex
100
AcDb2dVertex
 10
118.2221290397539
 20
897.4882197441509
 30
0.0
  0
VERTEX
  5
D1
330
58
100
AcDbEntity
  8
Linee visibili 2D
100
AcDbVertex
100
AcDb2dVertex
 10
118.3267482405286
 20
897.3796991709693
 30
0.0
  0
VERTEX
  5
D2
330
58
100
AcDbEntity
  8
Linee visibili 2D
100
AcDbVertex
100
AcDb2dVertex
 10
118.4217248224461
 20
897.2706718294111
 30
0.0
  0
VERTEX
  5
D3
330
58
100
AcDbEntity
  8
Linee visibili 2D
100
AcDbVertex
100
AcDb2dVertex
 10
118.5070110998544
 20
897.1611636361372
 30
0.0
  0
VERTEX
  5
D4
330
58
100
AcDbEntity
  8
Linee visibili 2D
100
AcDbVertex
100
AcDb2dVertex
 10
118.5825640710478
 20
897.0512008294918
 30
0.0
  0
VERTEX
  5
D5
330
58
100
AcDbEntity
  8
Linee visibili 2D
100
AcDbVertex
100
AcDb2dVertex
 10
118.6483454715575
 20
896.9408099488757
 30
0.0
  0
VERTEX
  5
D6
330
58
100
AcDbEntity
  8
Linee visibili 2D
100
AcDbVertex
100
AcDb2dVertex
 10
118.7043218217522
 20
896.830017813656
 30
0.0
  0
VERTEX
  5
D7
330
58
100
AcDbEntity
  8
Linee visibili 2D
100
AcDbVertex
100
AcDb2dVertex
 10
118.7504644686414
 20
896.7188515016474
 30
0.0
  0
VERTEX
  5
D8
330
58
100
AcDbEntity
  8
Linee visibili 2D
100
AcDbVertex
100
AcDb2dVertex
 10
118.786749621782
 20
896.6073383272008
 30
0.0
  0
VERTEX
  5
D9
330
58
100
AcDbEntity
  8
Linee visibili 2D
100
AcDbVertex
100
AcDb2dVertex
 10
118.8131583832069
 20
896.4955058189364
 30
0.0
  0
VERTEX
  5
DA
330
58
100
AcDbEntity
  8
Linee visibili 2D
100
AcDbVertex
100
AcDb2dVertex
 10
118.8296767713048
 20
896.3833816971579
 30
0.0
  0
VERTEX
  5
DB
330
58
100
AcDbEntity
  8
Linee visibili 2D
100
AcDbVertex
100
AcDb2dVertex
 10
118.8362957385953
 20
896.2709938509886
 30
0.0
  0
VERTEX
  5
DC
330
58
100
AcDbEntity
  8
Linee visibili 2D
100
AcDbVertex
100
AcDb2dVertex
 10
118.8330111833581
 20
896.1583703152686
 30
0.0
  0
VERTEX
  5
DD
330
58
100
AcDbEntity
  8
Linee visibili 2D
100
AcDbVertex
100
AcDb2dVertex
 10
118.8198239550885
 20
896.0455392472509
 30
0.0
  0
VERTEX
  5
DE
330
58
100
AcDbEntity
  8
Linee visibili 2D
100
AcDbVertex
100
AcDb2dVertex
 10
118.7967398537658
 20
895.9325289031406
 30
0.0
  0
VERTEX
  5
DF
330
58
100
AcDbEntity
  8
Linee visibili 2D
100
AcDbVertex
100
AcDb2dVertex
 10
118.7637696229364
 20
895.8193676145148
 30
0.0
  0
VERTEX
  5
E0
330
58
100
AcDbEntity
  8
Linee visibili 2D
100
AcDbVertex
100
AcDb2dVertex
 10
118.7209289366273
 20
895.7060837646679
 30
0.0
  0
VERTEX
  5
E1
330
58
100
AcDbEntity
  8
Linee visibili 2D
100
AcDbVertex
100
AcDb2dVertex
 10
118.6682383801198
 20
895.5927057649204
 30
0.0
  0
VERTEX
  5
E2
330
58
100
AcDbEntity
  8
Linee visibili 2D
100
AcDbVertex
100
AcDb2dVertex
 10
118.6057234246277
 20
895.4792620309355
 30
0.0
  0
VERTEX
  5
E3
330
58
100
AcDbEntity
  8
Linee visibili 2D
100
AcDbVertex
100
AcDb2dVertex
 10
118.5334143959394
 20
895.3657809590823
 30
0.0
  0
VERTEX
  5
E4
330
58
100
AcDbEntity
  8
Linee visibili 2D
100
AcDbVertex
100
AcDb2dVertex
 10
118.4513464370946
 20
895.2522909028895
 30
0.0
  0
VERTEX
  5
E5
330
58
100
AcDbEntity
  8
Linee visibili 2D
100
AcDbVertex
100
AcDb2dVertex
 10
118.3595594651829
 20
895.138820149628
 30
0.0
  0
VERTEX
  5
E6
330
58
100
AcDbEntity
  8
Linee visibili 2D
100
AcDbVertex
100
AcDb2dVertex
 10
118.2580981223631
 20
895.0253968970633
 30
0.0
  0
VERTEX
  5
E7
330
58
100
AcDbEntity
  8
Linee visibili 2D
100
AcDbVertex
100
AcDb2dVertex
 10
118.1470117212148
 20
894.9120492304176
 30
0.0
  0
VERTEX
  5
E8
330
58
100
AcDbEntity
  8
Linee visibili 2D
100
AcDbVertex
100
AcDb2dVertex
 10
118.0263541845478
 20
894.7988050995816
 30
0.0
  0
VERTEX
  5
E9
330
58
100
AcDbEntity
  8
Linee visibili 2D
100
AcDbVertex
100
AcDb2dVertex
 10
117.8961839798053
 20
894.6856922966116
 30
0.0
  0
VERTEX
  5
EA
330
58
100
AcDbEntity
  8
Linee visibili 2D
100
AcDbVertex
100
AcDb2dVertex
 10
117.7565640482092
 20
894.5727384335519
 30
0.0
  0
VERTEX
  5
EB
330
58
100
AcDbEntity
  8
Linee visibili 2D
100
AcDbVertex
100
AcDb2dVertex
 10
117.6075617288074
 20
894.4599709206162
 30
0.0
  0
VERTEX
  5
EC
330
58
100
AcDbEntity
  8
Linee visibili 2D
100
AcDbVertex
100
AcDb2dVertex
 10
117.4492486775916
 20
894.3474169447654
 30
0.0
  0
VERTEX
  5
ED
330
58
100
AcDbEntity
  8
Linee visibili 2D
100
AcDbVertex
100
AcDb2dVertex
 10
117.2817007818671
 20
894.2351034487136
 30
0.0
  0
VERTEX
  5
EE
330
58
100
AcDbEntity
  8
Linee visibili 2D
100
AcDbVertex
100
AcDb2dVertex
 10
117.1049980700606
 20
894.1230571103961
 30
0.0
  0
VERTEX
  5
EF
330
58
100
AcDbEntity
  8
Linee visibili 2D
100
AcDbVertex
100
AcDb2dVertex
 10
116.9192246171662
 20
894.0113043229297
 30
0.0
  0
VERTEX
  5
F0
330
58
100
AcDbEntity
  8
Linee visibili 2D
100
AcDbVertex
100
AcDb2dVertex
 10
116.7244684460326
 20
893.8998711750965
 30
0.0
  0
VERTEX
  5
F1
330
58
100
AcDbEntity
  8
Linee visibili 2D
100
AcDbVertex
100
AcDb2dVertex
 10
116.5208214247054
 20
893.7887834323768
 30
0.0
  0
VERTEX
  5
F2
330
58
100
AcDbEntity
  8
Linee visibili 2D
100
AcDbVertex
100
AcDb2dVertex
 10
116.3083791600422
 20
893.67806651856
 30
0.0
  0
VERTEX
  5
F3
330
58
100
AcDbEntity
  8
Linee visibili 2D
100
AcDbVertex
100
AcDb2dVertex
 10
116.0872408878255
 20
893.5677454979563
 30
0.0
  0
VERTEX
  5
F4
330
58
100
AcDbEntity
  8
Linee visibili 2D
100
AcDbVertex
100
AcDb2dVertex
 10
115.6192907264897
 20
893.3483894939116
 30
0.0
  0
VERTEX
  5
F5
330
58
100
AcDbEntity
  8
Linee visibili 2D
100
AcDbVertex
100
AcDb2dVertex
 10
115.1178330313173
 20
893.1309081093044
 30
0.0
  0
VERTEX
  5
F6
330
58
100
AcDbEntity
  8
Linee visibili 2D
100
AcDbVertex
100
AcDb2dVertex
 10
114.5837804184353
 20
892.9154872520389
 30
0.0
  0
VERTEX
  5
F7
330
58
100
AcDbEntity
  8
Linee visibili 2D
100
AcDbVertex
100
AcDb2dVertex
 10
114.0180920359216
 20
892.7023055976007
 30
0.0
  0
VERTEX
  5
F8
330
58
100
AcDbEntity
  8
Linee visibili 2D
100
AcDbVertex
100
AcDb2dVertex
 10
113.421769452932
 20
892.4915341842051
 30
0.0
  0
VERTEX
  5
F9
330
58
100
AcDbEntity
  8
Linee visibili 2D
100
AcDbVertex
100
AcDb2dVertex
 10
112.1414148290972
 20
892.0778659521706
 30
0.0
  0
VERTEX
  5
FA
330
58
100
AcDbEntity
  8
Linee visibili 2D
100
AcDbVertex
100
AcDb2dVertex
 10
110.7514168787228
 20
891.6756857540797
 30
0.0
  0
VERTEX
  5
FB
330
58
100
AcDbEntity
  8
Linee visibili 2D
100
AcDbVertex
100
AcDb2dVertex
 10
109.2608828603092
 20
891.2860567726234
 30
0.0
  0
VERTEX
  5
FC
330
58
100
AcDbEntity
  8
Linee visibili 2D
100
AcDbVertex
100
AcDb2dVertex
 10
107.6791924541847
 20
890.9098976783775
 30
0.0
  0
VERTEX
  5
FD
330
58
100
AcDbEntity
  8
Linee visibili 2D
100
AcDbVertex
100
AcDb2dVertex
 10
106.0158683671579
 20
890.547981049149
 30
0.0
  0
VERTEX
  5
FE
330
58
100
AcDbEntity
  8
Linee visibili 2D
100
AcDbVertex
100
AcDb2dVertex
 10
102.4824057946043
 20
889.8692441269642
 30
0.0
  0
SEQEND
  5
FF
330
58
100
AcDbEntity
  8
Linee visibili 2D
  0
POLYLINE
  5
101
330
1F
100
AcDbEntity
  8
Predefinito
100
AcDb2dPolyline
 66
     1
 10
0.0
 20
0.0
 30
0.0
  0
VERTEX
  5
102
330
101
100
AcDbEntity
  8
Predefinito
100
AcDbVertex
100
AcDb2dVertex
 10
74.07935134376424
 20
268.0850937719675
 30
0.0
  0
VERTEX
  5
103
330
101
100
AcDbEntity
  8
Predefinito
100
AcDbVertex
100
AcDb2dVertex
 10
73.41412245551065
 20
268.2533309020143
 30
0.0
  0
VERTEX
  5
104
330
101
100
AcDbEntity
  8
Predefinito
100
AcDbVertex
100
AcDb2dVertex
 10
72.75154899834376
 20
268.4400716754756
 30
0.0
  0
VERTEX
  5
105
330
101
100
AcDbEntity
  8
Predefinito
100
AcDbVertex
100
AcDb2dVertex
 10
72.091994155425
 20
268.6454009325469
 30
0.0
  0
VERTEX
  5
106
330
101
100
AcDbEntity
  8
Predefinito
100
AcDbVertex
100
AcDb2dVertex
 10
71.43582262567934
 20
268.8693856031912
 30
0.0
  0
VERTEX
  5
107
330
101
100
AcDbEntity
  8
Predefinito
100
AcDbVertex
100
AcDb2dVertex
 10
70.78340002471897
 20
269.1120743162859
 30
0.0
  0
VERTEX
  5
108
330
101
100
AcDbEntity
  8
Predefinito
100
AcDbVertex
100
AcDb2dVertex
 10
70.13509227259023
 20
269.3734970486839
 30
0.0
  0
VERTEX
  5
109
330
101
100
AcDbEntity
  8
Predefinito
100
AcDbVertex
100
AcDb2dVertex
 10
69.4912649702781
 20
269.6536648162732
 30
0.0
  0
VERTEX
  5
10A
330
101
100
AcDbEntity
  8
Predefinito
100
AcDbVertex
100
AcDb2dVertex
 10
68.8522827670021
 20
269.9525694089647
 30
0.0
  0
VERTEX
  5
10B
330
101
100
AcDbEntity
  8
Predefinito
100
AcDbVertex
100
AcDb2dVertex
 10
68.21850872042496
 20
270.2701831713659
 30
0.0
  0
VERTEX
  5
10C
330
101
100
AcDbEntity
  8
Predefinito
100
AcDbVertex
100
AcDb2dVertex
 10
67.59030365197235
 20
270.606458830714
 30
0.0
  0
VERTEX
  5
10D
330
101
100
AcDbEntity
  8
Predefinito
100
AcDbVertex
100
AcDb2dVertex
 10
66.96802549952727
 20
270.9613293734425
 30
0.0
  0
VERTEX
  5
10E
330
101
100
AcDbEntity
  8
Predefinito
100
AcDbVertex
100
AcDb2dVertex
 10
66.3520286698148
 20
271.3347079715436
 30
0.0
  0
VERTEX
  5
10F
330
101
100
AcDbEntity
  8
Predefinito
100
AcDbVertex
100
AcDb2dVertex
 10
65.7426633928317
 20
271.7264879596655
 30
0.0
  0
VERTEX
  5
110
330
101
100
AcDbEntity
  8
Predefinito
100
AcDbVertex
100
AcDb2dVertex
 10
65.14027508070002
 20
272.1365428636497
 30
0.0
  0
VERTEX
  5
111
330
101
100
AcDbEntity
  8
Predefinito
100
AcDbVertex
100
AcDb2dVertex
 10
64.54520369333417
 20
272.5647264809754
 30
0.0
  0
VERTEX
  5
112
330
101
100
AcDbEntity
  8
Predefinito
100
AcDbVertex
100
AcDb2dVertex
 10
63.95778311330625
 20
273.0108730133275
 30
0.0
  0
VERTEX
  5
113
330
101
100
AcDbEntity
  8
Predefinito
100
AcDbVertex
100
AcDb2dVertex
 10
63.37834053227496
 20
273.4747972512544
 30
0.0
  0
VERTEX
  5
114
330
101
100
AcDbEntity
  8
Predefinito
100
AcDbVertex
100
AcDb2dVertex
 10
62.80719585130842
 20
273.9562948106288
 30
0.0
  0
VERTEX
  5
115
330
101
100
AcDbEntity
  8
Predefinito
100
AcDbVertex
100
AcDb2dVertex
 10
62.24466109738207
 20
274.4551424203664
 30
0.0
  0
VERTEX
  5
116
330
101
100
AcDbEntity
  8
Predefinito
100
AcDbVertex
100
AcDb2dVertex
 10
61.69103985826815
 20
274.9710982606061
 30
0.0
  0
VERTEX
  5
117
330
101
100
AcDbEntity
  8
Predefinito
100
AcDbVertex
100
AcDb2dVertex
 10
61.14662673795482
 20
275.5039023503062
 30
0.0
  0
VERTEX
  5
118
330
101
100
AcDbEntity
  8
Predefinito
100
AcDbVertex
100
AcDb2dVertex
 10
60.61170683464042
 20
276.0532769829617
 30
0.0
  0
VERTEX
  5
119
330
101
100
AcDbEntity
  8
Predefinito
100
AcDbVertex
100
AcDb2dVertex
 10
60.08655524324279
 20
276.6189272089152
 30
0.0
  0
VERTEX
  5
11A
330
101
100
AcDbEntity
  8
Predefinito
100
AcDbVertex
100
AcDb2dVertex
 10
59.57143658424595
 20
277.2005413625025
 30
0.0
  0
VERTEX
  5
11B
330
101
100
AcDbEntity
  8
Predefinito
100
AcDbVertex
100
AcDb2dVertex
 10
59.06660456057659
 20
277.797791632057
 30
0.0
  0
VERTEX
  5
11C
330
101
100
AcDbEntity
  8
Predefinito
100
AcDbVertex
100
AcDb2dVertex
 10
58.57230154406344
 20
278.410334670593
 30
0.0
  0
VERTEX
  5
11D
330
101
100
AcDbEntity
  8
Predefinito
100
AcDbVertex
100
AcDb2dVertex
 10
58.08875819288362
 20
279.0378122447966
 30
0.0
  0
VERTEX
  5
11E
330
101
100
AcDbEntity
  8
Predefinito
100
AcDbVertex
100
AcDb2dVertex
 10
57.61619310124232
 20
279.6798519197786
 30
0.0
  0
VERTEX
  5
11F
330
101
100
AcDbEntity
  8
Predefinito
100
AcDbVertex
100
AcDb2dVertex
 10
57.15481248236915
 20
280.3360677768857
 30
0.0
  0
VERTEX
  5
120
330
101
100
AcDbEntity
  8
Predefinito
100
AcDbVertex
100
AcDb2dVertex
 10
56.70480988574401
 20
281.0060611617263
 30
0.0
  0
VERTEX
  5
121
330
101
100
AcDbEntity
  8
Predefinito
100
AcDbVertex
100
AcDb2dVertex
 10
56.26636594929273
 20
281.6894214594454
 30
0.0
  0
VERTEX
  5
122
330
101
100
AcDbEntity
  8
Predefinito
100
AcDbVertex
100
AcDb2dVertex
 10
55.83964818711561
 20
282.3857268941853
 30
0.0
  0
VERTEX
  5
123
330
101
100
AcDbEntity
  8
Predefinito
100
AcDbVertex
100
AcDb2dVertex
 10
55.42481081313478
 20
283.0945453495818
 30
0.0
  0
VERTEX
  5
124
330
101
100
AcDbEntity
  8
Predefinito
100
AcDbVertex
100
AcDb2dVertex
 10
55.02199460086878
 20
283.8154352070917
 30
0.0
  0
VERTEX
  5
125
330
101
100
AcDbEntity
  8
Predefinito
100
AcDbVertex
100
AcDb2dVertex
 10
54.6313267793663
 20
284.5479461989024
 30
0.0
  0
VERTEX
  5
126
330
101
100
AcDbEntity
  8
Predefinito
100
AcDbVertex
100
AcDb2dVertex
 10
54.25292096515785
 20
285.2916202721586
 30
0.0
  0
VERTEX
  5
127
330
101
100
AcDbEntity
  8
Predefinito
100
AcDbVertex
100
AcDb2dVertex
 10
53.88687712991463
 20
286.0459924612409
 30
0.0
  0
VERTEX
  5
128
330
101
100
AcDbEntity
  8
Predefinito
100
AcDbVertex
100
AcDb2dVertex
 10
53.53328160333992
 20
286.8105917648515
 30
0.0
  0
VERTEX
  5
129
330
101
100
AcDbEntity
  8
Predefinito
100
AcDbVertex
100
AcDb2dVertex
 10
53.19220711066031
 20
287.584942024705
 30
0.0
  0
VERTEX
  5
12A
330
101
100
AcDbEntity
  8
Predefinito
100
AcDbVertex
100
AcDb2dVertex
 10
52.86371284393388
 20
288.3685628026792
 30
0.0
  0
VERTEX
  5
12B
330
101
100
AcDbEntity
  8
Predefinito
100
AcDbVertex
100
AcDb2dVertex
 10
52.24463474776654
 20
289.9616779889961
 30
0.0
  0
VERTEX
  5
12C
330
101
100
AcDbEntity
  8
Predefinito
100
AcDbVertex
100
AcDb2dVertex
 10
51.67625493384744
 20
291.5860411663877
 30
0.0
  0
VERTEX
  5
12D
330
101
100
AcDbEntity
  8
Predefinito
100
AcDbVertex
100
AcDb2dVertex
 10
51.15857436170682
 20
293.2377425072704
 30
0.0
  0
VERTEX
  5
12E
330
101
100
AcDbEntity
  8
Predefinito
100
AcDbVertex
100
AcDb2dVertex
 10
50.69139489930983
 20
294.9128846003956
 30
0.0
  0
VERTEX
  5
12F
330
101
100
AcDbEntity
  8
Predefinito
100
AcDbVertex
100
AcDb2dVertex
 10
50.27432848272858
 20
296.6076072291197
 30
0.0
  0
VERTEX
  5
130
330
101
100
AcDbEntity
  8
Predefinito
100
AcDbVertex
100
AcDb2dVertex
 10
49.90680765678849
 20
298.3181105790987
 30
0.0
  0
VERTEX
  5
131
330
101
100
AcDbEntity
  8
Predefinito
100
AcDbVertex
100
AcDb2dVertex
 10
49.58809727494439
 20
300.0406766579513
 30
0.0
  0
VERTEX
  5
132
330
101
100
AcDbEntity
  8
Predefinito
100
AcDbVertex
100
AcDb2dVertex
 10
49.31730713151732
 20
301.7716887558812
 30
0.0
  0
VERTEX
  5
133
330
101
100
AcDbEntity
  8
Predefinito
100
AcDbVertex
100
AcDb2dVertex
 10
49.09340529978155
 20
303.5076488228382
 30
0.0
  0
VERTEX
  5
134
330
101
100
AcDbEntity
  8
Predefinito
100
AcDbVertex
100
AcDb2dVertex
 10
48.91523195472683
 20
305.2451926832235
 30
0.0
  0
VERTEX
  5
135
330
101
100
AcDbEntity
  8
Predefinito
100
AcDbVertex
100
AcDb2dVertex
 10
48.78151346901478
 20
306.9811030522712
 30
0.0
  0
VERTEX
  5
136
330
101
100
AcDbEntity
  8
Predefinito
100
AcDbVertex
100
AcDb2dVertex
 10
48.69087658400268
 20
308.712320358146
 30
0.0
  0
VERTEX
  5
137
330
101
100
AcDbEntity
  8
Predefinito
100
AcDbVertex
100
AcDb2dVertex
 10
48.63425058444714
 20
311.0379627813139
 30
0.0
  0
VERTEX
  5
138
330
101
100
AcDbEntity
  8
Predefinito
100
AcDbVertex
100
AcDb2dVertex
 10
48.65160296637703
 20
313.4258578412581
 30
0.0
  0
VERTEX
  5
139
330
101
100
AcDbEntity
  8
Predefinito
100
AcDbVertex
100
AcDb2dVertex
 10
48.74660038829459
 20
315.871161460028
 30
0.0
  0
VERTEX
  5
13A
330
101
100
AcDbEntity
  8
Predefinito
100
AcDbVertex
100
AcDb2dVertex
 10
48.92262448658631
 20
318.3683212331921
 30
0.0
  0
VERTEX
  5
13B
330
101
100
AcDbEntity
  8
Predefinito
100
AcDbVertex
100
AcDb2dVertex
 10
49.18271015577563
 20
320.9110829577196
 30
0.0
  0
VERTEX
  5
13C
330
101
100
AcDbEntity
  8
Predefinito
100
AcDbVertex
100
AcDb2dVertex
 10
49.52948403339694
 20
323.4925099933783
 30
0.0
  0
VERTEX
  5
13D
330
101
100
AcDbEntity
  8
Predefinito
100
AcDbVertex
100
AcDb2dVertex
 10
49.96510472837561
 20
326.1050163588205
 30
0.0
  0
VERTEX
  5
13E
330
101
100
AcDbEntity
  8
Predefinito
100
AcDbVertex
100
AcDb2dVertex
 10
50.49120645750997
 20
328.7404141146316
 30
0.0
  0
VERTEX
  5
13F
330
101
100
AcDbEntity
  8
Predefinito
100
AcDbVertex
100
AcDb2dVertex
 10
51.10884782491551
 20
331.3899751674879
 30
0.0
  0
VERTEX
  5
140
330
101
100
AcDbEntity
  8
Predefinito
100
AcDbVertex
100
AcDb2dVertex
 10
51.81846748253162
 20
334.044507155257
 30
0.0
  0
VERTEX
  5
141
330
101
100
AcDbEntity
  8
Predefinito
100
AcDbVertex
100
AcDb2dVertex
 10
52.61984833720761
 20
336.6944425611432
 30
0.0
  0
VERTEX
  5
142
330
101
100
AcDbEntity
  8
Predefinito
100
AcDbVertex
100
AcDb2dVertex
 10
53.51209181658749
 20
339.3299396796479
 30
0.0
  0
VERTEX
  5
143
330
101
100
AcDbEntity
  8
Predefinito
100
AcDbVertex
100
AcDb2dVertex
 10
54.49360347198381
 20
341.9409935458597
 30
0.0
  0
VERTEX
  5
144
330
101
100
AcDbEntity
  8
Predefinito
100
AcDbVertex
100
AcDb2dVertex
 10
55.56209088712907
 20
344.5175544721556
 30
0.0
  0
VERTEX
  5
145
330
101
100
AcDbEntity
  8
Predefinito
100
AcDbVertex
100
AcDb2dVertex
 10
56.71457448824207
 20
347.0496514424157
 30
0.0
  0
VERTEX
  5
146
330
101
100
AcDbEntity
  8
Predefinito
100
AcDbVertex
100
AcDb2dVertex
 10
57.94741142966086
 20
349.5275173203995
 30
0.0
  0
VERTEX
  5
147
330
101
100
AcDbEntity
  8
Predefinito
100
AcDbVertex
100
AcDb2dVertex
 10
58.59265142665643
 20
350.7431476678294
 30
0.0
  0
VERTEX
  5
148
330
101
100
AcDbEntity
  8
Predefinito
100
AcDbVertex
100
AcDb2dVertex
 10
59.25633228118851
 20
351.9417126580906
 30
0.0
  0
VERTEX
  5
149
330
101
100
AcDbEntity
  8
Predefinito
100
AcDbVertex
100
AcDb2dVertex
 10
59.93783041483495
 20
353.1221031203097
 30
0.0
  0
VERTEX
  5
14A
330
101
100
AcDbEntity
  8
Predefinito
100
AcDbVertex
100
AcDb2dVertex
 10
60.6364897920694
 20
354.2832448565313
 30
0.0
  0
VERTEX
  5
14B
330
101
100
AcDbEntity
  8
Predefinito
100
AcDbVertex
100
AcDb2dVertex
 10
61.35162401925961
 20
355.4241018928639
 30
0.0
  0
VERTEX
  5
14C
330
101
100
AcDbEntity
  8
Predefinito
100
AcDbVertex
100
AcDb2dVertex
 10
62.08251857717371
 20
356.5436795421687
 30
0.0
  0
VERTEX
  5
14D
330
101
100
AcDbEntity
  8
Predefinito
100
AcDbVertex
100
AcDb2dVertex
 10
62.82843317184555
 20
357.6410272594055
 30
0.0
  0
VERTEX
  5
14E
330
101
100
AcDbEntity
  8
Predefinito
100
AcDbVertex
100
AcDb2dVertex
 10
63.58860418773622
 20
358.7152412726714
 30
0.0
  0
VERTEX
  5
14F
330
101
100
AcDbEntity
  8
Predefinito
100
AcDbVertex
100
AcDb2dVertex
 10
64.36224722640156
 20
359.7654669750573
 30
0.0
  0
VERTEX
  5
150
330
101
100
AcDbEntity
  8
Predefinito
100
AcDbVertex
100
AcDb2dVertex
 10
65.14855971334131
 20
360.79090106468
 30
0.0
  0
VERTEX
  5
151
330
101
100
AcDbEntity
  8
Predefinito
100
AcDbVertex
100
AcDb2dVertex
 10
65.9467235553709
 20
361.7907934225825
 30
0.0
  0
VERTEX
  5
152
330
101
100
AcDbEntity
  8
Predefinito
100
AcDbVertex
100
AcDb2dVertex
 10
66.75590783072089
 20
362.7644487206022
 30
0.0
  0
VERTEX
  5
153
330
101
100
AcDbEntity
  8
Predefinito
100
AcDbVertex
100
AcDb2dVertex
 10
67.57527149413103
 20
363.7112277537555
 30
0.0
  0
VERTEX
  5
154
330
101
100
AcDbEntity
  8
Predefinito
100
AcDbVertex
100
AcDb2dVertex
 10
68.40396607945861
 20
364.6305484941369
 30
0.0
  0
VERTEX
  5
155
330
101
100
AcDbEntity
  8
Predefinito
100
AcDbVertex
100
AcDb2dVertex
 10
69.24113838275787
 20
365.5218868657495
 30
0.0
  0
VERTEX
  5
156
330
101
100
AcDbEntity
  8
Predefinito
100
AcDbVertex
100
AcDb2dVertex
 10
70.08593310939523
 20
366.3847772420446
 30
0.0
  0
VERTEX
  5
157
330
101
100
AcDbEntity
  8
Predefinito
100
AcDbVertex
100
AcDb2dVertex
 10
70.93749546953124
 20
367.2188126702156
 30
0.0
  0
VERTEX
  5
158
330
101
100
AcDbEntity
  8
Predefinito
100
AcDbVertex
100
AcDb2dVertex
 10
71.79497370720928
 20
368.0236448284397
 30
0.0
  0
VERTEX
  5
159
330
101
100
AcDbEntity
  8
Predefinito
100
AcDbVertex
100
AcDb2dVertex
 10
72.65752154932392
 20
368.7989837242717
 30
0.0
  0
VERTEX
  5
15A
330
101
100
AcDbEntity
  8
Predefinito
100
AcDbVertex
100
AcDb2dVertex
 10
73.52430056188183
 20
369.5445971442333
 30
0.0
  0
VERTEX
  5
15B
330
101
100
AcDbEntity
  8
Predefinito
100
AcDbVertex
100
AcDb2dVertex
 10
74.39448240219343
 20
370.2603098663094
 30
0.0
  0
VERTEX
  5
15C
330
101
100
AcDbEntity
  8
Predefinito
100
AcDbVertex
100
AcDb2dVertex
 10
75.2672509569262
 20
370.9460026485323
 30
0.0
  0
VERTEX
  5
15D
330
101
100
AcDbEntity
  8
Predefinito
100
AcDbVertex
100
AcDb2dVertex
 10
76.14180435728875
 20
371.6016110080997
 30
0.0
  0
VERTEX
  5
15E
330
101
100
AcDbEntity
  8
Predefinito
100
AcDbVertex
100
AcDb2dVertex
 10
77.01735686398062
 20
372.227123806532
 30
0.0
  0
VERTEX
  5
15F
330
101
100
AcDbEntity
  8
Predefinito
100
AcDbVertex
100
AcDb2dVertex
 10
77.89314061591548
 20
372.8225816572186
 30
0.0
  0
VERTEX
  5
160
330
101
100
AcDbEntity
  8
Predefinito
100
AcDbVertex
100
AcDb2dVertex
 10
78.76840723808823
 20
373.38807517234
 30
0.0
  0
VERTEX
  5
161
330
101
100
AcDbEntity
  8
Predefinito
100
AcDbVertex
100
AcDb2dVertex
 10
79.64242930529318
 20
373.9237430665795
 30
0.0
  0
VERTEX
  5
162
330
101
100
AcDbEntity
  8
Predefinito
100
AcDbVertex
100
AcDb2dVertex
 10
80.51450165969418
 20
374.4297701352706
 30
0.0
  0
VERTEX
  5
163
330
101
100
AcDbEntity
  8
Predefinito
100
AcDbVertex
100
AcDb2dVertex
 10
81.38394258148652
 20
374.9063851246655
 30
0.0
  0
VERTEX
  5
164
330
101
100
AcDbEntity
  8
Predefinito
100
AcDbVertex
100
AcDb2dVertex
 10
82.25009481306199
 20
375.3538585118737
 30
0.0
  0
VERTEX
  5
165
330
101
100
AcDbEntity
  8
Predefinito
100
AcDbVertex
100
AcDb2dVertex
 10
83.11232643818315
 20
375.7725002117195
 30
0.0
  0
VERTEX
  5
166
330
101
100
AcDbEntity
  8
Predefinito
100
AcDbVertex
100
AcDb2dVertex
 10
83.97003161868321
 20
376.1626572273207
 30
0.0
  0
VERTEX
  5
167
330
101
100
AcDbEntity
  8
Predefinito
100
AcDbVertex
100
AcDb2dVertex
 10
84.67153021075309
 20
376.4780853138848
 30
0.0
  0
SEQEND
  5
168
330
101
100
AcDbEntity
  8
Predefinito
  0
POLYLINE
  5
169
330
1F
100
AcDbEntity
  8
Predefinito
100
AcDb2dPolyline
 66
     1
 10
0.0
 20
0.0
 30
0.0
  0
VERTEX
  5
16A
330
169
100
AcDbEntity
  8
Predefinito
100
AcDbVertex
100
AcDb2dVertex
 10
77.30459296095168
 20
576.1483762529411
 30
0.0
  0
VERTEX
  5
16B
330
169
100
AcDbEntity
  8
Predefinito
100
AcDbVertex
100
AcDb2dVertex
 10
81.55519035049369
 20
562.0730444540241
 30
0.0
  0
VERTEX
  5
16C
330
169
100
AcDbEntity
  8
Predefinito
100
AcDbVertex
100
AcDb2dVertex
 10
85.47971761074717
 20
547.9065974744949
 30
0.0
  0
VERTEX
  5
16D
330
169
100
AcDbEntity
  8
Predefinito
100
AcDbVertex
100
AcDb2dVertex
 10
88.57840431467196
 20
535.4069669259054
 30
0.0
  0
VERTEX
  5
16E
330
169
100
AcDbEntity
  8
Predefinito
100
AcDbVertex
100
AcDb2dVertex
 10
91.28644926294402
 20
522.817532323216
 30
0.0
  0
VERTEX
  5
16F
330
169
100
AcDbEntity
  8
Predefinito
100
AcDbVertex
100
AcDb2dVertex
 10
92.44332909957072
 20
516.6523004132629
 30
0.0
  0
VERTEX
  5
170
330
169
100
AcDbEntity
  8
Predefinito
100
AcDbVertex
100
AcDb2dVertex
 10
93.49048340307124
 20
510.4682605749067
 30
0.0
  0
VERTEX
  5
171
330
169
100
AcDbEntity
  8
Predefinito
100
AcDbVertex
100
AcDb2dVertex
 10
95.25911481382767
 20
498.0508351405315
 30
0.0
  0
VERTEX
  5
172
330
169
100
AcDbEntity
  8
Predefinito
100
AcDbVertex
100
AcDb2dVertex
 10
96.5993423014814
 20
485.5794120751821
 30
0.0
  0
VERTEX
  5
173
330
169
100
AcDbEntity
  8
Predefinito
100
AcDbVertex
100
AcDb2dVertex
 10
97.51816467230047
 20
473.0681474339499
 30
0.0
  0
VERTEX
  5
174
330
169
100
AcDbEntity
  8
Predefinito
100
AcDbVertex
100
AcDb2dVertex
 10
97.84048151831306
 20
466.3154196433667
 30
0.0
  0
VERTEX
  5
175
330
169
100
AcDbEntity
  8
Predefinito
100
AcDbVertex
100
AcDb2dVertex
 10
98.04051492185984
 20
459.5577306335358
 30
0.0
  0
VERTEX
  5
176
330
169
100
AcDbEntity
  8
Predefinito
100
AcDbVertex
100
AcDb2dVertex
 10
98.11629137170789
 20
452.7975761740659
 30
0.0
  0
VERTEX
  5
177
330
169
100
AcDbEntity
  8
Predefinito
100
AcDbVertex
100
AcDb2dVertex
 10
98.06583735662429
 20
446.0374520345658
 30
0.0
  0
VERTEX
  5
178
330
169
100
AcDbEntity
  8
Predefinito
100
AcDbVertex
100
AcDb2dVertex
 10
97.8871793653761
 20
439.2798539846447
 30
0.0
  0
VERTEX
  5
179
330
169
100
AcDbEntity
  8
Predefinito
100
AcDbVertex
100
AcDb2dVertex
 10
97.57834388673038
 20
432.5272777939114
 30
0.0
  0
VERTEX
  5
17A
330
169
100
AcDbEntity
  8
Predefinito
100
AcDbVertex
100
AcDb2dVertex
 10
97.13735740945421
 20
425.7822192319749
 30
0.0
  0
VERTEX
  5
17B
330
169
100
AcDbEntity
  8
Predefinito
100
AcDbVertex
100
AcDb2dVertex
 10
96.56224642231464
 20
419.0471740684441
 30
0.0
  0
VERTEX
  5
17C
330
169
100
AcDbEntity
  8
Predefinito
100
AcDbVertex
100
AcDb2dVertex
 10
95.95237501660387
 20
413.2388230837071
 30
0.0
  0
VERTEX
  5
17D
330
169
100
AcDbEntity
  8
Predefinito
100
AcDbVertex
100
AcDb2dVertex
 10
95.21887754848679
 20
407.445643308212
 30
0.0
  0
VERTEX
  5
17E
330
169
100
AcDbEntity
  8
Predefinito
100
AcDbVertex
100
AcDb2dVertex
 10
94.33972310572926
 20
401.6734680431786
 30
0.0
  0
VERTEX
  5
17F
330
169
100
AcDbEntity
  8
Predefinito
100
AcDbVertex
100
AcDb2dVertex
 10
93.29288077609723
 20
395.9281305898267
 30
0.0
  0
VERTEX
  5
180
330
169
100
AcDbEntity
  8
Predefinito
100
AcDbVertex
100
AcDb2dVertex
 10
92.279151832229
 20
391.1800733157998
 30
0.0
  0
VERTEX
  5
181
330
169
100
AcDbEntity
  8
Predefinito
100
AcDbVertex
100
AcDb2dVertex
 10
91.11878140544457
 20
386.465858311642
 30
0.0
  0
VERTEX
  5
182
330
169
100
AcDbEntity
  8
Predefinito
100
AcDbVertex
100
AcDb2dVertex
 10
90.47871481469781
 20
384.1249680933709
 30
0.0
  0
VERTEX
  5
183
330
169
100
AcDbEntity
  8
Predefinito
100
AcDbVertex
100
AcDb2dVertex
 10
89.7961188677088
 20
381.7967701616952
 30
0.0
  0
VERTEX
  5
184
330
169
100
AcDbEntity
  8
Predefinito
100
AcDbVertex
100
AcDb2dVertex
 10
89.06903723597318
 20
379.4826750896578
 30
0.0
  0
VERTEX
  5
185
330
169
100
AcDbEntity
  8
Predefinito
100
AcDbVertex
100
AcDb2dVertex
 10
88.29551359098656
 20
377.1840934503012
 30
0.0
 42
-0.4251393320919983
  0
VERTEX
  5
186
330
169
100
AcDbEntity
  8
Predefinito
100
AcDbVertex
100
AcDb2dVertex
 10
83.47829347891275
 20
377.3148557186392
 30
0.0
  0
VERTEX
  5
187
330
169
100
AcDbEntity
  8
Predefinito
100
AcDbVertex
100
AcDb2dVertex
 10
84.19400671748487
 20
379.3361780618139
 30
0.0
  0
VERTEX
  5
188
330
169
100
AcDbEntity
  8
Predefinito
100
AcDbVertex
100
AcDb2dVertex
 10
84.86900892793145
 20
381.3714316422146
 30
0.0
  0
VERTEX
  5
189
330
169
100
AcDbEntity
  8
Predefinito
100
AcDbVertex
100
AcDb2dVertex
 10
85.50507557891339
 20
383.4194196511261
 30
0.0
  0
VERTEX
  5
18A
330
169
100
AcDbEntity
  8
Predefinito
100
AcDbVertex
100
AcDb2dVertex
 10
86.10398213909164
 20
385.4789452798332
 30
0.0
  0
VERTEX
  5
18B
330
169
100
AcDbEntity
  8
Predefinito
100
AcDbVertex
100
AcDb2dVertex
 10
87.19741686168055
 20
389.6278221617737
 30
0.0
  0
VERTEX
  5
18C
330
169
100
AcDbEntity
  8
Predefinito
100
AcDbVertex
100
AcDb2dVertex
 10
88.16351684498542
 20
393.8084878183148
 30
0.0
  0
VERTEX
  5
18D
330
169
100
AcDbEntity
  8
Predefinito
100
AcDbVertex
100
AcDb2dVertex
 10
89.18147117145548
 20
398.8972525852124
 30
0.0
  0
VERTEX
  5
18E
330
169
100
AcDbEntity
  8
Predefinito
100
AcDbVertex
100
AcDb2dVertex
 10
90.0529671489986
 20
404.012692739983
 30
0.0
  0
VERTEX
  5
18F
330
169
100
AcDbEntity
  8
Predefinito
100
AcDbVertex
100
AcDb2dVertex
 10
90.7971491114301
 20
409.1489660687062
 30
0.0
  0
VERTEX
  5
190
330
169
100
AcDbEntity
  8
Predefinito
100
AcDbVertex
100
AcDb2dVertex
 10
91.43316139256527
 20
414.3002303574613
 30
0.0
  0
VERTEX
  5
191
330
169
100
AcDbEntity
  8
Predefinito
100
AcDbVertex
100
AcDb2dVertex
 10
92.06331189504292
 20
420.3631281917523
 30
0.0
  0
VERTEX
  5
192
330
169
100
AcDbEntity
  8
Predefinito
100
AcDbVertex
100
AcDb2dVertex
 10
92.57401834996354
 20
426.4366577931777
 30
0.0
  0
VERTEX
  5
193
330
169
100
AcDbEntity
  8
Predefinito
100
AcDbVertex
100
AcDb2dVertex
 10
92.96865258853373
 20
432.5188296774526
 30
0.0
  0
VERTEX
  5
194
330
169
100
AcDbEntity
  8
Predefinito
100
AcDbVertex
100
AcDb2dVertex
 10
93.25058644196002
 20
438.607654360292
 30
0.0
  0
VERTEX
  5
195
330
169
100
AcDbEntity
  8
Predefinito
100
AcDbVertex
100
AcDb2dVertex
 10
93.4898403182072
 20
450.7973041845246
 30
0.0
  0
VERTEX
  5
196
330
169
100
AcDbEntity
  8
Predefinito
100
AcDbVertex
100
AcDb2dVertex
 10
93.31875462835762
 20
462.9896913915959
 30
0.0
  0
VERTEX
  5
197
330
169
100
AcDbEntity
  8
Predefinito
100
AcDbVertex
100
AcDb2dVertex
 10
92.79417790654294
 20
474.5723106054581
 30
0.0
  0
VERTEX
  5
198
330
169
100
AcDbEntity
  8
Predefinito
100
AcDbVertex
100
AcDb2dVertex
 10
91.91099120333479
 20
486.130951595947
 30
0.0
  0
VERTEX
  5
199
330
169
100
AcDbEntity
  8
Predefinito
100
AcDbVertex
100
AcDb2dVertex
 10
90.65726255325761
 20
497.6535534880683
 30
0.0
  0
VERTEX
  5
19A
330
169
100
AcDbEntity
  8
Predefinito
100
AcDbVertex
100
AcDb2dVertex
 10
89.02105999083591
 20
509.1280554068277
 30
0.0
  0
VERTEX
  5
19B
330
169
100
AcDbEntity
  8
Predefinito
100
AcDbVertex
100
AcDb2dVertex
 10
86.88467765963898
 20
521.1289557547034
 30
0.0
  0
VERTEX
  5
19C
330
169
100
AcDbEntity
  8
Predefinito
100
AcDbVertex
100
AcDb2dVertex
 10
84.35576892773005
 20
533.0570439366791
 30
0.0
  0
VERTEX
  5
19D
330
169
100
AcDbEntity
  8
Predefinito
100
AcDbVertex
100
AcDb2dVertex
 10
81.47783115197052
 20
544.9060168340934
 30
0.0
  0
VERTEX
  5
19E
330
169
100
AcDbEntity
  8
Predefinito
100
AcDbVertex
100
AcDb2dVertex
 10
78.29436168922173
 20
556.6695713282846
 30
0.0
  0
SEQEND
  5
19F
330
169
100
AcDbEntity
  8
Predefinito
  0
POLYLINE
  5
1A0
330
1F
100
AcDbEntity
  8
Linee visibili 2D
100
AcDb2dPolyline
 66
     1
 10
0.0
 20
0.0
 30
0.0
  0
VERTEX
  5
1A1
330
1A0
100
AcDbEntity
  8
Linee visibili 2D
100
AcDbVertex
100
AcDb2dVertex
 10
74.72142535018429
 20
267.9109048789124
 30
0.0
  0
VERTEX
  5
1A2
330
1A0
100
AcDbEntity
  8
Linee visibili 2D
100
AcDbVertex
100
AcDb2dVertex
 10
74.25955568978043
 20
268.0347195671679
 30
0.0
  0
VERTEX
  5
1A3
330
1A0
100
AcDbEntity
  8
Linee visibili 2D
100
AcDbVertex
100
AcDb2dVertex
 10
73.80036684342733
 20
268.1664766279506
 30
0.0
  0
VERTEX
  5
1A4
330
1A0
100
AcDbEntity
  8
Linee visibili 2D
100
AcDbVertex
100
AcDb2dVertex
 10
73.34394834483362
 20
268.3061339608917
 30
0.0
  0
VERTEX
  5
1A5
330
1A0
100
AcDbEntity
  8
Linee visibili 2D
100
AcDbVertex
100
AcDb2dVertex
 10
72.89038972770788
 20
268.4536494656226
 30
0.0
  0
VERTEX
  5
1A6
330
1A0
100
AcDbEntity
  8
Linee visibili 2D
100
AcDbVertex
100
AcDb2dVertex
 10
72.43978052575874
 20
268.6089810417742
 30
0.0
  0
VERTEX
  5
1A7
330
1A0
100
AcDbEntity
  8
Linee visibili 2D
100
AcDbVertex
100
AcDb2dVertex
 10
71.99221027269479
 20
268.7720865889779
 30
0.0
  0
VERTEX
  5
1A8
330
1A0
100
AcDbEntity
  8
Linee visibili 2D
100
AcDbVertex
100
AcDb2dVertex
 10
71.54776850222461
 20
268.9429240068648
 30
0.0
  0
VERTEX
  5
1A9
330
1A0
100
AcDbEntity
  8
Linee visibili 2D
100
AcDbVertex
100
AcDb2dVertex
 10
71.10654474805685
 20
269.1214511950661
 30
0.0
  0
VERTEX
  5
1AA
330
1A0
100
AcDbEntity
  8
Linee visibili 2D
100
AcDbVertex
100
AcDb2dVertex
 10
70.66862854390007
 20
269.3076260532131
 30
0.0
  0
VERTEX
  5
1AB
330
1A0
100
AcDbEntity
  8
Linee visibili 2D
100
AcDbVertex
100
AcDb2dVertex
 10
70.2341094234629
 20
269.5014064809368
 30
0.0
  0
VERTEX
  5
1AC
330
1A0
100
AcDbEntity
  8
Linee visibili 2D
100
AcDbVertex
100
AcDb2dVertex
 10
69.8030769204539
 20
269.7027503778685
 30
0.0
  0
VERTEX
  5
1AD
330
1A0
100
AcDbEntity
  8
Linee visibili 2D
100
AcDbVertex
100
AcDb2dVertex
 10
69.37562056858172
 20
269.9116156436394
 30
0.0
  0
VERTEX
  5
1AE
330
1A0
100
AcDbEntity
  8
Linee visibili 2D
100
AcDbVertex
100
AcDb2dVertex
 10
68.95182990155493
 20
270.1279601778808
 30
0.0
  0
VERTEX
  5
1AF
330
1A0
100
AcDbEntity
  8
Linee visibili 2D
100
AcDbVertex
100
AcDb2dVertex
 10
68.53179445308214
 20
270.3517418802236
 30
0.0
  0
VERTEX
  5
1B0
330
1A0
100
AcDbEntity
  8
Linee visibili 2D
100
AcDbVertex
100
AcDb2dVertex
 10
68.11560375687196
 20
270.5829186502992
 30
0.0
  0
VERTEX
  5
1B1
330
1A0
100
AcDbEntity
  8
Linee visibili 2D
100
AcDbVertex
100
AcDb2dVertex
 10
67.703347346633
 20
270.8214483877388
 30
0.0
  0
VERTEX
  5
1B2
330
1A0
100
AcDbEntity
  8
Linee visibili 2D
100
AcDbVertex
100
AcDb2dVertex
 10
67.28005029063769
 20
271.0765239396454
 30
0.0
  0
VERTEX
  5
1B3
330
1A0
100
AcDbEntity
  8
Linee visibili 2D
100
AcDbVertex
100
AcDb2dVertex
 10
66.8611629547902
 20
271.3392805490592
 30
0.0
  0
VERTEX
  5
1B4
330
1A0
100
AcDbEntity
  8
Linee visibili 2D
100
AcDbVertex
100
AcDb2dVertex
 10
66.03694506412727
 20
271.8871083893823
 30
0.0
  0
VERTEX
  5
1B5
330
1A0
100
AcDbEntity
  8
Linee visibili 2D
100
AcDbVertex
100
AcDb2dVertex
 10
65.2313489158212
 20
272.4634748066545
 30
0.0
  0
VERTEX
  5
1B6
330
1A0
100
AcDbEntity
  8
Linee visibili 2D
100
AcDbVertex
100
AcDb2dVertex
 10
64.44502975104899
 20
273.0669226988223
 30
0.0
  0
VERTEX
  5
1B7
330
1A0
100
AcDbEntity
  8
Linee visibili 2D
100
AcDbVertex
100
AcDb2dVertex
 10
63.67864281098769
 20
273.6959949638319
 30
0.0
  0
VERTEX
  5
1B8
330
1A0
100
AcDbEntity
  8
Linee visibili 2D
100
AcDbVertex
100
AcDb2dVertex
 10
62.93284333681429
 20
274.3492344996299
 30
0.0
  0
VERTEX
  5
1B9
330
1A0
100
AcDbEntity
  8
Linee visibili 2D
100
AcDbVertex
100
AcDb2dVertex
 10
62.20828656970579
 20
275.0251842041627
 30
0.0
  0
VERTEX
  5
1BA
330
1A0
100
AcDbEntity
  8
Linee visibili 2D
100
AcDbVertex
100
AcDb2dVertex
 10
61.50562775083923
 20
275.7223869753764
 30
0.0
  0
VERTEX
  5
1BB
330
1A0
100
AcDbEntity
  8
Linee visibili 2D
100
AcDbVertex
100
AcDb2dVertex
 10
60.75290936504121
 20
276.5184545365812
 30
0.0
  0
VERTEX
  5
1BC
330
1A0
100
AcDbEntity
  8
Linee visibili 2D
100
AcDbVertex
100
AcDb2dVertex
 10
60.02754771665195
 20
277.3377538675552
 30
0.0
  0
VERTEX
  5
1BD
330
1A0
100
AcDbEntity
  8
Linee visibili 2D
100
AcDbVertex
100
AcDb2dVertex
 10
59.32918701956861
 20
278.1791921902183
 30
0.0
  0
VERTEX
  5
1BE
330
1A0
100
AcDbEntity
  8
Linee visibili 2D
100
AcDbVertex
100
AcDb2dVertex
 10
58.65747148768837
 20
279.0416767264905
 30
0.0
  0
VERTEX
  5
1BF
330
1A0
100
AcDbEntity
  8
Linee visibili 2D
100
AcDbVertex
100
AcDb2dVertex
 10
58.01204533490839
 20
279.9241146982918
 30
0.0
  0
VERTEX
  5
1C0
330
1A0
100
AcDbEntity
  8
Linee visibili 2D
100
AcDbVertex
100
AcDb2dVertex
 10
57.39255277512586
 20
280.8254133275419
 30
0.0
  0
VERTEX
  5
1C1
330
1A0
100
AcDbEntity
  8
Linee visibili 2D
100
AcDbVertex
100
AcDb2dVertex
 10
56.79863802223794
 20
281.744479836161
 30
0.0
  0
VERTEX
  5
1C2
330
1A0
100
AcDbEntity
  8
Linee visibili 2D
100
AcDbVertex
100
AcDb2dVertex
 10
56.2299452901418
 20
282.680221446069
 30
0.0
  0
VERTEX
  5
1C3
330
1A0
100
AcDbEntity
  8
Linee visibili 2D
100
AcDbVertex
100
AcDb2dVertex
 10
55.68611879273462
 20
283.6315453791859
 30
0.0
  0
VERTEX
  5
1C4
330
1A0
100
AcDbEntity
  8
Linee visibili 2D
100
AcDbVertex
100
AcDb2dVertex
 10
55.16680274391356
 20
284.5973588574315
 30
0.0
  0
VERTEX
  5
1C5
330
1A0
100
AcDbEntity
  8
Linee visibili 2D
100
AcDbVertex
100
AcDb2dVertex
 10
54.67164135757582
 20
285.5765691027259
 30
0.0
  0
VERTEX
  5
1C6
330
1A0
100
AcDbEntity
  8
Linee visibili 2D
100
AcDbVertex
100
AcDb2dVertex
 10
54.20027884761853
 20
286.5680833369889
 30
0.0
  0
VERTEX
  5
1C7
330
1A0
100
AcDbEntity
  8
Linee visibili 2D
100
AcDbVertex
100
AcDb2dVertex
 10
53.7523594279389
 20
287.5708087821406
 30
0.0
  0
VERTEX
  5
1C8
330
1A0
100
AcDbEntity
  8
Linee visibili 2D
100
AcDbVertex
100
AcDb2dVertex
 10
53.32752731243407
 20
288.5836526601009
 30
0.0
  0
VERTEX
  5
1C9
330
1A0
100
AcDbEntity
  8
Linee visibili 2D
100
AcDbVertex
100
AcDb2dVertex
 10
52.92542671500124
 20
289.6055221927898
 30
0.0
  0
VERTEX
  5
1CA
330
1A0
100
AcDbEntity
  8
Linee visibili 2D
100
AcDbVertex
100
AcDb2dVertex
 10
52.54570184953756
 20
290.6353246021272
 30
0.0
  0
VERTEX
  5
1CB
330
1A0
100
AcDbEntity
  8
Linee visibili 2D
100
AcDbVertex
100
AcDb2dVertex
 10
52.13553281932965
 20
291.8302679909714
 30
0.0
  0
VERTEX
  5
1CC
330
1A0
100
AcDbEntity
  8
Linee visibili 2D
100
AcDbVertex
100
AcDb2dVertex
 10
51.75408620093756
 20
293.0337218725035
 30
0.0
  0
VERTEX
  5
1CD
330
1A0
100
AcDbEntity
  8
Linee visibili 2D
100
AcDbVertex
100
AcDb2dVertex
 10
51.40086081526216
 20
294.2451189585849
 30
0.0
  0
VERTEX
  5
1CE
330
1A0
100
AcDbEntity
  8
Linee visibili 2D
100
AcDbVertex
100
AcDb2dVertex
 10
51.0753554832044
 20
295.4638919610771
 30
0.0
  0
VERTEX
  5
1CF
330
1A0
100
AcDbEntity
  8
Linee visibili 2D
100
AcDbVertex
100
AcDb2dVertex
 10
50.7770690256652
 20
296.6894735918416
 30
0.0
  0
VERTEX
  5
1D0
330
1A0
100
AcDbEntity
  8
Linee visibili 2D
100
AcDbVertex
100
AcDb2dVertex
 10
50.50550026354544
 20
297.9212965627401
 30
0.0
  0
VERTEX
  5
1D1
330
1A0
100
AcDbEntity
  8
Linee visibili 2D
100
AcDbVertex
100
AcDb2dVertex
 10
50.26014801774608
 20
299.1587935856337
 30
0.0
  0
VERTEX
  5
1D2
330
1A0
100
AcDbEntity
  8
Linee visibili 2D
100
AcDbVertex
100
AcDb2dVertex
 10
50.040511109168
 20
300.4013973723843
 30
0.0
  0
VERTEX
  5
1D3
330
1A0
100
AcDbEntity
  8
Linee visibili 2D
100
AcDbVertex
100
AcDb2dVertex
 10
49.84608835871215
 20
301.6485406348531
 30
0.0
  0
VERTEX
  5
1D4
330
1A0
100
AcDbEntity
  8
Linee visibili 2D
100
AcDbVertex
100
AcDb2dVertex
 10
49.67637858727942
 20
302.8996560849018
 30
0.0
  0
VERTEX
  5
1D5
330
1A0
100
AcDbEntity
  8
Linee visibili 2D
100
AcDbVertex
100
AcDb2dVertex
 10
49.53088061577075
 20
304.1541764343918
 30
0.0
  0
VERTEX
  5
1D6
330
1A0
100
AcDbEntity
  8
Linee visibili 2D
100
AcDbVertex
100
AcDb2dVertex
 10
49.40909326508704
 20
305.4115343951847
 30
0.0
  0
VERTEX
  5
1D7
330
1A0
100
AcDbEntity
  8
Linee visibili 2D
100
AcDbVertex
100
AcDb2dVertex
 10
49.31051535612922
 20
306.671162679142
 30
0.0
  0
VERTEX
  5
1D8
330
1A0
100
AcDbEntity
  8
Linee visibili 2D
100
AcDbVertex
100
AcDb2dVertex
 10
49.2346457097982
 20
307.932493998125
 30
0.0
  0
VERTEX
  5
1D9
330
1A0
100
AcDbEntity
  8
Linee visibili 2D
100
AcDbVertex
100
AcDb2dVertex
 10
49.14902648862024
 20
310.4579965886148
 30
0.0
  0
VERTEX
  5
1DA
330
1A0
100
AcDbEntity
  8
Linee visibili 2D
100
AcDbVertex
100
AcDb2dVertex
 10
49.13839544006716
 20
311.832996204976
 30
0.0
  0
VERTEX
  5
1DB
330
1A0
100
AcDbEntity
  8
Linee visibili 2D
100
AcDbVertex
100
AcDb2dVertex
 10
49.15265330121878
 20
313.207643957665
 30
0.0
  0
VERTEX
  5
1DC
330
1A0
100
AcDbEntity
  8
Linee visibili 2D
100
AcDbVertex
100
AcDb2dVertex
 10
49.19155981981786
 20
314.5815865957499
 30
0.0
  0
VERTEX
  5
1DD
330
1A0
100
AcDbEntity
  8
Linee visibili 2D
100
AcDbVertex
100
AcDb2dVertex
 10
49.25487474360718
 20
315.9544708682988
 30
0.0
  0
VERTEX
  5
1DE
330
1A0
100
AcDbEntity
  8
Linee visibili 2D
100
AcDbVertex
100
AcDb2dVertex
 10
49.34235782032951
 20
317.3259435243801
 30
0.0
  0
VERTEX
  5
1DF
330
1A0
100
AcDbEntity
  8
Linee visibili 2D
100
AcDbVertex
100
AcDb2dVertex
 10
49.45376879772761
 20
318.6956513130619
 30
0.0
  0
VERTEX
  5
1E0
330
1A0
100
AcDbEntity
  8
Linee visibili 2D
100
AcDbVertex
100
AcDb2dVertex
 10
49.74741344552224
 20
321.4283592844999
 30
0.0
  0
VERTEX
  5
1E1
330
1A0
100
AcDbEntity
  8
Linee visibili 2D
100
AcDbVertex
100
AcDb2dVertex
 10
50.13388666893324
 20
324.1497687751583
 30
0.0
  0
VERTEX
  5
1E2
330
1A0
100
AcDbEntity
  8
Linee visibili 2D
100
AcDbVertex
100
AcDb2dVertex
 10
50.61126644990276
 20
326.8570537775827
 30
0.0
  0
VERTEX
  5
1E3
330
1A0
100
AcDbEntity
  8
Linee visibili 2D
100
AcDbVertex
100
AcDb2dVertex
 10
51.177630770373
 20
329.5473882843188
 30
0.0
  0
VERTEX
  5
1E4
330
1A0
100
AcDbEntity
  8
Linee visibili 2D
100
AcDbVertex
100
AcDb2dVertex
 10
51.83105761228612
 20
332.217946287912
 30
0.0
 42
-0.2229499207385421
  0
VERTEX
  5
1E5
330
1A0
100
AcDbEntity
  8
Linee visibili 2D
100
AcDbVertex
100
AcDb2dVertex
 10
85.33155372086986
 20
376.2818802819644
 30
0.0
  0
SEQEND
  5
1E6
330
1A0
100
AcDbEntity
  8
Linee visibili 2D
  0
POLYLINE
  5
1E7
330
1F
100
AcDbEntity
  8
Linee visibili 2D
100
AcDb2dPolyline
 66
     1
 10
0.0
 20
0.0
 30
0.0
  0
VERTEX
  5
1E8
330
1E7
100
AcDbEntity
  8
Linee visibili 2D
100
AcDbVertex
100
AcDb2dVertex
 10
669.9153000702673
 20
50.77918967843416
 30
0.0
 42
-0.112015080731128
  0
VERTEX
  5
1E9
330
1E7
100
AcDbEntity
  8
Linee visibili 2D
100
AcDbVertex
100
AcDb2dVertex
 10
595.8825661526544
 20
51.35129776149086
 30
0.0
  0
VERTEX
  5
1EA
330
1E7
100
AcDbEntity
  8
Linee visibili 2D
100
AcDbVertex
100
AcDb2dVertex
 10
591.3058713284677
 20
52.60325510331482
 30
0.0
  0
VERTEX
  5
1EB
330
1E7
100
AcDbEntity
  8
Linee visibili 2D
100
AcDbVertex
100
AcDb2dVertex
 10
581.8353875920867
 20
55.76051030972383
 30
0.0
  0
VERTEX
  5
1EC
330
1E7
100
AcDbEntity
  8
Linee visibili 2D
100
AcDbVertex
100
AcDb2dVertex
 10
581.639205590573
 20
55.83433564777731
 30
0.0
  0
VERTEX
  5
1ED
330
1E7
100
AcDbEntity
  8
Linee visibili 2D
100
AcDbVertex
100
AcDb2dVertex
 10
569.9714081867057
 20
60.87962059086205
 30
0.0
  0
VERTEX
  5
1EE
330
1E7
100
AcDbEntity
  8
Linee visibili 2D
100
AcDbVertex
100
AcDb2dVertex
 10
569.9545924769031
 20
60.88785313296125
 30
0.0
  0
VERTEX
  5
1EF
330
1E7
100
AcDbEntity
  8
Linee visibili 2D
100
AcDbVertex
100
AcDb2dVertex
 10
565.0927954969779
 20
63.38935197857754
 30
0.0
  0
VERTEX
  5
1F0
330
1E7
100
AcDbEntity
  8
Linee visibili 2D
100
AcDbVertex
100
AcDb2dVertex
 10
564.6614399690229
 20
63.62311449456793
 30
0.0
  0
VERTEX
  5
1F1
330
1E7
100
AcDbEntity
  8
Linee visibili 2D
100
AcDbVertex
100
AcDb2dVertex
 10
552.5355664356553
 20
71.0138698950176
 30
0.0
  0
VERTEX
  5
1F2
330
1E7
100
AcDbEntity
  8
Linee visibili 2D
100
AcDbVertex
100
AcDb2dVertex
 10
552.4890533041059
 20
71.04533567718444
 30
0.0
  0
VERTEX
  5
1F3
330
1E7
100
AcDbEntity
  8
Linee visibili 2D
100
AcDbVertex
100
AcDb2dVertex
 10
540.7907344847597
 20
79.73364132455879
 30
0.0
  0
VERTEX
  5
1F4
330
1E7
100
AcDbEntity
  8
Linee visibili 2D
100
AcDbVertex
100
AcDb2dVertex
 10
540.7171508732312
 20
79.7931797155129
 30
0.0
  0
VERTEX
  5
1F5
330
1E7
100
AcDbEntity
  8
Linee visibili 2D
100
AcDbVertex
100
AcDb2dVertex
 10
525.4200953684253
 20
93.45437972500179
 30
0.0
  0
VERTEX
  5
1F6
330
1E7
100
AcDbEntity
  8
Linee visibili 2D
100
AcDbVertex
100
AcDb2dVertex
 10
525.0066981856106
 20
93.85748917926671
 30
0.0
  0
VERTEX
  5
1F7
330
1E7
100
AcDbEntity
  8
Linee visibili 2D
100
AcDbVertex
100
AcDb2dVertex
 10
512.0132462860023
 20
107.3164580068137
 30
0.0
  0
VERTEX
  5
1F8
330
1E7
100
AcDbEntity
  8
Linee visibili 2D
100
AcDbVertex
100
AcDb2dVertex
 10
511.2471680290342
 20
108.1527642073515
 30
0.0
  0
VERTEX
  5
1F9
330
1E7
100
AcDbEntity
  8
Linee visibili 2D
100
AcDbVertex
100
AcDb2dVertex
 10
493.2305379693426
 20
128.7492263879047
 30
0.0
  0
VERTEX
  5
1FA
330
1E7
100
AcDbEntity
  8
Linee visibili 2D
100
AcDbVertex
100
AcDb2dVertex
 10
467.2456810827208
 20
158.8963632602398
 30
0.0
  0
VERTEX
  5
1FB
330
1E7
100
AcDbEntity
  8
Linee visibili 2D
100
AcDbVertex
100
AcDb2dVertex
 10
458.8930681007281
 20
167.8418589207881
 30
0.0
  0
VERTEX
  5
1FC
330
1E7
100
AcDbEntity
  8
Linee visibili 2D
100
AcDbVertex
100
AcDb2dVertex
 10
453.7100445199975
 20
173.0218291678014
 30
0.0
  0
VERTEX
  5
1FD
330
1E7
100
AcDbEntity
  8
Linee visibili 2D
100
AcDbVertex
100
AcDb2dVertex
 10
450.9138623323388
 20
175.6332615541301
 30
0.0
  0
VERTEX
  5
1FE
330
1E7
100
AcDbEntity
  8
Linee visibili 2D
100
AcDbVertex
100
AcDb2dVertex
 10
450.2305606864331
 20
176.2339697057732
 30
0.0
  0
VERTEX
  5
1FF
330
1E7
100
AcDbEntity
  8
Linee visibili 2D
100
AcDbVertex
100
AcDb2dVertex
 10
450.2380781161535
 20
176.2276955449348
 30
0.0
  0
VERTEX
  5
200
330
1E7
100
AcDbEntity
  8
Linee visibili 2D
100
AcDbVertex
100
AcDb2dVertex
 10
450.240380262721
 20
176.225765861033
 30
0.0
  0
VERTEX
  5
201
330
1E7
100
AcDbEntity
  8
Linee visibili 2D
100
AcDbVertex
100
AcDb2dVertex
 10
450.2403826422433
 20
176.2257637741972
 30
0.0
  0
VERTEX
  5
202
330
1E7
100
AcDbEntity
  8
Linee visibili 2D
100
AcDbVertex
100
AcDb2dVertex
 10
450.2403839881806
 20
176.2257625508836
 30
0.0
  0
VERTEX
  5
203
330
1E7
100
AcDbEntity
  8
Linee visibili 2D
100
AcDbVertex
100
AcDb2dVertex
 10
450.2403835792995
 20
176.2257626948235
 30
0.0
  0
VERTEX
  5
204
330
1E7
100
AcDbEntity
  8
Linee visibili 2D
100
AcDbVertex
100
AcDb2dVertex
 10
450.2403790360779
 20
176.2257662928525
 30
0.0
  0
VERTEX
  5
205
330
1E7
100
AcDbEntity
  8
Linee visibili 2D
100
AcDbVertex
100
AcDb2dVertex
 10
450.2403703585155
 20
176.2257733449709
 30
0.0
  0
VERTEX
  5
206
330
1E7
100
AcDbEntity
  8
Linee visibili 2D
100
AcDbVertex
100
AcDb2dVertex
 10
450.2402943048596
 20
176.2258360943366
 30
0.0
  0
VERTEX
  5
207
330
1E7
100
AcDbEntity
  8
Linee visibili 2D
100
AcDbVertex
100
AcDb2dVertex
 10
450.239943749197
 20
176.2261273893519
 30
0.0
  0
VERTEX
  5
208
330
1E7
100
AcDbEntity
  8
Linee visibili 2D
100
AcDbVertex
100
AcDb2dVertex
 10
450.2384488444678
 20
176.2273731645172
 30
0.0
  0
VERTEX
  5
209
330
1E7
100
AcDbEntity
  8
Linee visibili 2D
100
AcDbVertex
100
AcDb2dVertex
 10
450.2519194091171
 20
176.2161663582278
 30
0.0
  0
SEQEND
  5
20A
330
1E7
100
AcDbEntity
  8
Linee visibili 2D
  0
POLYLINE
  5
20B
330
1F
100
AcDbEntity
  8
Linee visibili 2D
100
AcDb2dPolyline
 66
     1
 10
0.0
 20
0.0
 30
0.0
  0
VERTEX
  5
20C
330
20B
100
AcDbEntity
  8
Linee visibili 2D
100
AcDbVertex
100
AcDb2dVertex
 10
775.8432317913455
 20
201.5845501526587
 30
0.0
  0
VERTEX
  5
20D
330
20B
100
AcDbEntity
  8
Linee visibili 2D
100
AcDbVertex
100
AcDb2dVertex
 10
778.3046616160372
 20
202.3242349525273
 30
0.0
  0
VERTEX
  5
20E
330
20B
100
AcDbEntity
  8
Linee visibili 2D
100
AcDbVertex
100
AcDb2dVertex
 10
835.197550877923
 20
221.7966596572914
 30
0.0
  0
VERTEX
  5
20F
330
20B
100
AcDbEntity
  8
Linee visibili 2D
100
AcDbVertex
100
AcDb2dVertex
 10
846.7244671240236
 20
225.2556408556865
 30
0.0
  0
VERTEX
  5
210
330
20B
100
AcDbEntity
  8
Linee visibili 2D
100
AcDbVertex
100
AcDb2dVertex
 10
858.0609931072473
 20
228.3381688178213
 30
0.0
  0
VERTEX
  5
211
330
20B
100
AcDbEntity
  8
Linee visibili 2D
100
AcDbVertex
100
AcDb2dVertex
 10
863.7626061774125
 20
229.7481256026815
 30
0.0
  0
VERTEX
  5
212
330
20B
100
AcDbEntity
  8
Linee visibili 2D
100
AcDbVertex
100
AcDb2dVertex
 10
869.4870239212682
 20
231.0575768112036
 30
0.0
  0
VERTEX
  5
213
330
20B
100
AcDbEntity
  8
Linee visibili 2D
100
AcDbVertex
100
AcDb2dVertex
 10
875.2346748048055
 20
232.2567968592377
 30
0.0
  0
VERTEX
  5
214
330
20B
100
AcDbEntity
  8
Linee visibili 2D
100
AcDbVertex
100
AcDb2dVertex
 10
881.0059872940155
 20
233.336060162634
 30
0.0
  0
VERTEX
  5
215
330
20B
100
AcDbEntity
  8
Linee visibili 2D
100
AcDbVertex
100
AcDb2dVertex
 10
886.8013898548892
 20
234.2856411372424
 30
0.0
  0
VERTEX
  5
216
330
20B
100
AcDbEntity
  8
Linee visibili 2D
100
AcDbVertex
100
AcDb2dVertex
 10
892.621310953418
 20
235.0958141989132
 30
0.0
  0
VERTEX
  5
217
330
20B
100
AcDbEntity
  8
Linee visibili 2D
100
AcDbVertex
100
AcDb2dVertex
 10
898.4507791855393
 20
235.7541448634542
 30
0.0
  0
VERTEX
  5
218
330
20B
100
AcDbEntity
  8
Linee visibili 2D
100
AcDbVertex
100
AcDb2dVertex
 10
904.2959441473516
 20
236.2452021094474
 30
0.0
  0
VERTEX
  5
219
330
20B
100
AcDbEntity
  8
Linee visibili 2D
100
AcDbVertex
100
AcDb2dVertex
 10
910.1525939392641
 20
236.5631449728426
 30
0.0
  0
VERTEX
  5
21A
330
20B
100
AcDbEntity
  8
Linee visibili 2D
100
AcDbVertex
100
AcDb2dVertex
 10
916.0165166616861
 20
236.7021324895896
 30
0.0
  0
VERTEX
  5
21B
330
20B
100
AcDbEntity
  8
Linee visibili 2D
100
AcDbVertex
100
AcDb2dVertex
 10
921.5979279666182
 20
236.6626113235095
 30
0.0
  0
VERTEX
  5
21C
330
20B
100
AcDbEntity
  8
Linee visibili 2D
100
AcDbVertex
100
AcDb2dVertex
 10
927.1754408509723
 20
236.4490020498174
 30
0.0
  0
VERTEX
  5
21D
330
20B
100
AcDbEntity
  8
Linee visibili 2D
100
AcDbVertex
100
AcDb2dVertex
 10
932.7423860886106
 20
236.0544917890034
 30
0.0
  0
VERTEX
  5
21E
330
20B
100
AcDbEntity
  8
Linee visibili 2D
100
AcDbVertex
100
AcDb2dVertex
 10
938.2920944533947
 20
235.4722676615575
 30
0.0
  0
VERTEX
  5
21F
330
20B
100
AcDbEntity
  8
Linee visibili 2D
100
AcDbVertex
100
AcDb2dVertex
 10
943.7749511474624
 20
234.7041177941579
 30
0.0
  0
VERTEX
  5
220
330
20B
100
AcDbEntity
  8
Linee visibili 2D
100
AcDbVertex
100
AcDb2dVertex
 10
949.2286991253995
 20
233.7483448714434
 30
0.0
  0
VERTEX
  5
221
330
20B
100
AcDbEntity
  8
Linee visibili 2D
100
AcDbVertex
100
AcDb2dVertex
 10
954.6477633387833
 20
232.6088220669672
 30
0.0
  0
VERTEX
  5
222
330
20B
100
AcDbEntity
  8
Linee visibili 2D
100
AcDbVertex
100
AcDb2dVertex
 10
960.0265687391909
 20
231.2894225542822
 30
0.0
  0
VERTEX
  5
223
330
20B
100
AcDbEntity
  8
Linee visibili 2D
100
AcDbVertex
100
AcDb2dVertex
 10
965.3595402781991
 20
229.7940195069417
 30
0.0
  0
VERTEX
  5
224
330
20B
100
AcDbEntity
  8
Linee visibili 2D
100
AcDbVertex
100
AcDb2dVertex
 10
970.6411029073852
 20
228.1264860984986
 30
0.0
  0
VERTEX
  5
225
330
20B
100
AcDbEntity
  8
Linee visibili 2D
100
AcDbVertex
100
AcDb2dVertex
 10
975.8656815783261
 20
226.290695502506
 30
0.0
  0
VERTEX
  5
226
330
20B
100
AcDbEntity
  8
Linee visibili 2D
100
AcDbVertex
100
AcDb2dVertex
 10
981.0277012425988
 20
224.290520892517
 30
0.0
  0
VERTEX
  5
227
330
20B
100
AcDbEntity
  8
Linee visibili 2D
100
AcDbVertex
100
AcDb2dVertex
 10
985.716478116691
 20
222.3099698000865
 30
0.0
  0
VERTEX
  5
228
330
20B
100
AcDbEntity
  8
Linee visibili 2D
100
AcDbVertex
100
AcDb2dVertex
 10
990.3491315020701
 20
220.2022320157757
 30
0.0
  0
VERTEX
  5
229
330
20B
100
AcDbEntity
  8
Linee visibili 2D
100
AcDbVertex
100
AcDb2dVertex
 10
994.9271765718277
 20
217.975906543064
 30
0.0
  0
VERTEX
  5
22A
330
20B
100
AcDbEntity
  8
Linee visibili 2D
100
AcDbVertex
100
AcDb2dVertex
 10
999.4521284990551
 20
215.6395923854311
 30
0.0
  0
VERTEX
  5
22B
330
20B
100
AcDbEntity
  8
Linee visibili 2D
100
AcDbVertex
100
AcDb2dVertex
 10
1003.925502456844
 20
213.2018885463565
 30
0.0
  0
VERTEX
  5
22C
330
20B
100
AcDbEntity
  8
Linee visibili 2D
100
AcDbVertex
100
AcDb2dVertex
 10
1008.348813618285
 20
210.6713940293197
 30
0.0
  0
VERTEX
  5
22D
330
20B
100
AcDbEntity
  8
Linee visibili 2D
100
AcDbVertex
100
AcDb2dVertex
 10
1012.723577156469
 20
208.0567078378003
 30
0.0
  0
VERTEX
  5
22E
330
20B
100
AcDbEntity
  8
Linee visibili 2D
100
AcDbVertex
100
AcDb2dVertex
 10
1017.05130824449
 20
205.3664289752779
 30
0.0
  0
VERTEX
  5
22F
330
20B
100
AcDbEntity
  8
Linee visibili 2D
100
AcDbVertex
100
AcDb2dVertex
 10
1025.677646420411
 20
199.7224160880635
 30
0.0
  0
VERTEX
  5
230
330
20B
100
AcDbEntity
  8
Linee visibili 2D
100
AcDbVertex
100
AcDb2dVertex
 10
1070.076662344656
 20
167.9164820938819
 30
0.0
  0
VERTEX
  5
231
330
20B
100
AcDbEntity
  8
Linee visibili 2D
100
AcDbVertex
100
AcDb2dVertex
 10
1078.369946634925
 20
162.3641111286623
 30
0.0
  0
VERTEX
  5
232
330
20B
100
AcDbEntity
  8
Linee visibili 2D
100
AcDbVertex
100
AcDb2dVertex
 10
1082.590617657024
 20
159.703961482767
 30
0.0
  0
VERTEX
  5
233
330
20B
100
AcDbEntity
  8
Linee visibili 2D
100
AcDbVertex
100
AcDb2dVertex
 10
1086.87311714898
 20
157.1447138859573
 30
0.0
  0
VERTEX
  5
234
330
20B
100
AcDbEntity
  8
Linee visibili 2D
100
AcDbVertex
100
AcDb2dVertex
 10
1091.38758358292
 20
154.6134536017919
 30
0.0
  0
VERTEX
  5
235
330
20B
100
AcDbEntity
  8
Linee visibili 2D
100
AcDbVertex
100
AcDb2dVertex
 10
1095.974944475684
 20
152.2145972164865
 30
0.0
  0
VERTEX
  5
236
330
20B
100
AcDbEntity
  8
Linee visibili 2D
100
AcDbVertex
100
AcDb2dVertex
 10
1100.631524924176
 20
149.9530208390335
 30
0.0
  0
VERTEX
  5
237
330
20B
100
AcDbEntity
  8
Linee visibili 2D
100
AcDbVertex
100
AcDb2dVertex
 10
1105.353650025301
 20
147.8336005784257
 30
0.0
  0
VERTEX
  5
238
330
20B
100
AcDbEntity
  8
Linee visibili 2D
100
AcDbVertex
100
AcDb2dVertex
 10
1110.269775280645
 20
145.8072072715004
 30
0.0
  0
VERTEX
  5
239
330
20B
100
AcDbEntity
  8
Linee visibili 2D
100
AcDbVertex
100
AcDb2dVertex
 10
1115.244822767444
 20
143.9303275464552
 30
0.0
  0
VERTEX
  5
23A
330
20B
100
AcDbEntity
  8
Linee visibili 2D
100
AcDbVertex
100
AcDb2dVertex
 10
1120.272391808431
 20
142.1972363953954
 30
0.0
  0
VERTEX
  5
23B
330
20B
100
AcDbEntity
  8
Linee visibili 2D
100
AcDbVertex
100
AcDb2dVertex
 10
1125.346081726338
 20
140.6022088104261
 30
0.0
  0
SEQEND
  5
23C
330
20B
100
AcDbEntity
  8
Linee visibili 2D
  0
POLYLINE
  5
23D
330
1F
100
AcDbEntity
  8
Predefinito
100
AcDb2dPolyline
 66
     1
 10
0.0
 20
0.0
 30
0.0
  0
VERTEX
  5
23E
330
23D
100
AcDbEntity
  8
Predefinito
100
AcDbVertex
100
AcDb2dVertex
 10
102.6249576458242
 20
378.1896541673977
 30
0.0
  0
VERTEX
  5
23F
330
23D
100
AcDbEntity
  8
Predefinito
100
AcDbVertex
100
AcDb2dVertex
 10
103.0107683421127
 20
378.1128528022336
 30
0.0
  0
VERTEX
  5
240
330
23D
100
AcDbEntity
  8
Predefinito
100
AcDbVertex
100
AcDb2dVertex
 10
103.3986821975509
 20
378.0464275595853
 30
0.0
  0
VERTEX
  5
241
330
23D
100
AcDbEntity
  8
Predefinito
100
AcDbVertex
100
AcDb2dVertex
 10
103.7884123535737
 20
377.9903026987672
 30
0.0
  0
VERTEX
  5
242
330
23D
100
AcDbEntity
  8
Predefinito
100
AcDbVertex
100
AcDb2dVertex
 10
104.179671951616
 20
377.9444024790939
 30
0.0
  0
VERTEX
  5
243
330
23D
100
AcDbEntity
  8
Predefinito
100
AcDbVertex
100
AcDb2dVertex
 10
104.5721741331124
 20
377.90865115988
 30
0.0
  0
VERTEX
  5
244
330
23D
100
AcDbEntity
  8
Predefinito
100
AcDbVertex
100
AcDb2dVertex
 10
104.965632039498
 20
377.88297300044
 30
0.0
  0
VERTEX
  5
245
330
23D
100
AcDbEntity
  8
Predefinito
100
AcDbVertex
100
AcDb2dVertex
 10
105.3597588122076
 20
377.8672922600883
 30
0.0
  0
VERTEX
  5
246
330
23D
100
AcDbEntity
  8
Predefinito
100
AcDbVertex
100
AcDb2dVertex
 10
105.7542675926761
 20
377.8615331981397
 30
0.0
  0
VERTEX
  5
247
330
23D
100
AcDbEntity
  8
Predefinito
100
AcDbVertex
100
AcDb2dVertex
 10
106.1488715223382
 20
377.8656200739086
 30
0.0
  0
VERTEX
  5
248
330
23D
100
AcDbEntity
  8
Predefinito
100
AcDbVertex
100
AcDb2dVertex
 10
106.5432837426289
 20
377.8794771467096
 30
0.0
  0
VERTEX
  5
249
330
23D
100
AcDbEntity
  8
Predefinito
100
AcDbVertex
100
AcDb2dVertex
 10
106.937217394983
 20
377.9030286758572
 30
0.0
  0
VERTEX
  5
24A
330
23D
100
AcDbEntity
  8
Predefinito
100
AcDbVertex
100
AcDb2dVertex
 10
107.3303856208354
 20
377.9361989206658
 30
0.0
  0
VERTEX
  5
24B
330
23D
100
AcDbEntity
  8
Predefinito
100
AcDbVertex
100
AcDb2dVertex
 10
107.7225015616209
 20
377.9789121404501
 30
0.0
  0
VERTEX
  5
24C
330
23D
100
AcDbEntity
  8
Predefinito
100
AcDbVertex
100
AcDb2dVertex
 10
108.1132783587744
 20
378.0310925945246
 30
0.0
  0
VERTEX
  5
24D
330
23D
100
AcDbEntity
  8
Predefinito
100
AcDbVertex
100
AcDb2dVertex
 10
108.5024291537307
 20
378.0926645422038
 30
0.0
  0
VERTEX
  5
24E
330
23D
100
AcDbEntity
  8
Predefinito
100
AcDbVertex
100
AcDb2dVertex
 10
108.8896670879247
 20
378.1635522428023
 30
0.0
  0
VERTEX
  5
24F
330
23D
100
AcDbEntity
  8
Predefinito
100
AcDbVertex
100
AcDb2dVertex
 10
109.3241604635622
 20
378.254608187633
 30
0.0
  0
VERTEX
  5
250
330
23D
100
AcDbEntity
  8
Predefinito
100
AcDbVertex
100
AcDb2dVertex
 10
109.7558293358532
 20
378.3570049645646
 30
0.0
  0
VERTEX
  5
251
330
23D
100
AcDbEntity
  8
Predefinito
100
AcDbVertex
100
AcDb2dVertex
 10
110.1846516962317
 20
378.4703114101838
 30
0.0
  0
VERTEX
  5
252
330
23D
100
AcDbEntity
  8
Predefinito
100
AcDbVertex
100
AcDb2dVertex
 10
110.6106055361314
 20
378.5940963610775
 30
0.0
  0
VERTEX
  5
253
330
23D
100
AcDbEntity
  8
Predefinito
100
AcDbVertex
100
AcDb2dVertex
 10
111.0336688469863
 20
378.7279286538324
 30
0.0
  0
VERTEX
  5
254
330
23D
100
AcDbEntity
  8
Predefinito
100
AcDbVertex
100
AcDb2dVertex
 10
111.4538196202302
 20
378.8713771250355
 30
0.0
  0
VERTEX
  5
255
330
23D
100
AcDbEntity
  8
Predefinito
100
AcDbVertex
100
AcDb2dVertex
 10
111.871035847297
 20
379.0240106112733
 30
0.0
  0
VERTEX
  5
256
330
23D
100
AcDbEntity
  8
Predefinito
100
AcDbVertex
100
AcDb2dVertex
 10
112.2852955196204
 20
379.1853979491329
 30
0.0
  0
VERTEX
  5
257
330
23D
100
AcDbEntity
  8
Predefinito
100
AcDbVertex
100
AcDb2dVertex
 10
112.6965766286344
 20
379.355107975201
 30
0.0
  0
VERTEX
  5
258
330
23D
100
AcDbEntity
  8
Predefinito
100
AcDbVertex
100
AcDb2dVertex
 10
113.1048571657728
 20
379.5327095260643
 30
0.0
  0
VERTEX
  5
259
330
23D
100
AcDbEntity
  8
Predefinito
100
AcDbVertex
100
AcDb2dVertex
 10
113.9123284901582
 20
379.9098625485241
 30
0.0
  0
VERTEX
  5
25A
330
23D
100
AcDbEntity
  8
Predefinito
100
AcDbVertex
100
AcDb2dVertex
 10
114.7075334242473
 20
380.3134077092068
 30
0.0
  0
VERTEX
  5
25B
330
23D
100
AcDbEntity
  8
Predefinito
100
AcDbVertex
100
AcDb2dVertex
 10
115.4902958995111
 20
380.7398957008066
 30
0.0
  0
VERTEX
  5
25C
330
23D
100
AcDbEntity
  8
Predefinito
100
AcDbVertex
100
AcDb2dVertex
 10
116.4754262612011
 20
381.3154714282941
 30
0.0
  0
VERTEX
  5
25D
330
23D
100
AcDbEntity
  8
Predefinito
100
AcDbVertex
100
AcDb2dVertex
 10
117.440821192747
 20
381.9209052428304
 30
0.0
  0
VERTEX
  5
25E
330
23D
100
AcDbEntity
  8
Predefinito
100
AcDbVertex
100
AcDb2dVertex
 10
118.387479127225
 20
382.5540248652508
 30
0.0
  0
VERTEX
  5
25F
330
23D
100
AcDbEntity
  8
Predefinito
100
AcDbVertex
100
AcDb2dVertex
 10
119.3163984977113
 20
383.2126580163905
 30
0.0
  0
VERTEX
  5
260
330
23D
100
AcDbEntity
  8
Predefinito
100
AcDbVertex
100
AcDb2dVertex
 10
120.2285777372822
 20
383.8946324170843
 30
0.0
  0
VERTEX
  5
261
330
23D
100
AcDbEntity
  8
Predefinito
100
AcDbVertex
100
AcDb2dVertex
 10
121.1250152790139
 20
384.5977757881675
 30
0.0
  0
VERTEX
  5
262
330
23D
100
AcDbEntity
  8
Predefinito
100
AcDbVertex
100
AcDb2dVertex
 10
122.0067095559827
 20
385.3199158504752
 30
0.0
  0
VERTEX
  5
263
330
23D
100
AcDbEntity
  8
Predefinito
100
AcDbVertex
100
AcDb2dVertex
 10
122.8746590012646
 20
386.0588803248424
 30
0.0
  0
VERTEX
  5
264
330
23D
100
AcDbEntity
  8
Predefinito
100
AcDbVertex
100
AcDb2dVertex
 10
123.9350376566106
 20
386.997430885431
 30
0.0
  0
VERTEX
  5
265
330
23D
100
AcDbEntity
  8
Predefinito
100
AcDbVertex
100
AcDb2dVertex
 10
124.9766681332048
 20
387.9570287759316
 30
0.0
  0
VERTEX
  5
266
330
23D
100
AcDbEntity
  8
Predefinito
100
AcDbVertex
100
AcDb2dVertex
 10
127.0073681216882
 20
389.9331165633007
 30
0.0
  0
VERTEX
  5
267
330
23D
100
AcDbEntity
  8
Predefinito
100
AcDbVertex
100
AcDb2dVertex
 10
128.9741261098153
 20
391.9746437202143
 30
0.0
  0
VERTEX
  5
268
330
23D
100
AcDbEntity
  8
Predefinito
100
AcDbVertex
100
AcDb2dVertex
 10
130.8843092406865
 20
394.0691102799366
 30
0.0
  0
VERTEX
  5
269
330
23D
100
AcDbEntity
  8
Predefinito
100
AcDbVertex
100
AcDb2dVertex
 10
132.7670901259964
 20
396.2317129355447
 30
0.0
  0
VERTEX
  5
26A
330
23D
100
AcDbEntity
  8
Predefinito
100
AcDbVertex
100
AcDb2dVertex
 10
134.6037194447664
 20
398.4319360284851
 30
0.0
  0
VERTEX
  5
26B
330
23D
100
AcDbEntity
  8
Predefinito
100
AcDbVertex
100
AcDb2dVertex
 10
138.1555664988944
 20
402.9300076143971
 30
0.0
  0
VERTEX
  5
26C
330
23D
100
AcDbEntity
  8
Predefinito
100
AcDbVertex
100
AcDb2dVertex
 10
141.5739366354867
 20
407.5328532137418
 30
0.0
  0
VERTEX
  5
26D
330
23D
100
AcDbEntity
  8
Predefinito
100
AcDbVertex
100
AcDb2dVertex
 10
144.8929160869591
 20
412.2100010025883
 30
0.0
  0
VERTEX
  5
26E
330
23D
100
AcDbEntity
  8
Predefinito
100
AcDbVertex
100
AcDb2dVertex
 10
174.5999875327216
 20
456.7677045669543
 30
0.0
  0
VERTEX
  5
26F
330
23D
100
AcDbEntity
  8
Predefinito
100
AcDbVertex
100
AcDb2dVertex
 10
179.0484561022879
 20
462.9935327835289
 30
0.0
  0
VERTEX
  5
270
330
23D
100
AcDbEntity
  8
Predefinito
100
AcDbVertex
100
AcDb2dVertex
 10
183.309864928154
 20
468.6692300713623
 30
0.0
  0
VERTEX
  5
271
330
23D
100
AcDbEntity
  8
Predefinito
100
AcDbVertex
100
AcDb2dVertex
 10
185.5025583785594
 20
471.4589155656341
 30
0.0
  0
VERTEX
  5
272
330
23D
100
AcDbEntity
  8
Predefinito
100
AcDbVertex
100
AcDb2dVertex
 10
187.7435785776099
 20
474.2084497660993
 30
0.0
  0
VERTEX
  5
273
330
23D
100
AcDbEntity
  8
Predefinito
100
AcDbVertex
100
AcDb2dVertex
 10
190.0381760680531
 20
476.9118007772257
 30
0.0
  0
VERTEX
  5
274
330
23D
100
AcDbEntity
  8
Predefinito
100
AcDbVertex
100
AcDb2dVertex
 10
192.3916013926366
 20
479.5629367034807
 30
0.0
  0
VERTEX
  5
275
330
23D
100
AcDbEntity
  8
Predefinito
100
AcDbVertex
100
AcDb2dVertex
 10
194.809105094108
 20
482.1558256493319
 30
0.0
  0
VERTEX
  5
276
330
23D
100
AcDbEntity
  8
Predefinito
100
AcDbVertex
100
AcDb2dVertex
 10
197.295937715215
 20
484.6844357192471
 30
0.0
  0
VERTEX
  5
277
330
23D
100
AcDbEntity
  8
Predefinito
100
AcDbVertex
100
AcDb2dVertex
 10
199.1152772594502
 20
486.4449715732924
 30
0.0
  0
VERTEX
  5
278
330
23D
100
AcDbEntity
  8
Predefinito
100
AcDbVertex
100
AcDb2dVertex
 10
200.9747574717072
 20
488.1635076913866
 30
0.0
  0
VERTEX
  5
279
330
23D
100
AcDbEntity
  8
Predefinito
100
AcDbVertex
100
AcDb2dVertex
 10
202.8765662121316
 20
489.8338248475998
 30
0.0
  0
VERTEX
  5
27A
330
23D
100
AcDbEntity
  8
Predefinito
100
AcDbVertex
100
AcDb2dVertex
 10
204.8228913408689
 20
491.449703816002
 30
0.0
  0
VERTEX
  5
27B
330
23D
100
AcDbEntity
  8
Predefinito
100
AcDbVertex
100
AcDb2dVertex
 10
206.8159207180646
 20
493.0049253706634
 30
0.0
  0
VERTEX
  5
27C
330
23D
100
AcDbEntity
  8
Predefinito
100
AcDbVertex
100
AcDb2dVertex
 10
208.8578422038644
 20
494.493270285654
 30
0.0
  0
VERTEX
  5
27D
330
23D
100
AcDbEntity
  8
Predefinito
100
AcDbVertex
100
AcDb2dVertex
 10
209.8978211937863
 20
495.2104204951697
 30
0.0
  0
VERTEX
  5
27E
330
23D
100
AcDbEntity
  8
Predefinito
100
AcDbVertex
100
AcDb2dVertex
 10
210.9508436584137
 20
495.9085193350439
 30
0.0
  0
VERTEX
  5
27F
330
23D
100
AcDbEntity
  8
Predefinito
100
AcDbVertex
100
AcDb2dVertex
 10
212.0171830802649
 20
496.5867894020355
 30
0.0
  0
VERTEX
  5
280
330
23D
100
AcDbEntity
  8
Predefinito
100
AcDbVertex
100
AcDb2dVertex
 10
213.0971129418581
 20
497.2444532929033
 30
0.0
  0
VERTEX
  5
281
330
23D
100
AcDbEntity
  8
Predefinito
100
AcDbVertex
100
AcDb2dVertex
 10
214.0481762800706
 20
497.7994457279718
 30
0.0
  0
VERTEX
  5
282
330
23D
100
AcDbEntity
  8
Predefinito
100
AcDbVertex
100
AcDb2dVertex
 10
215.0094296163979
 20
498.337720336183
 30
0.0
  0
VERTEX
  5
283
330
23D
100
AcDbEntity
  8
Predefinito
100
AcDbVertex
100
AcDb2dVertex
 10
215.980561919549
 20
498.8587559766887
 30
0.0
  0
VERTEX
  5
284
330
23D
100
AcDbEntity
  8
Predefinito
100
AcDbVertex
100
AcDb2dVertex
 10
216.9612621582333
 20
499.3620315086409
 30
0.0
  0
VERTEX
  5
285
330
23D
100
AcDbEntity
  8
Predefinito
100
AcDbVertex
100
AcDb2dVertex
 10
217.9512193011601
 20
499.8470257911915
 30
0.0
  0
VERTEX
  5
286
330
23D
100
AcDbEntity
  8
Predefinito
100
AcDbVertex
100
AcDb2dVertex
 10
218.9501223170386
 20
500.3132176834924
 30
0.0
  0
VERTEX
  5
287
330
23D
100
AcDbEntity
  8
Predefinito
100
AcDbVertex
100
AcDb2dVertex
 10
219.9576601745781
 20
500.7600860446955
 30
0.0
  0
VERTEX
  5
288
330
23D
100
AcDbEntity
  8
Predefinito
100
AcDbVertex
100
AcDb2dVertex
 10
220.973521842488
 20
501.1871097339528
 30
0.0
  0
VERTEX
  5
289
330
23D
100
AcDbEntity
  8
Predefinito
100
AcDbVertex
100
AcDb2dVertex
 10
221.9973962894775
 20
501.5937676104162
 30
0.0
  0
VERTEX
  5
28A
330
23D
100
AcDbEntity
  8
Predefinito
100
AcDbVertex
100
AcDb2dVertex
 10
223.0289724842557
 20
501.9795385332375
 30
0.0
  0
VERTEX
  5
28B
330
23D
100
AcDbEntity
  8
Predefinito
100
AcDbVertex
100
AcDb2dVertex
 10
224.0679393955321
 20
502.3439013615688
 30
0.0
  0
VERTEX
  5
28C
330
23D
100
AcDbEntity
  8
Predefinito
100
AcDbVertex
100
AcDb2dVertex
 10
225.1139859920159
 20
502.686334954562
 30
0.0
  0
VERTEX
  5
28D
330
23D
100
AcDbEntity
  8
Predefinito
100
AcDbVertex
100
AcDb2dVertex
 10
226.1668012424164
 20
503.0063181713689
 30
0.0
  0
VERTEX
  5
28E
330
23D
100
AcDbEntity
  8
Predefinito
100
AcDbVertex
100
AcDb2dVertex
 10
227.2260741154428
 20
503.3033298711415
 30
0.0
  0
VERTEX
  5
28F
330
23D
100
AcDbEntity
  8
Predefinito
100
AcDbVertex
100
AcDb2dVertex
 10
228.2914935798044
 20
503.5768489130317
 30
0.0
  0
VERTEX
  5
290
330
23D
100
AcDbEntity
  8
Predefinito
100
AcDbVertex
100
AcDb2dVertex
 10
229.3627486042105
 20
503.8263541561915
 30
0.0
 42
-0.0727833929056291
  0
VERTEX
  5
291
330
23D
100
AcDbEntity
  8
Predefinito
100
AcDbVertex
100
AcDb2dVertex
 10
247.1669113722123
 20
504.2994638765819
 30
0.0
  0
VERTEX
  5
292
330
23D
100
AcDbEntity
  8
Predefinito
100
AcDbVertex
100
AcDb2dVertex
 10
248.8206202893381
 20
503.9977156237698
 30
0.0
  0
VERTEX
  5
293
330
23D
100
AcDbEntity
  8
Predefinito
100
AcDbVertex
100
AcDb2dVertex
 10
250.4621372735127
 20
503.6401179432996
 30
0.0
  0
VERTEX
  5
294
330
23D
100
AcDbEntity
  8
Predefinito
100
AcDbVertex
100
AcDb2dVertex
 10
252.0906241737724
 20
503.2284847847518
 30
0.0
  0
VERTEX
  5
295
330
23D
100
AcDbEntity
  8
Predefinito
100
AcDbVertex
100
AcDb2dVertex
 10
253.7052428391535
 20
502.764630097707
 30
0.0
  0
VERTEX
  5
296
330
23D
100
AcDbEntity
  8
Predefinito
100
AcDbVertex
100
AcDb2dVertex
 10
255.374951206255
 20
502.2267299988196
 30
0.0
  0
VERTEX
  5
297
330
23D
100
AcDbEntity
  8
Predefinito
100
AcDbVertex
100
AcDb2dVertex
 10
257.027336885845
 20
501.6362881773309
 30
0.0
  0
VERTEX
  5
298
330
23D
100
AcDbEntity
  8
Predefinito
100
AcDbVertex
100
AcDb2dVertex
 10
258.6611025089465
 20
500.9956912606328
 30
0.0
  0
VERTEX
  5
299
330
23D
100
AcDbEntity
  8
Predefinito
100
AcDbVertex
100
AcDb2dVertex
 10
260.2749507065822
 20
500.3073258761174
 30
0.0
  0
VERTEX
  5
29A
330
23D
100
AcDbEntity
  8
Predefinito
100
AcDbVertex
100
AcDb2dVertex
 10
262.0054171403411
 20
499.5076276107376
 30
0.0
  0
VERTEX
  5
29B
330
23D
100
AcDbEntity
  8
Predefinito
100
AcDbVertex
100
AcDb2dVertex
 10
263.7110177987234
 20
498.6571107503447
 30
0.0
  0
VERTEX
  5
29C
330
23D
100
AcDbEntity
  8
Predefinito
100
AcDbVertex
100
AcDb2dVertex
 10
265.3919538972669
 20
497.75857900509
 30
0.0
  0
VERTEX
  5
29D
330
23D
100
AcDbEntity
  8
Predefinito
100
AcDbVertex
100
AcDb2dVertex
 10
267.0484266515092
 20
496.814836085125
 30
0.0
  0
VERTEX
  5
29E
330
23D
100
AcDbEntity
  8
Predefinito
100
AcDbVertex
100
AcDb2dVertex
 10
268.680637276988
 20
495.828685700601
 30
0.0
  0
VERTEX
  5
29F
330
23D
100
AcDbEntity
  8
Predefinito
100
AcDbVertex
100
AcDb2dVertex
 10
270.2887869892411
 20
494.8029315616694
 30
0.0
  0
VERTEX
  5
2A0
330
23D
100
AcDbEntity
  8
Predefinito
100
AcDbVertex
100
AcDb2dVertex
 10
271.8730770038063
 20
493.7403773784816
 30
0.0
  0
VERTEX
  5
2A1
330
23D
100
AcDbEntity
  8
Predefinito
100
AcDbVertex
100
AcDb2dVertex
 10
273.4337085362211
 20
492.643826861189
 30
0.0
  0
VERTEX
  5
2A2
330
23D
100
AcDbEntity
  8
Predefinito
100
AcDbVertex
100
AcDb2dVertex
 10
275.211601558868
 20
491.3350446229969
 30
0.0
  0
VERTEX
  5
2A3
330
23D
100
AcDbEntity
  8
Predefinito
100
AcDbVertex
100
AcDb2dVertex
 10
276.9592149629774
 20
489.9869286844691
 30
0.0
  0
VERTEX
  5
2A4
330
23D
100
AcDbEntity
  8
Predefinito
100
AcDbVertex
100
AcDb2dVertex
 10
278.677718589684
 20
488.6019656982252
 30
0.0
  0
VERTEX
  5
2A5
330
23D
100
AcDbEntity
  8
Predefinito
100
AcDbVertex
100
AcDb2dVertex
 10
280.3682822801227
 20
487.1826423168843
 30
0.0
  0
VERTEX
  5
2A6
330
23D
100
AcDbEntity
  8
Predefinito
100
AcDbVertex
100
AcDb2dVertex
 10
282.0320758754281
 20
485.731445193066
 30
0.0
  0
VERTEX
  5
2A7
330
23D
100
AcDbEntity
  8
Predefinito
100
AcDbVertex
100
AcDb2dVertex
 10
283.6702692167348
 20
484.2508609793894
 30
0.0
  0
VERTEX
  5
2A8
330
23D
100
AcDbEntity
  8
Predefinito
100
AcDbVertex
100
AcDb2dVertex
 10
286.8745345018918
 20
481.2114778929391
 30
0.0
  0
VERTEX
  5
2A9
330
23D
100
AcDbEntity
  8
Predefinito
100
AcDbVertex
100
AcDb2dVertex
 10
290.6399696266456
 20
477.4092993358263
 30
0.0
  0
VERTEX
  5
2AA
330
23D
100
AcDbEntity
  8
Predefinito
100
AcDbVertex
100
AcDb2dVertex
 10
294.2897961927964
 20
473.4961507320029
 30
0.0
  0
VERTEX
  5
2AB
330
23D
100
AcDbEntity
  8
Predefinito
100
AcDbVertex
100
AcDb2dVertex
 10
297.8381946432413
 20
469.4898898503849
 30
0.0
  0
VERTEX
  5
2AC
330
23D
100
AcDbEntity
  8
Predefinito
100
AcDbVertex
100
AcDb2dVertex
 10
301.2993454208776
 20
465.4083744598879
 30
0.0
  0
VERTEX
  5
2AD
330
23D
100
AcDbEntity
  8
Predefinito
100
AcDbVertex
100
AcDb2dVertex
 10
301.6544933297135
 20
464.980045433728
 30
0.0
  0
VERTEX
  5
2AE
330
23D
100
AcDbEntity
  8
Predefinito
100
AcDbVertex
100
AcDb2dVertex
 10
317.0851428428135
 20
444.9579561808573
 30
0.0
  0
VERTEX
  5
2AF
330
23D
100
AcDbEntity
  8
Predefinito
100
AcDbVertex
100
AcDb2dVertex
 10
320.2741932122885
 20
440.5459599925876
 30
0.0
  0
VERTEX
  5
2B0
330
23D
100
AcDbEntity
  8
Predefinito
100
AcDbVertex
100
AcDb2dVertex
 10
362.087449152367
 20
380.8128853519187
 30
0.0
  0
VERTEX
  5
2B1
330
23D
100
AcDbEntity
  8
Predefinito
100
AcDbVertex
100
AcDb2dVertex
 10
371.2710119536961
 20
368.4797987323351
 30
0.0
  0
VERTEX
  5
2B2
330
23D
100
AcDbEntity
  8
Predefinito
100
AcDbVertex
100
AcDb2dVertex
 10
384.9690922296108
 20
351.3158221956319
 30
0.0
  0
VERTEX
  5
2B3
330
23D
100
AcDbEntity
  8
Predefinito
100
AcDbVertex
100
AcDb2dVertex
 10
385.578404944648
 20
350.5917898378688
 30
0.0
  0
VERTEX
  5
2B4
330
23D
100
AcDbEntity
  8
Predefinito
100
AcDbVertex
100
AcDb2dVertex
 10
394.2121499553283
 20
340.7310981544733
 30
0.0
  0
VERTEX
  5
2B5
330
23D
100
AcDbEntity
  8
Predefinito
100
AcDbVertex
100
AcDb2dVertex
 10
397.1661815493374
 20
337.5371740586399
 30
0.0
  0
VERTEX
  5
2B6
330
23D
100
AcDbEntity
  8
Predefinito
100
AcDbVertex
100
AcDb2dVertex
 10
405.9439033641427
 20
328.6546274651662
 30
0.0
  0
VERTEX
  5
2B7
330
23D
100
AcDbEntity
  8
Predefinito
100
AcDbVertex
100
AcDb2dVertex
 10
406.0483841541843
 20
328.5549233016864
 30
0.0
  0
VERTEX
  5
2B8
330
23D
100
AcDbEntity
  8
Predefinito
100
AcDbVertex
100
AcDb2dVertex
 10
410.5747770473665
 20
324.3971784047812
 30
0.0
  0
SEQEND
  5
2B9
330
23D
100
AcDbEntity
  8
Predefinito
  0
POLYLINE
  5
2BA
330
1F
100
AcDbEntity
  8
Linee visibili 2D
100
AcDb2dPolyline
 66
     1
 10
0.0
 20
0.0
 30
0.0
  0
VERTEX
  5
2BB
330
2BA
100
AcDbEntity
  8
Linee visibili 2D
100
AcDbVertex
100
AcDb2dVertex
 10
407.0205340917144
 20
324.5346576384579
 30
0.0
  0
VERTEX
  5
2BC
330
2BA
100
AcDbEntity
  8
Linee visibili 2D
100
AcDbVertex
100
AcDb2dVertex
 10
406.7342545524477
 20
324.6128216111254
 30
0.0
  0
VERTEX
  5
2BD
330
2BA
100
AcDbEntity
  8
Linee visibili 2D
100
AcDbVertex
100
AcDb2dVertex
 10
406.7184460960248
 20
324.6165481464722
 30
0.0
  0
VERTEX
  5
2BE
330
2BA
100
AcDbEntity
  8
Linee visibili 2D
100
AcDbVertex
100
AcDb2dVertex
 10
406.7186310541085
 20
324.6165069781583
 30
0.0
  0
VERTEX
  5
2BF
330
2BA
100
AcDbEntity
  8
Linee visibili 2D
100
AcDbVertex
100
AcDb2dVertex
 10
406.801847289322
 20
324.5999818480572
 30
0.0
  0
VERTEX
  5
2C0
330
2BA
100
AcDbEntity
  8
Linee visibili 2D
100
AcDbVertex
100
AcDb2dVertex
 10
407.0327059339641
 20
324.5615690198827
 30
0.0
  0
VERTEX
  5
2C1
330
2BA
100
AcDbEntity
  8
Linee visibili 2D
100
AcDbVertex
100
AcDb2dVertex
 10
407.3979104047276
 20
324.5131585126327
 30
0.0
  0
VERTEX
  5
2C2
330
2BA
100
AcDbEntity
  8
Linee visibili 2D
100
AcDbVertex
100
AcDb2dVertex
 10
407.9300263961168
 20
324.4607825034115
 30
0.0
  0
VERTEX
  5
2C3
330
2BA
100
AcDbEntity
  8
Linee visibili 2D
100
AcDbVertex
100
AcDb2dVertex
 10
408.6039387706201
 20
324.4174322477979
 30
0.0
  0
VERTEX
  5
2C4
330
2BA
100
AcDbEntity
  8
Linee visibili 2D
100
AcDbVertex
100
AcDb2dVertex
 10
409.4151576862548
 20
324.3920163336803
 30
0.0
  0
VERTEX
  5
2C5
330
2BA
100
AcDbEntity
  8
Linee visibili 2D
100
AcDbVertex
100
AcDb2dVertex
 10
410.2886859550897
 20
324.3917746550022
 30
0.0
  0
VERTEX
  5
2C6
330
2BA
100
AcDbEntity
  8
Linee visibili 2D
100
AcDbVertex
100
AcDb2dVertex
 10
411.2007614981944
 20
324.4174669633692
 30
0.0
  0
VERTEX
  5
2C7
330
2BA
100
AcDbEntity
  8
Linee visibili 2D
100
AcDbVertex
100
AcDb2dVertex
 10
417.5429757073772
 20
325.1066964446923
 30
0.0
  0
VERTEX
  5
2C8
330
2BA
100
AcDbEntity
  8
Linee visibili 2D
100
AcDbVertex
100
AcDb2dVertex
 10
417.668369909004
 20
325.1272049116924
 30
0.0
  0
VERTEX
  5
2C9
330
2BA
100
AcDbEntity
  8
Linee visibili 2D
100
AcDbVertex
100
AcDb2dVertex
 10
428.7799975866918
 20
327.5586589358946
 30
0.0
  0
VERTEX
  5
2CA
330
2BA
100
AcDbEntity
  8
Linee visibili 2D
100
AcDbVertex
100
AcDb2dVertex
 10
428.8458413661192
 20
327.5757835903609
 30
0.0
  0
VERTEX
  5
2CB
330
2BA
100
AcDbEntity
  8
Linee visibili 2D
100
AcDbVertex
100
AcDb2dVertex
 10
437.5569613376091
 20
330.0218599893389
 30
0.0
  0
VERTEX
  5
2CC
330
2BA
100
AcDbEntity
  8
Linee visibili 2D
100
AcDbVertex
100
AcDb2dVertex
 10
487.1470202109198
 20
345.8589748258204
 30
0.0
 42
-0.0231296973221861
  0
VERTEX
  5
2CD
330
2BA
100
AcDbEntity
  8
Linee visibili 2D
100
AcDbVertex
100
AcDb2dVertex
 10
525.6525207547686
 20
355.7912589108697
 30
0.0
  0
VERTEX
  5
2CE
330
2BA
100
AcDbEntity
  8
Linee visibili 2D
100
AcDbVertex
100
AcDb2dVertex
 10
535.9498051850915
 20
357.7133975863434
 30
0.0
 42
-0.0264639897322017
  0
VERTEX
  5
2CF
330
2BA
100
AcDbEntity
  8
Linee visibili 2D
100
AcDbVertex
100
AcDb2dVertex
 10
564.0164392163834
 20
360.9889239112559
 30
0.0
  0
VERTEX
  5
2D0
330
2BA
100
AcDbEntity
  8
Linee visibili 2D
100
AcDbVertex
100
AcDb2dVertex
 10
564.9972087505898
 20
361.0473954045364
 30
0.0
 42
-0.0355371642715367
  0
VERTEX
  5
2D1
330
2BA
100
AcDbEntity
  8
Linee visibili 2D
100
AcDbVertex
100
AcDb2dVertex
 10
597.0730917787002
 20
360.6634032127898
 30
0.0
  0
VERTEX
  5
2D2
330
2BA
100
AcDbEntity
  8
Linee visibili 2D
100
AcDbVertex
100
AcDb2dVertex
 10
597.3597793559798
 20
360.6388783730421
 30
0.0
  0
VERTEX
  5
2D3
330
2BA
100
AcDbEntity
  8
Linee visibili 2D
100
AcDbVertex
100
AcDb2dVertex
 10
615.3997095001727
 20
358.2808325062222
 30
0.0
  0
VERTEX
  5
2D4
330
2BA
100
AcDbEntity
  8
Linee visibili 2D
100
AcDbVertex
100
AcDb2dVertex
 10
615.4114546432565
 20
358.2787606068511
 30
0.0
  0
VERTEX
  5
2D5
330
2BA
100
AcDbEntity
  8
Linee visibili 2D
100
AcDbVertex
100
AcDb2dVertex
 10
622.259257049107
 20
356.9470491431069
 30
0.0
  0
VERTEX
  5
2D6
330
2BA
100
AcDbEntity
  8
Linee visibili 2D
100
AcDbVertex
100
AcDb2dVertex
 10
626.2079271834095
 20
356.0646995484418
 30
0.0
  0
VERTEX
  5
2D7
330
2BA
100
AcDbEntity
  8
Linee visibili 2D
100
AcDbVertex
100
AcDb2dVertex
 10
631.8214723627419
 20
354.6630564873306
 30
0.0
  0
VERTEX
  5
2D8
330
2BA
100
AcDbEntity
  8
Linee visibili 2D
100
AcDbVertex
100
AcDb2dVertex
 10
638.6452245051094
 20
352.7221207171091
 30
0.0
  0
VERTEX
  5
2D9
330
2BA
100
AcDbEntity
  8
Linee visibili 2D
100
AcDbVertex
100
AcDb2dVertex
 10
638.9062990584155
 20
352.6426066428389
 30
0.0
 42
-0.0368742278976475
  0
VERTEX
  5
2DA
330
2BA
100
AcDbEntity
  8
Linee visibili 2D
100
AcDbVertex
100
AcDb2dVertex
 10
666.9380143021796
 20
341.7487953966439
 30
0.0
  0
VERTEX
  5
2DB
330
2BA
100
AcDbEntity
  8
Linee visibili 2D
100
AcDbVertex
100
AcDb2dVertex
 10
672.5684184727763
 20
338.9718260679553
 30
0.0
  0
VERTEX
  5
2DC
330
2BA
100
AcDbEntity
  8
Linee visibili 2D
100
AcDbVertex
100
AcDb2dVertex
 10
677.7376770257644
 20
336.2395548211836
 30
0.0
  0
VERTEX
  5
2DD
330
2BA
100
AcDbEntity
  8
Linee visibili 2D
100
AcDbVertex
100
AcDb2dVertex
 10
677.7611112616132
 20
336.2267653819648
 30
0.0
  0
VERTEX
  5
2DE
330
2BA
100
AcDbEntity
  8
Linee visibili 2D
100
AcDbVertex
100
AcDb2dVertex
 10
693.3091412017823
 20
326.9203258892401
 30
0.0
  0
VERTEX
  5
2DF
330
2BA
100
AcDbEntity
  8
Linee visibili 2D
100
AcDbVertex
100
AcDb2dVertex
 10
693.4232792225413
 20
326.8458181035382
 30
0.0
  0
VERTEX
  5
2E0
330
2BA
100
AcDbEntity
  8
Linee visibili 2D
100
AcDbVertex
100
AcDb2dVertex
 10
695.7622447964638
 20
325.298470345123
 30
0.0
  0
VERTEX
  5
2E1
330
2BA
100
AcDbEntity
  8
Linee visibili 2D
100
AcDbVertex
100
AcDb2dVertex
 10
708.2194979964042
 20
316.3861514805744
 30
0.0
  0
VERTEX
  5
2E2
330
2BA
100
AcDbEntity
  8
Linee visibili 2D
100
AcDbVertex
100
AcDb2dVertex
 10
708.3209533526187
 20
316.3088351738065
 30
0.0
  0
VERTEX
  5
2E3
330
2BA
100
AcDbEntity
  8
Linee visibili 2D
100
AcDbVertex
100
AcDb2dVertex
 10
717.5792367756887
 20
308.919934976568
 30
0.0
  0
VERTEX
  5
2E4
330
2BA
100
AcDbEntity
  8
Linee visibili 2D
100
AcDbVertex
100
AcDb2dVertex
 10
722.1640150737063
 20
305.0116233091534
 30
0.0
  0
VERTEX
  5
2E5
330
2BA
100
AcDbEntity
  8
Linee visibili 2D
100
AcDbVertex
100
AcDb2dVertex
 10
726.667454661619
 20
301.0095215916341
 30
0.0
  0
VERTEX
  5
2E6
330
2BA
100
AcDbEntity
  8
Linee visibili 2D
100
AcDbVertex
100
AcDb2dVertex
 10
731.1893722101006
 20
296.8203166202792
 30
0.0
  0
VERTEX
  5
2E7
330
2BA
100
AcDbEntity
  8
Linee visibili 2D
100
AcDbVertex
100
AcDb2dVertex
 10
735.6263816445329
 20
292.5413226384876
 30
0.0
  0
VERTEX
  5
2E8
330
2BA
100
AcDbEntity
  8
Linee visibili 2D
100
AcDbVertex
100
AcDb2dVertex
 10
740.1236762186977
 20
288.0326783868953
 30
0.0
  0
VERTEX
  5
2E9
330
2BA
100
AcDbEntity
  8
Linee visibili 2D
100
AcDbVertex
100
AcDb2dVertex
 10
744.5340273366664
 20
283.4387313935695
 30
0.0
  0
VERTEX
  5
2EA
330
2BA
100
AcDbEntity
  8
Linee visibili 2D
100
AcDbVertex
100
AcDb2dVertex
 10
748.8579703312939
 20
278.7632346308057
 30
0.0
  0
VERTEX
  5
2EB
330
2BA
100
AcDbEntity
  8
Linee visibili 2D
100
AcDbVertex
100
AcDb2dVertex
 10
753.096040535435
 20
274.0099410708993
 30
0.0
  0
VERTEX
  5
2EC
330
2BA
100
AcDbEntity
  8
Linee visibili 2D
100
AcDbVertex
100
AcDb2dVertex
 10
760.711779742295
 20
265.0350491485834
 30
0.0
  0
VERTEX
  5
2ED
330
2BA
100
AcDbEntity
  8
Linee visibili 2D
100
AcDbVertex
100
AcDb2dVertex
 10
768.0760693747834
 20
255.8517851896373
 30
0.0
  0
VERTEX
  5
2EE
330
2BA
100
AcDbEntity
  8
Linee visibili 2D
100
AcDbVertex
100
AcDb2dVertex
 10
793.5651781261369
 20
222.2104442802473
 30
0.0
  0
VERTEX
  5
2EF
330
2BA
100
AcDbEntity
  8
Linee visibili 2D
100
AcDbVertex
100
AcDb2dVertex
 10
802.9691390703572
 20
210.8848853233855
 30
0.0
  0
SEQEND
  5
2F0
330
2BA
100
AcDbEntity
  8
Linee visibili 2D
  0
POLYLINE
  5
2F1
330
1F
100
AcDbEntity
  8
Linee visibili 2D
100
AcDb2dPolyline
 66
     1
 10
0.0
 20
0.0
 30
0.0
  0
VERTEX
  5
2F2
330
2F1
100
AcDbEntity
  8
Linee visibili 2D
100
AcDbVertex
100
AcDb2dVertex
 10
88.79721953950008
 20
378.6380975078843
 30
0.0
 42
-0.0996087090481601
  0
VERTEX
  5
2F3
330
2F1
100
AcDbEntity
  8
Linee visibili 2D
100
AcDbVertex
100
AcDb2dVertex
 10
102.2508227285714
 20
378.2691994580395
 30
0.0
 42
0.1261473480035858
  0
VERTEX
  5
2F4
330
2F1
100
AcDbEntity
  8
Linee visibili 2D
100
AcDbVertex
100
AcDb2dVertex
 10
88.51039528244056
 20
377.7979149450221
 30
0.0
  0
SEQEND
  5
2F5
330
2F1
100
AcDbEntity
  8
Linee visibili 2D
  0
POLYLINE
  5
2F6
330
1F
100
AcDbEntity
  8
Linee visibili 2D
100
AcDb2dPolyline
 66
     1
 10
0.0
 20
0.0
 30
0.0
  0
VERTEX
  5
2F7
330
2F6
100
AcDbEntity
  8
Linee visibili 2D
100
AcDbVertex
100
AcDb2dVertex
 10
1126.91031336821
 20
140.1395842767383
 30
0.0
  0
VERTEX
  5
2F8
330
2F6
100
AcDbEntity
  8
Linee visibili 2D
100
AcDbVertex
100
AcDb2dVertex
 10
1136.664559782025
 20
137.5480567979087
 30
0.0
  0
VERTEX
  5
2F9
330
2F6
100
AcDbEntity
  8
Linee visibili 2D
100
AcDbVertex
100
AcDb2dVertex
 10
1137.638968037975
 20
137.2923954641561
 30
0.0
  0
SEQEND
  5
2FA
330
2F6
100
AcDbEntity
  8
Linee visibili 2D
  0
POLYLINE
  5
2FB
330
1F
100
AcDbEntity
  8
Linee visibili 2D
100
AcDb2dPolyline
 66
     1
 10
0.0
 20
0.0
 30
0.0
  0
VERTEX
  5
2FC
330
2FB
100
AcDbEntity
  8
Linee visibili 2D
100
AcDbVertex
100
AcDb2dVertex
 10
455.2033162442316
 20
171.566837328445
 30
0.0
  0
VERTEX
  5
2FD
330
2FB
100
AcDbEntity
  8
Linee visibili 2D
100
AcDbVertex
100
AcDb2dVertex
 10
452.9850131364361
 20
172.2238208803244
 30
0.0
  0
VERTEX
  5
2FE
330
2FB
100
AcDbEntity
  8
Linee visibili 2D
100
AcDbVertex
100
AcDb2dVertex
 10
446.8986312098477
 20
173.7350861286081
 30
0.0
  0
VERTEX
  5
2FF
330
2FB
100
AcDbEntity
  8
Linee visibili 2D
100
AcDbVertex
100
AcDb2dVertex
 10
446.6853511200878
 20
173.7815399184111
 30
0.0
  0
VERTEX
  5
300
330
2FB
100
AcDbEntity
  8
Linee visibili 2D
100
AcDbVertex
100
AcDb2dVertex
 10
439.0269493707092
 20
175.2099532399707
 30
0.0
  0
VERTEX
  5
301
330
2FB
100
AcDbEntity
  8
Linee visibili 2D
100
AcDbVertex
100
AcDb2dVertex
 10
438.7047427957165
 20
175.2608593389993
 30
0.0
  0
VERTEX
  5
302
330
2FB
100
AcDbEntity
  8
Linee visibili 2D
100
AcDbVertex
100
AcDb2dVertex
 10
434.5523414210128
 20
175.8590321899546
 30
0.0
  0
VERTEX
  5
303
330
2FB
100
AcDbEntity
  8
Linee visibili 2D
100
AcDbVertex
100
AcDb2dVertex
 10
421.3474938849489
 20
177.1431223783246
 30
0.0
  0
VERTEX
  5
304
330
2FB
100
AcDbEntity
  8
Linee visibili 2D
100
AcDbVertex
100
AcDb2dVertex
 10
420.5298595763026
 20
177.1955647021217
 30
0.0
  0
VERTEX
  5
305
330
2FB
100
AcDbEntity
  8
Linee visibili 2D
100
AcDbVertex
100
AcDb2dVertex
 10
397.0472996717386
 20
177.6246593840792
 30
0.0
 42
0.0187684638271188
  0
VERTEX
  5
306
330
2FB
100
AcDbEntity
  8
Linee visibili 2D
100
AcDbVertex
100
AcDb2dVertex
 10
359.2764901500149
 20
175.2317981218465
 30
0.0
  0
VERTEX
  5
307
330
2FB
100
AcDbEntity
  8
Linee visibili 2D
100
AcDbVertex
100
AcDb2dVertex
 10
306.1446475306249
 20
169.6703102362737
 30
0.0
 42
-0.0321196449478132
  0
VERTEX
  5
308
330
2FB
100
AcDbEntity
  8
Linee visibili 2D
100
AcDbVertex
100
AcDb2dVertex
 10
261.0557616491347
 20
167.9745095491403
 30
0.0
  0
VERTEX
  5
309
330
2FB
100
AcDbEntity
  8
Linee visibili 2D
100
AcDbVertex
100
AcDb2dVertex
 10
245.394446469122
 20
169.1949967714407
 30
0.0
  0
VERTEX
  5
30A
330
2FB
100
AcDbEntity
  8
Linee visibili 2D
100
AcDbVertex
100
AcDb2dVertex
 10
244.5889939174131
 20
169.2941954778435
 30
0.0
  0
VERTEX
  5
30B
330
2FB
100
AcDbEntity
  8
Linee visibili 2D
100
AcDbVertex
100
AcDb2dVertex
 10
232.5238405485568
 20
171.2810419766643
 30
0.0
  0
VERTEX
  5
30C
330
2FB
100
AcDbEntity
  8
Linee visibili 2D
100
AcDbVertex
100
AcDb2dVertex
 10
232.4887969414312
 20
171.2882783191684
 30
0.0
  0
VERTEX
  5
30D
330
2FB
100
AcDbEntity
  8
Linee visibili 2D
100
AcDbVertex
100
AcDb2dVertex
 10
228.1599836536322
 20
172.2533064701786
 30
0.0
  0
VERTEX
  5
30E
330
2FB
100
AcDbEntity
  8
Linee visibili 2D
100
AcDbVertex
100
AcDb2dVertex
 10
211.9484404445642
 20
177.2206443698422
 30
0.0
  0
VERTEX
  5
30F
330
2FB
100
AcDbEntity
  8
Linee visibili 2D
100
AcDbVertex
100
AcDb2dVertex
 10
211.8513187775706
 20
177.257257517904
 30
0.0
  0
VERTEX
  5
310
330
2FB
100
AcDbEntity
  8
Linee visibili 2D
100
AcDbVertex
100
AcDb2dVertex
 10
203.4988336321082
 20
180.7335983638049
 30
0.0
  0
VERTEX
  5
311
330
2FB
100
AcDbEntity
  8
Linee visibili 2D
100
AcDbVertex
100
AcDb2dVertex
 10
202.3491971227127
 20
181.2634981204106
 30
0.0
 42
-0.05284355150862
  0
VERTEX
  5
312
330
2FB
100
AcDbEntity
  8
Linee visibili 2D
100
AcDbVertex
100
AcDb2dVertex
 10
167.4711257906319
 20
202.9782002766788
 30
0.0
  0
VERTEX
  5
313
330
2FB
100
AcDbEntity
  8
Linee visibili 2D
100
AcDbVertex
100
AcDb2dVertex
 10
167.0754720254946
 20
203.2780146315706
 30
0.0
  0
VERTEX
  5
314
330
2FB
100
AcDbEntity
  8
Linee visibili 2D
100
AcDbVertex
100
AcDb2dVertex
 10
160.5908623866369
 20
208.3158394072382
 30
0.0
  0
VERTEX
  5
315
330
2FB
100
AcDbEntity
  8
Linee visibili 2D
100
AcDbVertex
100
AcDb2dVertex
 10
123.6058659847735
 20
238.8448800517847
 30
0.0
  0
VERTEX
  5
316
330
2FB
100
AcDbEntity
  8
Linee visibili 2D
100
AcDbVertex
100
AcDb2dVertex
 10
115.7311762323172
 20
244.9953245400382
 30
0.0
  0
VERTEX
  5
317
330
2FB
100
AcDbEntity
  8
Linee visibili 2D
100
AcDbVertex
100
AcDb2dVertex
 10
111.7237681879385
 20
247.9781780451667
 30
0.0
  0
VERTEX
  5
318
330
2FB
100
AcDbEntity
  8
Linee visibili 2D
100
AcDbVertex
100
AcDb2dVertex
 10
107.6583306204797
 20
250.8820413428093
 30
0.0
  0
VERTEX
  5
319
330
2FB
100
AcDbEntity
  8
Linee visibili 2D
100
AcDbVertex
100
AcDb2dVertex
 10
103.3670458584094
 20
253.797564565375
 30
0.0
  0
VERTEX
  5
31A
330
2FB
100
AcDbEntity
  8
Linee visibili 2D
100
AcDbVertex
100
AcDb2dVertex
 10
98.99482172361502
 20
256.5886592831
 30
0.0
  0
VERTEX
  5
31B
330
2FB
100
AcDbEntity
  8
Linee visibili 2D
100
AcDbVertex
100
AcDb2dVertex
 10
96.77547086805184
 20
257.9296682218221
 30
0.0
  0
VERTEX
  5
31C
330
2FB
100
AcDbEntity
  8
Linee visibili 2D
100
AcDbVertex
100
AcDb2dVertex
 10
94.53242134123428
 20
259.2301167573438
 30
0.0
  0
VERTEX
  5
31D
330
2FB
100
AcDbEntity
  8
Linee visibili 2D
100
AcDbVertex
100
AcDb2dVertex
 10
92.26451853380459
 20
260.486853797335
 30
0.0
  0
VERTEX
  5
31E
330
2FB
100
AcDbEntity
  8
Linee visibili 2D
100
AcDbVertex
100
AcDb2dVertex
 10
89.970607836405
 20
261.6967282494656
 30
0.0
  0
VERTEX
  5
31F
330
2FB
100
AcDbEntity
  8
Linee visibili 2D
100
AcDbVertex
100
AcDb2dVertex
 10
88.07651059786434
 20
262.6477657664768
 30
0.0
  0
VERTEX
  5
320
330
2FB
100
AcDbEntity
  8
Linee visibili 2D
100
AcDbVertex
100
AcDb2dVertex
 10
86.16387363429456
 20
263.5612992448158
 30
0.0
  0
VERTEX
  5
321
330
2FB
100
AcDbEntity
  8
Linee visibili 2D
100
AcDbVertex
100
AcDb2dVertex
 10
84.23228597937758
 20
264.4332047088703
 30
0.0
  0
VERTEX
  5
322
330
2FB
100
AcDbEntity
  8
Linee visibili 2D
100
AcDbVertex
100
AcDb2dVertex
 10
82.28133666679531
 20
265.2593581830281
 30
0.0
  0
VERTEX
  5
323
330
2FB
100
AcDbEntity
  8
Linee visibili 2D
100
AcDbVertex
100
AcDb2dVertex
 10
80.31061473022966
 20
266.035635691677
 30
0.0
  0
VERTEX
  5
324
330
2FB
100
AcDbEntity
  8
Linee visibili 2D
100
AcDbVertex
100
AcDb2dVertex
 10
78.31970920336252
 20
266.7579132592048
 30
0.0
  0
VERTEX
  5
325
330
2FB
100
AcDbEntity
  8
Linee visibili 2D
100
AcDbVertex
100
AcDb2dVertex
 10
76.30820911987581
 20
267.4220669099994
 30
0.0
  0
VERTEX
  5
326
330
2FB
100
AcDbEntity
  8
Linee visibili 2D
100
AcDbVertex
100
AcDb2dVertex
 10
74.27570351345145
 20
268.0239726684484
 30
0.0
  0
SEQEND
  5
327
330
2FB
100
AcDbEntity
  8
Linee visibili 2D
  0
POLYLINE
  5
328
330
1F
100
AcDbEntity
  8
Linee visibili 2D
100
AcDb2dPolyline
 66
     1
 10
0.0
 20
0.0
 30
0.0
  0
VERTEX
  5
329
330
328
100
AcDbEntity
  8
Linee visibili 2D
100
AcDbVertex
100
AcDb2dVertex
 10
0.8545392850905955
 20
892.0633029505569
 30
0.0
  0
VERTEX
  5
32A
330
328
100
AcDbEntity
  8
Linee visibili 2D
100
AcDbVertex
100
AcDb2dVertex
 10
27.07682021996044
 20
870.2291167536797
 30
0.0
  0
VERTEX
  5
32B
330
328
100
AcDbEntity
  8
Linee visibili 2D
100
AcDbVertex
100
AcDb2dVertex
 10
27.15871407962709
 20
870.1655953895012
 30
0.0
  0
VERTEX
  5
32C
330
328
100
AcDbEntity
  8
Linee visibili 2D
100
AcDbVertex
100
AcDb2dVertex
 10
27.24213387744256
 20
870.1041068337892
 30
0.0
  0
VERTEX
  5
32D
330
328
100
AcDbEntity
  8
Linee visibili 2D
100
AcDbVertex
100
AcDb2dVertex
 10
27.35365842388615
 20
870.0263777540246
 30
0.0
  0
VERTEX
  5
32E
330
328
100
AcDbEntity
  8
Linee visibili 2D
100
AcDbVertex
100
AcDb2dVertex
 10
27.46711559969276
 20
869.9520531082348
 30
0.0
  0
VERTEX
  5
32F
330
328
100
AcDbEntity
  8
Linee visibili 2D
100
AcDbVertex
100
AcDb2dVertex
 10
27.58239359106237
 20
869.8809687711674
 30
0.0
  0
VERTEX
  5
330
330
328
100
AcDbEntity
  8
Linee visibili 2D
100
AcDbVertex
100
AcDb2dVertex
 10
27.69938058419501
 20
869.8129606175698
 30
0.0
  0
VERTEX
  5
331
330
328
100
AcDbEntity
  8
Linee visibili 2D
100
AcDbVertex
100
AcDb2dVertex
 10
27.81796476529068
 20
869.7478645221897
 30
0.0
  0
VERTEX
  5
332
330
328
100
AcDbEntity
  8
Linee visibili 2D
100
AcDbVertex
100
AcDb2dVertex
 10
27.93803432054939
 20
869.6855163597746
 30
0.0
  0
VERTEX
  5
333
330
328
100
AcDbEntity
  8
Linee visibili 2D
100
AcDbVertex
100
AcDb2dVertex
 10
28.05947743617116
 20
869.625752005072
 30
0.0
  0
VERTEX
  5
334
330
328
100
AcDbEntity
  8
Linee visibili 2D
100
AcDbVertex
100
AcDb2dVertex
 10
28.18218229835598
 20
869.5684073328293
 30
0.0
  0
VERTEX
  5
335
330
328
100
AcDbEntity
  8
Linee visibili 2D
100
AcDbVertex
100
AcDb2dVertex
 10
28.43093000721483
 20
869.4603205347139
 30
0.0
  0
VERTEX
  5
336
330
328
100
AcDbEntity
  8
Linee visibili 2D
100
AcDbVertex
100
AcDb2dVertex
 10
28.68338293672603
 20
869.3599429634085
 30
0.0
  0
VERTEX
  5
337
330
328
100
AcDbEntity
  8
Linee visibili 2D
100
AcDbVertex
100
AcDb2dVertex
 10
28.93864657648965
 20
869.2659616168933
 30
0.0
  0
VERTEX
  5
338
330
328
100
AcDbEntity
  8
Linee visibili 2D
100
AcDbVertex
100
AcDb2dVertex
 10
29.19582641610576
 20
869.1770634931484
 30
0.0
  0
VERTEX
  5
339
330
328
100
AcDbEntity
  8
Linee visibili 2D
100
AcDbVertex
100
AcDb2dVertex
 10
29.58644674665977
 20
869.0501569516865
 30
0.0
  0
VERTEX
  5
33A
330
328
100
AcDbEntity
  8
Linee visibili 2D
100
AcDbVertex
100
AcDb2dVertex
 10
29.97920345514568
 20
868.9312614442839
 30
0.0
  0
VERTEX
  5
33B
330
328
100
AcDbEntity
  8
Linee visibili 2D
100
AcDbVertex
100
AcDb2dVertex
 10
30.7703461626896
 20
868.7151354043083
 30
0.0
  0
VERTEX
  5
33C
330
328
100
AcDbEntity
  8
Linee visibili 2D
100
AcDbVertex
100
AcDb2dVertex
 10
31.56769485229027
 20
868.523949118527
 30
0.0
  0
VERTEX
  5
33D
330
328
100
AcDbEntity
  8
Linee visibili 2D
100
AcDbVertex
100
AcDb2dVertex
 10
32.36968983750045
 20
868.3529663322455
 30
0.0
  0
VERTEX
  5
33E
330
328
100
AcDbEntity
  8
Linee visibili 2D
100
AcDbVertex
100
AcDb2dVertex
 10
33.43096661079786
 20
868.1517889389934
 30
0.0
  0
VERTEX
  5
33F
330
328
100
AcDbEntity
  8
Linee visibili 2D
100
AcDbVertex
100
AcDb2dVertex
 10
34.49658863211378
 20
867.973832451215
 30
0.0
  0
VERTEX
  5
340
330
328
100
AcDbEntity
  8
Linee visibili 2D
100
AcDbVertex
100
AcDb2dVertex
 10
36.63682796940575
 20
867.6731212614669
 30
0.0
  0
VERTEX
  5
341
330
328
100
AcDbEntity
  8
Linee visibili 2D
100
AcDbVertex
100
AcDb2dVertex
 10
39.41059620395473
 20
867.3624405876433
 30
0.0
  0
VERTEX
  5
342
330
328
100
AcDbEntity
  8
Linee visibili 2D
100
AcDbVertex
100
AcDb2dVertex
 10
42.19123527209248
 20
867.1238945264008
 30
0.0
  0
VERTEX
  5
343
330
328
100
AcDbEntity
  8
Linee visibili 2D
100
AcDbVertex
100
AcDb2dVertex
 10
44.97684026084877
 20
866.9470252661367
 30
0.0
  0
VERTEX
  5
344
330
328
100
AcDbEntity
  8
Linee visibili 2D
100
AcDbVertex
100
AcDb2dVertex
 10
47.76550625725337
 20
866.8213749952484
 30
0.0
  0
VERTEX
  5
345
330
328
100
AcDbEntity
  8
Linee visibili 2D
100
AcDbVertex
100
AcDb2dVertex
 10
54.31229120249805
 20
866.6876909456886
 30
0.0
  0
VERTEX
  5
346
330
328
100
AcDbEntity
  8
Linee visibili 2D
100
AcDbVertex
100
AcDb2dVertex
 10
60.85996598568683
 20
866.7604861953864
 30
0.0
  0
VERTEX
  5
347
330
328
100
AcDbEntity
  8
Linee visibili 2D
100
AcDbVertex
100
AcDb2dVertex
 10
67.37336002584017
 20
867.0267779496286
 30
0.0
  0
VERTEX
  5
348
330
328
100
AcDbEntity
  8
Linee visibili 2D
100
AcDbVertex
100
AcDb2dVertex
 10
73.87485239330805
 20
867.5011073448522
 30
0.0
  0
VERTEX
  5
349
330
328
100
AcDbEntity
  8
Linee visibili 2D
100
AcDbVertex
100
AcDb2dVertex
 10
76.61313351884844
 20
867.7702264587081
 30
0.0
  0
VERTEX
  5
34A
330
328
100
AcDbEntity
  8
Linee visibili 2D
100
AcDbVertex
100
AcDb2dVertex
 10
79.34569029000554
 20
868.0900594726579
 30
0.0
  0
VERTEX
  5
34B
330
328
100
AcDbEntity
  8
Linee visibili 2D
100
AcDbVertex
100
AcDb2dVertex
 10
82.0702291484497
 20
868.4705019123223
 30
0.0
  0
VERTEX
  5
34C
330
328
100
AcDbEntity
  8
Linee visibili 2D
100
AcDbVertex
100
AcDb2dVertex
 10
84.78445653585138
 20
868.9214493033227
 30
0.0
 42
0.0707655616683394
  0
VERTEX
  5
34D
330
328
100
AcDbEntity
  8
Linee visibili 2D
100
AcDbVertex
100
AcDb2dVertex
 10
93.76641807341454
 20
871.8739406796371
 30
0.0
  0
VERTEX
  5
34E
330
328
100
AcDbEntity
  8
Linee visibili 2D
100
AcDbVertex
100
AcDb2dVertex
 10
118.0979693436893
 20
894.8649179050535
 30
0.0
  0
SEQEND
  5
34F
330
328
100
AcDbEntity
  8
Linee visibili 2D
  0
ARC
  5
350
330
1F
100
AcDbEntity
  8
Linee visibili 2D
100
AcDbCircle
 10
97.11728751077906
 20
349.8694120116463
 30
0.0
 40
28.85468544210842
100
AcDbArc
 50
78.26506113156988
 51
107.6708735340241
  0
LINE
  5
351
330
1F
100
AcDbEntity
  8
Linee visibili 2D
100
AcDbLine
 10
61.33518271527567
 20
862.8729183148117
 30
0.0
 11
66.68587938076575
 21
757.7565810559785
 31
0.0
  0
LINE
  5
352
330
1F
100
AcDbEntity
  8
Linee visibili 2D
100
AcDbLine
 10
67.63213027167107
 20
739.1671460724193
 30
0.0
 11
85.70693578626019
 21
384.081169210124
 31
0.0
  0
LINE
  5
353
330
1F
100
AcDbEntity
  8
Linee visibili 2D
100
AcDbLine
 10
63.03702757229674
 20
856.9363169277416
 30
0.0
 11
67.76653729209218
 21
763.8588185285527
 31
0.0
  0
LINE
  5
354
330
1F
100
AcDbEntity
  8
Linee visibili 2D
100
AcDbLine
 10
68.76265033883787
 20
744.2551564141012
 30
0.0
 11
86.85143002867835
 21
388.2651146604225
 31
0.0
  0
SPLINE
  5
355
330
1F
100
AcDbEntity
  8
Linee visibili 2D
100
AcDbSpline
210
0.0
220
0.0
230
1.0
 70
     8
 71
     3
 72
    15
 73
    11
 74
     0
 42
0.0000000001
 43
0.0000000001
 40
0.0
 40
0.0
 40
0.0
 40
0.0
 40
39.26434932047695
 40
76.30924629842696
 40
108.4361120242833
 40
158.7735267731969
 40
174.9964536923764
 40
204.937775654445
 40
239.1570127157176
 40
290.8378712798647
 40
290.8378712798647
 40
290.8378712798647
 40
290.8378712798647
 10
65.048801286456
 20
866.9095882571783
 30
0.0
 10
68.92304003196554
 20
854.413917989299
 30
0.0
 10
74.80098741618859
 20
829.5682872248558
 30
0.0
 10
76.61386473719851
 20
793.3057395522073
 30
0.0
 10
71.68607168442321
 20
753.6710436881845
 30
0.0
 10
63.23960067936278
 20
721.8157024233259
 30
0.0
 10
57.16885398097326
 20
690.2609564084939
 30
0.0
 10
55.0558928144657
 20
663.3523629794424
 30
0.0
 10
61.63511222982124
 20
625.091780044005
 30
0.0
 10
70.52279250405894
 20
597.8716517742461
 30
0.0
 10
75.6618092866295
 20
581.4212486343538
 30
0.0
  0
LINE
  5
356
330
1F
100
AcDbEntity
  8
Linee visibili 2D
100
AcDbLine
 10
82.83551466707151
 20
375.6393391615932
 30
0.0
 11
82.83632675425034
 21
375.6413875599756
 31
0.0
  0
SPLINE
  5
357
330
1F
100
AcDbEntity
  8
Linee visibili 2D
100
AcDbSpline
210
0.0
220
0.0
230
1.0
 70
     8
 71
     3
 72
    16
 73
    12
 74
     0
 42
0.0000000001
 43
0.0000000001
 40
0.0
 40
0.0
 40
0.0
 40
0.0
 40
44.93916054760168
 40
65.66648749311302
 40
103.2731335086891
 40
135.4790655380979
 40
152.6018599478494
 40
203.2078009848395
 40
234.9731011036384
 40
271.5854136025088
 40
310.5316173701746
 40
310.5316173701746
 40
310.5316173701746
 40
310.5316173701746
 10
76.629187426547
 20
562.4167613368835
 30
0.0
 10
72.41802172389377
 20
576.7790660570007
 30
0.0
 10
65.45743872228171
 20
597.5800454707744
 30
0.0
 10
56.16989978727038
 20
630.676164027735
 30
0.0
 10
50.38697942162172
 20
660.4895082291112
 30
0.0
 10
52.27438160094728
 20
689.6216182658251
 30
0.0
 10
58.50533443864485
 20
722.320831454458
 30
0.0
 10
67.01541900056168
 20
754.4346435300143
 30
0.0
 10
71.88986502369474
 20
793.9020425263552
 30
0.0
 10
69.97179455376616
 20
829.7900721705496
 30
0.0
 10
64.04187618507774
 20
854.3647230294049
 30
0.0
 10
60.14561121201324
 20
866.7428747526467
 30
0.0
  0
SPLINE
  5
358
330
1F
100
AcDbEntity
  8
Linee visibili 2D
100
AcDbSpline
210
0.0
220
0.0
230
1.0
 70
     8
 71
     3
 72
    14
 73
    10
 74
     0
 42
0.0000000001
 43
0.0000000001
 40
0.0
 40
0.0
 40
0.0
 40
0.0
 40
14.51424489509287
 40
29.75918424494139
 40
46.63408194952823
 40
65.05532871164768
 40
103.4508261909715
 40
121.1677289856386
 40
137.2180901384725
 40
137.2180901384725
 40
137.2180901384725
 40
137.2180901384725
 10
73.61521382701983
 20
268.2004595929201
 30
0.0
 10
68.94588366261398
 20
269.3885215799584
 30
0.0
 10
59.85698569273043
 20
274.0396365246017
 30
0.0
 10
50.08154286775014
 20
286.4752949379053
 30
0.0
 10
44.79360202191326
 20
302.7171505818266
 30
0.0
 10
44.08423013934365
 20
327.4406085848675
 30
0.0
 10
52.45712988100949
 20
351.66575658247
 30
0.0
 10
68.45957212759089
 20
369.9405319892965
 30
0.0
 10
78.41438339175878
 20
375.6311984751991
 30
0.0
 10
83.4782934789127
 20
377.3148557186392
 30
0.0
  0
POLYLINE
  5
359
330
1F
100
AcDbEntity
  8
Linee visibili 2D
100
AcDb2dPolyline
 66
     1
 10
0.0
 20
0.0
 30
0.0
  0
VERTEX
  5
35A
330
359
100
AcDbEntity
  8
Linee visibili 2D
100
AcDbVertex
100
AcDb2dVertex
 10
1140.193228781684
 20
764.8111961845117
 30
0.0
  0
VERTEX
  5
35B
330
359
100
AcDbEntity
  8
Linee visibili 2D
100
AcDbVertex
100
AcDb2dVertex
 10
1140.126608937138
 20
762.9036554047887
 30
0.0
 42
0.1830242109421229
  0
VERTEX
  5
35C
330
359
100
AcDbEntity
  8
Linee visibili 2D
100
AcDbVertex
100
AcDb2dVertex
 10
1155.824072825174
 20
762.4673945233645
 30
0.0
  0
VERTEX
  5
35D
330
359
100
AcDbEntity
  8
Linee visibili 2D
100
AcDbVertex
100
AcDb2dVertex
 10
1155.892899630012
 20
764.3802983965987
 30
0.0
  0
SEQEND
  5
35E
330
359
100
AcDbEntity
  8
Linee visibili 2D
  0
POLYLINE
  5
35F
330
1F
100
AcDbEntity
  8
Predefinito
100
AcDb2dPolyline
 66
     1
 10
0.0
 20
0.0
 30
0.0
  0
VERTEX
  5
360
330
35F
100
AcDbEntity
  8
Predefinito
100
AcDbVertex
100
AcDb2dVertex
 10
1142.073766603035
 20
761.8948069692578
 30
0.0
  0
VERTEX
  5
361
330
35F
100
AcDbEntity
  8
Predefinito
100
AcDbVertex
100
AcDb2dVertex
 10
1141.122739272365
 20
734.7586919384095
 30
0.0
  0
VERTEX
  5
362
330
35F
100
AcDbEntity
  8
Predefinito
100
AcDbVertex
100
AcDb2dVertex
 10
1144.046659404608
 20
733.7002122701538
 30
0.0
 42
0.1733346949540233
  0
VERTEX
  5
363
330
35F
100
AcDbEntity
  8
Predefinito
100
AcDbVertex
100
AcDb2dVertex
 10
1152.872932117483
 20
734.4171152847323
 30
0.0
  0
VERTEX
  5
364
330
35F
100
AcDbEntity
  8
Predefinito
100
AcDbVertex
100
AcDb2dVertex
 10
1153.846416408216
 20
761.5752786934204
 30
0.0
  0
SEQEND
  5
365
330
35F
100
AcDbEntity
  8
Predefinito
  0
POLYLINE
  5
366
330
1F
100
AcDbEntity
  8
Linee visibili 2D
100
AcDb2dPolyline
 66
     1
 10
0.0
 20
0.0
 30
0.0
  0
VERTEX
  5
367
330
366
100
AcDbEntity
  8
Linee visibili 2D
100
AcDbVertex
100
AcDb2dVertex
 10
1149.877687547077
 20
733.5304458856999
 30
0.0
  0
VERTEX
  5
368
330
366
100
AcDbEntity
  8
Linee visibili 2D
100
AcDbVertex
100
AcDb2dVertex
 10
1149.538919585808
 20
724.0273235155441
 30
0.0
  0
VERTEX
  5
369
330
366
100
AcDbEntity
  8
Linee visibili 2D
100
AcDbVertex
100
AcDb2dVertex
 10
1147.390518088815
 20
723.5470344764376
 30
0.0
  0
VERTEX
  5
36A
330
366
100
AcDbEntity
  8
Linee visibili 2D
100
AcDbVertex
100
AcDb2dVertex
 10
1143.813249692121
 20
724.0445568552881
 30
0.0
  0
VERTEX
  5
36B
330
366
100
AcDbEntity
  8
Linee visibili 2D
100
AcDbVertex
100
AcDb2dVertex
 10
1143.711724920211
 20
724.199012785353
 30
0.0
  0
VERTEX
  5
36C
330
366
100
AcDbEntity
  8
Linee visibili 2D
100
AcDbVertex
100
AcDb2dVertex
 10
1144.046659404608
 20
733.7002122701538
 30
0.0
  0
SEQEND
  5
36D
330
366
100
AcDbEntity
  8
Linee visibili 2D
  0
LINE
  5
36E
330
1F
100
AcDbEntity
  8
Predefinito
100
AcDbLine
 10
1106.942127952019
 20
1.041931695085548
 30
0.0
 11
1105.90478760319
 21
1.283935521460633
 31
0.0
  0
SPLINE
  5
36F
330
1F
100
AcDbEntity
  8
Predefinito
100
AcDbSpline
210
0.0
220
0.0
230
1.0
 70
     8
 71
     3
 72
    16
 73
    12
 74
     0
 42
0.0000000001
 43
0.0000000001
 40
0.0
 40
0.0
 40
0.0
 40
0.0
 40
27.1304161711932
 40
53.89384269398351
 40
108.9260587187437
 40
161.7604677799949
 40
306.533911733478
 40
345.8071648807536
 40
427.2538647584025
 40
448.3430466442915
 40
461.6639707217701
 40
461.6639707217701
 40
461.6639707217701
 40
461.6639707217701
 10
1105.90478760319
 20
1.283935521460633
 30
0.0
 10
1097.147140470616
 20
3.538192283111214
 30
0.0
 10
1079.664277782625
 20
7.686846581203441
 30
0.0
 10
1044.067210879276
 20
14.85722280704037
 30
0.0
 10
999.6157677142539
 20
21.25485873371696
 30
0.0
 10
915.6957393118712
 20
28.39549003391224
 30
0.0
 10
836.6509515074046
 20
29.77739754214893
 30
0.0
 10
748.6688426398811
 20
39.80731958205607
 30
0.0
 10
701.933837178777
 20
46.7997603796593
 30
0.0
 10
663.6049545837487
 20
51.61461965404838
 30
0.0
 10
652.2214911114179
 20
52.98782349217427
 30
0.0
 10
647.8000258827394
 20
53.41437564753335
 30
0.0
  0
LINE
  5
370
330
1F
100
AcDbEntity
  8
Predefinito
100
AcDbLine
 10
1147.635636060791
 20
723.5553447456234
 30
0.0
 11
1126.723858882301
 21
134.8909091509761
 31
0.0
  0
LINE
  5
371
330
1F
100
AcDbEntity
  8
Linee visibili 2D
100
AcDbLine
 10
1145.990669516988
 20
723.5801584970029
 30
0.0
 11
1125.107832306836
 21
133.8743361348762
 31
0.0
  0
POLYLINE
  5
372
330
1F
100
AcDbEntity
  8
Predefinito
100
AcDb2dPolyline
 66
     1
 10
0.0
 20
0.0
 30
0.0
  0
VERTEX
  5
373
330
372
100
AcDbEntity
  8
Predefinito
100
AcDbVertex
100
AcDb2dVertex
 10
1106.942127952019
 20
1.041931695085548
 30
0.0
  0
VERTEX
  5
374
330
372
100
AcDbEntity
  8
Predefinito
100
AcDbVertex
100
AcDb2dVertex
 10
1107.547624991358
 20
0.8689299061901516
 30
0.0
  0
VERTEX
  5
375
330
372
100
AcDbEntity
  8
Predefinito
100
AcDbVertex
100
AcDb2dVertex
 10
1108.075712561864
 20
0.7381059106600087
 30
0.0
  0
VERTEX
  5
376
330
372
100
AcDbEntity
  8
Predefinito
100
AcDbVertex
100
AcDb2dVertex
 10
1108.606722679875
 20
0.6173937399896408
 30
0.0
  0
VERTEX
  5
377
330
372
100
AcDbEntity
  8
Predefinito
100
AcDbVertex
100
AcDb2dVertex
 10
1109.14038698965
 20
0.5069356838805223
 30
0.0
  0
VERTEX
  5
378
330
372
100
AcDbEntity
  8
Predefinito
100
AcDbVertex
100
AcDb2dVertex
 10
1109.676437135451
 20
0.4068740320341286
 30
0.0
  0
VERTEX
  5
379
330
372
100
AcDbEntity
  8
Predefinito
100
AcDbVertex
100
AcDb2dVertex
 10
1110.214604761537
 20
0.3173510741519344
 30
0.0
  0
VERTEX
  5
37A
330
372
100
AcDbEntity
  8
Predefinito
100
AcDbVertex
100
AcDb2dVertex
 10
1110.754621512167
 20
0.2385090999354145
 30
0.0
  0
VERTEX
  5
37B
330
372
100
AcDbEntity
  8
Predefinito
100
AcDbVertex
100
AcDb2dVertex
 10
1111.296219031601
 20
0.170490399086044
 30
0.0
  0
VERTEX
  5
37C
330
372
100
AcDbEntity
  8
Predefinito
100
AcDbVertex
100
AcDb2dVertex
 10
1111.839128964099
 20
0.1134372613052976
 30
0.0
  0
VERTEX
  5
37D
330
372
100
AcDbEntity
  8
Predefinito
100
AcDbVertex
100
AcDb2dVertex
 10
1112.383082953921
 20
0.0674919762946503
 30
0.0
  0
VERTEX
  5
37E
330
372
100
AcDbEntity
  8
Predefinito
100
AcDbVertex
100
AcDb2dVertex
 10
1112.927812645326
 20
0.032796833755577
 30
0.0
  0
VERTEX
  5
37F
330
372
100
AcDbEntity
  8
Predefinito
100
AcDbVertex
100
AcDb2dVertex
 10
1113.473049682575
 20
0.0094941233895526
 30
0.0
  0
VERTEX
  5
380
330
372
100
AcDbEntity
  8
Predefinito
100
AcDbVertex
100
AcDb2dVertex
 10
1114.018525709927
 20
-0.002273865101948
 30
0.0
  0
VERTEX
  5
381
330
372
100
AcDbEntity
  8
Predefinito
100
AcDbVertex
100
AcDb2dVertex
 10
1114.563972371642
 20
-0.00236484201745
 30
0.0
  0
VERTEX
  5
382
330
372
100
AcDbEntity
  8
Predefinito
100
AcDbVertex
100
AcDb2dVertex
 10
1115.10912131198
 20
0.0093634823445217
 30
0.0
  0
VERTEX
  5
383
330
372
100
AcDbEntity
  8
Predefinito
100
AcDbVertex
100
AcDb2dVertex
 10
1115.6537041752
 20
0.0330533976854419
 30
0.0
  0
VERTEX
  5
384
330
372
100
AcDbEntity
  8
Predefinito
100
AcDbVertex
100
AcDb2dVertex
 10
1116.197452605562
 20
0.0688471937067855
 30
0.0
  0
VERTEX
  5
385
330
372
100
AcDbEntity
  8
Predefinito
100
AcDbVertex
100
AcDb2dVertex
 10
1116.744095080798
 20
0.1172258866312879
 30
0.0
  0
VERTEX
  5
386
330
372
100
AcDbEntity
  8
Predefinito
100
AcDbVertex
100
AcDb2dVertex
 10
1117.28943546874
 20
0.1778177022162186
 30
0.0
  0
VERTEX
  5
387
330
372
100
AcDbEntity
  8
Predefinito
100
AcDbVertex
100
AcDb2dVertex
 10
1117.833290732743
 20
0.2504090070383022
 30
0.0
  0
VERTEX
  5
388
330
372
100
AcDbEntity
  8
Predefinito
100
AcDbVertex
100
AcDb2dVertex
 10
1118.375477836162
 20
0.3347861676742629
 30
0.0
  0
VERTEX
  5
389
330
372
100
AcDbEntity
  8
Predefinito
100
AcDbVertex
100
AcDb2dVertex
 10
1118.915813742353
 20
0.4307355507008253
 30
0.0
  0
VERTEX
  5
38A
330
372
100
AcDbEntity
  8
Predefinito
100
AcDbVertex
100
AcDb2dVertex
 10
1119.454115414671
 20
0.5380435226947138
 30
0.0
  0
VERTEX
  5
38B
330
372
100
AcDbEntity
  8
Predefinito
100
AcDbVertex
100
AcDb2dVertex
 10
1119.99019981647
 20
0.6564964502326527
 30
0.0
  0
VERTEX
  5
38C
330
372
100
AcDbEntity
  8
Predefinito
100
AcDbVertex
100
AcDb2dVertex
 10
1120.523883911106
 20
0.7858806998913666
 30
0.0
  0
VERTEX
  5
38D
330
372
100
AcDbEntity
  8
Predefinito
100
AcDbVertex
100
AcDb2dVertex
 10
1121.054984661935
 20
0.9259826382475799
 30
0.0
  0
VERTEX
  5
38E
330
372
100
AcDbEntity
  8
Predefinito
100
AcDbVertex
100
AcDb2dVertex
 10
1121.583319032312
 20
1.076588631878017
 30
0.0
  0
VERTEX
  5
38F
330
372
100
AcDbEntity
  8
Predefinito
100
AcDbVertex
100
AcDb2dVertex
 10
1122.108703985591
 20
1.237485047359402
 30
0.0
  0
VERTEX
  5
390
330
372
100
AcDbEntity
  8
Predefinito
100
AcDbVertex
100
AcDb2dVertex
 10
1122.630956485128
 20
1.40845825126846
 30
0.0
  0
VERTEX
  5
391
330
372
100
AcDbEntity
  8
Predefinito
100
AcDbVertex
100
AcDb2dVertex
 10
1123.149893494278
 20
1.589294610181915
 30
0.0
  0
VERTEX
  5
392
330
372
100
AcDbEntity
  8
Predefinito
100
AcDbVertex
100
AcDb2dVertex
 10
1123.665331976397
 20
1.779780490676492
 30
0.0
  0
VERTEX
  5
393
330
372
100
AcDbEntity
  8
Predefinito
100
AcDbVertex
100
AcDb2dVertex
 10
1124.17708889484
 20
1.979702259328914
 30
0.0
  0
VERTEX
  5
394
330
372
100
AcDbEntity
  8
Predefinito
100
AcDbVertex
100
AcDb2dVertex
 10
1124.684981212961
 20
2.188846282715907
 30
0.0
  0
VERTEX
  5
395
330
372
100
AcDbEntity
  8
Predefinito
100
AcDbVertex
100
AcDb2dVertex
 10
1125.239087259464
 20
2.429338097388419
 30
0.0
  0
VERTEX
  5
396
330
372
100
AcDbEntity
  8
Predefinito
100
AcDbVertex
100
AcDb2dVertex
 10
1125.788253479711
 20
2.680474107299446
 30
0.0
  0
VERTEX
  5
397
330
372
100
AcDbEntity
  8
Predefinito
100
AcDbVertex
100
AcDb2dVertex
 10
1126.332438980636
 20
2.941995199338803
 30
0.0
  0
VERTEX
  5
398
330
372
100
AcDbEntity
  8
Predefinito
100
AcDbVertex
100
AcDb2dVertex
 10
1126.871602869172
 20
3.213642260396302
 30
0.0
  0
VERTEX
  5
399
330
372
100
AcDbEntity
  8
Predefinito
100
AcDbVertex
100
AcDb2dVertex
 10
1127.405704252251
 20
3.495156177361756
 30
0.0
  0
VERTEX
  5
39A
330
372
100
AcDbEntity
  8
Predefinito
100
AcDbVertex
100
AcDb2dVertex
 10
1127.934702236808
 20
3.786277837124979
 30
0.0
  0
VERTEX
  5
39B
330
372
100
AcDbEntity
  8
Predefinito
100
AcDbVertex
100
AcDb2dVertex
 10
1128.977224438084
 20
4.396307932603984
 30
0.0
  0
VERTEX
  5
39C
330
372
100
AcDbEntity
  8
Predefinito
100
AcDbVertex
100
AcDb2dVertex
 10
1129.998842328464
 20
5.041659641951822
 30
0.0
  0
VERTEX
  5
39D
330
372
100
AcDbEntity
  8
Predefinito
100
AcDbVertex
100
AcDb2dVertex
 10
1130.999228763413
 20
5.720260060287
 30
0.0
  0
VERTEX
  5
39E
330
372
100
AcDbEntity
  8
Predefinito
100
AcDbVertex
100
AcDb2dVertex
 10
1131.978056598394
 20
6.430036282728022
 30
0.0
  0
VERTEX
  5
39F
330
372
100
AcDbEntity
  8
Predefinito
100
AcDbVertex
100
AcDb2dVertex
 10
1132.934998688873
 20
7.168915404393394
 30
0.0
  0
VERTEX
  5
3A0
330
372
100
AcDbEntity
  8
Predefinito
100
AcDbVertex
100
AcDb2dVertex
 10
1133.99771807774
 20
8.04309870828062
 30
0.0
  0
VERTEX
  5
3A1
330
372
100
AcDbEntity
  8
Predefinito
100
AcDbVertex
100
AcDb2dVertex
 10
1135.032528658868
 20
8.949985367498979
 30
0.0
  0
VERTEX
  5
3A2
330
372
100
AcDbEntity
  8
Predefinito
100
AcDbVertex
100
AcDb2dVertex
 10
1136.040317508756
 20
9.887238154113131
 30
0.0
  0
VERTEX
  5
3A3
330
372
100
AcDbEntity
  8
Predefinito
100
AcDbVertex
100
AcDb2dVertex
 10
1137.0219717039
 20
10.85251984018774
 30
0.0
  0
VERTEX
  5
3A4
330
372
100
AcDbEntity
  8
Predefinito
100
AcDbVertex
100
AcDb2dVertex
 10
1137.978378320796
 20
11.84349319778749
 30
0.0
  0
VERTEX
  5
3A5
330
372
100
AcDbEntity
  8
Predefinito
100
AcDbVertex
100
AcDb2dVertex
 10
1138.910424435941
 20
12.85782099897702
 30
0.0
  0
VERTEX
  5
3A6
330
372
100
AcDbEntity
  8
Predefinito
100
AcDbVertex
100
AcDb2dVertex
 10
1139.818997125831
 20
13.89316601582102
 30
0.0
  0
VERTEX
  5
3A7
330
372
100
AcDbEntity
  8
Predefinito
100
AcDbVertex
100
AcDb2dVertex
 10
1140.704983466964
 20
14.94719102038415
 30
0.0
  0
VERTEX
  5
3A8
330
372
100
AcDbEntity
  8
Predefinito
100
AcDbVertex
100
AcDb2dVertex
 10
1141.756973576613
 20
16.25621517886079
 30
0.0
  0
VERTEX
  5
3A9
330
372
100
AcDbEntity
  8
Predefinito
100
AcDbVertex
100
AcDb2dVertex
 10
1142.777343747518
 20
17.58854462900638
 30
0.0
  0
VERTEX
  5
3AA
330
372
100
AcDbEntity
  8
Predefinito
100
AcDbVertex
100
AcDb2dVertex
 10
1143.766804559401
 20
18.94313500271305
 30
0.0
  0
VERTEX
  5
3AB
330
372
100
AcDbEntity
  8
Predefinito
100
AcDbVertex
100
AcDb2dVertex
 10
1144.726066591984
 20
20.3189419318729
 30
0.0
  0
VERTEX
  5
3AC
330
372
100
AcDbEntity
  8
Predefinito
100
AcDbVertex
100
AcDb2dVertex
 10
1145.655840424987
 20
21.71492104837805
 30
0.0
  0
VERTEX
  5
3AD
330
372
100
AcDbEntity
  8
Predefinito
100
AcDbVertex
100
AcDb2dVertex
 10
1146.556836638133
 20
23.13002798412062
 30
0.0
  0
VERTEX
  5
3AE
330
372
100
AcDbEntity
  8
Predefinito
100
AcDbVertex
100
AcDb2dVertex
 10
1147.429765811142
 20
24.56321837099274
 30
0.0
  0
VERTEX
  5
3AF
330
372
100
AcDbEntity
  8
Predefinito
100
AcDbVertex
100
AcDb2dVertex
 10
1148.275338523736
 20
26.01344784088651
 30
0.0
  0
VERTEX
  5
3B0
330
372
100
AcDbEntity
  8
Predefinito
100
AcDbVertex
100
AcDb2dVertex
 10
1149.094265355637
 20
27.47967202569405
 30
0.0
  0
VERTEX
  5
3B1
330
372
100
AcDbEntity
  8
Predefinito
100
AcDbVertex
100
AcDb2dVertex
 10
1149.887256886566
 20
28.96084655730748
 30
0.0
  0
VERTEX
  5
3B2
330
372
100
AcDbEntity
  8
Predefinito
100
AcDbVertex
100
AcDb2dVertex
 10
1151.398276364395
 20
31.96386918852046
 30
0.0
  0
VERTEX
  5
3B3
330
372
100
AcDbEntity
  8
Predefinito
100
AcDbVertex
100
AcDb2dVertex
 10
1152.814081594995
 20
35.01416078966241
 30
0.0
  0
VERTEX
  5
3B4
330
372
100
AcDbEntity
  8
Predefinito
100
AcDbVertex
100
AcDb2dVertex
 10
1154.140357216137
 20
38.10336641587026
 30
0.0
  0
VERTEX
  5
3B5
330
372
100
AcDbEntity
  8
Predefinito
100
AcDbVertex
100
AcDb2dVertex
 10
1155.531539424066
 20
41.61711069268703
 30
0.0
  0
VERTEX
  5
3B6
330
372
100
AcDbEntity
  8
Predefinito
100
AcDbVertex
100
AcDb2dVertex
 10
1156.817748450326
 20
45.1679341280629
 30
0.0
  0
VERTEX
  5
3B7
330
372
100
AcDbEntity
  8
Predefinito
100
AcDbVertex
100
AcDb2dVertex
 10
1158.000161169901
 20
48.75422723853541
 30
0.0
  0
VERTEX
  5
3B8
330
372
100
AcDbEntity
  8
Predefinito
100
AcDbVertex
100
AcDb2dVertex
 10
1159.079954457776
 20
52.37438054064215
 30
0.0
  0
VERTEX
  5
3B9
330
372
100
AcDbEntity
  8
Predefinito
100
AcDbVertex
100
AcDb2dVertex
 10
1160.080246538069
 20
56.11308150235388
 30
0.0
  0
VERTEX
  5
3BA
330
372
100
AcDbEntity
  8
Predefinito
100
AcDbVertex
100
AcDb2dVertex
 10
1160.975285401905
 20
59.87976534421684
 30
0.0
  0
VERTEX
  5
3BB
330
372
100
AcDbEntity
  8
Predefinito
100
AcDbVertex
100
AcDb2dVertex
 10
1161.76612791731
 20
63.66861674943891
 30
0.0
  0
VERTEX
  5
3BC
330
372
100
AcDbEntity
  8
Predefinito
100
AcDbVertex
100
AcDb2dVertex
 10
1162.453830952306
 20
67.47382040122801
 30
0.0
  0
VERTEX
  5
3BD
330
372
100
AcDbEntity
  8
Predefinito
100
AcDbVertex
100
AcDb2dVertex
 10
1164.136031715541
 20
83.77272168069005
 30
0.0
  0
VERTEX
  5
3BE
330
372
100
AcDbEntity
  8
Predefinito
100
AcDbVertex
100
AcDb2dVertex
 10
1164.205610552859
 20
86.29514738906668
 30
0.0
  0
VERTEX
  5
3BF
330
372
100
AcDbEntity
  8
Predefinito
100
AcDbVertex
100
AcDb2dVertex
 10
1164.220763709984
 20
88.81832899750573
 30
0.0
  0
VERTEX
  5
3C0
330
372
100
AcDbEntity
  8
Predefinito
100
AcDbVertex
100
AcDb2dVertex
 10
1164.178366829166
 20
91.34070690753788
 30
0.0
  0
VERTEX
  5
3C1
330
372
100
AcDbEntity
  8
Predefinito
100
AcDbVertex
100
AcDb2dVertex
 10
1164.075295552657
 20
93.8607215206938
 30
0.0
  0
VERTEX
  5
3C2
330
372
100
AcDbEntity
  8
Predefinito
100
AcDbVertex
100
AcDb2dVertex
 10
1163.908425522707
 20
96.37681323850418
 30
0.0
  0
VERTEX
  5
3C3
330
372
100
AcDbEntity
  8
Predefinito
100
AcDbVertex
100
AcDb2dVertex
 10
1163.674632381569
 20
98.88742246249973
 30
0.0
  0
VERTEX
  5
3C4
330
372
100
AcDbEntity
  8
Predefinito
100
AcDbVertex
100
AcDb2dVertex
 10
1163.370791771492
 20
101.3909895942111
 30
0.0
  0
VERTEX
  5
3C5
330
372
100
AcDbEntity
  8
Predefinito
100
AcDbVertex
100
AcDb2dVertex
 10
1162.993779334728
 20
103.885955035169
 30
0.0
  0
VERTEX
  5
3C6
330
372
100
AcDbEntity
  8
Predefinito
100
AcDbVertex
100
AcDb2dVertex
 10
1162.615385619886
 20
105.985948088392
 30
0.0
  0
VERTEX
  5
3C7
330
372
100
AcDbEntity
  8
Predefinito
100
AcDbVertex
100
AcDb2dVertex
 10
1162.177933174897
 20
108.0746979257408
 30
0.0
  0
VERTEX
  5
3C8
330
372
100
AcDbEntity
  8
Predefinito
100
AcDbVertex
100
AcDb2dVertex
 10
1161.676846522592
 20
110.1482175276428
 30
0.0
  0
VERTEX
  5
3C9
330
372
100
AcDbEntity
  8
Predefinito
100
AcDbVertex
100
AcDb2dVertex
 10
1161.107550185804
 20
112.2025198745255
 30
0.0
  0
VERTEX
  5
3CA
330
372
100
AcDbEntity
  8
Predefinito
100
AcDbVertex
100
AcDb2dVertex
 10
1160.795893549113
 20
113.2212186337182
 30
0.0
  0
VERTEX
  5
3CB
330
372
100
AcDbEntity
  8
Predefinito
100
AcDbVertex
100
AcDb2dVertex
 10
1160.465468687364
 20
114.2336179468164
 30
0.0
  0
VERTEX
  5
3CC
330
372
100
AcDbEntity
  8
Predefinito
100
AcDbVertex
100
AcDb2dVertex
 10
1160.115703665911
 20
115.2392194363734
 30
0.0
  0
VERTEX
  5
3CD
330
372
100
AcDbEntity
  8
Predefinito
100
AcDbVertex
100
AcDb2dVertex
 10
1159.746026550107
 20
116.2375247249427
 30
0.0
  0
VERTEX
  5
3CE
330
372
100
AcDbEntity
  8
Predefinito
100
AcDbVertex
100
AcDb2dVertex
 10
1159.355865405306
 20
117.2280354350777
 30
0.0
  0
VERTEX
  5
3CF
330
372
100
AcDbEntity
  8
Predefinito
100
AcDbVertex
100
AcDb2dVertex
 10
1158.944648296862
 20
118.210253189332
 30
0.0
  0
VERTEX
  5
3D0
330
372
100
AcDbEntity
  8
Predefinito
100
AcDbVertex
100
AcDb2dVertex
 10
1158.51180329013
 20
119.1836796102588
 30
0.0
  0
VERTEX
  5
3D1
330
372
100
AcDbEntity
  8
Predefinito
100
AcDbVertex
100
AcDb2dVertex
 10
1158.056758450464
 20
120.1478163204117
 30
0.0
  0
VERTEX
  5
3D2
330
372
100
AcDbEntity
  8
Predefinito
100
AcDbVertex
100
AcDb2dVertex
 10
1157.664247523168
 20
120.9357623808525
 30
0.0
  0
VERTEX
  5
3D3
330
372
100
AcDbEntity
  8
Predefinito
100
AcDbVertex
100
AcDb2dVertex
 10
1157.255965936661
 20
121.7161727788167
 30
0.0
  0
VERTEX
  5
3D4
330
372
100
AcDbEntity
  8
Predefinito
100
AcDbVertex
100
AcDb2dVertex
 10
1156.831641236959
 20
122.4881735130038
 30
0.0
  0
VERTEX
  5
3D5
330
372
100
AcDbEntity
  8
Predefinito
100
AcDbVertex
100
AcDb2dVertex
 10
1156.391000970076
 20
123.2508905821138
 30
0.0
  0
VERTEX
  5
3D6
330
372
100
AcDbEntity
  8
Predefinito
100
AcDbVertex
100
AcDb2dVertex
 10
1155.933772682028
 20
124.0034499848465
 30
0.0
  0
VERTEX
  5
3D7
330
372
100
AcDbEntity
  8
Predefinito
100
AcDbVertex
100
AcDb2dVertex
 10
1155.45968391883
 20
124.7449777199015
 30
0.0
  0
VERTEX
  5
3D8
330
372
100
AcDbEntity
  8
Predefinito
100
AcDbVertex
100
AcDb2dVertex
 10
1154.968462226497
 20
125.4745997859787
 30
0.0
  0
VERTEX
  5
3D9
330
372
100
AcDbEntity
  8
Predefinito
100
AcDbVertex
100
AcDb2dVertex
 10
1154.459835151044
 20
126.1914421817779
 30
0.0
  0
VERTEX
  5
3DA
330
372
100
AcDbEntity
  8
Predefinito
100
AcDbVertex
100
AcDb2dVertex
 10
1153.933530238486
 20
126.8946309059988
 30
0.0
  0
VERTEX
  5
3DB
330
372
100
AcDbEntity
  8
Predefinito
100
AcDbVertex
100
AcDb2dVertex
 10
1153.389275034839
 20
127.5832919573413
 30
0.0
  0
VERTEX
  5
3DC
330
372
100
AcDbEntity
  8
Predefinito
100
AcDbVertex
100
AcDb2dVertex
 10
1152.826797086118
 20
128.2565513345051
 30
0.0
  0
VERTEX
  5
3DD
330
372
100
AcDbEntity
  8
Predefinito
100
AcDbVertex
100
AcDb2dVertex
 10
1152.245823938338
 20
128.91353503619
 30
0.0
  0
VERTEX
  5
3DE
330
372
100
AcDbEntity
  8
Predefinito
100
AcDbVertex
100
AcDb2dVertex
 10
1151.646083137514
 20
129.5533690610957
 30
0.0
  0
VERTEX
  5
3DF
330
372
100
AcDbEntity
  8
Predefinito
100
AcDbVertex
100
AcDb2dVertex
 10
1151.027302229661
 20
130.1751794079222
 30
0.0
  0
VERTEX
  5
3E0
330
372
100
AcDbEntity
  8
Predefinito
100
AcDbVertex
100
AcDb2dVertex
 10
1150.389208760795
 20
130.7780920753691
 30
0.0
  0
VERTEX
  5
3E1
330
372
100
AcDbEntity
  8
Predefinito
100
AcDbVertex
100
AcDb2dVertex
 10
1149.73153027693
 20
131.3612330621362
 30
0.0
  0
VERTEX
  5
3E2
330
372
100
AcDbEntity
  8
Predefinito
100
AcDbVertex
100
AcDb2dVertex
 10
1149.108391858268
 20
131.8800894041594
 30
0.0
  0
VERTEX
  5
3E3
330
372
100
AcDbEntity
  8
Predefinito
100
AcDbVertex
100
AcDb2dVertex
 10
1148.469256722182
 20
132.3807464443775
 30
0.0
  0
VERTEX
  5
3E4
330
372
100
AcDbEntity
  8
Predefinito
100
AcDbVertex
100
AcDb2dVertex
 10
1147.814973858898
 20
132.8625192542
 30
0.0
  0
VERTEX
  5
3E5
330
372
100
AcDbEntity
  8
Predefinito
100
AcDbVertex
100
AcDb2dVertex
 10
1147.14639225864
 20
133.3247229050367
 30
0.0
  0
VERTEX
  5
3E6
330
372
100
AcDbEntity
  8
Predefinito
100
AcDbVertex
100
AcDb2dVertex
 10
1146.464360911636
 20
133.7666724682973
 30
0.0
  0
VERTEX
  5
3E7
330
372
100
AcDbEntity
  8
Predefinito
100
AcDbVertex
100
AcDb2dVertex
 10
1145.769728808111
 20
134.1876830153914
 30
0.0
  0
VERTEX
  5
3E8
330
372
100
AcDbEntity
  8
Predefinito
100
AcDbVertex
100
AcDb2dVertex
 10
1145.063344938291
 20
134.5870696177288
 30
0.0
  0
VERTEX
  5
3E9
330
372
100
AcDbEntity
  8
Predefinito
100
AcDbVertex
100
AcDb2dVertex
 10
1144.346058292401
 20
134.964147346719
 30
0.0
  0
VERTEX
  5
3EA
330
372
100
AcDbEntity
  8
Predefinito
100
AcDbVertex
100
AcDb2dVertex
 10
1143.61621212487
 20
135.3194916731285
 30
0.0
  0
VERTEX
  5
3EB
330
372
100
AcDbEntity
  8
Predefinito
100
AcDbVertex
100
AcDb2dVertex
 10
1142.876582153955
 20
135.6517743391076
 30
0.0
  0
VERTEX
  5
3EC
330
372
100
AcDbEntity
  8
Predefinito
100
AcDbVertex
100
AcDb2dVertex
 10
1142.127504908982
 20
135.9610796840974
 30
0.0
  0
VERTEX
  5
3ED
330
372
100
AcDbEntity
  8
Predefinito
100
AcDbVertex
100
AcDb2dVertex
 10
1141.369316919276
 20
136.2474920475393
 30
0.0
  0
VERTEX
  5
3EE
330
372
100
AcDbEntity
  8
Predefinito
100
AcDbVertex
100
AcDb2dVertex
 10
1140.602354714162
 20
136.5110957688746
 30
0.0
  0
VERTEX
  5
3EF
330
372
100
AcDbEntity
  8
Predefinito
100
AcDbVertex
100
AcDb2dVertex
 10
1139.826954822965
 20
136.7519751875446
 30
0.0
  0
VERTEX
  5
3F0
330
372
100
AcDbEntity
  8
Predefinito
100
AcDbVertex
100
AcDb2dVertex
 10
1139.04345377501
 20
136.9702146429905
 30
0.0
  0
VERTEX
  5
3F1
330
372
100
AcDbEntity
  8
Predefinito
100
AcDbVertex
100
AcDb2dVertex
 10
1138.252188099623
 20
137.1658984746536
 30
0.0
 42
0.193302105375375
  0
VERTEX
  5
3F2
330
372
100
AcDbEntity
  8
Predefinito
100
AcDbVertex
100
AcDb2dVertex
 10
1126.723858882301
 20
134.8909091509761
 30
0.0
  0
VERTEX
  5
3F3
330
372
100
AcDbEntity
  8
Predefinito
100
AcDbVertex
100
AcDb2dVertex
 10
1125.651196161954
 20
134.2338673846329
 30
0.0
  0
VERTEX
  5
3F4
330
372
100
AcDbEntity
  8
Predefinito
100
AcDbVertex
100
AcDb2dVertex
 10
1124.930379635008
 20
133.7530470663451
 30
0.0
  0
VERTEX
  5
3F5
330
372
100
AcDbEntity
  8
Predefinito
100
AcDbVertex
100
AcDb2dVertex
 10
1124.201960462605
 20
133.235246520596
 30
0.0
  0
VERTEX
  5
3F6
330
372
100
AcDbEntity
  8
Predefinito
100
AcDbVertex
100
AcDb2dVertex
 10
1123.466378930007
 20
132.6799060783962
 30
0.0
  0
VERTEX
  5
3F7
330
372
100
AcDbEntity
  8
Predefinito
100
AcDbVertex
100
AcDb2dVertex
 10
1122.724104324625
 20
132.0865132249212
 30
0.0
  0
VERTEX
  5
3F8
330
372
100
AcDbEntity
  8
Predefinito
100
AcDbVertex
100
AcDb2dVertex
 10
1121.975634830203
 20
131.4546062891868
 30
0.0
  0
VERTEX
  5
3F9
330
372
100
AcDbEntity
  8
Predefinito
100
AcDbVertex
100
AcDb2dVertex
 10
1121.221497282981
 20
130.7837780999496
 30
0.0
  0
VERTEX
  5
3FA
330
372
100
AcDbEntity
  8
Predefinito
100
AcDbVertex
100
AcDb2dVertex
 10
1120.462246782808
 20
130.0736795821037
 30
0.0
  0
VERTEX
  5
3FB
330
372
100
AcDbEntity
  8
Predefinito
100
AcDbVertex
100
AcDb2dVertex
 10
1119.698466152947
 20
129.3240232665453
 30
0.0
  0
VERTEX
  5
3FC
330
372
100
AcDbEntity
  8
Predefinito
100
AcDbVertex
100
AcDb2dVertex
 10
1118.930765243185
 20
128.534586685382
 30
0.0
  0
VERTEX
  5
3FD
330
372
100
AcDbEntity
  8
Predefinito
100
AcDbVertex
100
AcDb2dVertex
 10
1118.159780071911
 20
127.7052156234983
 30
0.0
  0
VERTEX
  5
3FE
330
372
100
AcDbEntity
  8
Predefinito
100
AcDbVertex
100
AcDb2dVertex
 10
1117.386171803945
 20
126.8358271968951
 30
0.0
  0
VERTEX
  5
3FF
330
372
100
AcDbEntity
  8
Predefinito
100
AcDbVertex
100
AcDb2dVertex
 10
1116.610625562183
 20
125.9264127279198
 30
0.0
  0
VERTEX
  5
400
330
372
100
AcDbEntity
  8
Predefinito
100
AcDbVertex
100
AcDb2dVertex
 10
1115.833849072517
 20
124.9770403875334
 30
0.0
  0
VERTEX
  5
401
330
372
100
AcDbEntity
  8
Predefinito
100
AcDbVertex
100
AcDb2dVertex
 10
1115.056571142913
 20
123.9878575751323
 30
0.0
  0
VERTEX
  5
402
330
372
100
AcDbEntity
  8
Predefinito
100
AcDbVertex
100
AcDb2dVertex
 10
1114.279539979155
 20
122.9590930071865
 30
0.0
  0
VERTEX
  5
403
330
372
100
AcDbEntity
  8
Predefinito
100
AcDbVertex
100
AcDb2dVertex
 10
1113.503521341327
 20
121.8910584870863
 30
0.0
  0
VERTEX
  5
404
330
372
100
AcDbEntity
  8
Predefinito
100
AcDbVertex
100
AcDb2dVertex
 10
1112.729296546834
 20
120.7841503301049
 30
0.0
  0
VERTEX
  5
405
330
372
100
AcDbEntity
  8
Predefinito
100
AcDbVertex
100
AcDb2dVertex
 10
1111.957660327417
 20
119.6388504193039
 30
0.0
  0
VERTEX
  5
406
330
372
100
AcDbEntity
  8
Predefinito
100
AcDbVertex
100
AcDb2dVertex
 10
1110.425385807631
 20
117.2354342872082
 30
0.0
  0
VERTEX
  5
407
330
372
100
AcDbEntity
  8
Predefinito
100
AcDbVertex
100
AcDb2dVertex
 10
1108.913234241985
 20
114.6863914019284
 30
0.0
  0
VERTEX
  5
408
330
372
100
AcDbEntity
  8
Predefinito
100
AcDbVertex
100
AcDb2dVertex
 10
1107.427798871784
 20
111.9986707882584
 30
0.0
  0
VERTEX
  5
409
330
372
100
AcDbEntity
  8
Predefinito
100
AcDbVertex
100
AcDb2dVertex
 10
1105.975642434999
 20
109.1805480132957
 30
0.0
  0
VERTEX
  5
40A
330
372
100
AcDbEntity
  8
Predefinito
100
AcDbVertex
100
AcDb2dVertex
 10
1104.563206776392
 20
106.2415551479778
 30
0.0
  0
VERTEX
  5
40B
330
372
100
AcDbEntity
  8
Predefinito
100
AcDbVertex
100
AcDb2dVertex
 10
1103.196721804218
 20
103.1923825659238
 30
0.0
  0
VERTEX
  5
40C
330
372
100
AcDbEntity
  8
Predefinito
100
AcDbVertex
100
AcDb2dVertex
 10
1101.882116383639
 20
100.0447543944368
 30
0.0
  0
VERTEX
  5
40D
330
372
100
AcDbEntity
  8
Predefinito
100
AcDbVertex
100
AcDb2dVertex
 10
1100.624933774209
 20
96.81128050457632
 30
0.0
  0
VERTEX
  5
40E
330
372
100
AcDbEntity
  8
Predefinito
100
AcDbVertex
100
AcDb2dVertex
 10
1099.430254108629
 20
93.50528889337762
 30
0.0
  0
VERTEX
  5
40F
330
372
100
AcDbEntity
  8
Predefinito
100
AcDbVertex
100
AcDb2dVertex
 10
1098.302626175089
 20
90.14064310924829
 30
0.0
  0
VERTEX
  5
410
330
372
100
AcDbEntity
  8
Predefinito
100
AcDbVertex
100
AcDb2dVertex
 10
1097.246010418479
 20
86.7315499499111
 30
0.0
  0
VERTEX
  5
411
330
372
100
AcDbEntity
  8
Predefinito
100
AcDbVertex
100
AcDb2dVertex
 10
1096.263734636904
 20
83.29236298528322
 30
0.0
  0
VERTEX
  5
412
330
372
100
AcDbEntity
  8
Predefinito
100
AcDbVertex
100
AcDb2dVertex
 10
1095.358463346876
 20
79.83738750860502
 30
0.0
  0
VERTEX
  5
413
330
372
100
AcDbEntity
  8
Predefinito
100
AcDbVertex
100
AcDb2dVertex
 10
1094.532181254658
 20
76.38069230131116
 30
0.0
  0
VERTEX
  5
414
330
372
100
AcDbEntity
  8
Predefinito
100
AcDbVertex
100
AcDb2dVertex
 10
1093.786190735384
 20
72.93593313323291
 30
0.0
  0
VERTEX
  5
415
330
372
100
AcDbEntity
  8
Predefinito
100
AcDbVertex
100
AcDb2dVertex
 10
1093.121122717129
 20
69.51619224889957
 30
0.0
  0
VERTEX
  5
416
330
372
100
AcDbEntity
  8
Predefinito
100
AcDbVertex
100
AcDb2dVertex
 10
1092.536959921201
 20
66.13383726438165
 30
0.0
  0
VERTEX
  5
417
330
372
100
AcDbEntity
  8
Predefinito
100
AcDbVertex
100
AcDb2dVertex
 10
1092.033071043713
 20
62.8004019757555
 30
0.0
  0
VERTEX
  5
418
330
372
100
AcDbEntity
  8
Predefinito
100
AcDbVertex
100
AcDb2dVertex
 10
1091.608254190865
 20
59.52649061995743
 30
0.0
  0
VERTEX
  5
419
330
372
100
AcDbEntity
  8
Predefinito
100
AcDbVertex
100
AcDb2dVertex
 10
1091.260787707393
 20
56.32170618821534
 30
0.0
  0
VERTEX
  5
41A
330
372
100
AcDbEntity
  8
Predefinito
100
AcDbVertex
100
AcDb2dVertex
 10
1090.988486463152
 20
53.19460252051677
 30
0.0
  0
VERTEX
  5
41B
330
372
100
AcDbEntity
  8
Predefinito
100
AcDbVertex
100
AcDb2dVertex
 10
1090.788761679462
 20
50.15265914535405
 30
0.0
  0
VERTEX
  5
41C
330
372
100
AcDbEntity
  8
Predefinito
100
AcDbVertex
100
AcDb2dVertex
 10
1090.658682472101
 20
47.20227719892183
 30
0.0
  0
VERTEX
  5
41D
330
372
100
AcDbEntity
  8
Predefinito
100
AcDbVertex
100
AcDb2dVertex
 10
1090.587228228426
 20
43.14155658243307
 30
0.0
  0
VERTEX
  5
41E
330
372
100
AcDbEntity
  8
Predefinito
100
AcDbVertex
100
AcDb2dVertex
 10
1090.648448904556
 20
39.09154791508178
 30
0.0
  0
VERTEX
  5
41F
330
372
100
AcDbEntity
  8
Predefinito
100
AcDbVertex
100
AcDb2dVertex
 10
1090.731618000354
 20
37.07991505644418
 30
0.0
  0
VERTEX
  5
420
330
372
100
AcDbEntity
  8
Predefinito
100
AcDbVertex
100
AcDb2dVertex
 10
1090.851172248633
 20
35.08246942069319
 30
0.0
  0
VERTEX
  5
421
330
372
100
AcDbEntity
  8
Predefinito
100
AcDbVertex
100
AcDb2dVertex
 10
1091.008008800728
 20
33.10331494564009
 30
0.0
  0
VERTEX
  5
422
330
372
100
AcDbEntity
  8
Predefinito
100
AcDbVertex
100
AcDb2dVertex
 10
1091.202922556861
 20
31.14665216997866
 30
0.0
  0
VERTEX
  5
423
330
372
100
AcDbEntity
  8
Predefinito
100
AcDbVertex
100
AcDb2dVertex
 10
1091.436596209053
 20
29.21675679021049
 30
0.0
  0
VERTEX
  5
424
330
372
100
AcDbEntity
  8
Predefinito
100
AcDbVertex
100
AcDb2dVertex
 10
1091.709590770355
 20
27.31795628051291
 30
0.0
  0
VERTEX
  5
425
330
372
100
AcDbEntity
  8
Predefinito
100
AcDbVertex
100
AcDb2dVertex
 10
1092.022336747899
 20
25.45460475997709
 30
0.0
  0
VERTEX
  5
426
330
372
100
AcDbEntity
  8
Predefinito
100
AcDbVertex
100
AcDb2dVertex
 10
1092.375126117216
 20
23.63105633625879
 30
0.0
  0
VERTEX
  5
427
330
372
100
AcDbEntity
  8
Predefinito
100
AcDbVertex
100
AcDb2dVertex
 10
1092.768105251544
 20
21.85163719754328
 30
0.0
  0
VERTEX
  5
428
330
372
100
AcDbEntity
  8
Predefinito
100
AcDbVertex
100
AcDb2dVertex
 10
1093.201268952273
 20
20.12061676443582
 30
0.0
  0
VERTEX
  5
429
330
372
100
AcDbEntity
  8
Predefinito
100
AcDbVertex
100
AcDb2dVertex
 10
1093.674455715242
 20
18.44217824854384
 30
0.0
  0
VERTEX
  5
42A
330
372
100
AcDbEntity
  8
Predefinito
100
AcDbVertex
100
AcDb2dVertex
 10
1094.187344352196
 20
16.82038899375452
 30
0.0
  0
VERTEX
  5
42B
330
372
100
AcDbEntity
  8
Predefinito
100
AcDbVertex
100
AcDb2dVertex
 10
1094.739452067701
 20
15.25917099827817
 30
0.0
  0
VERTEX
  5
42C
330
372
100
AcDbEntity
  8
Predefinito
100
AcDbVertex
100
AcDb2dVertex
 10
1095.030017888597
 20
14.50245497689787
 30
0.0
  0
VERTEX
  5
42D
330
372
100
AcDbEntity
  8
Predefinito
100
AcDbVertex
100
AcDb2dVertex
 10
1095.33013406945
 20
13.76227202934169
 30
0.0
  0
VERTEX
  5
42E
330
372
100
AcDbEntity
  8
Predefinito
100
AcDbVertex
100
AcDb2dVertex
 10
1095.639694895442
 20
13.03905882830745
 30
0.0
  0
VERTEX
  5
42F
330
372
100
AcDbEntity
  8
Predefinito
100
AcDbVertex
100
AcDb2dVertex
 10
1095.958584764603
 20
12.33323774712171
 30
0.0
  0
VERTEX
  5
430
330
372
100
AcDbEntity
  8
Predefinito
100
AcDbVertex
100
AcDb2dVertex
 10
1096.286678313409
 20
11.64521607262973
 30
0.0
  0
VERTEX
  5
431
330
372
100
AcDbEntity
  8
Predefinito
100
AcDbVertex
100
AcDb2dVertex
 10
1096.623840567383
 20
10.9753852495358
 30
0.0
  0
VERTEX
  5
432
330
372
100
AcDbEntity
  8
Predefinito
100
AcDbVertex
100
AcDb2dVertex
 10
1096.969927116369
 20
10.32412015905584
 30
0.0
  0
VERTEX
  5
433
330
372
100
AcDbEntity
  8
Predefinito
100
AcDbVertex
100
AcDb2dVertex
 10
1097.324784314054
 20
9.691778434610663
 30
0.0
  0
VERTEX
  5
434
330
372
100
AcDbEntity
  8
Predefinito
100
AcDbVertex
100
AcDb2dVertex
 10
1097.688249501175
 20
9.078699817136464
 30
0.0
  0
VERTEX
  5
435
330
372
100
AcDbEntity
  8
Predefinito
100
AcDbVertex
100
AcDb2dVertex
 10
1098.060151251743
 20
8.485205552421935
 30
0.0
  0
VERTEX
  5
436
330
372
100
AcDbEntity
  8
Predefinito
100
AcDbVertex
100
AcDb2dVertex
 10
1098.440309641527
 20
7.911597832698018
 30
0.0
  0
VERTEX
  5
437
330
372
100
AcDbEntity
  8
Predefinito
100
AcDbVertex
100
AcDb2dVertex
 10
1098.828536537904
 20
7.358159284509591
 30
0.0
  0
VERTEX
  5
438
330
372
100
AcDbEntity
  8
Predefinito
100
AcDbVertex
100
AcDb2dVertex
 10
1099.224635910092
 20
6.825152504688794
 30
0.0
  0
VERTEX
  5
439
330
372
100
AcDbEntity
  8
Predefinito
100
AcDbVertex
100
AcDb2dVertex
 10
1099.628404158712
 20
6.312819646029056
 30
0.0
  0
VERTEX
  5
43A
330
372
100
AcDbEntity
  8
Predefinito
100
AcDbVertex
100
AcDb2dVertex
 10
1100.039630463498
 20
5.821382054028906
 30
0.0
  0
VERTEX
  5
43B
330
372
100
AcDbEntity
  8
Predefinito
100
AcDbVertex
100
AcDb2dVertex
 10
1100.458097147917
 20
5.351039955836822
 30
0.0
  0
VERTEX
  5
43C
330
372
100
AcDbEntity
  8
Predefinito
100
AcDbVertex
100
AcDb2dVertex
 10
1100.883580059395
 20
4.901972202284709
 30
0.0
  0
VERTEX
  5
43D
330
372
100
AcDbEntity
  8
Predefinito
100
AcDbVertex
100
AcDb2dVertex
 10
1101.315848963737
 20
4.474336063649642
 30
0.0
  0
VERTEX
  5
43E
330
372
100
AcDbEntity
  8
Predefinito
100
AcDbVertex
100
AcDb2dVertex
 10
1101.754667952343
 20
4.068267079533477
 30
0.0
  0
VERTEX
  5
43F
330
372
100
AcDbEntity
  8
Predefinito
100
AcDbVertex
100
AcDb2dVertex
 10
1102.199795860698
 20
3.6838789629993
 30
0.0
  0
VERTEX
  5
440
330
372
100
AcDbEntity
  8
Predefinito
100
AcDbVertex
100
AcDb2dVertex
 10
1102.424648963921
 20
3.499844785841783
 30
0.0
  0
VERTEX
  5
441
330
372
100
AcDbEntity
  8
Predefinito
100
AcDbVertex
100
AcDb2dVertex
 10
1102.650986696626
 20
3.321263558854536
 30
0.0
  0
VERTEX
  5
442
330
372
100
AcDbEntity
  8
Predefinito
100
AcDbVertex
100
AcDb2dVertex
 10
1102.878777627081
 20
3.148143347706399
 30
0.0
  0
VERTEX
  5
443
330
372
100
AcDbEntity
  8
Predefinito
100
AcDbVertex
100
AcDb2dVertex
 10
1103.107990076757
 20
2.980490855724698
 30
0.0
  0
VERTEX
  5
444
330
372
100
AcDbEntity
  8
Predefinito
100
AcDbVertex
100
AcDb2dVertex
 10
1103.338592134309
 20
2.818311427169812
 30
0.0
  0
VERTEX
  5
445
330
372
100
AcDbEntity
  8
Predefinito
100
AcDbVertex
100
AcDb2dVertex
 10
1103.570551669615
 20
2.661609051320733
 30
0.0
  0
VERTEX
  5
446
330
372
100
AcDbEntity
  8
Predefinito
100
AcDbVertex
100
AcDb2dVertex
 10
1103.803836347879
 20
2.510386367362901
 30
0.0
  0
VERTEX
  5
447
330
372
100
AcDbEntity
  8
Predefinito
100
AcDbVertex
100
AcDb2dVertex
 10
1104.038413643766
 20
2.364644670068769
 30
0.0
  0
VERTEX
  5
448
330
372
100
AcDbEntity
  8
Predefinito
100
AcDbVertex
100
AcDb2dVertex
 10
1104.274250855571
 20
2.224383916260703
 30
0.0
  0
VERTEX
  5
449
330
372
100
AcDbEntity
  8
Predefinito
100
AcDbVertex
100
AcDb2dVertex
 10
1104.511315119409
 20
2.08960273204507
 30
0.0
  0
VERTEX
  5
44A
330
372
100
AcDbEntity
  8
Predefinito
100
AcDbVertex
100
AcDb2dVertex
 10
1104.749573423402
 20
1.960298420805527
 30
0.0
  0
VERTEX
  5
44B
330
372
100
AcDbEntity
  8
Predefinito
100
AcDbVertex
100
AcDb2dVertex
 10
1104.988992621864
 20
1.836466971942817
 30
0.0
  0
VERTEX
  5
44C
330
372
100
AcDbEntity
  8
Predefinito
100
AcDbVertex
100
AcDb2dVertex
 10
1105.229539449465
 20
1.718103070347631
 30
0.0
  0
VERTEX
  5
44D
330
372
100
AcDbEntity
  8
Predefinito
100
AcDbVertex
100
AcDb2dVertex
 10
1105.471180535367
 20
1.605200106592385
 30
0.0
  0
VERTEX
  5
44E
330
372
100
AcDbEntity
  8
Predefinito
100
AcDbVertex
100
AcDb2dVertex
 10
1105.71388241731
 20
1.497750187827134
 30
0.0
  0
VERTEX
  5
44F
330
372
100
AcDbEntity
  8
Predefinito
100
AcDbVertex
100
AcDb2dVertex
 10
1105.957611555653
 20
1.395744149364128
 30
0.0
  0
VERTEX
  5
450
330
372
100
AcDbEntity
  8
Predefinito
100
AcDbVertex
100
AcDb2dVertex
 10
1106.202334347346
 20
1.29917156693497
 30
0.0
  0
VERTEX
  5
451
330
372
100
AcDbEntity
  8
Predefinito
100
AcDbVertex
100
AcDb2dVertex
 10
1106.448017139822
 20
1.208020769603723
 30
0.0
  0
VERTEX
  5
452
330
372
100
AcDbEntity
  8
Predefinito
100
AcDbVertex
100
AcDb2dVertex
 10
1106.694626244804
 20
1.122278853318745
 30
0.0
  0
VERTEX
  5
453
330
372
100
AcDbEntity
  8
Predefinito
100
AcDbVertex
100
AcDb2dVertex
 10
1106.942127952019
 20
1.041931695085548
 30
0.0
  0
SEQEND
  5
454
330
372
100
AcDbEntity
  8
Predefinito
  0
LINE
  5
455
330
1F
100
AcDbEntity
  8
Predefinito
100
AcDbLine
 10
222.6561910914024
 20
1676.777301580355
 30
0.0
 11
223.9092796339537
 21
1676.776860380808
 31
0.0
  0
LINE
  5
456
330
1F
100
AcDbEntity
  8
Predefinito
100
AcDbLine
 10
231.258677759848
 20
2365.939883919987
 30
0.0
 11
231.3636825196935
 21
2365.939941407441
 31
0.0
  0
POLYLINE
  5
457
330
1F
100
AcDbEntity
  8
Predefinito
100
AcDb2dPolyline
 66
     1
 10
0.0
 20
0.0
 30
0.0
  0
VERTEX
  5
458
330
457
100
AcDbEntity
  8
Predefinito
100
AcDbVertex
100
AcDb2dVertex
 10
231.355643548969
 20
2365.939912663713
 30
0.0
  0
VERTEX
  5
459
330
457
100
AcDbEntity
  8
Predefinito
100
AcDbVertex
100
AcDb2dVertex
 10
215.3476045902878
 20
2365.939883919999
 30
0.0
  0
VERTEX
  5
45A
330
457
100
AcDbEntity
  8
Predefinito
100
AcDbVertex
100
AcDb2dVertex
 10
215.3920679874366
 20
2363.939883919192
 30
0.0
  0
VERTEX
  5
45B
330
457
100
AcDbEntity
  8
Predefinito
100
AcDbVertex
100
AcDb2dVertex
 10
215.3476127138462
 20
2363.939883919192
 30
0.0
  0
VERTEX
  5
45C
330
457
100
AcDbEntity
  8
Predefinito
100
AcDbVertex
100
AcDb2dVertex
 10
215.3477259526712
 20
2363.939883919192
 30
0.0
  0
VERTEX
  5
45D
330
457
100
AcDbEntity
  8
Predefinito
100
AcDbVertex
100
AcDb2dVertex
 10
228.7394378985854
 20
2363.939883919193
 30
0.0
  0
VERTEX
  5
45E
330
457
100
AcDbEntity
  8
Predefinito
100
AcDbVertex
100
AcDb2dVertex
 10
231.3476045782445
 20
2363.939883919193
 30
0.0
  0
VERTEX
  5
45F
330
457
100
AcDbEntity
  8
Predefinito
100
AcDbVertex
100
AcDb2dVertex
 10
231.355643548969
 20
2365.939912663713
 30
0.0
  0
SEQEND
  5
460
330
457
100
AcDbEntity
  8
Predefinito
  0
POLYLINE
  5
461
330
1F
100
AcDbEntity
  8
Linee visibili 2D
100
AcDb2dPolyline
 66
     1
 10
0.0
 20
0.0
 30
0.0
  0
VERTEX
  5
462
330
461
100
AcDbEntity
  8
Linee visibili 2D
100
AcDbVertex
100
AcDb2dVertex
 10
217.3476045782445
 20
2363.940694581514
 30
0.0
  0
VERTEX
  5
463
330
461
100
AcDbEntity
  8
Linee visibili 2D
100
AcDbVertex
100
AcDb2dVertex
 10
217.350747805096
 20
2334.460731914098
 30
0.0
  0
VERTEX
  5
464
330
461
100
AcDbEntity
  8
Linee visibili 2D
100
AcDbVertex
100
AcDb2dVertex
 10
227.3916378644935
 20
2334.460095948653
 30
0.0
  0
VERTEX
  5
465
330
461
100
AcDbEntity
  8
Linee visibili 2D
100
AcDbVertex
100
AcDb2dVertex
 10
229.3444613513795
 20
2334.460676264086
 30
0.0
  0
VERTEX
  5
466
330
461
100
AcDbEntity
  8
Linee visibili 2D
100
AcDbVertex
100
AcDb2dVertex
 10
229.3476045782445
 20
2363.940657481486
 30
0.0
  0
SEQEND
  5
467
330
461
100
AcDbEntity
  8
Linee visibili 2D
  0
POLYLINE
  5
468
330
1F
100
AcDbEntity
  8
Linee visibili 2D
100
AcDb2dPolyline
 66
     1
 10
0.0
 20
0.0
 30
0.0
  0
VERTEX
  5
469
330
468
100
AcDbEntity
  8
Linee visibili 2D
100
AcDbVertex
100
AcDb2dVertex
 10
220.3699025331589
 20
2334.460152737862
 30
0.0
  0
VERTEX
  5
46A
330
468
100
AcDbEntity
  8
Linee visibili 2D
100
AcDbVertex
100
AcDb2dVertex
 10
220.3714624653387
 20
2323.44021085068
 30
0.0
  0
VERTEX
  5
46B
330
468
100
AcDbEntity
  8
Linee visibili 2D
100
AcDbVertex
100
AcDb2dVertex
 10
225.3545922724588
 20
2323.440000136936
 30
0.0
  0
VERTEX
  5
46C
330
468
100
AcDbEntity
  8
Linee visibili 2D
100
AcDbVertex
100
AcDb2dVertex
 10
226.3237466868563
 20
2323.440192412218
 30
0.0
  0
VERTEX
  5
46D
330
468
100
AcDbEntity
  8
Linee visibili 2D
100
AcDbVertex
100
AcDb2dVertex
 10
226.3253066190227
 20
2334.460140445546
 30
0.0
  0
SEQEND
  5
46E
330
468
100
AcDbEntity
  8
Linee visibili 2D
  0
LINE
  5
46F
330
1F
100
AcDbEntity
  8
Predefinito
100
AcDbLine
 10
367.9752187885149
 20
1717.932613456208
 30
0.0
 11
368.2280270909833
 21
1719.680707871609
 31
0.0
  0
LINE
  5
470
330
1F
100
AcDbEntity
  8
Predefinito
100
AcDbLine
 10
325.1914876996473
 20
1654.839210896132
 30
0.0
 11
325.1434518112782
 21
1652.89823708936
 31
0.0
  0
POLYLINE
  5
471
330
1F
100
AcDbEntity
  8
Predefinito
100
AcDb2dPolyline
 66
     1
 10
0.0
 20
0.0
 30
0.0
  0
VERTEX
  5
472
330
471
100
AcDbEntity
  8
Predefinito
100
AcDbVertex
100
AcDb2dVertex
 10
1940.078518469332
 20
1675.781428311706
 30
0.0
  0
VERTEX
  5
473
330
471
100
AcDbEntity
  8
Predefinito
100
AcDbVertex
100
AcDb2dVertex
 10
1940.07851846933
 20
1526.779670733646
 30
0.0
  0
VERTEX
  5
474
330
471
100
AcDbEntity
  8
Predefinito
100
AcDbVertex
100
AcDb2dVertex
 10
1939.686273986021
 20
1526.783412706856
 30
0.0
  0
VERTEX
  5
475
330
471
100
AcDbEntity
  8
Predefinito
100
AcDbVertex
100
AcDb2dVertex
 10
1939.293818340858
 20
1526.794823755567
 30
0.0
  0
VERTEX
  5
476
330
471
100
AcDbEntity
  8
Predefinito
100
AcDbVertex
100
AcDb2dVertex
 10
1938.901404433821
 20
1526.814047182879
 30
0.0
  0
VERTEX
  5
477
330
471
100
AcDbEntity
  8
Predefinito
100
AcDbVertex
100
AcDb2dVertex
 10
1938.509285164894
 20
1526.841226291893
 30
0.0
  0
VERTEX
  5
478
330
471
100
AcDbEntity
  8
Predefinito
100
AcDbVertex
100
AcDb2dVertex
 10
1938.117713434061
 20
1526.876504385711
 30
0.0
  0
VERTEX
  5
479
330
471
100
AcDbEntity
  8
Predefinito
100
AcDbVertex
100
AcDb2dVertex
 10
1937.726942141304
 20
1526.920024767434
 30
0.0
  0
VERTEX
  5
47A
330
471
100
AcDbEntity
  8
Predefinito
100
AcDbVertex
100
AcDb2dVertex
 10
1937.337224186607
 20
1526.971930740162
 30
0.0
  0
VERTEX
  5
47B
330
471
100
AcDbEntity
  8
Predefinito
100
AcDbVertex
100
AcDb2dVertex
 10
1936.948812469953
 20
1527.032365606998
 30
0.0
  0
VERTEX
  5
47C
330
471
100
AcDbEntity
  8
Predefinito
100
AcDbVertex
100
AcDb2dVertex
 10
1936.561959891324
 20
1527.101472671042
 30
0.0
  0
VERTEX
  5
47D
330
471
100
AcDbEntity
  8
Predefinito
100
AcDbVertex
100
AcDb2dVertex
 10
1936.176919350705
 20
1527.179395235396
 30
0.0
  0
VERTEX
  5
47E
330
471
100
AcDbEntity
  8
Predefinito
100
AcDbVertex
100
AcDb2dVertex
 10
1935.793943748077
 20
1527.26627660316
 30
0.0
  0
VERTEX
  5
47F
330
471
100
AcDbEntity
  8
Predefinito
100
AcDbVertex
100
AcDb2dVertex
 10
1935.413285983425
 20
1527.362260077436
 30
0.0
  0
VERTEX
  5
480
330
471
100
AcDbEntity
  8
Predefinito
100
AcDbVertex
100
AcDb2dVertex
 10
1935.035198956732
 20
1527.467488961326
 30
0.0
  0
VERTEX
  5
481
330
471
100
AcDbEntity
  8
Predefinito
100
AcDbVertex
100
AcDb2dVertex
 10
1934.65993556798
 20
1527.582106557929
 30
0.0
  0
VERTEX
  5
482
330
471
100
AcDbEntity
  8
Predefinito
100
AcDbVertex
100
AcDb2dVertex
 10
1934.287748717152
 20
1527.706256170348
 30
0.0
  0
VERTEX
  5
483
330
471
100
AcDbEntity
  8
Predefinito
100
AcDbVertex
100
AcDb2dVertex
 10
1933.918891304232
 20
1527.840081101683
 30
0.0
  0
VERTEX
  5
484
330
471
100
AcDbEntity
  8
Predefinito
100
AcDbVertex
100
AcDb2dVertex
 10
1933.569367560304
 20
1527.977238042638
 30
0.0
  0
VERTEX
  5
485
330
471
100
AcDbEntity
  8
Predefinito
100
AcDbVertex
100
AcDb2dVertex
 10
1933.223283419054
 20
1528.123191952255
 30
0.0
  0
VERTEX
  5
486
330
471
100
AcDbEntity
  8
Predefinito
100
AcDbVertex
100
AcDb2dVertex
 10
1932.880800084749
 20
1528.277754227262
 30
0.0
  0
VERTEX
  5
487
330
471
100
AcDbEntity
  8
Predefinito
100
AcDbVertex
100
AcDb2dVertex
 10
1932.542078761657
 20
1528.440736264387
 30
0.0
  0
VERTEX
  5
488
330
471
100
AcDbEntity
  8
Predefinito
100
AcDbVertex
100
AcDb2dVertex
 10
1932.207280654046
 20
1528.611949460357
 30
0.0
  0
VERTEX
  5
489
330
471
100
AcDbEntity
  8
Predefinito
100
AcDbVertex
100
AcDb2dVertex
 10
1931.876566966183
 20
1528.791205211899
 30
0.0
  0
VERTEX
  5
48A
330
471
100
AcDbEntity
  8
Predefinito
100
AcDbVertex
100
AcDb2dVertex
 10
1931.550098902335
 20
1528.978314915739
 30
0.0
  0
VERTEX
  5
48B
330
471
100
AcDbEntity
  8
Predefinito
100
AcDbVertex
100
AcDb2dVertex
 10
1931.228037666771
 20
1529.173089968607
 30
0.0
  0
VERTEX
  5
48C
330
471
100
AcDbEntity
  8
Predefinito
100
AcDbVertex
100
AcDb2dVertex
 10
1930.910544463756
 20
1529.375341767227
 30
0.0
  0
VERTEX
  5
48D
330
471
100
AcDbEntity
  8
Predefinito
100
AcDbVertex
100
AcDb2dVertex
 10
1930.59778049756
 20
1529.584881708329
 30
0.0
  0
VERTEX
  5
48E
330
471
100
AcDbEntity
  8
Predefinito
100
AcDbVertex
100
AcDb2dVertex
 10
1930.28990697245
 20
1529.801521188639
 30
0.0
  0
VERTEX
  5
48F
330
471
100
AcDbEntity
  8
Predefinito
100
AcDbVertex
100
AcDb2dVertex
 10
1929.987085092692
 20
1530.025071604884
 30
0.0
  0
VERTEX
  5
490
330
471
100
AcDbEntity
  8
Predefinito
100
AcDbVertex
100
AcDb2dVertex
 10
1929.689476062555
 20
1530.255344353792
 30
0.0
  0
VERTEX
  5
491
330
471
100
AcDbEntity
  8
Predefinito
100
AcDbVertex
100
AcDb2dVertex
 10
1929.397241086306
 20
1530.492150832089
 30
0.0
  0
VERTEX
  5
492
330
471
100
AcDbEntity
  8
Predefinito
100
AcDbVertex
100
AcDb2dVertex
 10
1929.110541368212
 20
1530.735302436504
 30
0.0
  0
VERTEX
  5
493
330
471
100
AcDbEntity
  8
Predefinito
100
AcDbVertex
100
AcDb2dVertex
 10
1928.829538112541
 20
1530.984610563763
 30
0.0
  0
VERTEX
  5
494
330
471
100
AcDbEntity
  8
Predefinito
100
AcDbVertex
100
AcDb2dVertex
 10
1928.520458851177
 20
1531.272107173156
 30
0.0
  0
VERTEX
  5
495
330
471
100
AcDbEntity
  8
Predefinito
100
AcDbVertex
100
AcDb2dVertex
 10
1928.218659488956
 20
1531.566857263993
 30
0.0
  0
VERTEX
  5
496
330
471
100
AcDbEntity
  8
Predefinito
100
AcDbVertex
100
AcDb2dVertex
 10
1927.924011138258
 20
1531.868566082924
 30
0.0
  0
VERTEX
  5
497
330
471
100
AcDbEntity
  8
Predefinito
100
AcDbVertex
100
AcDb2dVertex
 10
1927.636384911463
 20
1532.176938876601
 30
0.0
  0
VERTEX
  5
498
330
471
100
AcDbEntity
  8
Predefinito
100
AcDbVertex
100
AcDb2dVertex
 10
1927.355651920951
 20
1532.491680891672
 30
0.0
  0
VERTEX
  5
499
330
471
100
AcDbEntity
  8
Predefinito
100
AcDbVertex
100
AcDb2dVertex
 10
1927.081683279102
 20
1532.812497374789
 30
0.0
  0
VERTEX
  5
49A
330
471
100
AcDbEntity
  8
Predefinito
100
AcDbVertex
100
AcDb2dVertex
 10
1926.814350098296
 20
1533.139093572601
 30
0.0
  0
VERTEX
  5
49B
330
471
100
AcDbEntity
  8
Predefinito
100
AcDbVertex
100
AcDb2dVertex
 10
1926.553523490914
 20
1533.471174731759
 30
0.0
  0
VERTEX
  5
49C
330
471
100
AcDbEntity
  8
Predefinito
100
AcDbVertex
100
AcDb2dVertex
 10
1926.299074569334
 20
1533.808446098913
 30
0.0
  0
VERTEX
  5
49D
330
471
100
AcDbEntity
  8
Predefinito
100
AcDbVertex
100
AcDb2dVertex
 10
1926.050874445938
 20
1534.150612920714
 30
0.0
  0
VERTEX
  5
49E
330
471
100
AcDbEntity
  8
Predefinito
100
AcDbVertex
100
AcDb2dVertex
 10
1925.572705043217
 20
1534.848453914856
 30
0.0
  0
VERTEX
  5
49F
330
471
100
AcDbEntity
  8
Predefinito
100
AcDbVertex
100
AcDb2dVertex
 10
1925.117984181789
 20
1535.562339687388
 30
0.0
  0
VERTEX
  5
4A0
330
471
100
AcDbEntity
  8
Predefinito
100
AcDbVertex
100
AcDb2dVertex
 10
1924.685680760696
 20
1536.289912211512
 30
0.0
  0
VERTEX
  5
4A1
330
471
100
AcDbEntity
  8
Predefinito
100
AcDbVertex
100
AcDb2dVertex
 10
1924.196906690421
 20
1537.174791950825
 30
0.0
  0
VERTEX
  5
4A2
330
471
100
AcDbEntity
  8
Predefinito
100
AcDbVertex
100
AcDb2dVertex
 10
1923.737196614783
 20
1538.074493236058
 30
0.0
  0
VERTEX
  5
4A3
330
471
100
AcDbEntity
  8
Predefinito
100
AcDbVertex
100
AcDb2dVertex
 10
1923.305051640121
 20
1538.987647906965
 30
0.0
  0
VERTEX
  5
4A4
330
471
100
AcDbEntity
  8
Predefinito
100
AcDbVertex
100
AcDb2dVertex
 10
1922.898972872773
 20
1539.912887803299
 30
0.0
  0
VERTEX
  5
4A5
330
471
100
AcDbEntity
  8
Predefinito
100
AcDbVertex
100
AcDb2dVertex
 10
1922.517461419076
 20
1540.848844764813
 30
0.0
  0
VERTEX
  5
4A6
330
471
100
AcDbEntity
  8
Predefinito
100
AcDbVertex
100
AcDb2dVertex
 10
1922.159018385368
 20
1541.794150631261
 30
0.0
  0
VERTEX
  5
4A7
330
471
100
AcDbEntity
  8
Predefinito
100
AcDbVertex
100
AcDb2dVertex
 10
1921.822144877988
 20
1542.747437242395
 30
0.0
  0
VERTEX
  5
4A8
330
471
100
AcDbEntity
  8
Predefinito
100
AcDbVertex
100
AcDb2dVertex
 10
1921.505342003272
 20
1543.707336437968
 30
0.0
  0
VERTEX
  5
4A9
330
471
100
AcDbEntity
  8
Predefinito
100
AcDbVertex
100
AcDb2dVertex
 10
1921.116756737261
 20
1544.978328284064
 30
0.0
  0
VERTEX
  5
4AA
330
471
100
AcDbEntity
  8
Predefinito
100
AcDbVertex
100
AcDb2dVertex
 10
1920.757834663269
 20
1546.257496446116
 30
0.0
  0
VERTEX
  5
4AB
330
471
100
AcDbEntity
  8
Predefinito
100
AcDbVertex
100
AcDb2dVertex
 10
1920.42609442565
 20
1547.543940026397
 30
0.0
  0
VERTEX
  5
4AC
330
471
100
AcDbEntity
  8
Predefinito
100
AcDbVertex
100
AcDb2dVertex
 10
1920.119054668761
 20
1548.836758127178
 30
0.0
  0
VERTEX
  5
4AD
330
471
100
AcDbEntity
  8
Predefinito
100
AcDbVertex
100
AcDb2dVertex
 10
1919.569151174593
 20
1551.437914299329
 30
0.0
  0
VERTEX
  5
4AE
330
471
100
AcDbEntity
  8
Predefinito
100
AcDbVertex
100
AcDb2dVertex
 10
1919.08827333561
 20
1554.053757780744
 30
0.0
  0
VERTEX
  5
4AF
330
471
100
AcDbEntity
  8
Predefinito
100
AcDbVertex
100
AcDb2dVertex
 10
1918.498187262594
 20
1557.744701703903
 30
0.0
  0
VERTEX
  5
4B0
330
471
100
AcDbEntity
  8
Predefinito
100
AcDbVertex
100
AcDb2dVertex
 10
1917.993741567188
 20
1561.447819107956
 30
0.0
  0
VERTEX
  5
4B1
330
471
100
AcDbEntity
  8
Predefinito
100
AcDbVertex
100
AcDb2dVertex
 10
1917.19566690879
 20
1568.880147148103
 30
0.0
  0
VERTEX
  5
4B2
330
471
100
AcDbEntity
  8
Predefinito
100
AcDbVertex
100
AcDb2dVertex
 10
1916.634165454152
 20
1576.104573475487
 30
0.0
  0
VERTEX
  5
4B3
330
471
100
AcDbEntity
  8
Predefinito
100
AcDbVertex
100
AcDb2dVertex
 10
1916.278399265744
 20
1583.34144512242
 30
0.0
  0
VERTEX
  5
4B4
330
471
100
AcDbEntity
  8
Predefinito
100
AcDbVertex
100
AcDb2dVertex
 10
1916.078518469262
 20
1601.775931926021
 30
0.0
  0
SEQEND
  5
4B5
330
471
100
AcDbEntity
  8
Predefinito
  0
LINE
  5
4B6
330
1F
100
AcDbEntity
  8
Predefinito
100
AcDbLine
 10
1937.919130801111
 20
1679.316759765996
 30
0.0
 11
1936.589137327584
 21
1676.463138437888
 31
0.0
  0
POLYLINE
  5
4B7
330
1F
100
AcDbEntity
  8
Linee visibili 2D
100
AcDb2dPolyline
 66
     1
 10
0.0
 20
0.0
 30
0.0
  0
VERTEX
  5
4B8
330
4B7
100
AcDbEntity
  8
Linee visibili 2D
100
AcDbVertex
100
AcDb2dVertex
 10
3474.118312092953
 20
149.245570439364
 30
0.0
 42
-0.2884053154171434
  0
VERTEX
  5
4B9
330
4B7
100
AcDbEntity
  8
Linee visibili 2D
100
AcDbVertex
100
AcDb2dVertex
 10
3472.131197363557
 20
148.2457454944893
 30
0.0
 42
0.0557208241569544
  0
VERTEX
  5
4BA
330
4B7
100
AcDbEntity
  8
Linee visibili 2D
100
AcDbVertex
100
AcDb2dVertex
 10
3265.182035872307
 20
127.7741318411813
 30
0.0
  0
VERTEX
  5
4BB
330
4B7
100
AcDbEntity
  8
Linee visibili 2D
100
AcDbVertex
100
AcDb2dVertex
 10
3252.075926799937
 20
124.6177164232958
 30
0.0
  0
VERTEX
  5
4BC
330
4B7
100
AcDbEntity
  8
Linee visibili 2D
100
AcDbVertex
100
AcDb2dVertex
 10
3239.043025810547
 20
121.1848850963604
 30
0.0
  0
VERTEX
  5
4BD
330
4B7
100
AcDbEntity
  8
Linee visibili 2D
100
AcDbVertex
100
AcDb2dVertex
 10
3226.162768957321
 20
117.5039259880131
 30
0.0
  0
VERTEX
  5
4BE
330
4B7
100
AcDbEntity
  8
Linee visibili 2D
100
AcDbVertex
100
AcDb2dVertex
 10
3213.362912602233
 20
113.5523828757132
 30
0.0
  0
VERTEX
  5
4BF
330
4B7
100
AcDbEntity
  8
Linee visibili 2D
100
AcDbVertex
100
AcDb2dVertex
 10
3200.266107640623
 20
109.1970241609118
 30
0.0
  0
VERTEX
  5
4C0
330
4B7
100
AcDbEntity
  8
Linee visibili 2D
100
AcDbVertex
100
AcDb2dVertex
 10
3187.26364079575
 20
104.5674594243739
 30
0.0
  0
VERTEX
  5
4C1
330
4B7
100
AcDbEntity
  8
Linee visibili 2D
100
AcDbVertex
100
AcDb2dVertex
 10
3174.354837041277
 20
99.68116916556471
 30
0.0
  0
VERTEX
  5
4C2
330
4B7
100
AcDbEntity
  8
Linee visibili 2D
100
AcDbVertex
100
AcDb2dVertex
 10
3161.539021350867
 20
94.55563388394931
 30
0.0
  0
VERTEX
  5
4C3
330
4B7
100
AcDbEntity
  8
Linee visibili 2D
100
AcDbVertex
100
AcDb2dVertex
 10
3137.48510870161
 20
84.25190611751769
 30
0.0
  0
VERTEX
  5
4C4
330
4B7
100
AcDbEntity
  8
Linee visibili 2D
100
AcDbVertex
100
AcDb2dVertex
 10
3113.707468602354
 20
73.32157327185121
 30
0.0
  0
VERTEX
  5
4C5
330
4B7
100
AcDbEntity
  8
Linee visibili 2D
100
AcDbVertex
100
AcDb2dVertex
 10
3023.125618661133
 20
29.10145295084947
 30
0.0
  0
VERTEX
  5
4C6
330
4B7
100
AcDbEntity
  8
Linee visibili 2D
100
AcDbVertex
100
AcDb2dVertex
 10
3007.810165274818
 20
22.20698221921029
 30
0.0
  0
VERTEX
  5
4C7
330
4B7
100
AcDbEntity
  8
Linee visibili 2D
100
AcDbVertex
100
AcDb2dVertex
 10
3000.073783433379
 20
18.93819877963861
 30
0.0
  0
VERTEX
  5
4C8
330
4B7
100
AcDbEntity
  8
Linee visibili 2D
100
AcDbVertex
100
AcDb2dVertex
 10
2992.277015042206
 20
15.81257421286606
 30
0.0
  0
VERTEX
  5
4C9
330
4B7
100
AcDbEntity
  8
Linee visibili 2D
100
AcDbVertex
100
AcDb2dVertex
 10
2991.457439033537
 20
15.49631987617487
 30
0.0
  0
VERTEX
  5
4CA
330
4B7
100
AcDbEntity
  8
Linee visibili 2D
100
AcDbVertex
100
AcDb2dVertex
 10
2982.432536893503
 20
12.17998387416156
 30
0.0
  0
VERTEX
  5
4CB
330
4B7
100
AcDbEntity
  8
Linee visibili 2D
100
AcDbVertex
100
AcDb2dVertex
 10
2973.305003890147
 20
9.150979080076032
 30
0.0
  0
VERTEX
  5
4CC
330
4B7
100
AcDbEntity
  8
Linee visibili 2D
100
AcDbVertex
100
AcDb2dVertex
 10
2968.702009105586
 20
7.763251399256493
 30
0.0
  0
VERTEX
  5
4CD
330
4B7
100
AcDbEntity
  8
Linee visibili 2D
100
AcDbVertex
100
AcDb2dVertex
 10
2964.072466554229
 20
6.470187136319272
 30
0.0
  0
VERTEX
  5
4CE
330
4B7
100
AcDbEntity
  8
Linee visibili 2D
100
AcDbVertex
100
AcDb2dVertex
 10
2959.416079552422
 20
5.279396496564491
 30
0.0
  0
VERTEX
  5
4CF
330
4B7
100
AcDbEntity
  8
Linee visibili 2D
100
AcDbVertex
100
AcDb2dVertex
 10
2954.73255141651
 20
4.198489685292278
 30
0.0
  0
VERTEX
  5
4D0
330
4B7
100
AcDbEntity
  8
Linee visibili 2D
100
AcDbVertex
100
AcDb2dVertex
 10
2950.558429045565
 20
3.337755560529162
 30
0.0
  0
VERTEX
  5
4D1
330
4B7
100
AcDbEntity
  8
Linee visibili 2D
100
AcDbVertex
100
AcDb2dVertex
 10
2946.365160631263
 20
2.571167169149612
 30
0.0
  0
VERTEX
  5
4D2
330
4B7
100
AcDbEntity
  8
Linee visibili 2D
100
AcDbVertex
100
AcDb2dVertex
 10
2942.155159701603
 20
1.900547996921669
 30
0.0
  0
VERTEX
  5
4D3
330
4B7
100
AcDbEntity
  8
Linee visibili 2D
100
AcDbVertex
100
AcDb2dVertex
 10
2937.930839784583
 20
1.327721529613376
 30
0.0
  0
VERTEX
  5
4D4
330
4B7
100
AcDbEntity
  8
Linee visibili 2D
100
AcDbVertex
100
AcDb2dVertex
 10
2933.694614408204
 20
0.8545112529927752
 30
0.0
  0
VERTEX
  5
4D5
330
4B7
100
AcDbEntity
  8
Linee visibili 2D
100
AcDbVertex
100
AcDb2dVertex
 10
2929.448897100462
 20
0.482740652827909
 30
0.0
  0
VERTEX
  5
4D6
330
4B7
100
AcDbEntity
  8
Linee visibili 2D
100
AcDbVertex
100
AcDb2dVertex
 10
2925.196101389359
 20
0.2142332148868195
 30
0.0
  0
VERTEX
  5
4D7
330
4B7
100
AcDbEntity
  8
Linee visibili 2D
100
AcDbVertex
100
AcDb2dVertex
 10
2920.938640802892
 20
0.0508124249375492
 30
0.0
  0
VERTEX
  5
4D8
330
4B7
100
AcDbEntity
  8
Linee visibili 2D
100
AcDbVertex
100
AcDb2dVertex
 10
2916.524215976275
 20
-0.0067139579752951
 30
0.0
  0
VERTEX
  5
4D9
330
4B7
100
AcDbEntity
  8
Linee visibili 2D
100
AcDbVertex
100
AcDb2dVertex
 10
2912.109510822899
 20
0.0466096419790741
 30
0.0
  0
VERTEX
  5
4DA
330
4B7
100
AcDbEntity
  8
Linee visibili 2D
100
AcDbVertex
100
AcDb2dVertex
 10
2907.696662758474
 20
0.2068214397962391
 30
0.0
  0
VERTEX
  5
4DB
330
4B7
100
AcDbEntity
  8
Linee visibili 2D
100
AcDbVertex
100
AcDb2dVertex
 10
2903.287809198712
 20
0.4699596504717826
 30
0.0
  0
VERTEX
  5
4DC
330
4B7
100
AcDbEntity
  8
Linee visibili 2D
100
AcDbVertex
100
AcDb2dVertex
 10
2898.885087559325
 20
0.8320624890012871
 30
0.0
  0
VERTEX
  5
4DD
330
4B7
100
AcDbEntity
  8
Linee visibili 2D
100
AcDbVertex
100
AcDb2dVertex
 10
2894.490635256023
 20
1.289168170380335
 30
0.0
  0
VERTEX
  5
4DE
330
4B7
100
AcDbEntity
  8
Linee visibili 2D
100
AcDbVertex
100
AcDb2dVertex
 10
2890.106589704518
 20
1.837314909604509
 30
0.0
  0
VERTEX
  5
4DF
330
4B7
100
AcDbEntity
  8
Linee visibili 2D
100
AcDbVertex
100
AcDb2dVertex
 10
2885.735088320521
 20
2.472540921669392
 30
0.0
  0
VERTEX
  5
4E0
330
4B7
100
AcDbEntity
  8
Linee visibili 2D
100
AcDbVertex
100
AcDb2dVertex
 10
2880.70050479119
 20
3.309893150757329
 30
0.0
  0
VERTEX
  5
4E1
330
4B7
100
AcDbEntity
  8
Linee visibili 2D
100
AcDbVertex
100
AcDb2dVertex
 10
2875.685333537428
 20
4.251499280925119
 30
0.0
  0
VERTEX
  5
4E2
330
4B7
100
AcDbEntity
  8
Linee visibili 2D
100
AcDbVertex
100
AcDb2dVertex
 10
2870.689375280257
 20
5.290585463565668
 30
0.0
  0
VERTEX
  5
4E3
330
4B7
100
AcDbEntity
  8
Linee visibili 2D
100
AcDbVertex
100
AcDb2dVertex
 10
2865.712430740697
 20
6.420377850071878
 30
0.0
  0
VERTEX
  5
4E4
330
4B7
100
AcDbEntity
  8
Linee visibili 2D
100
AcDbVertex
100
AcDb2dVertex
 10
2855.814785698491
 20
8.924985840252905
 30
0.0
  0
VERTEX
  5
4E5
330
4B7
100
AcDbEntity
  8
Linee visibili 2D
100
AcDbVertex
100
AcDb2dVertex
 10
2845.990804178975
 20
11.71113246261144
 30
0.0
  0
VERTEX
  5
4E6
330
4B7
100
AcDbEntity
  8
Linee visibili 2D
100
AcDbVertex
100
AcDb2dVertex
 10
2836.933309072046
 20
14.50722304865758
 30
0.0
  0
VERTEX
  5
4E7
330
4B7
100
AcDbEntity
  8
Linee visibili 2D
100
AcDbVertex
100
AcDb2dVertex
 10
2827.934502074994
 20
17.4824070943572
 30
0.0
  0
VERTEX
  5
4E8
330
4B7
100
AcDbEntity
  8
Linee visibili 2D
100
AcDbVertex
100
AcDb2dVertex
 10
2810.099170702457
 20
23.9024102770693
 30
0.0
  0
VERTEX
  5
4E9
330
4B7
100
AcDbEntity
  8
Linee visibili 2D
100
AcDbVertex
100
AcDb2dVertex
 10
2789.140670893736
 20
32.19965345419664
 30
0.0
  0
VERTEX
  5
4EA
330
4B7
100
AcDbEntity
  8
Linee visibili 2D
100
AcDbVertex
100
AcDb2dVertex
 10
2768.399981802154
 20
41.03561454963629
 30
0.0
  0
VERTEX
  5
4EB
330
4B7
100
AcDbEntity
  8
Linee visibili 2D
100
AcDbVertex
100
AcDb2dVertex
 10
2599.621435011998
 20
119.6784864708912
 30
0.0
  0
VERTEX
  5
4EC
330
4B7
100
AcDbEntity
  8
Linee visibili 2D
100
AcDbVertex
100
AcDb2dVertex
 10
2570.492089135357
 20
132.1904962022828
 30
0.0
  0
VERTEX
  5
4ED
330
4B7
100
AcDbEntity
  8
Linee visibili 2D
100
AcDbVertex
100
AcDb2dVertex
 10
2536.656715537097
 20
145.9646691073002
 30
0.0
  0
VERTEX
  5
4EE
330
4B7
100
AcDbEntity
  8
Linee visibili 2D
100
AcDbVertex
100
AcDb2dVertex
 10
2502.80599425317
 20
158.9966199806554
 30
0.0
  0
VERTEX
  5
4EF
330
4B7
100
AcDbEntity
  8
Linee visibili 2D
100
AcDbVertex
100
AcDb2dVertex
 10
2491.055777433378
 20
163.2801582874524
 30
0.0
  0
VERTEX
  5
4F0
330
4B7
100
AcDbEntity
  8
Linee visibili 2D
100
AcDbVertex
100
AcDb2dVertex
 10
2479.225929178108
 20
167.3355341459729
 30
0.0
  0
VERTEX
  5
4F1
330
4B7
100
AcDbEntity
  8
Linee visibili 2D
100
AcDbVertex
100
AcDb2dVertex
 10
2470.235188815745
 20
170.138319897705
 30
0.0
  0
VERTEX
  5
4F2
330
4B7
100
AcDbEntity
  8
Linee visibili 2D
100
AcDbVertex
100
AcDb2dVertex
 10
2466.969762591498
 20
171.0499296342897
 30
0.0
  0
VERTEX
  5
4F3
330
4B7
100
AcDbEntity
  8
Linee visibili 2D
100
AcDbVertex
100
AcDb2dVertex
 10
2465.327253178269
 20
171.4683502474518
 30
0.0
  0
VERTEX
  5
4F4
330
4B7
100
AcDbEntity
  8
Linee visibili 2D
100
AcDbVertex
100
AcDb2dVertex
 10
2463.676166848839
 20
171.8526096520363
 30
0.0
  0
SEQEND
  5
4F5
330
4B7
100
AcDbEntity
  8
Linee visibili 2D
  0
POLYLINE
  5
4F6
330
1F
100
AcDbEntity
  8
Linee visibili 2D
100
AcDb2dPolyline
 66
     1
 10
0.0
 20
0.0
 30
0.0
  0
VERTEX
  5
4F7
330
4F6
100
AcDbEntity
  8
Linee visibili 2D
100
AcDbVertex
100
AcDb2dVertex
 10
1931.78498281049
 20
296.1733464099472
 30
0.0
 42
-0.1320046749933182
  0
VERTEX
  5
4F8
330
4F6
100
AcDbEntity
  8
Linee visibili 2D
100
AcDbVertex
100
AcDb2dVertex
 10
1940.118792905479
 20
298.254908852774
 30
0.0
  0
VERTEX
  5
4F9
330
4F6
100
AcDbEntity
  8
Linee visibili 2D
100
AcDbVertex
100
AcDb2dVertex
 10
1940.118792905482
 20
295.3124689016587
 30
0.0
  0
SEQEND
  5
4FA
330
4F6
100
AcDbEntity
  8
Linee visibili 2D
  0
POLYLINE
  5
4FB
330
1F
100
AcDbEntity
  8
Predefinito
100
AcDb2dPolyline
 66
     1
 10
0.0
 20
0.0
 30
0.0
  0
VERTEX
  5
4FC
330
4FB
100
AcDbEntity
  8
Predefinito
100
AcDbVertex
100
AcDb2dVertex
 10
1940.118792905491
 20
297.292899050324
 30
0.0
 42
-0.2900833809456582
  0
VERTEX
  5
4FD
330
4FB
100
AcDbEntity
  8
Predefinito
100
AcDbVertex
100
AcDb2dVertex
 10
1942.107366450212
 20
298.2901916462767
 30
0.0
 42
0.1220428790088928
  0
VERTEX
  5
4FE
330
4FB
100
AcDbEntity
  8
Predefinito
100
AcDbVertex
100
AcDb2dVertex
 10
2025.016417725314
 20
318.9283446209724
 30
0.0
  0
VERTEX
  5
4FF
330
4FB
100
AcDbEntity
  8
Predefinito
100
AcDbVertex
100
AcDb2dVertex
 10
2032.594858841965
 20
323.0584665858307
 30
0.0
  0
VERTEX
  5
500
330
4FB
100
AcDbEntity
  8
Predefinito
100
AcDbVertex
100
AcDb2dVertex
 10
2036.529170685688
 20
325.3475243344342
 30
0.0
  0
VERTEX
  5
501
330
4FB
100
AcDbEntity
  8
Predefinito
100
AcDbVertex
100
AcDb2dVertex
 10
2040.412582690254
 20
327.7196516623408
 30
0.0
  0
VERTEX
  5
502
330
4FB
100
AcDbEntity
  8
Predefinito
100
AcDbVertex
100
AcDb2dVertex
 10
2048.338570553545
 20
332.7975192576018
 30
0.0
  0
VERTEX
  5
503
330
4FB
100
AcDbEntity
  8
Predefinito
100
AcDbVertex
100
AcDb2dVertex
 10
2077.678441448445
 20
353.1992755219391
 30
0.0
  0
VERTEX
  5
504
330
4FB
100
AcDbEntity
  8
Predefinito
100
AcDbVertex
100
AcDb2dVertex
 10
2082.262134218969
 20
356.1000787084357
 30
0.0
  0
VERTEX
  5
505
330
4FB
100
AcDbEntity
  8
Predefinito
100
AcDbVertex
100
AcDb2dVertex
 10
2084.855002081875
 20
357.6393000330311
 30
0.0
  0
VERTEX
  5
506
330
4FB
100
AcDbEntity
  8
Predefinito
100
AcDbVertex
100
AcDb2dVertex
 10
2087.482774991334
 20
359.1187495376062
 30
0.0
  0
VERTEX
  5
507
330
4FB
100
AcDbEntity
  8
Predefinito
100
AcDbVertex
100
AcDb2dVertex
 10
2090.145508905726
 20
360.5336219261849
 30
0.0
  0
VERTEX
  5
508
330
4FB
100
AcDbEntity
  8
Predefinito
100
AcDbVertex
100
AcDb2dVertex
 10
2092.843259783429
 20
361.8791119027912
 30
0.0
  0
VERTEX
  5
509
330
4FB
100
AcDbEntity
  8
Predefinito
100
AcDbVertex
100
AcDb2dVertex
 10
2095.576083582822
 20
363.1504141714491
 30
0.0
  0
VERTEX
  5
50A
330
4FB
100
AcDbEntity
  8
Predefinito
100
AcDbVertex
100
AcDb2dVertex
 10
2098.344036262284
 20
364.3427234361827
 30
0.0
  0
VERTEX
  5
50B
330
4FB
100
AcDbEntity
  8
Predefinito
100
AcDbVertex
100
AcDb2dVertex
 10
2101.147173780193
 20
365.4512344010159
 30
0.0
  0
VERTEX
  5
50C
330
4FB
100
AcDbEntity
  8
Predefinito
100
AcDbVertex
100
AcDb2dVertex
 10
2103.985552094927
 20
366.4711417699727
 30
0.0
  0
VERTEX
  5
50D
330
4FB
100
AcDbEntity
  8
Predefinito
100
AcDbVertex
100
AcDb2dVertex
 10
2105.970176459564
 20
367.1270360041623
 30
0.0
  0
VERTEX
  5
50E
330
4FB
100
AcDbEntity
  8
Predefinito
100
AcDbVertex
100
AcDb2dVertex
 10
2107.967563723563
 20
367.739424236178
 30
0.0
  0
VERTEX
  5
50F
330
4FB
100
AcDbEntity
  8
Predefinito
100
AcDbVertex
100
AcDb2dVertex
 10
2109.976870750585
 20
368.3090356592962
 30
0.0
  0
VERTEX
  5
510
330
4FB
100
AcDbEntity
  8
Predefinito
100
AcDbVertex
100
AcDb2dVertex
 10
2111.997254404288
 20
368.8365994667935
 30
0.0
  0
VERTEX
  5
511
330
4FB
100
AcDbEntity
  8
Predefinito
100
AcDbVertex
100
AcDb2dVertex
 10
2114.027871548336
 20
369.3228448519463
 30
0.0
  0
VERTEX
  5
512
330
4FB
100
AcDbEntity
  8
Predefinito
100
AcDbVertex
100
AcDb2dVertex
 10
2116.06787904639
 20
369.7685010080312
 30
0.0
  0
VERTEX
  5
513
330
4FB
100
AcDbEntity
  8
Predefinito
100
AcDbVertex
100
AcDb2dVertex
 10
2118.116433762109
 20
370.1742971283246
 30
0.0
  0
VERTEX
  5
514
330
4FB
100
AcDbEntity
  8
Predefinito
100
AcDbVertex
100
AcDb2dVertex
 10
2120.172692559155
 20
370.540962406103
 30
0.0
  0
VERTEX
  5
515
330
4FB
100
AcDbEntity
  8
Predefinito
100
AcDbVertex
100
AcDb2dVertex
 10
2122.441761394698
 20
370.899972273171
 30
0.0
  0
VERTEX
  5
516
330
4FB
100
AcDbEntity
  8
Predefinito
100
AcDbVertex
100
AcDb2dVertex
 10
2124.718045913809
 20
371.2141720886806
 30
0.0
  0
VERTEX
  5
517
330
4FB
100
AcDbEntity
  8
Predefinito
100
AcDbVertex
100
AcDb2dVertex
 10
2127.000465273641
 20
371.4851885962548
 30
0.0
  0
VERTEX
  5
518
330
4FB
100
AcDbEntity
  8
Predefinito
100
AcDbVertex
100
AcDb2dVertex
 10
2129.287938631349
 20
371.7146485395166
 30
0.0
  0
VERTEX
  5
519
330
4FB
100
AcDbEntity
  8
Predefinito
100
AcDbVertex
100
AcDb2dVertex
 10
2133.873723969015
 20
372.0554057075951
 30
0.0
  0
VERTEX
  5
51A
330
4FB
100
AcDbEntity
  8
Predefinito
100
AcDbVertex
100
AcDb2dVertex
 10
2138.466755184049
 20
372.2494575419
 30
0.0
  0
VERTEX
  5
51B
330
4FB
100
AcDbEntity
  8
Predefinito
100
AcDbVertex
100
AcDb2dVertex
 10
2143.859811932087
 20
372.3062544909301
 30
0.0
  0
VERTEX
  5
51C
330
4FB
100
AcDbEntity
  8
Predefinito
100
AcDbVertex
100
AcDb2dVertex
 10
2149.249064766322
 20
372.1915655080128
 30
0.0
  0
VERTEX
  5
51D
330
4FB
100
AcDbEntity
  8
Predefinito
100
AcDbVertex
100
AcDb2dVertex
 10
2154.632641444658
 20
371.9182534691096
 30
0.0
  0
VERTEX
  5
51E
330
4FB
100
AcDbEntity
  8
Predefinito
100
AcDbVertex
100
AcDb2dVertex
 10
2160.008669724996
 20
371.4991812501821
 30
0.0
  0
VERTEX
  5
51F
330
4FB
100
AcDbEntity
  8
Predefinito
100
AcDbVertex
100
AcDb2dVertex
 10
2165.375277365241
 20
370.9472117271918
 30
0.0
  0
VERTEX
  5
520
330
4FB
100
AcDbEntity
  8
Predefinito
100
AcDbVertex
100
AcDb2dVertex
 10
2170.730592123294
 20
370.2752077761002
 30
0.0
  0
VERTEX
  5
521
330
4FB
100
AcDbEntity
  8
Predefinito
100
AcDbVertex
100
AcDb2dVertex
 10
2176.072741757059
 20
369.4960322728689
 30
0.0
  0
VERTEX
  5
522
330
4FB
100
AcDbEntity
  8
Predefinito
100
AcDbVertex
100
AcDb2dVertex
 10
2181.399854024437
 20
368.6225480934596
 30
0.0
  0
VERTEX
  5
523
330
4FB
100
AcDbEntity
  8
Predefinito
100
AcDbVertex
100
AcDb2dVertex
 10
2194.282175257596
 20
366.1674728479092
 30
0.0
  0
VERTEX
  5
524
330
4FB
100
AcDbEntity
  8
Predefinito
100
AcDbVertex
100
AcDb2dVertex
 10
2207.077724782146
 20
363.3101089826033
 30
0.0
  0
VERTEX
  5
525
330
4FB
100
AcDbEntity
  8
Predefinito
100
AcDbVertex
100
AcDb2dVertex
 10
2219.799657645435
 20
360.1294690628314
 30
0.0
  0
VERTEX
  5
526
330
4FB
100
AcDbEntity
  8
Predefinito
100
AcDbVertex
100
AcDb2dVertex
 10
2232.461128894806
 20
356.7045656538829
 30
0.0
  0
VERTEX
  5
527
330
4FB
100
AcDbEntity
  8
Predefinito
100
AcDbVertex
100
AcDb2dVertex
 10
2327.047163343574
 20
328.0999565259559
 30
0.0
  0
VERTEX
  5
528
330
4FB
100
AcDbEntity
  8
Predefinito
100
AcDbVertex
100
AcDb2dVertex
 10
2361.06669724744
 20
318.2869935616346
 30
0.0
  0
VERTEX
  5
529
330
4FB
100
AcDbEntity
  8
Predefinito
100
AcDbVertex
100
AcDb2dVertex
 10
2384.631022821303
 20
312.1093561967717
 30
0.0
  0
VERTEX
  5
52A
330
4FB
100
AcDbEntity
  8
Predefinito
100
AcDbVertex
100
AcDb2dVertex
 10
2396.133113993683
 20
309.336596661693
 30
0.0
  0
VERTEX
  5
52B
330
4FB
100
AcDbEntity
  8
Predefinito
100
AcDbVertex
100
AcDb2dVertex
 10
2407.691507638495
 20
306.7973936838835
 30
0.0
  0
VERTEX
  5
52C
330
4FB
100
AcDbEntity
  8
Predefinito
100
AcDbVertex
100
AcDb2dVertex
 10
2419.29907333017
 20
304.4933897506383
 30
0.0
  0
VERTEX
  5
52D
330
4FB
100
AcDbEntity
  8
Predefinito
100
AcDbVertex
100
AcDb2dVertex
 10
2430.948619844893
 20
302.4259365399485
 30
0.0
  0
VERTEX
  5
52E
330
4FB
100
AcDbEntity
  8
Predefinito
100
AcDbVertex
100
AcDb2dVertex
 10
2442.127742287543
 20
300.7637384243273
 30
0.0
  0
VERTEX
  5
52F
330
4FB
100
AcDbEntity
  8
Predefinito
100
AcDbVertex
100
AcDb2dVertex
 10
2453.350770113123
 20
299.4298240381759
 30
0.0
  0
VERTEX
  5
530
330
4FB
100
AcDbEntity
  8
Predefinito
100
AcDbVertex
100
AcDb2dVertex
 10
2464.148666637744
 20
298.4952696134645
 30
0.0
  0
VERTEX
  5
531
330
4FB
100
AcDbEntity
  8
Predefinito
100
AcDbVertex
100
AcDb2dVertex
 10
2474.971725469461
 20
297.9213716657832
 30
0.0
  0
VERTEX
  5
532
330
4FB
100
AcDbEntity
  8
Predefinito
100
AcDbVertex
100
AcDb2dVertex
 10
2485.692964509881
 20
297.718950086935
 30
0.0
  0
VERTEX
  5
533
330
4FB
100
AcDbEntity
  8
Predefinito
100
AcDbVertex
100
AcDb2dVertex
 10
2506.593490674138
 20
298.7423829594045
 30
0.0
  0
VERTEX
  5
534
330
4FB
100
AcDbEntity
  8
Predefinito
100
AcDbVertex
100
AcDb2dVertex
 10
2512.142044852104
 20
299.3932815925678
 30
0.0
  0
VERTEX
  5
535
330
4FB
100
AcDbEntity
  8
Predefinito
100
AcDbVertex
100
AcDb2dVertex
 10
2517.669206779129
 20
300.201708748503
 30
0.0
  0
VERTEX
  5
536
330
4FB
100
AcDbEntity
  8
Predefinito
100
AcDbVertex
100
AcDb2dVertex
 10
2523.174283802642
 20
301.1512802602831
 30
0.0
  0
VERTEX
  5
537
330
4FB
100
AcDbEntity
  8
Predefinito
100
AcDbVertex
100
AcDb2dVertex
 10
2528.656583270069
 20
302.2256119609813
 30
0.0
  0
VERTEX
  5
538
330
4FB
100
AcDbEntity
  8
Predefinito
100
AcDbVertex
100
AcDb2dVertex
 10
2535.249953267527
 20
303.6680247975797
 30
0.0
  0
VERTEX
  5
539
330
4FB
100
AcDbEntity
  8
Predefinito
100
AcDbVertex
100
AcDb2dVertex
 10
2541.812141068141
 20
305.2474327542767
 30
0.0
  0
VERTEX
  5
53A
330
4FB
100
AcDbEntity
  8
Predefinito
100
AcDbVertex
100
AcDb2dVertex
 10
2554.855296558654
 20
308.7323481854356
 30
0.0
  0
VERTEX
  5
53B
330
4FB
100
AcDbEntity
  8
Predefinito
100
AcDbVertex
100
AcDb2dVertex
 10
2685.393697950596
 20
349.464706540801
 30
0.0
  0
VERTEX
  5
53C
330
4FB
100
AcDbEntity
  8
Predefinito
100
AcDbVertex
100
AcDb2dVertex
 10
2708.252004351469
 20
355.6342929849815
 30
0.0
  0
VERTEX
  5
53D
330
4FB
100
AcDbEntity
  8
Predefinito
100
AcDbVertex
100
AcDb2dVertex
 10
2727.290926540836
 20
360.2019126959302
 30
0.0
  0
VERTEX
  5
53E
330
4FB
100
AcDbEntity
  8
Predefinito
100
AcDbVertex
100
AcDb2dVertex
 10
2746.460475930198
 20
364.1653950888035
 30
0.0
  0
VERTEX
  5
53F
330
4FB
100
AcDbEntity
  8
Predefinito
100
AcDbVertex
100
AcDb2dVertex
 10
2756.094254527172
 20
365.8836405903857
 30
0.0
  0
VERTEX
  5
540
330
4FB
100
AcDbEntity
  8
Predefinito
100
AcDbVertex
100
AcDb2dVertex
 10
2765.760712366899
 20
367.4065187217574
 30
0.0
  0
VERTEX
  5
541
330
4FB
100
AcDbEntity
  8
Predefinito
100
AcDbVertex
100
AcDb2dVertex
 10
2775.459856930296
 20
368.7192518026883
 30
0.0
  0
VERTEX
  5
542
330
4FB
100
AcDbEntity
  8
Predefinito
100
AcDbVertex
100
AcDb2dVertex
 10
2785.191695698281
 20
369.8070621529478
 30
0.0
  0
VERTEX
  5
543
330
4FB
100
AcDbEntity
  8
Predefinito
100
AcDbVertex
100
AcDb2dVertex
 10
2808.397191444386
 20
371.5240475464331
 30
0.0
  0
VERTEX
  5
544
330
4FB
100
AcDbEntity
  8
Predefinito
100
AcDbVertex
100
AcDb2dVertex
 10
2820.425917367543
 20
371.8980451968268
 30
0.0
  0
VERTEX
  5
545
330
4FB
100
AcDbEntity
  8
Predefinito
100
AcDbVertex
100
AcDb2dVertex
 10
2832.463537239641
 20
371.9209381020971
 30
0.0
  0
VERTEX
  5
546
330
4FB
100
AcDbEntity
  8
Predefinito
100
AcDbVertex
100
AcDb2dVertex
 10
2844.497562012641
 20
371.5905498306548
 30
0.0
  0
VERTEX
  5
547
330
4FB
100
AcDbEntity
  8
Predefinito
100
AcDbVertex
100
AcDb2dVertex
 10
2856.515502638497
 20
370.904703950911
 30
0.0
  0
VERTEX
  5
548
330
4FB
100
AcDbEntity
  8
Predefinito
100
AcDbVertex
100
AcDb2dVertex
 10
2868.627595207426
 20
369.8506156577453
 30
0.0
  0
VERTEX
  5
549
330
4FB
100
AcDbEntity
  8
Predefinito
100
AcDbVertex
100
AcDb2dVertex
 10
2880.702664752552
 20
368.4405108278625
 30
0.0
  0
VERTEX
  5
54A
330
4FB
100
AcDbEntity
  8
Predefinito
100
AcDbVertex
100
AcDb2dVertex
 10
2892.732846293643
 20
366.683327171002
 30
0.0
  0
VERTEX
  5
54B
330
4FB
100
AcDbEntity
  8
Predefinito
100
AcDbVertex
100
AcDb2dVertex
 10
2904.710274850468
 20
364.5880023969038
 30
0.0
  0
VERTEX
  5
54C
330
4FB
100
AcDbEntity
  8
Predefinito
100
AcDbVertex
100
AcDb2dVertex
 10
2914.936811710637
 20
362.5273208020028
 30
0.0
  0
VERTEX
  5
54D
330
4FB
100
AcDbEntity
  8
Predefinito
100
AcDbVertex
100
AcDb2dVertex
 10
2925.112267584299
 20
360.2267598483634
 30
0.0
  0
VERTEX
  5
54E
330
4FB
100
AcDbEntity
  8
Predefinito
100
AcDbVertex
100
AcDb2dVertex
 10
2935.230170289037
 20
357.6887012038746
 30
0.0
  0
VERTEX
  5
54F
330
4FB
100
AcDbEntity
  8
Predefinito
100
AcDbVertex
100
AcDb2dVertex
 10
2945.284047642434
 20
354.9155265364255
 30
0.0
  0
VERTEX
  5
550
330
4FB
100
AcDbEntity
  8
Predefinito
100
AcDbVertex
100
AcDb2dVertex
 10
2959.079972491934
 20
350.7271691717594
 30
0.0
  0
VERTEX
  5
551
330
4FB
100
AcDbEntity
  8
Predefinito
100
AcDbVertex
100
AcDb2dVertex
 10
3009.050000394804
 20
334.5853259531808
 30
0.0
  0
VERTEX
  5
552
330
4FB
100
AcDbEntity
  8
Predefinito
100
AcDbVertex
100
AcDb2dVertex
 10
3017.944977173041
 20
332.0874412088864
 30
0.0
  0
VERTEX
  5
553
330
4FB
100
AcDbEntity
  8
Predefinito
100
AcDbVertex
100
AcDb2dVertex
 10
3026.89215095585
 20
329.880436468604
 30
0.0
  0
VERTEX
  5
554
330
4FB
100
AcDbEntity
  8
Predefinito
100
AcDbVertex
100
AcDb2dVertex
 10
3035.907427901936
 20
327.9627921329474
 30
0.0
  0
VERTEX
  5
555
330
4FB
100
AcDbEntity
  8
Predefinito
100
AcDbVertex
100
AcDb2dVertex
 10
3044.978593283992
 20
326.3216550836632
 30
0.0
  0
VERTEX
  5
556
330
4FB
100
AcDbEntity
  8
Predefinito
100
AcDbVertex
100
AcDb2dVertex
 10
3054.093432374706
 20
324.9441722024979
 30
0.0
  0
VERTEX
  5
557
330
4FB
100
AcDbEntity
  8
Predefinito
100
AcDbVertex
100
AcDb2dVertex
 10
3066.130253792038
 20
323.5108327344313
 30
0.0
  0
VERTEX
  5
558
330
4FB
100
AcDbEntity
  8
Predefinito
100
AcDbVertex
100
AcDb2dVertex
 10
3078.208050664049
 20
322.4737775805321
 30
0.0
  0
VERTEX
  5
559
330
4FB
100
AcDbEntity
  8
Predefinito
100
AcDbVertex
100
AcDb2dVertex
 10
3090.313376348066
 20
321.7954207080352
 30
0.0
  0
VERTEX
  5
55A
330
4FB
100
AcDbEntity
  8
Predefinito
100
AcDbVertex
100
AcDb2dVertex
 10
3102.432784201415
 20
321.4381760841757
 30
0.0
  0
VERTEX
  5
55B
330
4FB
100
AcDbEntity
  8
Predefinito
100
AcDbVertex
100
AcDb2dVertex
 10
3117.803078752288
 20
321.3854268081781
 30
0.0
  0
VERTEX
  5
55C
330
4FB
100
AcDbEntity
  8
Predefinito
100
AcDbVertex
100
AcDb2dVertex
 10
3133.171068108566
 20
321.6961904088508
 30
0.0
  0
VERTEX
  5
55D
330
4FB
100
AcDbEntity
  8
Predefinito
100
AcDbVertex
100
AcDb2dVertex
 10
3163.886823366757
 20
323.0389416192826
 30
0.0
  0
VERTEX
  5
55E
330
4FB
100
AcDbEntity
  8
Predefinito
100
AcDbVertex
100
AcDb2dVertex
 10
3186.143114826175
 20
324.1856984568734
 30
0.0
 42
-0.0543443662824989
  0
VERTEX
  5
55F
330
4FB
100
AcDbEntity
  8
Predefinito
100
AcDbVertex
100
AcDb2dVertex
 10
3296.679140664353
 20
319.3845060151652
 30
0.0
  0
VERTEX
  5
560
330
4FB
100
AcDbEntity
  8
Predefinito
100
AcDbVertex
100
AcDb2dVertex
 10
3331.488370913657
 20
313.8476497270265
 30
0.0
 42
0.0460393519036999
  0
VERTEX
  5
561
330
4FB
100
AcDbEntity
  8
Predefinito
100
AcDbVertex
100
AcDb2dVertex
 10
3472.132349271893
 20
298.267499445068
 30
0.0
 42
-0.285428022907986
  0
VERTEX
  5
562
330
4FB
100
AcDbEntity
  8
Predefinito
100
AcDbVertex
100
AcDb2dVertex
 10
3474.118312092977
 20
297.2667441417114
 30
0.0
  0
SEQEND
  5
563
330
4FB
100
AcDbEntity
  8
Predefinito
  0
POLYLINE
  5
564
330
1F
100
AcDbEntity
  8
Linee visibili 2D
100
AcDb2dPolyline
 66
     1
 10
0.0
 20
0.0
 30
0.0
  0
VERTEX
  5
565
330
564
100
AcDbEntity
  8
Linee visibili 2D
100
AcDbVertex
100
AcDb2dVertex
 10
2469.707847605155
 20
170.2898516529916
 30
0.0
  0
VERTEX
  5
566
330
564
100
AcDbEntity
  8
Linee visibili 2D
100
AcDbVertex
100
AcDb2dVertex
 10
2464.741766489575
 20
169.4173799954956
 30
0.0
  0
VERTEX
  5
567
330
564
100
AcDbEntity
  8
Linee visibili 2D
100
AcDbVertex
100
AcDb2dVertex
 10
2459.793690713876
 20
168.4487499610384
 30
0.0
  0
VERTEX
  5
568
330
564
100
AcDbEntity
  8
Linee visibili 2D
100
AcDbVertex
100
AcDb2dVertex
 10
2449.944837651015
 20
166.2802142207688
 30
0.0
  0
VERTEX
  5
569
330
564
100
AcDbEntity
  8
Linee visibili 2D
100
AcDbVertex
100
AcDb2dVertex
 10
2437.623485396103
 20
163.2384910470764
 30
0.0
  0
VERTEX
  5
56A
330
564
100
AcDbEntity
  8
Linee visibili 2D
100
AcDbVertex
100
AcDb2dVertex
 10
2425.367130172137
 20
159.9445165636644
 30
0.0
  0
VERTEX
  5
56B
330
564
100
AcDbEntity
  8
Linee visibili 2D
100
AcDbVertex
100
AcDb2dVertex
 10
2339.906068818903
 20
134.2991924647462
 30
0.0
  0
VERTEX
  5
56C
330
564
100
AcDbEntity
  8
Linee visibili 2D
100
AcDbVertex
100
AcDb2dVertex
 10
2311.255664560865
 20
126.330789618576
 30
0.0
  0
VERTEX
  5
56D
330
564
100
AcDbEntity
  8
Linee visibili 2D
100
AcDbVertex
100
AcDb2dVertex
 10
2297.9016193861
 20
123.0048821803922
 30
0.0
  0
VERTEX
  5
56E
330
564
100
AcDbEntity
  8
Linee visibili 2D
100
AcDbVertex
100
AcDb2dVertex
 10
2284.475301982429
 20
119.9879559108018
 30
0.0
  0
VERTEX
  5
56F
330
564
100
AcDbEntity
  8
Linee visibili 2D
100
AcDbVertex
100
AcDb2dVertex
 10
2270.974574783606
 20
117.3423196982015
 30
0.0
  0
VERTEX
  5
570
330
564
100
AcDbEntity
  8
Linee visibili 2D
100
AcDbVertex
100
AcDb2dVertex
 10
2257.397300223386
 20
115.1302824309881
 30
0.0
  0
VERTEX
  5
571
330
564
100
AcDbEntity
  8
Linee visibili 2D
100
AcDbVertex
100
AcDb2dVertex
 10
2249.878496542914
 20
114.1192300582898
 30
0.0
  0
VERTEX
  5
572
330
564
100
AcDbEntity
  8
Linee visibili 2D
100
AcDbVertex
100
AcDb2dVertex
 10
2242.339006218996
 20
113.2721479858955
 30
0.0
  0
VERTEX
  5
573
330
564
100
AcDbEntity
  8
Linee visibili 2D
100
AcDbVertex
100
AcDb2dVertex
 10
2234.782062154788
 20
112.6022547641357
 30
0.0
  0
VERTEX
  5
574
330
564
100
AcDbEntity
  8
Linee visibili 2D
100
AcDbVertex
100
AcDb2dVertex
 10
2227.210897253443
 20
112.1227689433411
 30
0.0
  0
VERTEX
  5
575
330
564
100
AcDbEntity
  8
Linee visibili 2D
100
AcDbVertex
100
AcDb2dVertex
 10
2219.988239178111
 20
111.852566553735
 30
0.0
  0
VERTEX
  5
576
330
564
100
AcDbEntity
  8
Linee visibili 2D
100
AcDbVertex
100
AcDb2dVertex
 10
2212.760700352678
 20
111.7629049422098
 30
0.0
  0
VERTEX
  5
577
330
564
100
AcDbEntity
  8
Linee visibili 2D
100
AcDbVertex
100
AcDb2dVertex
 10
2205.533372323855
 20
111.8495204980005
 30
0.0
  0
VERTEX
  5
578
330
564
100
AcDbEntity
  8
Linee visibili 2D
100
AcDbVertex
100
AcDb2dVertex
 10
2198.31134663835
 20
112.1081496103421
 30
0.0
  0
VERTEX
  5
579
330
564
100
AcDbEntity
  8
Linee visibili 2D
100
AcDbVertex
100
AcDb2dVertex
 10
2189.733149482664
 20
112.6316278889628
 30
0.0
  0
VERTEX
  5
57A
330
564
100
AcDbEntity
  8
Linee visibili 2D
100
AcDbVertex
100
AcDb2dVertex
 10
2181.170870102949
 20
113.3716215399672
 30
0.0
  0
VERTEX
  5
57B
330
564
100
AcDbEntity
  8
Linee visibili 2D
100
AcDbVertex
100
AcDb2dVertex
 10
2172.625718738679
 20
114.3072768233093
 30
0.0
  0
VERTEX
  5
57C
330
564
100
AcDbEntity
  8
Linee visibili 2D
100
AcDbVertex
100
AcDb2dVertex
 10
2164.098905629325
 20
115.4177399989429
 30
0.0
  0
VERTEX
  5
57D
330
564
100
AcDbEntity
  8
Linee visibili 2D
100
AcDbVertex
100
AcDb2dVertex
 10
2147.105135133249
 20
118.0796750668999
 30
0.0
  0
VERTEX
  5
57E
330
564
100
AcDbEntity
  8
Linee visibili 2D
100
AcDbVertex
100
AcDb2dVertex
 10
2130.199240530496
 20
121.1905968234695
 30
0.0
  0
VERTEX
  5
57F
330
564
100
AcDbEntity
  8
Linee visibili 2D
100
AcDbVertex
100
AcDb2dVertex
 10
2129.073048486137
 20
121.4106916261348
 30
0.0
  0
VERTEX
  5
580
330
564
100
AcDbEntity
  8
Linee visibili 2D
100
AcDbVertex
100
AcDb2dVertex
 10
2040.960083302215
 20
139.2693798868777
 30
0.0
  0
VERTEX
  5
581
330
564
100
AcDbEntity
  8
Linee visibili 2D
100
AcDbVertex
100
AcDb2dVertex
 10
2022.170995011187
 20
142.2884321724805
 30
0.0
  0
VERTEX
  5
582
330
564
100
AcDbEntity
  8
Linee visibili 2D
100
AcDbVertex
100
AcDb2dVertex
 10
2003.051145798587
 20
144.7522768998645
 30
0.0
  0
VERTEX
  5
583
330
564
100
AcDbEntity
  8
Linee visibili 2D
100
AcDbVertex
100
AcDb2dVertex
 10
1983.859842022342
 20
146.5761226288526
 30
0.0
  0
VERTEX
  5
584
330
564
100
AcDbEntity
  8
Linee visibili 2D
100
AcDbVertex
100
AcDb2dVertex
 10
1964.617729473859
 20
147.7412525654482
 30
0.0
  0
VERTEX
  5
585
330
564
100
AcDbEntity
  8
Linee visibili 2D
100
AcDbVertex
100
AcDb2dVertex
 10
1954.984071719842
 20
148.070950113475
 30
0.0
  0
VERTEX
  5
586
330
564
100
AcDbEntity
  8
Linee visibili 2D
100
AcDbVertex
100
AcDb2dVertex
 10
1945.345453944542
 20
148.2289499156549
 30
0.0
  0
SEQEND
  5
587
330
564
100
AcDbEntity
  8
Linee visibili 2D
  0
CIRCLE
  5
588
330
1F
100
AcDbEntity
  8
Linee visibili 2D
100
AcDbCircle
 10
1928.25747159207
 20
221.2563479072268
 30
0.0
 40
75.0000000003638
  0
POLYLINE
  5
589
330
1F
100
AcDbEntity
  8
Linee visibili 2D
100
AcDb2dPolyline
 66
     1
 10
0.0
 20
0.0
 30
0.0
  0
VERTEX
  5
58A
330
589
100
AcDbEntity
  8
Linee visibili 2D
100
AcDbVertex
100
AcDb2dVertex
 10
3474.11831209297
 20
215.3512971875286
 30
0.0
  0
VERTEX
  5
58B
330
589
100
AcDbEntity
  8
Linee visibili 2D
100
AcDbVertex
100
AcDb2dVertex
 10
3474.11831209297
 20
148.2936288362399
 30
0.0
  0
VERTEX
  5
58C
330
589
100
AcDbEntity
  8
Linee visibili 2D
100
AcDbVertex
100
AcDb2dVertex
 10
3474.510541184593
 20
148.2908804246692
 30
0.0
  0
VERTEX
  5
58D
330
589
100
AcDbEntity
  8
Linee visibili 2D
100
AcDbVertex
100
AcDb2dVertex
 10
3474.902954897039
 20
148.2966089890869
 30
0.0
  0
VERTEX
  5
58E
330
589
100
AcDbEntity
  8
Linee visibili 2D
100
AcDbVertex
100
AcDb2dVertex
 10
3475.295304461985
 20
148.3109035505186
 30
0.0
  0
VERTEX
  5
58F
330
589
100
AcDbEntity
  8
Linee visibili 2D
100
AcDbVertex
100
AcDb2dVertex
 10
3475.687341111109
 20
148.3338531299901
 30
0.0
  0
VERTEX
  5
590
330
589
100
AcDbEntity
  8
Linee visibili 2D
100
AcDbVertex
100
AcDb2dVertex
 10
3476.078816076087
 20
148.3655467485271
 30
0.0
  0
VERTEX
  5
591
330
589
100
AcDbEntity
  8
Linee visibili 2D
100
AcDbVertex
100
AcDb2dVertex
 10
3476.469480588596
 20
148.4060734271554
 30
0.0
  0
VERTEX
  5
592
330
589
100
AcDbEntity
  8
Linee visibili 2D
100
AcDbVertex
100
AcDb2dVertex
 10
3476.859085880312
 20
148.4555221869008
 30
0.0
  0
VERTEX
  5
593
330
589
100
AcDbEntity
  8
Linee visibili 2D
100
AcDbVertex
100
AcDb2dVertex
 10
3477.247383182913
 20
148.5139820487889
 30
0.0
  0
VERTEX
  5
594
330
589
100
AcDbEntity
  8
Linee visibili 2D
100
AcDbVertex
100
AcDb2dVertex
 10
3477.634123728077
 20
148.5815420338457
 30
0.0
  0
VERTEX
  5
595
330
589
100
AcDbEntity
  8
Linee visibili 2D
100
AcDbVertex
100
AcDb2dVertex
 10
3478.019058747479
 20
148.6582911630968
 30
0.0
  0
VERTEX
  5
596
330
589
100
AcDbEntity
  8
Linee visibili 2D
100
AcDbVertex
100
AcDb2dVertex
 10
3478.401939472797
 20
148.7443184575681
 30
0.0
  0
VERTEX
  5
597
330
589
100
AcDbEntity
  8
Linee visibili 2D
100
AcDbVertex
100
AcDb2dVertex
 10
3478.782517135707
 20
148.8397129382851
 30
0.0
  0
VERTEX
  5
598
330
589
100
AcDbEntity
  8
Linee visibili 2D
100
AcDbVertex
100
AcDb2dVertex
 10
3479.160542967888
 20
148.9445636262738
 30
0.0
  0
VERTEX
  5
599
330
589
100
AcDbEntity
  8
Linee visibili 2D
100
AcDbVertex
100
AcDb2dVertex
 10
3479.535768201015
 20
149.0589595425599
 30
0.0
  0
VERTEX
  5
59A
330
589
100
AcDbEntity
  8
Linee visibili 2D
100
AcDbVertex
100
AcDb2dVertex
 10
3479.907944066765
 20
149.1829897081691
 30
0.0
  0
VERTEX
  5
59B
330
589
100
AcDbEntity
  8
Linee visibili 2D
100
AcDbVertex
100
AcDb2dVertex
 10
3480.276821796816
 20
149.3167431441272
 30
0.0
  0
VERTEX
  5
59C
330
589
100
AcDbEntity
  8
Linee visibili 2D
100
AcDbVertex
100
AcDb2dVertex
 10
3480.624686347371
 20
149.4531389594517
 30
0.0
  0
VERTEX
  5
59D
330
589
100
AcDbEntity
  8
Linee visibili 2D
100
AcDbVertex
100
AcDb2dVertex
 10
3480.969173209168
 20
149.5982415529842
 30
0.0
  0
VERTEX
  5
59E
330
589
100
AcDbEntity
  8
Linee visibili 2D
100
AcDbVertex
100
AcDb2dVertex
 10
3481.310118827755
 20
149.751865998475
 30
0.0
  0
VERTEX
  5
59F
330
589
100
AcDbEntity
  8
Linee visibili 2D
100
AcDbVertex
100
AcDb2dVertex
 10
3481.647359648678
 20
149.913827369674
 30
0.0
  0
VERTEX
  5
5A0
330
589
100
AcDbEntity
  8
Linee visibili 2D
100
AcDbVertex
100
AcDb2dVertex
 10
3481.980732117483
 20
150.0839407403313
 30
0.0
  0
VERTEX
  5
5A1
330
589
100
AcDbEntity
  8
Linee visibili 2D
100
AcDbVertex
100
AcDb2dVertex
 10
3482.310072679717
 20
150.262021184197
 30
0.0
  0
VERTEX
  5
5A2
330
589
100
AcDbEntity
  8
Linee visibili 2D
100
AcDbVertex
100
AcDb2dVertex
 10
3482.635217780927
 20
150.4478837750211
 30
0.0
  0
VERTEX
  5
5A3
330
589
100
AcDbEntity
  8
Linee visibili 2D
100
AcDbVertex
100
AcDb2dVertex
 10
3482.95600386666
 20
150.6413435865537
 30
0.0
  0
VERTEX
  5
5A4
330
589
100
AcDbEntity
  8
Linee visibili 2D
100
AcDbVertex
100
AcDb2dVertex
 10
3483.272267382462
 20
150.842215692545
 30
0.0
  0
VERTEX
  5
5A5
330
589
100
AcDbEntity
  8
Linee visibili 2D
100
AcDbVertex
100
AcDb2dVertex
 10
3483.58384477388
 20
151.0503151667449
 30
0.0
  0
VERTEX
  5
5A6
330
589
100
AcDbEntity
  8
Linee visibili 2D
100
AcDbVertex
100
AcDb2dVertex
 10
3483.89057248646
 20
151.2654570829036
 30
0.0
  0
VERTEX
  5
5A7
330
589
100
AcDbEntity
  8
Linee visibili 2D
100
AcDbVertex
100
AcDb2dVertex
 10
3484.19228696575
 20
151.4874565147711
 30
0.0
  0
VERTEX
  5
5A8
330
589
100
AcDbEntity
  8
Linee visibili 2D
100
AcDbVertex
100
AcDb2dVertex
 10
3484.488824657295
 20
151.7161285360976
 30
0.0
  0
VERTEX
  5
5A9
330
589
100
AcDbEntity
  8
Linee visibili 2D
100
AcDbVertex
100
AcDb2dVertex
 10
3484.780022006643
 20
151.951288220633
 30
0.0
  0
VERTEX
  5
5AA
330
589
100
AcDbEntity
  8
Linee visibili 2D
100
AcDbVertex
100
AcDb2dVertex
 10
3485.065715459341
 20
152.1927506421274
 30
0.0
  0
VERTEX
  5
5AB
330
589
100
AcDbEntity
  8
Linee visibili 2D
100
AcDbVertex
100
AcDb2dVertex
 10
3485.345741460934
 20
152.440330874331
 30
0.0
  0
VERTEX
  5
5AC
330
589
100
AcDbEntity
  8
Linee visibili 2D
100
AcDbVertex
100
AcDb2dVertex
 10
3485.656015605991
 20
152.7279909671972
 30
0.0
  0
VERTEX
  5
5AD
330
589
100
AcDbEntity
  8
Linee visibili 2D
100
AcDbVertex
100
AcDb2dVertex
 10
3485.958938316
 20
153.0229686008859
 30
0.0
  0
VERTEX
  5
5AE
330
589
100
AcDbEntity
  8
Linee visibili 2D
100
AcDbVertex
100
AcDb2dVertex
 10
3486.254643226213
 20
153.3249654673201
 30
0.0
  0
VERTEX
  5
5AF
330
589
100
AcDbEntity
  8
Linee visibili 2D
100
AcDbVertex
100
AcDb2dVertex
 10
3486.543263971883
 20
153.6336832584227
 30
0.0
  0
VERTEX
  5
5B0
330
589
100
AcDbEntity
  8
Linee visibili 2D
100
AcDbVertex
100
AcDb2dVertex
 10
3486.824934188259
 20
153.9488236661169
 30
0.0
  0
VERTEX
  5
5B1
330
589
100
AcDbEntity
  8
Linee visibili 2D
100
AcDbVertex
100
AcDb2dVertex
 10
3487.099787510596
 20
154.2700883823254
 30
0.0
  0
VERTEX
  5
5B2
330
589
100
AcDbEntity
  8
Linee visibili 2D
100
AcDbVertex
100
AcDb2dVertex
 10
3487.367957574144
 20
154.5971790989714
 30
0.0
  0
VERTEX
  5
5B3
330
589
100
AcDbEntity
  8
Linee visibili 2D
100
AcDbVertex
100
AcDb2dVertex
 10
3487.629578014155
 20
154.9297975079777
 30
0.0
  0
VERTEX
  5
5B4
330
589
100
AcDbEntity
  8
Linee visibili 2D
100
AcDbVertex
100
AcDb2dVertex
 10
3487.884782465882
 20
155.2676453012674
 30
0.0
  0
VERTEX
  5
5B5
330
589
100
AcDbEntity
  8
Linee visibili 2D
100
AcDbVertex
100
AcDb2dVertex
 10
3488.133704564576
 20
155.6104241707634
 30
0.0
  0
VERTEX
  5
5B6
330
589
100
AcDbEntity
  8
Linee visibili 2D
100
AcDbVertex
100
AcDb2dVertex
 10
3488.376477945488
 20
155.9578358083888
 30
0.0
  0
VERTEX
  5
5B7
330
589
100
AcDbEntity
  8
Linee visibili 2D
100
AcDbVertex
100
AcDb2dVertex
 10
3488.613236243872
 20
156.3095819060664
 30
0.0
  0
VERTEX
  5
5B8
330
589
100
AcDbEntity
  8
Linee visibili 2D
100
AcDbVertex
100
AcDb2dVertex
 10
3489.069242134058
 20
157.0248842492705
 30
0.0
  0
VERTEX
  5
5B9
330
589
100
AcDbEntity
  8
Linee visibili 2D
100
AcDbVertex
100
AcDb2dVertex
 10
3489.50279131715
 20
157.7539447357594
 30
0.0
  0
VERTEX
  5
5BA
330
589
100
AcDbEntity
  8
Linee visibili 2D
100
AcDbVertex
100
AcDb2dVertex
 10
3489.992883420809
 20
158.6403678335028
 30
0.0
  0
VERTEX
  5
5BB
330
589
100
AcDbEntity
  8
Linee visibili 2D
100
AcDbVertex
100
AcDb2dVertex
 10
3490.453904788382
 20
159.5416629162341
 30
0.0
  0
VERTEX
  5
5BC
330
589
100
AcDbEntity
  8
Linee visibili 2D
100
AcDbVertex
100
AcDb2dVertex
 10
3490.887329100058
 20
160.4564616764497
 30
0.0
  0
VERTEX
  5
5BD
330
589
100
AcDbEntity
  8
Linee visibili 2D
100
AcDbVertex
100
AcDb2dVertex
 10
3491.294630036027
 20
161.3833958066461
 30
0.0
  0
VERTEX
  5
5BE
330
589
100
AcDbEntity
  8
Linee visibili 2D
100
AcDbVertex
100
AcDb2dVertex
 10
3491.677281276476
 20
162.3210969993199
 30
0.0
  0
VERTEX
  5
5BF
330
589
100
AcDbEntity
  8
Linee visibili 2D
100
AcDbVertex
100
AcDb2dVertex
 10
3492.036756501593
 20
163.2681969469674
 30
0.0
  0
VERTEX
  5
5C0
330
589
100
AcDbEntity
  8
Linee visibili 2D
100
AcDbVertex
100
AcDb2dVertex
 10
3492.374529391568
 20
164.2233273420852
 30
0.0
  0
VERTEX
  5
5C1
330
589
100
AcDbEntity
  8
Linee visibili 2D
100
AcDbVertex
100
AcDb2dVertex
 10
3492.692073626589
 20
165.1851198771698
 30
0.0
  0
VERTEX
  5
5C2
330
589
100
AcDbEntity
  8
Linee visibili 2D
100
AcDbVertex
100
AcDb2dVertex
 10
3493.080581023994
 20
166.4559788617827
 30
0.0
  0
VERTEX
  5
5C3
330
589
100
AcDbEntity
  8
Linee visibili 2D
100
AcDbVertex
100
AcDb2dVertex
 10
3493.439285788418
 20
167.7350516216501
 30
0.0
  0
VERTEX
  5
5C4
330
589
100
AcDbEntity
  8
Linee visibili 2D
100
AcDbVertex
100
AcDb2dVertex
 10
3493.770710125228
 20
169.0214278313149
 30
0.0
  0
VERTEX
  5
5C5
330
589
100
AcDbEntity
  8
Linee visibili 2D
100
AcDbVertex
100
AcDb2dVertex
 10
3494.077376239789
 20
170.3141971653198
 30
0.0
  0
VERTEX
  5
5C6
330
589
100
AcDbEntity
  8
Linee visibili 2D
100
AcDbVertex
100
AcDb2dVertex
 10
3494.626522623629
 20
172.9152739045212
 30
0.0
  0
VERTEX
  5
5C7
330
589
100
AcDbEntity
  8
Linee visibili 2D
100
AcDbVertex
100
AcDb2dVertex
 10
3495.106902582866
 20
175.5309992355968
 30
0.0
  0
VERTEX
  5
5C8
330
589
100
AcDbEntity
  8
Linee visibili 2D
100
AcDbVertex
100
AcDb2dVertex
 10
3495.697152727542
 20
179.2218771166709
 30
0.0
  0
VERTEX
  5
5C9
330
589
100
AcDbEntity
  8
Linee visibili 2D
100
AcDbVertex
100
AcDb2dVertex
 10
3496.202377183119
 20
182.9247995943422
 30
0.0
  0
VERTEX
  5
5CA
330
589
100
AcDbEntity
  8
Linee visibili 2D
100
AcDbVertex
100
AcDb2dVertex
 10
3497.001734267545
 20
190.3567295474475
 30
0.0
  0
VERTEX
  5
5CB
330
589
100
AcDbEntity
  8
Linee visibili 2D
100
AcDbVertex
100
AcDb2dVertex
 10
3497.561993999773
 20
197.5803119327176
 30
0.0
  0
VERTEX
  5
5CC
330
589
100
AcDbEntity
  8
Linee visibili 2D
100
AcDbVertex
100
AcDb2dVertex
 10
3497.916534982381
 20
204.8163875132727
 30
0.0
  0
VERTEX
  5
5CD
330
589
100
AcDbEntity
  8
Linee visibili 2D
100
AcDbVertex
100
AcDb2dVertex
 10
3498.118312092955
 20
223.2521277759224
 30
0.0
  0
VERTEX
  5
5CE
330
589
100
AcDbEntity
  8
Linee visibili 2D
100
AcDbVertex
100
AcDb2dVertex
 10
3497.940761826576
 20
240.7553299665376
 30
0.0
  0
VERTEX
  5
5CF
330
589
100
AcDbEntity
  8
Linee visibili 2D
100
AcDbVertex
100
AcDb2dVertex
 10
3497.613451217948
 20
248.1707622541322
 30
0.0
  0
VERTEX
  5
5D0
330
589
100
AcDbEntity
  8
Linee visibili 2D
100
AcDbVertex
100
AcDb2dVertex
 10
3497.032816960714
 20
255.86008618567
 30
0.0
  0
VERTEX
  5
5D1
330
589
100
AcDbEntity
  8
Linee visibili 2D
100
AcDbVertex
100
AcDb2dVertex
 10
3496.128893592762
 20
264.0782442137365
 30
0.0
  0
VERTEX
  5
5D2
330
589
100
AcDbEntity
  8
Linee visibili 2D
100
AcDbVertex
100
AcDb2dVertex
 10
3495.294854114322
 20
269.9198578709419
 30
0.0
  0
VERTEX
  5
5D3
330
589
100
AcDbEntity
  8
Linee visibili 2D
100
AcDbVertex
100
AcDb2dVertex
 10
3494.773436176251
 20
272.888301302202
 30
0.0
  0
VERTEX
  5
5D4
330
589
100
AcDbEntity
  8
Linee visibili 2D
100
AcDbVertex
100
AcDb2dVertex
 10
3494.16169636159
 20
275.8442396300633
 30
0.0
  0
VERTEX
  5
5D5
330
589
100
AcDbEntity
  8
Linee visibili 2D
100
AcDbVertex
100
AcDb2dVertex
 10
3493.817098779282
 20
277.3071452774449
 30
0.0
  0
VERTEX
  5
5D6
330
589
100
AcDbEntity
  8
Linee visibili 2D
100
AcDbVertex
100
AcDb2dVertex
 10
3493.44409236232
 20
278.7544757256475
 30
0.0
  0
VERTEX
  5
5D7
330
589
100
AcDbEntity
  8
Linee visibili 2D
100
AcDbVertex
100
AcDb2dVertex
 10
3493.0407343222
 20
280.1820813335614
 30
0.0
  0
VERTEX
  5
5D8
330
589
100
AcDbEntity
  8
Linee visibili 2D
100
AcDbVertex
100
AcDb2dVertex
 10
3492.605081870422
 20
281.5858124600769
 30
0.0
  0
VERTEX
  5
5D9
330
589
100
AcDbEntity
  8
Linee visibili 2D
100
AcDbVertex
100
AcDb2dVertex
 10
3492.135192218483
 20
282.9615194640842
 30
0.0
  0
VERTEX
  5
5DA
330
589
100
AcDbEntity
  8
Linee visibili 2D
100
AcDbVertex
100
AcDb2dVertex
 10
3491.62912257788
 20
284.3050527044734
 30
0.0
  0
VERTEX
  5
5DB
330
589
100
AcDbEntity
  8
Linee visibili 2D
100
AcDbVertex
100
AcDb2dVertex
 10
3491.361913140422
 20
284.9634574004646
 30
0.0
  0
VERTEX
  5
5DC
330
589
100
AcDbEntity
  8
Linee visibili 2D
100
AcDbVertex
100
AcDb2dVertex
 10
3491.08493016011
 20
285.612262540135
 30
0.0
  0
VERTEX
  5
5DD
330
589
100
AcDbEntity
  8
Linee visibili 2D
100
AcDbVertex
100
AcDb2dVertex
 10
3490.797930788382
 20
286.2509494183462
 30
0.0
  0
VERTEX
  5
5DE
330
589
100
AcDbEntity
  8
Linee visibili 2D
100
AcDbVertex
100
AcDb2dVertex
 10
3490.500672176673
 20
286.8789993299592
 30
0.0
  0
VERTEX
  5
5DF
330
589
100
AcDbEntity
  8
Linee visibili 2D
100
AcDbVertex
100
AcDb2dVertex
 10
3490.192911476422
 20
287.4958935698355
 30
0.0
  0
VERTEX
  5
5E0
330
589
100
AcDbEntity
  8
Linee visibili 2D
100
AcDbVertex
100
AcDb2dVertex
 10
3489.874405839065
 20
288.1011134328362
 30
0.0
  0
VERTEX
  5
5E1
330
589
100
AcDbEntity
  8
Linee visibili 2D
100
AcDbVertex
100
AcDb2dVertex
 10
3489.544912416041
 20
288.6941402138227
 30
0.0
  0
VERTEX
  5
5E2
330
589
100
AcDbEntity
  8
Linee visibili 2D
100
AcDbVertex
100
AcDb2dVertex
 10
3489.204188358785
 20
289.2744552076563
 30
0.0
  0
VERTEX
  5
5E3
330
589
100
AcDbEntity
  8
Linee visibili 2D
100
AcDbVertex
100
AcDb2dVertex
 10
3488.851990818736
 20
289.8415397091982
 30
0.0
  0
VERTEX
  5
5E4
330
589
100
AcDbEntity
  8
Linee visibili 2D
100
AcDbVertex
100
AcDb2dVertex
 10
3488.48807694733
 20
290.3948750133097
 30
0.0
  0
VERTEX
  5
5E5
330
589
100
AcDbEntity
  8
Linee visibili 2D
100
AcDbVertex
100
AcDb2dVertex
 10
3488.112203896005
 20
290.933942414852
 30
0.0
  0
VERTEX
  5
5E6
330
589
100
AcDbEntity
  8
Linee visibili 2D
100
AcDbVertex
100
AcDb2dVertex
 10
3487.724128816198
 20
291.4582232086866
 30
0.0
  0
VERTEX
  5
5E7
330
589
100
AcDbEntity
  8
Linee visibili 2D
100
AcDbVertex
100
AcDb2dVertex
 10
3487.323608859346
 20
291.9671986896747
 30
0.0
  0
VERTEX
  5
5E8
330
589
100
AcDbEntity
  8
Linee visibili 2D
100
AcDbVertex
100
AcDb2dVertex
 10
3486.910401176886
 20
292.4603501526774
 30
0.0
  0
VERTEX
  5
5E9
330
589
100
AcDbEntity
  8
Linee visibili 2D
100
AcDbVertex
100
AcDb2dVertex
 10
3486.484262920257
 20
292.9371588925562
 30
0.0
  0
VERTEX
  5
5EA
330
589
100
AcDbEntity
  8
Linee visibili 2D
100
AcDbVertex
100
AcDb2dVertex
 10
3486.044951240893
 20
293.3971062041724
 30
0.0
  0
VERTEX
  5
5EB
330
589
100
AcDbEntity
  8
Linee visibili 2D
100
AcDbVertex
100
AcDb2dVertex
 10
3485.592223290234
 20
293.839673382387
 30
0.0
  0
VERTEX
  5
5EC
330
589
100
AcDbEntity
  8
Linee visibili 2D
100
AcDbVertex
100
AcDb2dVertex
 10
3485.360752322992
 20
294.054277326113
 30
0.0
  0
VERTEX
  5
5ED
330
589
100
AcDbEntity
  8
Linee visibili 2D
100
AcDbVertex
100
AcDb2dVertex
 10
3485.125836219716
 20
294.2643417220615
 30
0.0
  0
VERTEX
  5
5EE
330
589
100
AcDbEntity
  8
Linee visibili 2D
100
AcDbVertex
100
AcDb2dVertex
 10
3484.887444624334
 20
294.4698017320904
 30
0.0
  0
VERTEX
  5
5EF
330
589
100
AcDbEntity
  8
Linee visibili 2D
100
AcDbVertex
100
AcDb2dVertex
 10
3484.645547180776
 20
294.6705925180573
 30
0.0
  0
VERTEX
  5
5F0
330
589
100
AcDbEntity
  8
Linee visibili 2D
100
AcDbVertex
100
AcDb2dVertex
 10
3484.400113532973
 20
294.8666492418197
 30
0.0
  0
VERTEX
  5
5F1
330
589
100
AcDbEntity
  8
Linee visibili 2D
100
AcDbVertex
100
AcDb2dVertex
 10
3484.151113324852
 20
295.0579070652354
 30
0.0
  0
VERTEX
  5
5F2
330
589
100
AcDbEntity
  8
Linee visibili 2D
100
AcDbVertex
100
AcDb2dVertex
 10
3483.898516200346
 20
295.2443011501621
 30
0.0
  0
VERTEX
  5
5F3
330
589
100
AcDbEntity
  8
Linee visibili 2D
100
AcDbVertex
100
AcDb2dVertex
 10
3483.642291803381
 20
295.4257666584573
 30
0.0
  0
VERTEX
  5
5F4
330
589
100
AcDbEntity
  8
Linee visibili 2D
100
AcDbVertex
100
AcDb2dVertex
 10
3483.38240977789
 20
295.6022387519787
 30
0.0
  0
VERTEX
  5
5F5
330
589
100
AcDbEntity
  8
Linee visibili 2D
100
AcDbVertex
100
AcDb2dVertex
 10
3483.118839767801
 20
295.7736525925841
 30
0.0
  0
VERTEX
  5
5F6
330
589
100
AcDbEntity
  8
Linee visibili 2D
100
AcDbVertex
100
AcDb2dVertex
 10
3482.851551417043
 20
295.9399433421311
 30
0.0
  0
VERTEX
  5
5F7
330
589
100
AcDbEntity
  8
Linee visibili 2D
100
AcDbVertex
100
AcDb2dVertex
 10
3482.580514369547
 20
296.1010461624772
 30
0.0
  0
VERTEX
  5
5F8
330
589
100
AcDbEntity
  8
Linee visibili 2D
100
AcDbVertex
100
AcDb2dVertex
 10
3482.305698269242
 20
296.2568962154803
 30
0.0
  0
VERTEX
  5
5F9
330
589
100
AcDbEntity
  8
Linee visibili 2D
100
AcDbVertex
100
AcDb2dVertex
 10
3482.027072760058
 20
296.407428662998
 30
0.0
  0
VERTEX
  5
5FA
330
589
100
AcDbEntity
  8
Linee visibili 2D
100
AcDbVertex
100
AcDb2dVertex
 10
3481.744607485924
 20
296.5525786668878
 30
0.0
  0
VERTEX
  5
5FB
330
589
100
AcDbEntity
  8
Linee visibili 2D
100
AcDbVertex
100
AcDb2dVertex
 10
3481.458272090771
 20
296.6922813890076
 30
0.0
  0
VERTEX
  5
5FC
330
589
100
AcDbEntity
  8
Linee visibili 2D
100
AcDbVertex
100
AcDb2dVertex
 10
3481.168036218527
 20
296.8264719912148
 30
0.0
  0
VERTEX
  5
5FD
330
589
100
AcDbEntity
  8
Linee visibili 2D
100
AcDbVertex
100
AcDb2dVertex
 10
3480.873869513122
 20
296.9550856353673
 30
0.0
  0
VERTEX
  5
5FE
330
589
100
AcDbEntity
  8
Linee visibili 2D
100
AcDbVertex
100
AcDb2dVertex
 10
3480.575741618487
 20
297.0780574833225
 30
0.0
  0
VERTEX
  5
5FF
330
589
100
AcDbEntity
  8
Linee visibili 2D
100
AcDbVertex
100
AcDb2dVertex
 10
3480.27362217855
 20
297.1953226969383
 30
0.0
  0
VERTEX
  5
600
330
589
100
AcDbEntity
  8
Linee visibili 2D
100
AcDbVertex
100
AcDb2dVertex
 10
3479.967480837242
 20
297.3068164380722
 30
0.0
  0
VERTEX
  5
601
330
589
100
AcDbEntity
  8
Linee visibili 2D
100
AcDbVertex
100
AcDb2dVertex
 10
3479.657287238491
 20
297.4124738685821
 30
0.0
  0
VERTEX
  5
602
330
589
100
AcDbEntity
  8
Linee visibili 2D
100
AcDbVertex
100
AcDb2dVertex
 10
3479.343011026229
 20
297.5122301503254
 30
0.0
  0
VERTEX
  5
603
330
589
100
AcDbEntity
  8
Linee visibili 2D
100
AcDbVertex
100
AcDb2dVertex
 10
3479.024621844384
 20
297.6060204451598
 30
0.0
  0
VERTEX
  5
604
330
589
100
AcDbEntity
  8
Linee visibili 2D
100
AcDbVertex
100
AcDb2dVertex
 10
3478.702089336885
 20
297.6937799149431
 30
0.0
  0
VERTEX
  5
605
330
589
100
AcDbEntity
  8
Linee visibili 2D
100
AcDbVertex
100
AcDb2dVertex
 10
3478.375383147663
 20
297.7754437215328
 30
0.0
  0
VERTEX
  5
606
330
589
100
AcDbEntity
  8
Linee visibili 2D
100
AcDbVertex
100
AcDb2dVertex
 10
3478.044472920647
 20
297.8509470267867
 30
0.0
  0
VERTEX
  5
607
330
589
100
AcDbEntity
  8
Linee visibili 2D
100
AcDbVertex
100
AcDb2dVertex
 10
3477.709328299768
 20
297.9202249925623
 30
0.0
  0
VERTEX
  5
608
330
589
100
AcDbEntity
  8
Linee visibili 2D
100
AcDbVertex
100
AcDb2dVertex
 10
3477.369918928954
 20
297.9832127807174
 30
0.0
  0
VERTEX
  5
609
330
589
100
AcDbEntity
  8
Linee visibili 2D
100
AcDbVertex
100
AcDb2dVertex
 10
3477.026214452135
 20
298.0398455531097
 30
0.0
  0
VERTEX
  5
60A
330
589
100
AcDbEntity
  8
Linee visibili 2D
100
AcDbVertex
100
AcDb2dVertex
 10
3476.678184513241
 20
298.0900584715966
 30
0.0
  0
VERTEX
  5
60B
330
589
100
AcDbEntity
  8
Linee visibili 2D
100
AcDbVertex
100
AcDb2dVertex
 10
3476.325798756201
 20
298.1337866980361
 30
0.0
  0
VERTEX
  5
60C
330
589
100
AcDbEntity
  8
Linee visibili 2D
100
AcDbVertex
100
AcDb2dVertex
 10
3475.969026824946
 20
298.1709653942856
 30
0.0
  0
VERTEX
  5
60D
330
589
100
AcDbEntity
  8
Linee visibili 2D
100
AcDbVertex
100
AcDb2dVertex
 10
3475.607838363404
 20
298.201529722203
 30
0.0
  0
VERTEX
  5
60E
330
589
100
AcDbEntity
  8
Linee visibili 2D
100
AcDbVertex
100
AcDb2dVertex
 10
3475.242203015507
 20
298.2254148436457
 30
0.0
  0
VERTEX
  5
60F
330
589
100
AcDbEntity
  8
Linee visibili 2D
100
AcDbVertex
100
AcDb2dVertex
 10
3474.872090425181
 20
298.2425559204714
 30
0.0
  0
VERTEX
  5
610
330
589
100
AcDbEntity
  8
Linee visibili 2D
100
AcDbVertex
100
AcDb2dVertex
 10
3474.49747023636
 20
298.2528881145379
 30
0.0
  0
VERTEX
  5
611
330
589
100
AcDbEntity
  8
Linee visibili 2D
100
AcDbVertex
100
AcDb2dVertex
 10
3474.11831209297
 20
298.2563465877029
 30
0.0
  0
VERTEX
  5
612
330
589
100
AcDbEntity
  8
Linee visibili 2D
100
AcDbVertex
100
AcDb2dVertex
 10
3474.11831209297
 20
231.3439460254396
 30
0.0
  0
SEQEND
  5
613
330
589
100
AcDbEntity
  8
Linee visibili 2D
  0
LINE
  5
614
330
1F
100
AcDbEntity
  8
Predefinito
100
AcDbLine
 10
1936.589137327584
 20
1676.463138437888
 30
0.0
 11
1940.062606974356
 21
1676.795034423878
 31
0.0
  0
SPLINE
  5
615
330
1F
100
AcDbEntity
  8
Predefinito
100
AcDbSpline
210
0.0
220
0.0
230
1.0
 70
     8
 71
     3
 72
    12
 73
     8
 74
     0
 42
0.0000000001
 43
0.0000000001
 40
22.17387526373592
 40
22.17387526373592
 40
22.17387526373592
 40
22.17387526373592
 40
69.45487825010764
 40
144.5241836450932
 40
168.6265819596547
 40
184.7225629076989
 40
224.2972100683577
 40
224.2972100683577
 40
224.2972100683577
 40
224.2972100683577
 10
1937.030064506109
 20
1877.938470243885
 30
0.0
 10
1941.185961567343
 20
1862.73288262791
 30
0.0
 10
1950.540047925091
 20
1823.016919616051
 30
0.0
 10
1954.471311443023
 20
1774.079702607512
 30
0.0
 10
1952.003907092881
 20
1735.705469639644
 30
0.0
 10
1948.247606010486
 20
1709.38937934921
 30
0.0
 10
1943.362047169488
 20
1691.333066513044
 30
0.0
 10
1937.919130801111
 20
1679.316759765996
 30
0.0
  0
POLYLINE
  5
616
330
1F
100
AcDbEntity
  8
Predefinito
100
AcDb2dPolyline
 66
     1
 10
0.0
 20
0.0
 30
0.0
  0
VERTEX
  5
617
330
616
100
AcDbEntity
  8
Predefinito
100
AcDbVertex
100
AcDb2dVertex
 10
3474.078037871228
 20
1676.779670733646
 30
0.0
  0
VERTEX
  5
618
330
616
100
AcDbEntity
  8
Predefinito
100
AcDbVertex
100
AcDb2dVertex
 10
3474.753037651699
 20
1676.768651791575
 30
0.0
  0
VERTEX
  5
619
330
616
100
AcDbEntity
  8
Predefinito
100
AcDbVertex
100
AcDb2dVertex
 10
3475.130777783649
 20
1676.752612249861
 30
0.0
  0
VERTEX
  5
61A
330
616
100
AcDbEntity
  8
Predefinito
100
AcDbVertex
100
AcDb2dVertex
 10
3475.508453985866
 20
1676.729089077889
 30
0.0
  0
VERTEX
  5
61B
330
616
100
AcDbEntity
  8
Predefinito
100
AcDbVertex
100
AcDb2dVertex
 10
3475.885826508067
 20
1676.697977455238
 30
0.0
  0
VERTEX
  5
61C
330
616
100
AcDbEntity
  8
Predefinito
100
AcDbVertex
100
AcDb2dVertex
 10
3476.26265559997
 20
1676.659172561488
 30
0.0
  0
VERTEX
  5
61D
330
616
100
AcDbEntity
  8
Predefinito
100
AcDbVertex
100
AcDb2dVertex
 10
3476.638701511296
 20
1676.612569576218
 30
0.0
  0
VERTEX
  5
61E
330
616
100
AcDbEntity
  8
Predefinito
100
AcDbVertex
100
AcDb2dVertex
 10
3477.013724491762
 20
1676.558063679009
 30
0.0
  0
VERTEX
  5
61F
330
616
100
AcDbEntity
  8
Predefinito
100
AcDbVertex
100
AcDb2dVertex
 10
3477.387484791087
 20
1676.49555004944
 30
0.0
  0
VERTEX
  5
620
330
616
100
AcDbEntity
  8
Predefinito
100
AcDbVertex
100
AcDb2dVertex
 10
3477.759742658988
 20
1676.424923867091
 30
0.0
  0
VERTEX
  5
621
330
616
100
AcDbEntity
  8
Predefinito
100
AcDbVertex
100
AcDb2dVertex
 10
3478.130258345186
 20
1676.346080311541
 30
0.0
  0
VERTEX
  5
622
330
616
100
AcDbEntity
  8
Predefinito
100
AcDbVertex
100
AcDb2dVertex
 10
3478.498792099398
 20
1676.258914562371
 30
0.0
  0
VERTEX
  5
623
330
616
100
AcDbEntity
  8
Predefinito
100
AcDbVertex
100
AcDb2dVertex
 10
3478.865104171343
 20
1676.16332179916
 30
0.0
  0
VERTEX
  5
624
330
616
100
AcDbEntity
  8
Predefinito
100
AcDbVertex
100
AcDb2dVertex
 10
3479.22895481074
 20
1676.059197201487
 30
0.0
  0
VERTEX
  5
625
330
616
100
AcDbEntity
  8
Predefinito
100
AcDbVertex
100
AcDb2dVertex
 10
3479.590104267307
 20
1675.946435948933
 30
0.0
  0
VERTEX
  5
626
330
616
100
AcDbEntity
  8
Predefinito
100
AcDbVertex
100
AcDb2dVertex
 10
3479.948312790762
 20
1675.824933221076
 30
0.0
  0
VERTEX
  5
627
330
616
100
AcDbEntity
  8
Predefinito
100
AcDbVertex
100
AcDb2dVertex
 10
3480.303340630825
 20
1675.694584197498
 30
0.0
  0
VERTEX
  5
628
330
616
100
AcDbEntity
  8
Predefinito
100
AcDbVertex
100
AcDb2dVertex
 10
3480.654948037214
 20
1675.555284057776
 30
0.0
  0
VERTEX
  5
629
330
616
100
AcDbEntity
  8
Predefinito
100
AcDbVertex
100
AcDb2dVertex
 10
3481.004005169212
 20
1675.406497477242
 30
0.0
  0
VERTEX
  5
62A
330
616
100
AcDbEntity
  8
Predefinito
100
AcDbVertex
100
AcDb2dVertex
 10
3481.349235841139
 20
1675.248808319293
 30
0.0
  0
VERTEX
  5
62B
330
616
100
AcDbEntity
  8
Predefinito
100
AcDbVertex
100
AcDb2dVertex
 10
3481.690496945037
 20
1675.082427265159
 30
0.0
  0
VERTEX
  5
62C
330
616
100
AcDbEntity
  8
Predefinito
100
AcDbVertex
100
AcDb2dVertex
 10
3482.027645372944
 20
1674.907564996067
 30
0.0
  0
VERTEX
  5
62D
330
616
100
AcDbEntity
  8
Predefinito
100
AcDbVertex
100
AcDb2dVertex
 10
3482.360538016902
 20
1674.724432193245
 30
0.0
  0
VERTEX
  5
62E
330
616
100
AcDbEntity
  8
Predefinito
100
AcDbVertex
100
AcDb2dVertex
 10
3482.689031768952
 20
1674.533239537921
 30
0.0
  0
VERTEX
  5
62F
330
616
100
AcDbEntity
  8
Predefinito
100
AcDbVertex
100
AcDb2dVertex
 10
3483.012983521135
 20
1674.334197711322
 30
0.0
  0
VERTEX
  5
630
330
616
100
AcDbEntity
  8
Predefinito
100
AcDbVertex
100
AcDb2dVertex
 10
3483.33225016549
 20
1674.127517394676
 30
0.0
  0
VERTEX
  5
631
330
616
100
AcDbEntity
  8
Predefinito
100
AcDbVertex
100
AcDb2dVertex
 10
3483.64668859406
 20
1673.913409269212
 30
0.0
  0
VERTEX
  5
632
330
616
100
AcDbEntity
  8
Predefinito
100
AcDbVertex
100
AcDb2dVertex
 10
3483.956155698884
 20
1673.692084016157
 30
0.0
  0
VERTEX
  5
633
330
616
100
AcDbEntity
  8
Predefinito
100
AcDbVertex
100
AcDb2dVertex
 10
3484.260508372003
 20
1673.463752316738
 30
0.0
  0
VERTEX
  5
634
330
616
100
AcDbEntity
  8
Predefinito
100
AcDbVertex
100
AcDb2dVertex
 10
3484.559603505458
 20
1673.228624852185
 30
0.0
  0
VERTEX
  5
635
330
616
100
AcDbEntity
  8
Predefinito
100
AcDbVertex
100
AcDb2dVertex
 10
3484.85329799129
 20
1672.986912303724
 30
0.0
  0
VERTEX
  5
636
330
616
100
AcDbEntity
  8
Predefinito
100
AcDbVertex
100
AcDb2dVertex
 10
3485.141448721539
 20
1672.738825352583
 30
0.0
  0
VERTEX
  5
637
330
616
100
AcDbEntity
  8
Predefinito
100
AcDbVertex
100
AcDb2dVertex
 10
3485.423912588246
 20
1672.484574679991
 30
0.0
  0
VERTEX
  5
638
330
616
100
AcDbEntity
  8
Predefinito
100
AcDbVertex
100
AcDb2dVertex
 10
3485.700546483452
 20
1672.224370967175
 30
0.0
  0
VERTEX
  5
639
330
616
100
AcDbEntity
  8
Predefinito
100
AcDbVertex
100
AcDb2dVertex
 10
3485.995777913427
 20
1671.933754387715
 30
0.0
  0
VERTEX
  5
63A
330
616
100
AcDbEntity
  8
Predefinito
100
AcDbVertex
100
AcDb2dVertex
 10
3486.284022825887
 20
1671.636560490947
 30
0.0
  0
VERTEX
  5
63B
330
616
100
AcDbEntity
  8
Predefinito
100
AcDbVertex
100
AcDb2dVertex
 10
3486.565413565307
 20
1671.333055843266
 30
0.0
  0
VERTEX
  5
63C
330
616
100
AcDbEntity
  8
Predefinito
100
AcDbVertex
100
AcDb2dVertex
 10
3486.840082476161
 20
1671.023507011069
 30
0.0
  0
VERTEX
  5
63D
330
616
100
AcDbEntity
  8
Predefinito
100
AcDbVertex
100
AcDb2dVertex
 10
3487.108161902924
 20
1670.708180560753
 30
0.0
  0
VERTEX
  5
63E
330
616
100
AcDbEntity
  8
Predefinito
100
AcDbVertex
100
AcDb2dVertex
 10
3487.36978419007
 20
1670.387343058714
 30
0.0
  0
VERTEX
  5
63F
330
616
100
AcDbEntity
  8
Predefinito
100
AcDbVertex
100
AcDb2dVertex
 10
3487.625081682075
 20
1670.061261071347
 30
0.0
  0
VERTEX
  5
640
330
616
100
AcDbEntity
  8
Predefinito
100
AcDbVertex
100
AcDb2dVertex
 10
3487.874186723412
 20
1669.730201165049
 30
0.0
  0
VERTEX
  5
641
330
616
100
AcDbEntity
  8
Predefinito
100
AcDbVertex
100
AcDb2dVertex
 10
3488.117231658556
 20
1669.394429906217
 30
0.0
  0
VERTEX
  5
642
330
616
100
AcDbEntity
  8
Predefinito
100
AcDbVertex
100
AcDb2dVertex
 10
3488.354348831982
 20
1669.054213861246
 30
0.0
  0
VERTEX
  5
643
330
616
100
AcDbEntity
  8
Predefinito
100
AcDbVertex
100
AcDb2dVertex
 10
3488.811329271577
 20
1668.361513678475
 30
0.0
  0
VERTEX
  5
644
330
616
100
AcDbEntity
  8
Predefinito
100
AcDbVertex
100
AcDb2dVertex
 10
3489.246186797993
 20
1667.654233147905
 30
0.0
  0
VERTEX
  5
645
330
616
100
AcDbEntity
  8
Predefinito
100
AcDbVertex
100
AcDb2dVertex
 10
3489.659980167028
 20
1666.934504800706
 30
0.0
  0
VERTEX
  5
646
330
616
100
AcDbEntity
  8
Predefinito
100
AcDbVertex
100
AcDb2dVertex
 10
3490.137184292114
 20
1666.043334560638
 30
0.0
  0
VERTEX
  5
647
330
616
100
AcDbEntity
  8
Predefinito
100
AcDbVertex
100
AcDb2dVertex
 10
3490.586129776314
 20
1665.138138236171
 30
0.0
  0
VERTEX
  5
648
330
616
100
AcDbEntity
  8
Predefinito
100
AcDbVertex
100
AcDb2dVertex
 10
3491.008262220611
 20
1664.22020599302
 30
0.0
  0
VERTEX
  5
649
330
616
100
AcDbEntity
  8
Predefinito
100
AcDbVertex
100
AcDb2dVertex
 10
3491.405027225992
 20
1663.290827996897
 30
0.0
  0
VERTEX
  5
64A
330
616
100
AcDbEntity
  8
Predefinito
100
AcDbVertex
100
AcDb2dVertex
 10
3491.77787039344
 20
1662.351294413514
 30
0.0
  0
VERTEX
  5
64B
330
616
100
AcDbEntity
  8
Predefinito
100
AcDbVertex
100
AcDb2dVertex
 10
3492.128237323941
 20
1661.402895408585
 30
0.0
  0
VERTEX
  5
64C
330
616
100
AcDbEntity
  8
Predefinito
100
AcDbVertex
100
AcDb2dVertex
 10
3492.457573618478
 20
1660.446921147821
 30
0.0
  0
VERTEX
  5
64D
330
616
100
AcDbEntity
  8
Predefinito
100
AcDbVertex
100
AcDb2dVertex
 10
3492.767324878037
 20
1659.484661796936
 30
0.0
  0
VERTEX
  5
64E
330
616
100
AcDbEntity
  8
Predefinito
100
AcDbVertex
100
AcDb2dVertex
 10
3493.147238132697
 20
1658.211161133894
 30
0.0
  0
VERTEX
  5
64F
330
616
100
AcDbEntity
  8
Predefinito
100
AcDbVertex
100
AcDb2dVertex
 10
3493.498208539272
 20
1656.92987663087
 30
0.0
  0
VERTEX
  5
650
330
616
100
AcDbEntity
  8
Predefinito
100
AcDbVertex
100
AcDb2dVertex
 10
3493.822679425607
 20
1655.641667031563
 30
0.0
  0
VERTEX
  5
651
330
616
100
AcDbEntity
  8
Predefinito
100
AcDbVertex
100
AcDb2dVertex
 10
3494.123094119548
 20
1654.347391079675
 30
0.0
  0
VERTEX
  5
652
330
616
100
AcDbEntity
  8
Predefinito
100
AcDbVertex
100
AcDb2dVertex
 10
3494.66152824162
 20
1651.744075092953
 30
0.0
  0
VERTEX
  5
653
330
616
100
AcDbEntity
  8
Predefinito
100
AcDbVertex
100
AcDb2dVertex
 10
3495.133057528244
 20
1649.126798620307
 30
0.0
  0
VERTEX
  5
654
330
616
100
AcDbEntity
  8
Predefinito
100
AcDbVertex
100
AcDb2dVertex
 10
3495.712972628618
 20
1645.43455537696
 30
0.0
  0
VERTEX
  5
655
330
616
100
AcDbEntity
  8
Predefinito
100
AcDbVertex
100
AcDb2dVertex
 10
3496.209809461426
 20
1641.730714870186
 30
0.0
  0
VERTEX
  5
656
330
616
100
AcDbEntity
  8
Predefinito
100
AcDbVertex
100
AcDb2dVertex
 10
3496.996241281728
 20
1634.297894622614
 30
0.0
  0
VERTEX
  5
657
330
616
100
AcDbEntity
  8
Predefinito
100
AcDbVertex
100
AcDb2dVertex
 10
3497.542237350156
 20
1627.13629025837
 30
0.0
  0
VERTEX
  5
658
330
616
100
AcDbEntity
  8
Predefinito
100
AcDbVertex
100
AcDb2dVertex
 10
3497.886399383946
 20
1619.962655927787
 30
0.0
  0
VERTEX
  5
659
330
616
100
AcDbEntity
  8
Predefinito
100
AcDbVertex
100
AcDb2dVertex
 10
3498.078037656899
 20
1601.778593193463
 30
0.0
  0
VERTEX
  5
65A
330
616
100
AcDbEntity
  8
Predefinito
100
AcDbVertex
100
AcDb2dVertex
 10
3497.876259005986
 20
1583.33967225427
 30
0.0
  0
VERTEX
  5
65B
330
616
100
AcDbEntity
  8
Predefinito
100
AcDbVertex
100
AcDb2dVertex
 10
3497.521717457441
 20
1576.103558044425
 30
0.0
  0
VERTEX
  5
65C
330
616
100
AcDbEntity
  8
Predefinito
100
AcDbVertex
100
AcDb2dVertex
 10
3496.961461388648
 20
1568.880107162288
 30
0.0
  0
VERTEX
  5
65D
330
616
100
AcDbEntity
  8
Predefinito
100
AcDbVertex
100
AcDb2dVertex
 10
3496.16210345685
 20
1561.448149304666
 30
0.0
  0
VERTEX
  5
65E
330
616
100
AcDbEntity
  8
Predefinito
100
AcDbVertex
100
AcDb2dVertex
 10
3495.656877749006
 20
1557.745182569102
 30
0.0
  0
VERTEX
  5
65F
330
616
100
AcDbEntity
  8
Predefinito
100
AcDbVertex
100
AcDb2dVertex
 10
3495.066626934417
 20
1554.054280766858
 30
0.0
  0
VERTEX
  5
660
330
616
100
AcDbEntity
  8
Predefinito
100
AcDbVertex
100
AcDb2dVertex
 10
3494.586247211976
 20
1551.438563642685
 30
0.0
  0
VERTEX
  5
661
330
616
100
AcDbEntity
  8
Predefinito
100
AcDbVertex
100
AcDb2dVertex
 10
3494.03710144073
 20
1548.837508439701
 30
0.0
  0
VERTEX
  5
662
330
616
100
AcDbEntity
  8
Predefinito
100
AcDbVertex
100
AcDb2dVertex
 10
3493.730435664162
 20
1547.544751013847
 30
0.0
  0
VERTEX
  5
663
330
616
100
AcDbEntity
  8
Predefinito
100
AcDbVertex
100
AcDb2dVertex
 10
3493.39901162822
 20
1546.258385414519
 30
0.0
  0
VERTEX
  5
664
330
616
100
AcDbEntity
  8
Predefinito
100
AcDbVertex
100
AcDb2dVertex
 10
3493.040307083847
 20
1544.979320423794
 30
0.0
  0
VERTEX
  5
665
330
616
100
AcDbEntity
  8
Predefinito
100
AcDbVertex
100
AcDb2dVertex
 10
3492.651799781986
 20
1543.708464823747
 30
0.0
  0
VERTEX
  5
666
330
616
100
AcDbEntity
  8
Predefinito
100
AcDbVertex
100
AcDb2dVertex
 10
3492.334255516405
 20
1542.74667122512
 30
0.0
  0
VERTEX
  5
667
330
616
100
AcDbEntity
  8
Predefinito
100
AcDbVertex
100
AcDb2dVertex
 10
3491.996482522105
 20
1541.79153716625
 30
0.0
  0
VERTEX
  5
668
330
616
100
AcDbEntity
  8
Predefinito
100
AcDbVertex
100
AcDb2dVertex
 10
3491.637007142723
 20
1540.844431793851
 30
0.0
  0
VERTEX
  5
669
330
616
100
AcDbEntity
  8
Predefinito
100
AcDbVertex
100
AcDb2dVertex
 10
3491.254355721895
 20
1539.906724254634
 30
0.0
  0
VERTEX
  5
66A
330
616
100
AcDbEntity
  8
Predefinito
100
AcDbVertex
100
AcDb2dVertex
 10
3490.847054603258
 20
1538.979783695313
 30
0.0
  0
VERTEX
  5
66B
330
616
100
AcDbEntity
  8
Predefinito
100
AcDbVertex
100
AcDb2dVertex
 10
3490.413630130449
 20
1538.064979262601
 30
0.0
  0
VERTEX
  5
66C
330
616
100
AcDbEntity
  8
Predefinito
100
AcDbVertex
100
AcDb2dVertex
 10
3489.952608647104
 20
1537.163680103212
 30
0.0
  0
VERTEX
  5
66D
330
616
100
AcDbEntity
  8
Predefinito
100
AcDbVertex
100
AcDb2dVertex
 10
3489.46251649686
 20
1536.277255363857
 30
0.0
  0
VERTEX
  5
66E
330
616
100
AcDbEntity
  8
Predefinito
100
AcDbVertex
100
AcDb2dVertex
 10
3489.028967340322
 20
1535.54819581065
 30
0.0
  0
VERTEX
  5
66F
330
616
100
AcDbEntity
  8
Predefinito
100
AcDbVertex
100
AcDb2dVertex
 10
3488.57296152609
 20
1534.8328961398
 30
0.0
  0
VERTEX
  5
670
330
616
100
AcDbEntity
  8
Predefinito
100
AcDbVertex
100
AcDb2dVertex
 10
3488.336203279294
 20
1534.481151857448
 30
0.0
  0
VERTEX
  5
671
330
616
100
AcDbEntity
  8
Predefinito
100
AcDbVertex
100
AcDb2dVertex
 10
3488.093429956421
 20
1534.133742262313
 30
0.0
  0
VERTEX
  5
672
330
616
100
AcDbEntity
  8
Predefinito
100
AcDbVertex
100
AcDb2dVertex
 10
3487.844507920252
 20
1533.790965593271
 30
0.0
  0
VERTEX
  5
673
330
616
100
AcDbEntity
  8
Predefinito
100
AcDbVertex
100
AcDb2dVertex
 10
3487.589303533571
 20
1533.453120089197
 30
0.0
  0
VERTEX
  5
674
330
616
100
AcDbEntity
  8
Predefinito
100
AcDbVertex
100
AcDb2dVertex
 10
3487.32768315916
 20
1533.120503988968
 30
0.0
  0
VERTEX
  5
675
330
616
100
AcDbEntity
  8
Predefinito
100
AcDbVertex
100
AcDb2dVertex
 10
3487.059513159801
 20
1532.79341553146
 30
0.0
  0
VERTEX
  5
676
330
616
100
AcDbEntity
  8
Predefinito
100
AcDbVertex
100
AcDb2dVertex
 10
3486.784659898275
 20
1532.472152955548
 30
0.0
  0
VERTEX
  5
677
330
616
100
AcDbEntity
  8
Predefinito
100
AcDbVertex
100
AcDb2dVertex
 10
3486.502989737365
 20
1532.157014500109
 30
0.0
  0
VERTEX
  5
678
330
616
100
AcDbEntity
  8
Predefinito
100
AcDbVertex
100
AcDb2dVertex
 10
3486.214369039854
 20
1531.848298404018
 30
0.0
  0
VERTEX
  5
679
330
616
100
AcDbEntity
  8
Predefinito
100
AcDbVertex
100
AcDb2dVertex
 10
3485.918664168522
 20
1531.546302906152
 30
0.0
  0
VERTEX
  5
67A
330
616
100
AcDbEntity
  8
Predefinito
100
AcDbVertex
100
AcDb2dVertex
 10
3485.615741486153
 20
1531.251326245385
 30
0.0
  0
VERTEX
  5
67B
330
616
100
AcDbEntity
  8
Predefinito
100
AcDbVertex
100
AcDb2dVertex
 10
3485.305467355529
 20
1530.963666660595
 30
0.0
  0
VERTEX
  5
67C
330
616
100
AcDbEntity
  8
Predefinito
100
AcDbVertex
100
AcDb2dVertex
 10
3485.025441354589
 20
1530.716086451478
 30
0.0
  0
VERTEX
  5
67D
330
616
100
AcDbEntity
  8
Predefinito
100
AcDbVertex
100
AcDb2dVertex
 10
3484.739747892117
 20
1530.474623686035
 30
0.0
  0
VERTEX
  5
67E
330
616
100
AcDbEntity
  8
Predefinito
100
AcDbVertex
100
AcDb2dVertex
 10
3484.448550523957
 20
1530.239463339511
 30
0.0
  0
VERTEX
  5
67F
330
616
100
AcDbEntity
  8
Predefinito
100
AcDbVertex
100
AcDb2dVertex
 10
3484.152012805956
 20
1530.010790387154
 30
0.0
  0
VERTEX
  5
680
330
616
100
AcDbEntity
  8
Predefinito
100
AcDbVertex
100
AcDb2dVertex
 10
3483.85029829396
 20
1529.788789804212
 30
0.0
  0
VERTEX
  5
681
330
616
100
AcDbEntity
  8
Predefinito
100
AcDbVertex
100
AcDb2dVertex
 10
3483.543570543813
 20
1529.573646565929
 30
0.0
  0
VERTEX
  5
682
330
616
100
AcDbEntity
  8
Predefinito
100
AcDbVertex
100
AcDb2dVertex
 10
3483.231993111361
 20
1529.365545647554
 30
0.0
  0
VERTEX
  5
683
330
616
100
AcDbEntity
  8
Predefinito
100
AcDbVertex
100
AcDb2dVertex
 10
3482.915729552449
 20
1529.164672024332
 30
0.0
  0
VERTEX
  5
684
330
616
100
AcDbEntity
  8
Predefinito
100
AcDbVertex
100
AcDb2dVertex
 10
3482.594943422923
 20
1528.971210671511
 30
0.0
  0
VERTEX
  5
685
330
616
100
AcDbEntity
  8
Predefinito
100
AcDbVertex
100
AcDb2dVertex
 10
3482.269798278629
 20
1528.785346564337
 30
0.0
  0
VERTEX
  5
686
330
616
100
AcDbEntity
  8
Predefinito
100
AcDbVertex
100
AcDb2dVertex
 10
3481.94045767541
 20
1528.607264678058
 30
0.0
  0
VERTEX
  5
687
330
616
100
AcDbEntity
  8
Predefinito
100
AcDbVertex
100
AcDb2dVertex
 10
3481.607085169115
 20
1528.43714998792
 30
0.0
  0
VERTEX
  5
688
330
616
100
AcDbEntity
  8
Predefinito
100
AcDbVertex
100
AcDb2dVertex
 10
3481.269844315587
 20
1528.275187469169
 30
0.0
  0
VERTEX
  5
689
330
616
100
AcDbEntity
  8
Predefinito
100
AcDbVertex
100
AcDb2dVertex
 10
3480.928898670672
 20
1528.121562097053
 30
0.0
  0
VERTEX
  5
68A
330
616
100
AcDbEntity
  8
Predefinito
100
AcDbVertex
100
AcDb2dVertex
 10
3480.584411790216
 20
1527.976458846818
 30
0.0
  0
VERTEX
  5
68B
330
616
100
AcDbEntity
  8
Predefinito
100
AcDbVertex
100
AcDb2dVertex
 10
3480.236547230063
 20
1527.840062693711
 30
0.0
  0
VERTEX
  5
68C
330
616
100
AcDbEntity
  8
Predefinito
100
AcDbVertex
100
AcDb2dVertex
 10
3479.867669314924
 20
1527.706300112706
 30
0.0
  0
VERTEX
  5
68D
330
616
100
AcDbEntity
  8
Predefinito
100
AcDbVertex
100
AcDb2dVertex
 10
3479.495493275192
 20
1527.582206539644
 30
0.0
  0
VERTEX
  5
68E
330
616
100
AcDbEntity
  8
Predefinito
100
AcDbVertex
100
AcDb2dVertex
 10
3479.120267882332
 20
1527.467638275208
 30
0.0
  0
VERTEX
  5
68F
330
616
100
AcDbEntity
  8
Predefinito
100
AcDbVertex
100
AcDb2dVertex
 10
3478.742241907809
 20
1527.362451620083
 30
0.0
  0
VERTEX
  5
690
330
616
100
AcDbEntity
  8
Predefinito
100
AcDbVertex
100
AcDb2dVertex
 10
3478.361664123087
 20
1527.266502874952
 30
0.0
  0
VERTEX
  5
691
330
616
100
AcDbEntity
  8
Predefinito
100
AcDbVertex
100
AcDb2dVertex
 10
3477.97878329963
 20
1527.179648340498
 30
0.0
  0
VERTEX
  5
692
330
616
100
AcDbEntity
  8
Predefinito
100
AcDbVertex
100
AcDb2dVertex
 10
3477.593848208903
 20
1527.101744317406
 30
0.0
  0
VERTEX
  5
693
330
616
100
AcDbEntity
  8
Predefinito
100
AcDbVertex
100
AcDb2dVertex
 10
3477.20710762237
 20
1527.032647106358
 30
0.0
  0
VERTEX
  5
694
330
616
100
AcDbEntity
  8
Predefinito
100
AcDbVertex
100
AcDb2dVertex
 10
3476.818810311496
 20
1526.972213008039
 30
0.0
  0
VERTEX
  5
695
330
616
100
AcDbEntity
  8
Predefinito
100
AcDbVertex
100
AcDb2dVertex
 10
3476.429205047744
 20
1526.920298323134
 30
0.0
  0
VERTEX
  5
696
330
616
100
AcDbEntity
  8
Predefinito
100
AcDbVertex
100
AcDb2dVertex
 10
3476.03854060258
 20
1526.876759352324
 30
0.0
  0
VERTEX
  5
697
330
616
100
AcDbEntity
  8
Predefinito
100
AcDbVertex
100
AcDb2dVertex
 10
3475.647065747467
 20
1526.841452396294
 30
0.0
  0
VERTEX
  5
698
330
616
100
AcDbEntity
  8
Predefinito
100
AcDbVertex
100
AcDb2dVertex
 10
3475.255029253871
 20
1526.814233755727
 30
0.0
  0
VERTEX
  5
699
330
616
100
AcDbEntity
  8
Predefinito
100
AcDbVertex
100
AcDb2dVertex
 10
3474.862679893255
 20
1526.794959731307
 30
0.0
  0
VERTEX
  5
69A
330
616
100
AcDbEntity
  8
Predefinito
100
AcDbVertex
100
AcDb2dVertex
 10
3474.470266437083
 20
1526.783486623719
 30
0.0
  0
VERTEX
  5
69B
330
616
100
AcDbEntity
  8
Predefinito
100
AcDbVertex
100
AcDb2dVertex
 10
3474.078037656821
 20
1526.779670733646
 30
0.0
  0
VERTEX
  5
69C
330
616
100
AcDbEntity
  8
Predefinito
100
AcDbVertex
100
AcDb2dVertex
 10
3474.078037871228
 20
1676.779670733646
 30
0.0
  0
SEQEND
  5
69D
330
616
100
AcDbEntity
  8
Predefinito
  0
LINE
  5
69E
330
1F
100
AcDbEntity
  8
Predefinito
100
AcDbLine
 10
1922.342794530523
 20
1926.47008821614
 30
0.0
 11
1935.665044738556
 21
1884.370351222864
 31
0.0
  0
SPLINE
  5
69F
330
1F
100
AcDbEntity
  8
Linee visibili 2D
100
AcDbSpline
210
0.0
220
0.0
230
1.0
 70
     8
 71
     3
 72
    15
 73
    11
 74
     0
 42
0.0000000001
 43
0.0000000001
 40
0.0
 40
0.0
 40
0.0
 40
0.0
 40
17.54314253576353
 40
31.02838461135936
 40
45.70723234005584
 40
56.20448969921641
 40
64.16013085461915
 40
70.76500055933056
 40
76.63902269545042
 40
82.14987151004226
 40
82.14987151004226
 40
82.14987151004226
 40
82.14987151004226
 10
1916.07851846933
 20
1601.784483893411
 30
0.0
 10
1916.087943229819
 20
1607.630827332285
 30
0.0
 10
1916.059353996035
 20
1617.979035977728
 30
0.0
 10
1916.927902128362
 20
1633.194661477643
 30
0.0
 10
1918.3810943395
 20
1646.006022575714
 30
0.0
 10
1920.402857502422
 20
1656.8752718421
 30
0.0
 10
1923.144953334584
 20
1664.801450453077
 30
0.0
 10
1926.633446504778
 20
1670.703929523692
 30
0.0
 10
1931.165990504763
 20
1674.778810239236
 30
0.0
 10
1934.785610686187
 20
1676.123751969698
 30
0.0
 10
1936.589137327584
 20
1676.463138437888
 30
0.0
  0
LINE
  5
6A0
330
1F
100
AcDbEntity
  8
Linee visibili 2D
100
AcDbLine
 10
3476.835703393102
 20
2334.459852145454
 30
0.0
 11
3476.835753524157
 21
2323.439898261579
 31
0.0
  0
LINE
  5
6A1
330
1F
100
AcDbEntity
  8
Linee visibili 2D
100
AcDbLine
 10
3467.858127691411
 20
2334.461473494026
 30
0.0
 11
3467.857857467097
 21
2363.941472354463
 31
0.0
  0
LINE
  5
6A2
330
1F
100
AcDbEntity
  8
Linee visibili 2D
100
AcDbLine
 10
3470.880349435297
 20
2323.440435164761
 30
0.0
 11
3470.88029930427
 21
2334.460389048628
 31
0.0
  0
CIRCLE
  5
6A3
330
1F
100
AcDbEntity
  8
Linee visibili 2D
100
AcDbCircle
 10
3473.875833667633
 20
223.3476216064888
 30
0.0
 40
8.000000000000611
  0
LINE
  5
6A4
330
1F
100
AcDbEntity
  8
Linee visibili 2D
100
AcDbLine
 10
3479.857857483038
 20
2363.939851915551
 30
0.0
 11
3479.858127707352
 21
2334.4598530551
 31
0.0
  0
LINE
  5
6A5
330
1F
100
AcDbEntity
  8
Linee visibili 2D
100
AcDbLine
 10
3465.835559231497
 20
2363.939851926181
 30
0.0
 11
3465.835559231497
 21
2365.939851926974
 31
0.0
  0
POLYLINE
  5
6A6
330
1F
100
AcDbEntity
  8
Linee visibili 2D
100
AcDb2dPolyline
 66
     1
 10
0.0
 20
0.0
 30
0.0
  0
VERTEX
  5
6A7
330
6A6
100
AcDbEntity
  8
Linee visibili 2D
100
AcDbVertex
100
AcDb2dVertex
 10
3474.07803765682
 20
1527.843634472229
 30
0.0
  0
VERTEX
  5
6A8
330
6A6
100
AcDbEntity
  8
Linee visibili 2D
100
AcDbVertex
100
AcDb2dVertex
 10
3474.055401521298
 20
1527.791340203877
 30
0.0
 42
-0.2861713886379644
  0
VERTEX
  5
6A9
330
6A6
100
AcDbEntity
  8
Linee visibili 2D
100
AcDbVertex
100
AcDb2dVertex
 10
3472.072439565573
 20
1526.78191207289
 30
0.0
  0
VERTEX
  5
6AA
330
6A6
100
AcDbEntity
  8
Linee visibili 2D
100
AcDbVertex
100
AcDb2dVertex
 10
3412.950518170736
 20
1526.452769133809
 30
0.0
  0
VERTEX
  5
6AB
330
6A6
100
AcDbEntity
  8
Linee visibili 2D
100
AcDbVertex
100
AcDb2dVertex
 10
3361.488339567056
 20
1524.992864432763
 30
0.0
  0
VERTEX
  5
6AC
330
6A6
100
AcDbEntity
  8
Linee visibili 2D
100
AcDbVertex
100
AcDb2dVertex
 10
3196.370730634399
 20
1515.463470429885
 30
0.0
  0
VERTEX
  5
6AD
330
6A6
100
AcDbEntity
  8
Linee visibili 2D
100
AcDbVertex
100
AcDb2dVertex
 10
3174.608726107076
 20
1514.839184753725
 30
0.0
  0
VERTEX
  5
6AE
330
6A6
100
AcDbEntity
  8
Linee visibili 2D
100
AcDbVertex
100
AcDb2dVertex
 10
3155.395435542354
 20
1514.759181971503
 30
0.0
  0
VERTEX
  5
6AF
330
6A6
100
AcDbEntity
  8
Linee visibili 2D
100
AcDbVertex
100
AcDb2dVertex
 10
3136.186137510343
 20
1515.162322697523
 30
0.0
  0
VERTEX
  5
6B0
330
6A6
100
AcDbEntity
  8
Linee visibili 2D
100
AcDbVertex
100
AcDb2dVertex
 10
3060.375079704452
 20
1519.586486210815
 30
0.0
  0
VERTEX
  5
6B1
330
6A6
100
AcDbEntity
  8
Linee visibili 2D
100
AcDbVertex
100
AcDb2dVertex
 10
3054.044291367903
 20
1519.818886102677
 30
0.0
  0
VERTEX
  5
6B2
330
6A6
100
AcDbEntity
  8
Linee visibili 2D
100
AcDbVertex
100
AcDb2dVertex
 10
3047.707747249406
 20
1519.902529339531
 30
0.0
  0
VERTEX
  5
6B3
330
6A6
100
AcDbEntity
  8
Linee visibili 2D
100
AcDbVertex
100
AcDb2dVertex
 10
3045.557636943699
 20
1519.884126649902
 30
0.0
  0
VERTEX
  5
6B4
330
6A6
100
AcDbEntity
  8
Linee visibili 2D
100
AcDbVertex
100
AcDb2dVertex
 10
3043.409127858234
 20
1519.826316414284
 30
0.0
  0
VERTEX
  5
6B5
330
6A6
100
AcDbEntity
  8
Linee visibili 2D
100
AcDbVertex
100
AcDb2dVertex
 10
3041.26465823784
 20
1519.713845860486
 30
0.0
  0
VERTEX
  5
6B6
330
6A6
100
AcDbEntity
  8
Linee visibili 2D
100
AcDbVertex
100
AcDb2dVertex
 10
3040.194700178554
 20
1519.632346472959
 30
0.0
  0
VERTEX
  5
6B7
330
6A6
100
AcDbEntity
  8
Linee visibili 2D
100
AcDbVertex
100
AcDb2dVertex
 10
3039.126666327346
 20
1519.531462216314
 30
0.0
  0
VERTEX
  5
6B8
330
6A6
100
AcDbEntity
  8
Linee visibili 2D
100
AcDbVertex
100
AcDb2dVertex
 10
3037.651328213187
 20
1519.357500316404
 30
0.0
  0
VERTEX
  5
6B9
330
6A6
100
AcDbEntity
  8
Linee visibili 2D
100
AcDbVertex
100
AcDb2dVertex
 10
3036.180491868988
 20
1519.145447256925
 30
0.0
  0
VERTEX
  5
6BA
330
6A6
100
AcDbEntity
  8
Linee visibili 2D
100
AcDbVertex
100
AcDb2dVertex
 10
3034.7143847544
 20
1518.898040408208
 30
0.0
  0
VERTEX
  5
6BB
330
6A6
100
AcDbEntity
  8
Linee visibili 2D
100
AcDbVertex
100
AcDb2dVertex
 10
3033.253234329075
 20
1518.618017140589
 30
0.0
  0
VERTEX
  5
6BC
330
6A6
100
AcDbEntity
  8
Linee visibili 2D
100
AcDbVertex
100
AcDb2dVertex
 10
3031.797268052666
 20
1518.308114824399
 30
0.0
  0
VERTEX
  5
6BD
330
6A6
100
AcDbEntity
  8
Linee visibili 2D
100
AcDbVertex
100
AcDb2dVertex
 10
3030.346713384824
 20
1517.971070829972
 30
0.0
  0
VERTEX
  5
6BE
330
6A6
100
AcDbEntity
  8
Linee visibili 2D
100
AcDbVertex
100
AcDb2dVertex
 10
3027.462748713448
 20
1517.226507287742
 30
0.0
  0
VERTEX
  5
6BF
330
6A6
100
AcDbEntity
  8
Linee visibili 2D
100
AcDbVertex
100
AcDb2dVertex
 10
3023.983873175612
 20
1516.215409287715
 30
0.0
  0
VERTEX
  5
6C0
330
6A6
100
AcDbEntity
  8
Linee visibili 2D
100
AcDbVertex
100
AcDb2dVertex
 10
3020.538221118995
 20
1515.103922730319
 30
0.0
  0
VERTEX
  5
6C1
330
6A6
100
AcDbEntity
  8
Linee visibili 2D
100
AcDbVertex
100
AcDb2dVertex
 10
3017.122889652163
 20
1513.903877305711
 30
0.0
  0
VERTEX
  5
6C2
330
6A6
100
AcDbEntity
  8
Linee visibili 2D
100
AcDbVertex
100
AcDb2dVertex
 10
3013.734975883683
 20
1512.62710270405
 30
0.0
  0
VERTEX
  5
6C3
330
6A6
100
AcDbEntity
  8
Linee visibili 2D
100
AcDbVertex
100
AcDb2dVertex
 10
3006.507130123858
 20
1509.664529560392
 30
0.0
  0
VERTEX
  5
6C4
330
6A6
100
AcDbEntity
  8
Linee visibili 2D
100
AcDbVertex
100
AcDb2dVertex
 10
2953.888166741953
 20
1485.48670461516
 30
0.0
  0
VERTEX
  5
6C5
330
6A6
100
AcDbEntity
  8
Linee visibili 2D
100
AcDbVertex
100
AcDb2dVertex
 10
2945.58678100305
 20
1482.07878608335
 30
0.0
  0
VERTEX
  5
6C6
330
6A6
100
AcDbEntity
  8
Linee visibili 2D
100
AcDbVertex
100
AcDb2dVertex
 10
2937.207913049824
 20
1478.869257436037
 30
0.0
  0
VERTEX
  5
6C7
330
6A6
100
AcDbEntity
  8
Linee visibili 2D
100
AcDbVertex
100
AcDb2dVertex
 10
2928.750805190583
 20
1475.874835120085
 30
0.0
  0
VERTEX
  5
6C8
330
6A6
100
AcDbEntity
  8
Linee visibili 2D
100
AcDbVertex
100
AcDb2dVertex
 10
2920.214699733634
 20
1473.112235582356
 30
0.0
  0
VERTEX
  5
6C9
330
6A6
100
AcDbEntity
  8
Linee visibili 2D
100
AcDbVertex
100
AcDb2dVertex
 10
2911.67438735579
 20
1470.620750483171
 30
0.0
  0
VERTEX
  5
6CA
330
6A6
100
AcDbEntity
  8
Linee visibili 2D
100
AcDbVertex
100
AcDb2dVertex
 10
2903.059935162527
 20
1468.401724058031
 30
0.0
  0
VERTEX
  5
6CB
330
6A6
100
AcDbEntity
  8
Linee visibili 2D
100
AcDbVertex
100
AcDb2dVertex
 10
2898.726233034325
 20
1467.403192800681
 30
0.0
  0
VERTEX
  5
6CC
330
6A6
100
AcDbEntity
  8
Linee visibili 2D
100
AcDbVertex
100
AcDb2dVertex
 10
2894.37558763132
 20
1466.483348154787
 30
0.0
  0
VERTEX
  5
6CD
330
6A6
100
AcDbEntity
  8
Linee visibili 2D
100
AcDbVertex
100
AcDb2dVertex
 10
2890.008529513198
 20
1465.645714101329
 30
0.0
  0
VERTEX
  5
6CE
330
6A6
100
AcDbEntity
  8
Linee visibili 2D
100
AcDbVertex
100
AcDb2dVertex
 10
2885.625589239641
 20
1464.893814621289
 30
0.0
  0
VERTEX
  5
6CF
330
6A6
100
AcDbEntity
  8
Linee visibili 2D
100
AcDbVertex
100
AcDb2dVertex
 10
2881.58738279028
 20
1464.281669968201
 30
0.0
  0
VERTEX
  5
6D0
330
6A6
100
AcDbEntity
  8
Linee visibili 2D
100
AcDbVertex
100
AcDb2dVertex
 10
2877.537838125218
 20
1463.746287514396
 30
0.0
  0
VERTEX
  5
6D1
330
6A6
100
AcDbEntity
  8
Linee visibili 2D
100
AcDbVertex
100
AcDb2dVertex
 10
2873.478562756756
 20
1463.289159305754
 30
0.0
  0
VERTEX
  5
6D2
330
6A6
100
AcDbEntity
  8
Linee visibili 2D
100
AcDbVertex
100
AcDb2dVertex
 10
2869.411164197194
 20
1462.911777388161
 30
0.0
  0
VERTEX
  5
6D3
330
6A6
100
AcDbEntity
  8
Linee visibili 2D
100
AcDbVertex
100
AcDb2dVertex
 10
2865.337249958832
 20
1462.615633807497
 30
0.0
  0
VERTEX
  5
6D4
330
6A6
100
AcDbEntity
  8
Linee visibili 2D
100
AcDbVertex
100
AcDb2dVertex
 10
2861.25842755397
 20
1462.402220609646
 30
0.0
  0
VERTEX
  5
6D5
330
6A6
100
AcDbEntity
  8
Linee visibili 2D
100
AcDbVertex
100
AcDb2dVertex
 10
2857.176304494908
 20
1462.27302984049
 30
0.0
  0
VERTEX
  5
6D6
330
6A6
100
AcDbEntity
  8
Linee visibili 2D
100
AcDbVertex
100
AcDb2dVertex
 10
2853.092488293946
 20
1462.229553545912
 30
0.0
  0
VERTEX
  5
6D7
330
6A6
100
AcDbEntity
  8
Linee visibili 2D
100
AcDbVertex
100
AcDb2dVertex
 10
2846.76945974247
 20
1462.333389768399
 30
0.0
  0
VERTEX
  5
6D8
330
6A6
100
AcDbEntity
  8
Linee visibili 2D
100
AcDbVertex
100
AcDb2dVertex
 10
2840.45291236298
 20
1462.643187828802
 30
0.0
  0
VERTEX
  5
6D9
330
6A6
100
AcDbEntity
  8
Linee visibili 2D
100
AcDbVertex
100
AcDb2dVertex
 10
2834.149532639642
 20
1463.155816439532
 30
0.0
  0
VERTEX
  5
6DA
330
6A6
100
AcDbEntity
  8
Linee visibili 2D
100
AcDbVertex
100
AcDb2dVertex
 10
2827.866007056618
 20
1463.868144313005
 30
0.0
  0
VERTEX
  5
6DB
330
6A6
100
AcDbEntity
  8
Linee visibili 2D
100
AcDbVertex
100
AcDb2dVertex
 10
2821.202532659801
 20
1464.840339915382
 30
0.0
  0
VERTEX
  5
6DC
330
6A6
100
AcDbEntity
  8
Linee visibili 2D
100
AcDbVertex
100
AcDb2dVertex
 10
2814.571299581111
 20
1466.016775226326
 30
0.0
  0
VERTEX
  5
6DD
330
6A6
100
AcDbEntity
  8
Linee visibili 2D
100
AcDbVertex
100
AcDb2dVertex
 10
2807.974447241857
 20
1467.378746108063
 30
0.0
  0
VERTEX
  5
6DE
330
6A6
100
AcDbEntity
  8
Linee visibili 2D
100
AcDbVertex
100
AcDb2dVertex
 10
2801.414115063349
 20
1468.907548422819
 30
0.0
  0
VERTEX
  5
6DF
330
6A6
100
AcDbEntity
  8
Linee visibili 2D
100
AcDbVertex
100
AcDb2dVertex
 10
2793.663409850867
 20
1470.916780250761
 30
0.0
  0
VERTEX
  5
6E0
330
6A6
100
AcDbEntity
  8
Linee visibili 2D
100
AcDbVertex
100
AcDb2dVertex
 10
2785.961805175348
 20
1473.106400740256
 30
0.0
  0
VERTEX
  5
6E1
330
6A6
100
AcDbEntity
  8
Linee visibili 2D
100
AcDbVertex
100
AcDb2dVertex
 10
2770.683716279319
 20
1477.910842856952
 30
0.0
  0
VERTEX
  5
6E2
330
6A6
100
AcDbEntity
  8
Linee visibili 2D
100
AcDbVertex
100
AcDb2dVertex
 10
2699.294582796216
 20
1503.31315336662
 30
0.0
  0
VERTEX
  5
6E3
330
6A6
100
AcDbEntity
  8
Linee visibili 2D
100
AcDbVertex
100
AcDb2dVertex
 10
2682.636442742245
 20
1508.760474904586
 30
0.0
  0
VERTEX
  5
6E4
330
6A6
100
AcDbEntity
  8
Linee visibili 2D
100
AcDbVertex
100
AcDb2dVertex
 10
2665.821827399206
 20
1513.706539213205
 30
0.0
  0
VERTEX
  5
6E5
330
6A6
100
AcDbEntity
  8
Linee visibili 2D
100
AcDbVertex
100
AcDb2dVertex
 10
2656.270106760198
 20
1516.226943228058
 30
0.0
  0
VERTEX
  5
6E6
330
6A6
100
AcDbEntity
  8
Linee visibili 2D
100
AcDbVertex
100
AcDb2dVertex
 10
2646.664468793341
 20
1518.537686597272
 30
0.0
  0
VERTEX
  5
6E7
330
6A6
100
AcDbEntity
  8
Linee visibili 2D
100
AcDbVertex
100
AcDb2dVertex
 10
2637.009292566892
 20
1520.628494866031
 30
0.0
  0
VERTEX
  5
6E8
330
6A6
100
AcDbEntity
  8
Linee visibili 2D
100
AcDbVertex
100
AcDb2dVertex
 10
2627.308957149107
 20
1522.489093579521
 30
0.0
  0
VERTEX
  5
6E9
330
6A6
100
AcDbEntity
  8
Linee visibili 2D
100
AcDbVertex
100
AcDb2dVertex
 10
2617.567841608243
 20
1524.109208282925
 30
0.0
  0
VERTEX
  5
6EA
330
6A6
100
AcDbEntity
  8
Linee visibili 2D
100
AcDbVertex
100
AcDb2dVertex
 10
2607.790325012557
 20
1525.478564521429
 30
0.0
  0
VERTEX
  5
6EB
330
6A6
100
AcDbEntity
  8
Linee visibili 2D
100
AcDbVertex
100
AcDb2dVertex
 10
2597.980786430307
 20
1526.586887840217
 30
0.0
  0
VERTEX
  5
6EC
330
6A6
100
AcDbEntity
  8
Linee visibili 2D
100
AcDbVertex
100
AcDb2dVertex
 10
2588.143604929748
 20
1527.423903784475
 30
0.0
  0
VERTEX
  5
6ED
330
6A6
100
AcDbEntity
  8
Linee visibili 2D
100
AcDbVertex
100
AcDb2dVertex
 10
2576.926985949914
 20
1528.037102107624
 30
0.0
  0
VERTEX
  5
6EE
330
6A6
100
AcDbEntity
  8
Linee visibili 2D
100
AcDbVertex
100
AcDb2dVertex
 10
2565.693335358839
 20
1528.294780387285
 30
0.0
  0
VERTEX
  5
6EF
330
6A6
100
AcDbEntity
  8
Linee visibili 2D
100
AcDbVertex
100
AcDb2dVertex
 10
2554.455722202478
 20
1528.205752002821
 30
0.0
  0
VERTEX
  5
6F0
330
6A6
100
AcDbEntity
  8
Linee visibili 2D
100
AcDbVertex
100
AcDb2dVertex
 10
2543.227215526786
 20
1527.778830333596
 30
0.0
  0
VERTEX
  5
6F1
330
6A6
100
AcDbEntity
  8
Linee visibili 2D
100
AcDbVertex
100
AcDb2dVertex
 10
2531.098499479339
 20
1526.949843170461
 30
0.0
  0
VERTEX
  5
6F2
330
6A6
100
AcDbEntity
  8
Linee visibili 2D
100
AcDbVertex
100
AcDb2dVertex
 10
2518.999937104472
 20
1525.768002726073
 30
0.0
  0
VERTEX
  5
6F3
330
6A6
100
AcDbEntity
  8
Linee visibili 2D
100
AcDbVertex
100
AcDb2dVertex
 10
2506.935708695808
 20
1524.265894912365
 30
0.0
  0
VERTEX
  5
6F4
330
6A6
100
AcDbEntity
  8
Linee visibili 2D
100
AcDbVertex
100
AcDb2dVertex
 10
2494.909994546968
 20
1522.476105641271
 30
0.0
  0
VERTEX
  5
6F5
330
6A6
100
AcDbEntity
  8
Linee visibili 2D
100
AcDbVertex
100
AcDb2dVertex
 10
2482.172564611672
 20
1520.293516431076
 30
0.0
  0
VERTEX
  5
6F6
330
6A6
100
AcDbEntity
  8
Linee visibili 2D
100
AcDbVertex
100
AcDb2dVertex
 10
2469.481125543893
 20
1517.855089087249
 30
0.0
  0
VERTEX
  5
6F7
330
6A6
100
AcDbEntity
  8
Linee visibili 2D
100
AcDbVertex
100
AcDb2dVertex
 10
2444.227215649643
 20
1512.340330317937
 30
0.0
  0
VERTEX
  5
6F8
330
6A6
100
AcDbEntity
  8
Linee visibili 2D
100
AcDbVertex
100
AcDb2dVertex
 10
2322.411661327114
 20
1481.626478398113
 30
0.0
  0
VERTEX
  5
6F9
330
6A6
100
AcDbEntity
  8
Linee visibili 2D
100
AcDbVertex
100
AcDb2dVertex
 10
2301.173642615659
 20
1477.158328739588
 30
0.0
  0
VERTEX
  5
6FA
330
6A6
100
AcDbEntity
  8
Linee visibili 2D
100
AcDbVertex
100
AcDb2dVertex
 10
2290.577205997463
 20
1475.18387509021
 30
0.0
  0
VERTEX
  5
6FB
330
6A6
100
AcDbEntity
  8
Linee visibili 2D
100
AcDbVertex
100
AcDb2dVertex
 10
2279.946448577553
 20
1473.400069798692
 30
0.0
  0
VERTEX
  5
6FC
330
6A6
100
AcDbEntity
  8
Linee visibili 2D
100
AcDbVertex
100
AcDb2dVertex
 10
2269.284527431905
 20
1471.828959916247
 30
0.0
  0
VERTEX
  5
6FD
330
6A6
100
AcDbEntity
  8
Linee visibili 2D
100
AcDbVertex
100
AcDb2dVertex
 10
2258.594599636497
 20
1470.492592494085
 30
0.0
  0
VERTEX
  5
6FE
330
6A6
100
AcDbEntity
  8
Linee visibili 2D
100
AcDbVertex
100
AcDb2dVertex
 10
2247.879822267306
 20
1469.413014583416
 30
0.0
  0
VERTEX
  5
6FF
330
6A6
100
AcDbEntity
  8
Linee visibili 2D
100
AcDbVertex
100
AcDb2dVertex
 10
2237.14335240031
 20
1468.612273235451
 30
0.0
  0
VERTEX
  5
700
330
6A6
100
AcDbEntity
  8
Linee visibili 2D
100
AcDbVertex
100
AcDb2dVertex
 10
2226.388347111485
 20
1468.112415501401
 30
0.0
  0
VERTEX
  5
701
330
6A6
100
AcDbEntity
  8
Linee visibili 2D
100
AcDbVertex
100
AcDb2dVertex
 10
2215.617963476811
 20
1467.935488432477
 30
0.0
  0
VERTEX
  5
702
330
6A6
100
AcDbEntity
  8
Linee visibili 2D
100
AcDbVertex
100
AcDb2dVertex
 10
2208.950737078435
 20
1467.996430382519
 30
0.0
  0
VERTEX
  5
703
330
6A6
100
AcDbEntity
  8
Linee visibili 2D
100
AcDbVertex
100
AcDb2dVertex
 10
2202.283612057191
 20
1468.189185933179
 30
0.0
  0
VERTEX
  5
704
330
6A6
100
AcDbEntity
  8
Linee visibili 2D
100
AcDbVertex
100
AcDb2dVertex
 10
2195.621365079362
 20
1468.513596263937
 30
0.0
  0
VERTEX
  5
705
330
6A6
100
AcDbEntity
  8
Linee visibili 2D
100
AcDbVertex
100
AcDb2dVertex
 10
2188.96877281123
 20
1468.969502554268
 30
0.0
  0
VERTEX
  5
706
330
6A6
100
AcDbEntity
  8
Linee visibili 2D
100
AcDbVertex
100
AcDb2dVertex
 10
2182.274972007337
 20
1469.561229206721
 30
0.0
  0
VERTEX
  5
707
330
6A6
100
AcDbEntity
  8
Linee visibili 2D
100
AcDbVertex
100
AcDb2dVertex
 10
2175.596261245189
 20
1470.280750670244
 30
0.0
  0
VERTEX
  5
708
330
6A6
100
AcDbEntity
  8
Linee visibili 2D
100
AcDbVertex
100
AcDb2dVertex
 10
2168.93305920328
 20
1471.122340539487
 30
0.0
  0
VERTEX
  5
709
330
6A6
100
AcDbEntity
  8
Linee visibili 2D
100
AcDbVertex
100
AcDb2dVertex
 10
2162.285784560105
 20
1472.080272409104
 30
0.0
  0
VERTEX
  5
70A
330
6A6
100
AcDbEntity
  8
Linee visibili 2D
100
AcDbVertex
100
AcDb2dVertex
 10
2149.040692183929
 20
1474.322256528062
 30
0.0
  0
VERTEX
  5
70B
330
6A6
100
AcDbEntity
  8
Linee visibili 2D
100
AcDbVertex
100
AcDb2dVertex
 10
2135.864333544612
 20
1476.960891784335
 30
0.0
  0
VERTEX
  5
70C
330
6A6
100
AcDbEntity
  8
Linee visibili 2D
100
AcDbVertex
100
AcDb2dVertex
 10
2124.980147266699
 20
1479.42410194924
 30
0.0
  0
VERTEX
  5
70D
330
6A6
100
AcDbEntity
  8
Linee visibili 2D
100
AcDbVertex
100
AcDb2dVertex
 10
2114.153471634717
 20
1482.126474893824
 30
0.0
  0
VERTEX
  5
70E
330
6A6
100
AcDbEntity
  8
Linee visibili 2D
100
AcDbVertex
100
AcDb2dVertex
 10
2103.304517036215
 20
1485.083354431653
 30
0.0
  0
VERTEX
  5
70F
330
6A6
100
AcDbEntity
  8
Linee visibili 2D
100
AcDbVertex
100
AcDb2dVertex
 10
2092.51294885273
 20
1488.240890559859
 30
0.0
  0
VERTEX
  5
710
330
6A6
100
AcDbEntity
  8
Linee visibili 2D
100
AcDbVertex
100
AcDb2dVertex
 10
2009.709875644648
 20
1515.264081983613
 30
0.0
  0
VERTEX
  5
711
330
6A6
100
AcDbEntity
  8
Linee visibili 2D
100
AcDbVertex
100
AcDb2dVertex
 10
1996.894663868606
 20
1518.803430495919
 30
0.0
  0
VERTEX
  5
712
330
6A6
100
AcDbEntity
  8
Linee visibili 2D
100
AcDbVertex
100
AcDb2dVertex
 10
1990.150707359245
 20
1520.457832368801
 30
0.0
  0
VERTEX
  5
713
330
6A6
100
AcDbEntity
  8
Linee visibili 2D
100
AcDbVertex
100
AcDb2dVertex
 10
1983.369783161503
 20
1521.956730021435
 30
0.0
  0
VERTEX
  5
714
330
6A6
100
AcDbEntity
  8
Linee visibili 2D
100
AcDbVertex
100
AcDb2dVertex
 10
1976.554730513077
 20
1523.283697001093
 30
0.0
  0
VERTEX
  5
715
330
6A6
100
AcDbEntity
  8
Linee visibili 2D
100
AcDbVertex
100
AcDb2dVertex
 10
1969.708388651664
 20
1524.422306855046
 30
0.0
  0
VERTEX
  5
716
330
6A6
100
AcDbEntity
  8
Linee visibili 2D
100
AcDbVertex
100
AcDb2dVertex
 10
1962.833596814961
 20
1525.356133130564
 30
0.0
  0
VERTEX
  5
717
330
6A6
100
AcDbEntity
  8
Linee visibili 2D
100
AcDbVertex
100
AcDb2dVertex
 10
1955.933194240665
 20
1526.068749374919
 30
0.0
  0
VERTEX
  5
718
330
6A6
100
AcDbEntity
  8
Linee visibili 2D
100
AcDbVertex
100
AcDb2dVertex
 10
1952.474276188699
 20
1526.336970468932
 30
0.0
  0
VERTEX
  5
719
330
6A6
100
AcDbEntity
  8
Linee visibili 2D
100
AcDbVertex
100
AcDb2dVertex
 10
1949.010020166472
 20
1526.543729135381
 30
0.0
  0
VERTEX
  5
71A
330
6A6
100
AcDbEntity
  8
Linee visibili 2D
100
AcDbVertex
100
AcDb2dVertex
 10
1945.540781078695
 20
1526.686972067674
 30
0.0
  0
VERTEX
  5
71B
330
6A6
100
AcDbEntity
  8
Linee visibili 2D
100
AcDbVertex
100
AcDb2dVertex
 10
1942.06691383008
 20
1526.764645959221
 30
0.0
 42
-0.2881511483567438
  0
VERTEX
  5
71C
330
6A6
100
AcDbEntity
  8
Linee visibili 2D
100
AcDbVertex
100
AcDb2dVertex
 10
1940.078589384044
 20
1527.78343515623
 30
0.0
  0
SEQEND
  5
71D
330
6A6
100
AcDbEntity
  8
Linee visibili 2D
  0
LINE
  5
71E
330
1F
100
AcDbEntity
  8
Linee visibili 2D
100
AcDbLine
 10
3481.835559231497
 20
2365.939851926974
 30
0.0
 11
3481.835559231497
 21
2363.939851926181
 31
0.0
  0
LINE
  5
71F
330
1F
100
AcDbEntity
  8
Linee visibili 2D
100
AcDbLine
 10
3473.50313284729
 20
2323.440198580298
 30
0.0
 11
3473.50313284729
 21
1676.427570516698
 31
0.0
  0
LINE
  5
720
330
1F
100
AcDbEntity
  8
Linee visibili 2D
100
AcDbLine
 10
3474.753037651687
 20
2323.440085834402
 30
0.0
 11
3474.753037651687
 21
1676.768651791574
 31
0.0
  0
LINE
  5
721
330
1F
100
AcDbEntity
  8
Linee visibili 2D
100
AcDbLine
 10
1927.653172159474
 20
2332.79912860624
 30
0.0
 11
1930.841609870913
 21
2154.340570935668
 31
0.0
  0
LINE
  5
722
330
1F
100
AcDbEntity
  8
Linee visibili 2D
100
AcDbLine
 10
1931.110991023714
 20
2139.263164273425
 30
0.0
 11
1939.27398161669
 21
1682.376231129101
 31
0.0
  0
LINE
  5
723
330
1F
100
AcDbEntity
  8
Linee visibili 2D
100
AcDbLine
 10
1928.950395917452
 20
2330.161826408711
 30
0.0
 11
1932.038659959018
 21
2157.310042418388
 31
0.0
  0
LINE
  5
724
330
1F
100
AcDbEntity
  8
Linee visibili 2D
100
AcDbLine
 10
1932.309677721648
 20
2142.14103383195
 30
0.0
 11
1940.471449873011
 21
1685.322297513535
 31
0.0
  0
LINE
  5
725
330
1F
100
AcDbEntity
  8
Linee visibili 2D
100
AcDbLine
 10
3470.883469300526
 20
2323.4404296875
 30
0.0
 11
3476.832633657627
 21
2323.439884643338
 31
0.0
  0
LINE
  5
726
330
1F
100
AcDbEntity
  8
Linee visibili 2D
100
AcDbLine
 10
3467.864414146351
 20
2334.461486816406
 30
0.0
 11
3479.851841253625
 21
2334.459852997486
 31
0.0
  0
SPLINE
  5
727
330
1F
100
AcDbEntity
  8
Linee visibili 2D
100
AcDbSpline
210
0.0
220
0.0
230
1.0
 70
    28
 71
     2
 72
    10
 73
     7
 74
     0
 42
0.0000000001
 43
0.0000000001
 40
18.06415775814101
 40
18.06415775814101
 40
18.06415775814101
 40
25.13274122871793
 40
25.13274122871793
 40
37.69911184307689
 40
37.69911184307689
 40
43.19689898685894
 40
43.19689898685894
 40
43.19689898685894
 10
3465.924486049882
 20
2365.939851926975
 30
0.0
 41
0.8558416188652539
 10
3465.358040166531
 20
2365.939851926976
 30
0.0
 41
0.8352475644174331
 10
3467.925748964982
 20
2365.939851926974
 30
0.0
 41
1.0
 10
3473.317793346637
 20
2365.939851926977
 30
0.0
 41
0.7071067811865476
 10
3479.227603613143
 20
2365.939851926974
 30
0.0
 41
1.0
 10
3481.324564039941
 20
2365.939851926975
 30
0.0
 41
0.8718592167691144
 10
3481.746632413093
 20
2365.939851926976
 30
0.0
 41
0.8558416188652538
  0
ARC
  5
728
330
1F
100
AcDbEntity
  8
Linee visibili 2D
100
AcDbCircle
 10
3468.53293106542
 20
939991.2958277045
 30
0.0
 40
937627.3559794065
100
AcDbArc
 50
269.9998406052367
 51
270.0008074522508
  0
SPLINE
  5
729
330
1F
100
AcDbEntity
  8
Linee visibili 2D
100
AcDbSpline
210
0.0
220
0.0
230
1.0
 70
     8
 71
     3
 72
    18
 73
    14
 74
     0
 42
0.0000000001
 43
0.0000000001
 40
0.0
 40
0.0
 40
0.0
 40
0.0
 40
60.17729566632728
 40
88.0322243714298
 40
115.3184953462371
 40
161.4369502571444
 40
238.213886035175
 40
263.9744334365184
 40
287.8108724637045
 40
309.9795902487822
 40
362.6106675074567
 40
392.6147046421636
 40
447.6241374129578
 40
447.6241374129578
 40
447.6241374129578
 40
447.6241374129578
 10
1932.659277367765
 20
2336.204075473717
 30
0.0
 10
1941.619426730607
 20
2318.300690663541
 30
0.0
 10
1952.412349703297
 20
2290.685923722773
 30
0.0
 10
1957.888175828118
 20
2252.526492275524
 30
0.0
 10
1957.314523937837
 20
2218.634253434502
 30
0.0
 10
1945.564806868603
 20
2169.633509807889
 30
0.0
 10
1924.010076864092
 20
2124.81348116576
 30
0.0
 10
1910.234390000707
 20
2084.989521360393
 30
0.0
 10
1904.908655511336
 20
2061.606777360366
 30
0.0
 10
1902.996041427051
 20
2028.638170640343
 30
0.0
 10
1908.625311610553
 20
1993.94254054127
 30
0.0
 10
1920.885963691814
 20
1949.758727838421
 30
0.0
 10
1929.921017438747
 20
1922.860061237158
 30
0.0
 10
1935.290405137263
 20
1905.339129334423
 30
0.0
  0
SPLINE
  5
72A
330
1F
100
AcDbEntity
  8
Linee visibili 2D
100
AcDbSpline
210
0.0
220
0.0
230
1.0
 70
     8
 71
     3
 72
    13
 73
     9
 74
     0
 42
0.0000000001
 43
0.0000000001
 40
0.0
 40
0.0
 40
0.0
 40
0.0
 40
36.2293944785676
 40
67.5298752878063
 40
125.2243391521886
 40
182.0135246204864
 40
206.3818927873784
 40
228.62934669943
 40
228.62934669943
 40
228.62934669943
 40
228.62934669943
 10
1936.618207483607
 20
1900.990327251657
 30
0.0
 10
1940.131415984873
 20
1889.431184484131
 30
0.0
 10
1946.26444153669
 20
1867.781701023654
 30
0.0
 10
1955.290699592776
 20
1826.976309998455
 30
0.0
 10
1960.471812806067
 20
1778.565447505051
 30
0.0
 10
1958.546730189399
 20
1732.130749807617
 30
0.0
 10
1951.631126874338
 20
1698.287043042541
 30
0.0
 10
1946.458437853265
 20
1683.592045278889
 30
0.0
 10
1943.397819167536
 20
1676.835128494876
 30
0.0
  0
SPLINE
  5
72B
330
1F
100
AcDbEntity
  8
Linee visibili 2D
100
AcDbSpline
210
0.0
220
0.0
230
1.0
 70
     8
 71
     3
 72
    18
 73
    14
 74
     0
 42
0.0000000001
 43
0.0000000001
 40
0.0
 40
0.0
 40
0.0
 40
0.0
 40
45.47082634925676
 40
77.24030232411533
 40
101.4682838606265
 40
130.8242957931695
 40
173.8197610292561
 40
249.5983968815822
 40
276.1435212124979
 40
301.7636922707042
 40
325.7571148300007
 40
372.3783431128437
 40
425.6368906270994
 40
425.6368906270994
 40
425.6368906270994
 40
425.6368906270994
 10
1922.342794530523
 20
1926.47008821614
 30
0.0
 10
1917.736710449263
 20
1940.919166713363
 30
0.0
 10
1909.905806326025
 20
1965.423396942317
 30
0.0
 10
1901.922982792906
 20
1998.36746890876
 30
0.0
 10
1898.020550384288
 20
2026.523228457674
 30
0.0
 10
1897.543851652795
 20
2058.945161913515
 30
0.0
 10
1909.530102786465
 20
2107.189546678824
 30
0.0
 10
1930.562804096399
 20
2150.979739566666
 30
0.0
 10
1944.493054623656
 20
2191.328455031499
 30
0.0
 10
1950.084476317327
 20
2216.136901935216
 30
0.0
 10
1952.734242801848
 20
2248.218368362619
 30
0.0
 10
1946.92422442318
 20
2289.475676164238
 30
0.0
 10
1933.99865838407
 20
2320.413144532769
 30
0.0
 10
1925.932453189258
 20
2336.204154633494
 30
0.0
  0
LINE
  5
72C
330
1F
100
AcDbEntity
  8
Predefinito
100
AcDbLine
 10
1940.078518469332
 20
1675.781428311706
 30
0.0
 11
1940.078518469332
 21
1676.795034423878
 31
0.0
  0
POLYLINE
  5
72D
330
1F
100
AcDbEntity
  8
Predefinito
100
AcDb2dPolyline
 66
     1
 10
0.0
 20
0.0
 30
0.0
  0
VERTEX
  5
72E
330
72D
100
AcDbEntity
  8
Predefinito
100
AcDbVertex
100
AcDb2dVertex
 10
1940.078518469345
 20
1675.773608200706
 30
0.0
 42
-0.2828821494425867
  0
VERTEX
  5
72F
330
72D
100
AcDbEntity
  8
Predefinito
100
AcDbVertex
100
AcDb2dVertex
 10
1942.048842206414
 20
1676.80554642264
 30
0.0
  0
VERTEX
  5
730
330
72D
100
AcDbEntity
  8
Predefinito
100
AcDbVertex
100
AcDb2dVertex
 10
1943.397819168298
 20
1676.835128494676
 30
0.0
  0
VERTEX
  5
731
330
72D
100
AcDbEntity
  8
Predefinito
100
AcDbVertex
100
AcDb2dVertex
 10
1945.576467541649
 20
1676.918402908145
 30
0.0
  0
VERTEX
  5
732
330
72D
100
AcDbEntity
  8
Predefinito
100
AcDbVertex
100
AcDb2dVertex
 10
1947.755026583332
 20
1677.043957111428
 30
0.0
  0
VERTEX
  5
733
330
72D
100
AcDbEntity
  8
Predefinito
100
AcDbVertex
100
AcDb2dVertex
 10
1949.932089534733
 20
1677.212594578644
 30
0.0
  0
VERTEX
  5
734
330
72D
100
AcDbEntity
  8
Predefinito
100
AcDbVertex
100
AcDb2dVertex
 10
1952.106249637236
 20
1677.425118783915
 30
0.0
  0
VERTEX
  5
735
330
72D
100
AcDbEntity
  8
Predefinito
100
AcDbVertex
100
AcDb2dVertex
 10
1954.276100132227
 20
1677.68233320136
 30
0.0
  0
VERTEX
  5
736
330
72D
100
AcDbEntity
  8
Predefinito
100
AcDbVertex
100
AcDb2dVertex
 10
1956.44023426109
 20
1677.9850413051
 30
0.0
  0
VERTEX
  5
737
330
72D
100
AcDbEntity
  8
Predefinito
100
AcDbVertex
100
AcDb2dVertex
 10
1958.597245265209
 20
1678.334046569256
 30
0.0
  0
VERTEX
  5
738
330
72D
100
AcDbEntity
  8
Predefinito
100
AcDbVertex
100
AcDb2dVertex
 10
1960.745726385971
 20
1678.730152467946
 30
0.0
  0
VERTEX
  5
739
330
72D
100
AcDbEntity
  8
Predefinito
100
AcDbVertex
100
AcDb2dVertex
 10
1962.884270864758
 20
1679.174162475293
 30
0.0
  0
VERTEX
  5
73A
330
72D
100
AcDbEntity
  8
Predefinito
100
AcDbVertex
100
AcDb2dVertex
 10
1965.011471942958
 20
1679.666880065415
 30
0.0
  0
VERTEX
  5
73B
330
72D
100
AcDbEntity
  8
Predefinito
100
AcDbVertex
100
AcDb2dVertex
 10
1967.125922861953
 20
1680.209108712434
 30
0.0
  0
VERTEX
  5
73C
330
72D
100
AcDbEntity
  8
Predefinito
100
AcDbVertex
100
AcDb2dVertex
 10
1969.226216863129
 20
1680.80165189047
 30
0.0
  0
VERTEX
  5
73D
330
72D
100
AcDbEntity
  8
Predefinito
100
AcDbVertex
100
AcDb2dVertex
 10
1971.310947187872
 20
1681.445313073642
 30
0.0
  0
VERTEX
  5
73E
330
72D
100
AcDbEntity
  8
Predefinito
100
AcDbVertex
100
AcDb2dVertex
 10
1973.378707077565
 20
1682.140895736071
 30
0.0
  0
VERTEX
  5
73F
330
72D
100
AcDbEntity
  8
Predefinito
100
AcDbVertex
100
AcDb2dVertex
 10
1975.428089773593
 20
1682.889203351878
 30
0.0
  0
VERTEX
  5
740
330
72D
100
AcDbEntity
  8
Predefinito
100
AcDbVertex
100
AcDb2dVertex
 10
1977.457688517342
 20
1683.691039395183
 30
0.0
  0
VERTEX
  5
741
330
72D
100
AcDbEntity
  8
Predefinito
100
AcDbVertex
100
AcDb2dVertex
 10
1979.363317208077
 20
1684.501575658397
 30
0.0
  0
VERTEX
  5
742
330
72D
100
AcDbEntity
  8
Predefinito
100
AcDbVertex
100
AcDb2dVertex
 10
1981.24865541988
 20
1685.360176674318
 30
0.0
  0
VERTEX
  5
743
330
72D
100
AcDbEntity
  8
Predefinito
100
AcDbVertex
100
AcDb2dVertex
 10
1983.112479311361
 20
1686.26602130974
 30
0.0
  0
VERTEX
  5
744
330
72D
100
AcDbEntity
  8
Predefinito
100
AcDbVertex
100
AcDb2dVertex
 10
1984.953565041131
 20
1687.218288431459
 30
0.0
  0
VERTEX
  5
745
330
72D
100
AcDbEntity
  8
Predefinito
100
AcDbVertex
100
AcDb2dVertex
 10
1986.7706887678
 20
1688.21615690627
 30
0.0
  0
VERTEX
  5
746
330
72D
100
AcDbEntity
  8
Predefinito
100
AcDbVertex
100
AcDb2dVertex
 10
1988.56262664998
 20
1689.258805600969
 30
0.0
  0
VERTEX
  5
747
330
72D
100
AcDbEntity
  8
Predefinito
100
AcDbVertex
100
AcDb2dVertex
 10
1990.328154846281
 20
1690.345413382351
 30
0.0
  0
VERTEX
  5
748
330
72D
100
AcDbEntity
  8
Predefinito
100
AcDbVertex
100
AcDb2dVertex
 10
1992.066049515312
 20
1691.475159117211
 30
0.0
  0
VERTEX
  5
749
330
72D
100
AcDbEntity
  8
Predefinito
100
AcDbVertex
100
AcDb2dVertex
 10
1993.829872700554
 20
1692.685542710092
 30
0.0
  0
VERTEX
  5
74A
330
72D
100
AcDbEntity
  8
Predefinito
100
AcDbVertex
100
AcDb2dVertex
 10
1995.562796697463
 20
1693.939223271762
 30
0.0
  0
VERTEX
  5
74B
330
72D
100
AcDbEntity
  8
Predefinito
100
AcDbVertex
100
AcDb2dVertex
 10
1997.264669751701
 20
1695.234409334383
 30
0.0
  0
VERTEX
  5
74C
330
72D
100
AcDbEntity
  8
Predefinito
100
AcDbVertex
100
AcDb2dVertex
 10
1998.935340108925
 20
1696.569309430113
 30
0.0
  0
VERTEX
  5
74D
330
72D
100
AcDbEntity
  8
Predefinito
100
AcDbVertex
100
AcDb2dVertex
 10
2000.574656014795
 20
1697.942132091114
 30
0.0
  0
VERTEX
  5
74E
330
72D
100
AcDbEntity
  8
Predefinito
100
AcDbVertex
100
AcDb2dVertex
 10
2002.182465714969
 20
1699.351085849545
 30
0.0
  0
VERTEX
  5
74F
330
72D
100
AcDbEntity
  8
Predefinito
100
AcDbVertex
100
AcDb2dVertex
 10
2003.758617455107
 20
1700.794379237566
 30
0.0
  0
VERTEX
  5
750
330
72D
100
AcDbEntity
  8
Predefinito
100
AcDbVertex
100
AcDb2dVertex
 10
2005.302959480867
 20
1702.270220787338
 30
0.0
  0
VERTEX
  5
751
330
72D
100
AcDbEntity
  8
Predefinito
100
AcDbVertex
100
AcDb2dVertex
 10
2007.125807288051
 20
1704.093710186191
 30
0.0
  0
VERTEX
  5
752
330
72D
100
AcDbEntity
  8
Predefinito
100
AcDbVertex
100
AcDb2dVertex
 10
2008.903369112054
 20
1705.959957483336
 30
0.0
  0
VERTEX
  5
753
330
72D
100
AcDbEntity
  8
Predefinito
100
AcDbVertex
100
AcDb2dVertex
 10
2010.636981268722
 20
1707.866855686993
 30
0.0
  0
VERTEX
  5
754
330
72D
100
AcDbEntity
  8
Predefinito
100
AcDbVertex
100
AcDb2dVertex
 10
2012.327980073901
 20
1709.812297805383
 30
0.0
  0
VERTEX
  5
755
330
72D
100
AcDbEntity
  8
Predefinito
100
AcDbVertex
100
AcDb2dVertex
 10
2013.977701843439
 20
1711.794176846724
 30
0.0
  0
VERTEX
  5
756
330
72D
100
AcDbEntity
  8
Predefinito
100
AcDbVertex
100
AcDb2dVertex
 10
2015.587482893181
 20
1713.810385819239
 30
0.0
  0
VERTEX
  5
757
330
72D
100
AcDbEntity
  8
Predefinito
100
AcDbVertex
100
AcDb2dVertex
 10
2017.158659538973
 20
1715.858817731147
 30
0.0
  0
VERTEX
  5
758
330
72D
100
AcDbEntity
  8
Predefinito
100
AcDbVertex
100
AcDb2dVertex
 10
2018.692568096662
 20
1717.937365590669
 30
0.0
  0
VERTEX
  5
759
330
72D
100
AcDbEntity
  8
Predefinito
100
AcDbVertex
100
AcDb2dVertex
 10
2021.653926211118
 20
1722.176381185433
 30
0.0
  0
VERTEX
  5
75A
330
72D
100
AcDbEntity
  8
Predefinito
100
AcDbVertex
100
AcDb2dVertex
 10
2024.482247763317
 20
1726.510576669293
 30
0.0
  0
VERTEX
  5
75B
330
72D
100
AcDbEntity
  8
Predefinito
100
AcDbVertex
100
AcDb2dVertex
 10
2027.188223280031
 20
1730.923096108012
 30
0.0
  0
VERTEX
  5
75C
330
72D
100
AcDbEntity
  8
Predefinito
100
AcDbVertex
100
AcDb2dVertex
 10
2029.782543288031
 20
1735.397083567351
 30
0.0
  0
VERTEX
  5
75D
330
72D
100
AcDbEntity
  8
Predefinito
100
AcDbVertex
100
AcDb2dVertex
 10
2032.617529073193
 20
1740.554076395622
 30
0.0
  0
VERTEX
  5
75E
330
72D
100
AcDbEntity
  8
Predefinito
100
AcDbVertex
100
AcDb2dVertex
 10
2035.337639780283
 20
1745.764022503272
 30
0.0
  0
VERTEX
  5
75F
330
72D
100
AcDbEntity
  8
Predefinito
100
AcDbVertex
100
AcDb2dVertex
 10
2040.498564405888
 20
1756.322688401493
 30
0.0
  0
VERTEX
  5
760
330
72D
100
AcDbEntity
  8
Predefinito
100
AcDbVertex
100
AcDb2dVertex
 10
2061.26404597221
 20
1802.552563826098
 30
0.0
  0
VERTEX
  5
761
330
72D
100
AcDbEntity
  8
Predefinito
100
AcDbVertex
100
AcDb2dVertex
 10
2064.637956578246
 20
1809.45349085231
 30
0.0
  0
VERTEX
  5
762
330
72D
100
AcDbEntity
  8
Predefinito
100
AcDbVertex
100
AcDb2dVertex
 10
2067.912420153204
 20
1815.707932180986
 30
0.0
  0
VERTEX
  5
763
330
72D
100
AcDbEntity
  8
Predefinito
100
AcDbVertex
100
AcDb2dVertex
 10
2069.633870943776
 20
1818.790175864206
 30
0.0
  0
VERTEX
  5
764
330
72D
100
AcDbEntity
  8
Predefinito
100
AcDbVertex
100
AcDb2dVertex
 10
2071.422623077723
 20
1821.831820923278
 30
0.0
  0
VERTEX
  5
765
330
72D
100
AcDbEntity
  8
Predefinito
100
AcDbVertex
100
AcDb2dVertex
 10
2073.287043061028
 20
1824.824906880652
 30
0.0
  0
VERTEX
  5
766
330
72D
100
AcDbEntity
  8
Predefinito
100
AcDbVertex
100
AcDb2dVertex
 10
2075.235497399676
 20
1827.761473258776
 30
0.0
  0
VERTEX
  5
767
330
72D
100
AcDbEntity
  8
Predefinito
100
AcDbVertex
100
AcDb2dVertex
 10
2077.276352599649
 20
1830.633559580099
 30
0.0
  0
VERTEX
  5
768
330
72D
100
AcDbEntity
  8
Predefinito
100
AcDbVertex
100
AcDb2dVertex
 10
2078.334045055753
 20
1832.042935070225
 30
0.0
  0
VERTEX
  5
769
330
72D
100
AcDbEntity
  8
Predefinito
100
AcDbVertex
100
AcDb2dVertex
 10
2079.417975166933
 20
1833.43320536707
 30
0.0
  0
VERTEX
  5
76A
330
72D
100
AcDbEntity
  8
Predefinito
100
AcDbVertex
100
AcDb2dVertex
 10
2080.573946894169
 20
1834.85719005262
 30
0.0
  0
VERTEX
  5
76B
330
72D
100
AcDbEntity
  8
Predefinito
100
AcDbVertex
100
AcDb2dVertex
 10
2081.760392039715
 20
1836.256697249247
 30
0.0
  0
VERTEX
  5
76C
330
72D
100
AcDbEntity
  8
Predefinito
100
AcDbVertex
100
AcDb2dVertex
 10
2082.978286280813
 20
1837.628981018083
 30
0.0
  0
VERTEX
  5
76D
330
72D
100
AcDbEntity
  8
Predefinito
100
AcDbVertex
100
AcDb2dVertex
 10
2084.228605294707
 20
1838.971295420266
 30
0.0
  0
VERTEX
  5
76E
330
72D
100
AcDbEntity
  8
Predefinito
100
AcDbVertex
100
AcDb2dVertex
 10
2085.512324758637
 20
1840.28089451693
 30
0.0
  0
VERTEX
  5
76F
330
72D
100
AcDbEntity
  8
Predefinito
100
AcDbVertex
100
AcDb2dVertex
 10
2086.830420349846
 20
1841.555032369211
 30
0.0
  0
VERTEX
  5
770
330
72D
100
AcDbEntity
  8
Predefinito
100
AcDbVertex
100
AcDb2dVertex
 10
2088.183867745578
 20
1842.790963038243
 30
0.0
  0
VERTEX
  5
771
330
72D
100
AcDbEntity
  8
Predefinito
100
AcDbVertex
100
AcDb2dVertex
 10
2089.573642623072
 20
1843.985940585163
 30
0.0
  0
VERTEX
  5
772
330
72D
100
AcDbEntity
  8
Predefinito
100
AcDbVertex
100
AcDb2dVertex
 10
2090.922325992829
 20
1845.076430052865
 30
0.0
  0
VERTEX
  5
773
330
72D
100
AcDbEntity
  8
Predefinito
100
AcDbVertex
100
AcDb2dVertex
 10
2092.303063113109
 20
1846.126818434777
 30
0.0
  0
VERTEX
  5
774
330
72D
100
AcDbEntity
  8
Predefinito
100
AcDbVertex
100
AcDb2dVertex
 10
2093.714524750078
 20
1847.136111388556
 30
0.0
  0
VERTEX
  5
775
330
72D
100
AcDbEntity
  8
Predefinito
100
AcDbVertex
100
AcDb2dVertex
 10
2095.1553816699
 20
1848.103314571861
 30
0.0
  0
VERTEX
  5
776
330
72D
100
AcDbEntity
  8
Predefinito
100
AcDbVertex
100
AcDb2dVertex
 10
2096.624304638743
 20
1849.027433642349
 30
0.0
  0
VERTEX
  5
777
330
72D
100
AcDbEntity
  8
Predefinito
100
AcDbVertex
100
AcDb2dVertex
 10
2098.119964422771
 20
1849.907474257679
 30
0.0
  0
VERTEX
  5
778
330
72D
100
AcDbEntity
  8
Predefinito
100
AcDbVertex
100
AcDb2dVertex
 10
2099.64103178815
 20
1850.742442075508
 30
0.0
  0
VERTEX
  5
779
330
72D
100
AcDbEntity
  8
Predefinito
100
AcDbVertex
100
AcDb2dVertex
 10
2101.186177501045
 20
1851.531342753495
 30
0.0
  0
VERTEX
  5
77A
330
72D
100
AcDbEntity
  8
Predefinito
100
AcDbVertex
100
AcDb2dVertex
 10
2102.74936209839
 20
1852.271148060744
 30
0.0
  0
VERTEX
  5
77B
330
72D
100
AcDbEntity
  8
Predefinito
100
AcDbVertex
100
AcDb2dVertex
 10
2104.333750519846
 20
1852.963793830318
 30
0.0
  0
VERTEX
  5
77C
330
72D
100
AcDbEntity
  8
Predefinito
100
AcDbVertex
100
AcDb2dVertex
 10
2105.937932570001
 20
1853.608902535126
 30
0.0
  0
VERTEX
  5
77D
330
72D
100
AcDbEntity
  8
Predefinito
100
AcDbVertex
100
AcDb2dVertex
 10
2107.560498053438
 20
1854.206096648078
 30
0.0
  0
VERTEX
  5
77E
330
72D
100
AcDbEntity
  8
Predefinito
100
AcDbVertex
100
AcDb2dVertex
 10
2109.200036774743
 20
1854.754998642083
 30
0.0
  0
VERTEX
  5
77F
330
72D
100
AcDbEntity
  8
Predefinito
100
AcDbVertex
100
AcDb2dVertex
 10
2110.855138538504
 20
1855.255230990052
 30
0.0
  0
VERTEX
  5
780
330
72D
100
AcDbEntity
  8
Predefinito
100
AcDbVertex
100
AcDb2dVertex
 10
2112.524393149303
 20
1855.706416164893
 30
0.0
  0
VERTEX
  5
781
330
72D
100
AcDbEntity
  8
Predefinito
100
AcDbVertex
100
AcDb2dVertex
 10
2114.206390411727
 20
1856.108176639517
 30
0.0
  0
VERTEX
  5
782
330
72D
100
AcDbEntity
  8
Predefinito
100
AcDbVertex
100
AcDb2dVertex
 10
2115.978362682341
 20
1856.475508825068
 30
0.0
  0
VERTEX
  5
783
330
72D
100
AcDbEntity
  8
Predefinito
100
AcDbVertex
100
AcDb2dVertex
 10
2117.76097064196
 20
1856.789613334233
 30
0.0
  0
VERTEX
  5
784
330
72D
100
AcDbEntity
  8
Predefinito
100
AcDbVertex
100
AcDb2dVertex
 10
2119.552443620174
 20
1857.05178415125
 30
0.0
  0
VERTEX
  5
785
330
72D
100
AcDbEntity
  8
Predefinito
100
AcDbVertex
100
AcDb2dVertex
 10
2121.351010946576
 20
1857.263315260358
 30
0.0
  0
VERTEX
  5
786
330
72D
100
AcDbEntity
  8
Predefinito
100
AcDbVertex
100
AcDb2dVertex
 10
2123.154901950756
 20
1857.425500645797
 30
0.0
  0
VERTEX
  5
787
330
72D
100
AcDbEntity
  8
Predefinito
100
AcDbVertex
100
AcDb2dVertex
 10
2124.962345962306
 20
1857.539634291802
 30
0.0
  0
VERTEX
  5
788
330
72D
100
AcDbEntity
  8
Predefinito
100
AcDbVertex
100
AcDb2dVertex
 10
2126.771572310817
 20
1857.607010182615
 30
0.0
  0
VERTEX
  5
789
330
72D
100
AcDbEntity
  8
Predefinito
100
AcDbVertex
100
AcDb2dVertex
 10
2128.58081032588
 20
1857.628922302473
 30
0.0
  0
VERTEX
  5
78A
330
72D
100
AcDbEntity
  8
Predefinito
100
AcDbVertex
100
AcDb2dVertex
 10
2130.447307189782
 20
1857.605227727571
 30
0.0
  0
VERTEX
  5
78B
330
72D
100
AcDbEntity
  8
Predefinito
100
AcDbVertex
100
AcDb2dVertex
 10
2132.311514230052
 20
1857.535954050559
 30
0.0
  0
VERTEX
  5
78C
330
72D
100
AcDbEntity
  8
Predefinito
100
AcDbVertex
100
AcDb2dVertex
 10
2134.173016958177
 20
1857.422613113414
 30
0.0
  0
VERTEX
  5
78D
330
72D
100
AcDbEntity
  8
Predefinito
100
AcDbVertex
100
AcDb2dVertex
 10
2136.031400885646
 20
1857.266716758107
 30
0.0
  0
VERTEX
  5
78E
330
72D
100
AcDbEntity
  8
Predefinito
100
AcDbVertex
100
AcDb2dVertex
 10
2137.886251523943
 20
1857.069776826613
 30
0.0
  0
VERTEX
  5
78F
330
72D
100
AcDbEntity
  8
Predefinito
100
AcDbVertex
100
AcDb2dVertex
 10
2139.737154384559
 20
1856.833305160906
 30
0.0
  0
VERTEX
  5
790
330
72D
100
AcDbEntity
  8
Predefinito
100
AcDbVertex
100
AcDb2dVertex
 10
2141.583694978979
 20
1856.55881360296
 30
0.0
  0
VERTEX
  5
791
330
72D
100
AcDbEntity
  8
Predefinito
100
AcDbVertex
100
AcDb2dVertex
 10
2143.425458818691
 20
1856.247813994748
 30
0.0
  0
VERTEX
  5
792
330
72D
100
AcDbEntity
  8
Predefinito
100
AcDbVertex
100
AcDb2dVertex
 10
2145.262031415182
 20
1855.901818178244
 30
0.0
  0
VERTEX
  5
793
330
72D
100
AcDbEntity
  8
Predefinito
100
AcDbVertex
100
AcDb2dVertex
 10
2147.09299827994
 20
1855.522337995422
 30
0.0
  0
VERTEX
  5
794
330
72D
100
AcDbEntity
  8
Predefinito
100
AcDbVertex
100
AcDb2dVertex
 10
2150.736456860204
 20
1854.66897189872
 30
0.0
  0
VERTEX
  5
795
330
72D
100
AcDbEntity
  8
Predefinito
100
AcDbVertex
100
AcDb2dVertex
 10
2154.352518651382
 20
1853.699810440431
 30
0.0
  0
VERTEX
  5
796
330
72D
100
AcDbEntity
  8
Predefinito
100
AcDbVertex
100
AcDb2dVertex
 10
2157.937867745373
 20
1852.626948356345
 30
0.0
  0
VERTEX
  5
797
330
72D
100
AcDbEntity
  8
Predefinito
100
AcDbVertex
100
AcDb2dVertex
 10
2162.450743842751
 20
1851.129130629239
 30
0.0
  0
VERTEX
  5
798
330
72D
100
AcDbEntity
  8
Predefinito
100
AcDbVertex
100
AcDb2dVertex
 10
2166.911416473959
 20
1849.494494600084
 30
0.0
  0
VERTEX
  5
799
330
72D
100
AcDbEntity
  8
Predefinito
100
AcDbVertex
100
AcDb2dVertex
 10
2171.322747356525
 20
1847.734458872758
 30
0.0
  0
VERTEX
  5
79A
330
72D
100
AcDbEntity
  8
Predefinito
100
AcDbVertex
100
AcDb2dVertex
 10
2175.68759820798
 20
1845.86044205114
 30
0.0
  0
VERTEX
  5
79B
330
72D
100
AcDbEntity
  8
Predefinito
100
AcDbVertex
100
AcDb2dVertex
 10
2180.008830745851
 20
1843.88386273911
 30
0.0
  0
VERTEX
  5
79C
330
72D
100
AcDbEntity
  8
Predefinito
100
AcDbVertex
100
AcDb2dVertex
 10
2184.289306687667
 20
1841.816139540545
 30
0.0
  0
VERTEX
  5
79D
330
72D
100
AcDbEntity
  8
Predefinito
100
AcDbVertex
100
AcDb2dVertex
 10
2192.739435653253
 20
1837.45293589933
 30
0.0
  0
VERTEX
  5
79E
330
72D
100
AcDbEntity
  8
Predefinito
100
AcDbVertex
100
AcDb2dVertex
 10
2202.997722434602
 20
1831.740353986514
 30
0.0
  0
VERTEX
  5
79F
330
72D
100
AcDbEntity
  8
Predefinito
100
AcDbVertex
100
AcDb2dVertex
 10
2213.086025551753
 20
1825.734701205388
 30
0.0
  0
VERTEX
  5
7A0
330
72D
100
AcDbEntity
  8
Predefinito
100
AcDbVertex
100
AcDb2dVertex
 10
2223.030647960085
 20
1819.489996115795
 30
0.0
  0
VERTEX
  5
7A1
330
72D
100
AcDbEntity
  8
Predefinito
100
AcDbVertex
100
AcDb2dVertex
 10
2232.857892614979
 20
1813.060257277578
 30
0.0
  0
VERTEX
  5
7A2
330
72D
100
AcDbEntity
  8
Predefinito
100
AcDbVertex
100
AcDb2dVertex
 10
2324.922891038238
 20
1748.689987589353
 30
0.0
  0
VERTEX
  5
7A3
330
72D
100
AcDbEntity
  8
Predefinito
100
AcDbVertex
100
AcDb2dVertex
 10
2345.352123326875
 20
1735.072201950402
 30
0.0
  0
VERTEX
  5
7A4
330
72D
100
AcDbEntity
  8
Predefinito
100
AcDbVertex
100
AcDb2dVertex
 10
2355.7142828717
 20
1728.487937533849
 30
0.0
  0
VERTEX
  5
7A5
330
72D
100
AcDbEntity
  8
Predefinito
100
AcDbVertex
100
AcDb2dVertex
 10
2366.201959388392
 20
1722.098453090291
 30
0.0
  0
VERTEX
  5
7A6
330
72D
100
AcDbEntity
  8
Predefinito
100
AcDbVertex
100
AcDb2dVertex
 10
2374.57378286698
 20
1717.235569425427
 30
0.0
  0
VERTEX
  5
7A7
330
72D
100
AcDbEntity
  8
Predefinito
100
AcDbVertex
100
AcDb2dVertex
 10
2383.073546403863
 20
1712.611565083892
 30
0.0
  0
VERTEX
  5
7A8
330
72D
100
AcDbEntity
  8
Predefinito
100
AcDbVertex
100
AcDb2dVertex
 10
2387.383070900584
 20
1710.419430478565
 30
0.0
  0
VERTEX
  5
7A9
330
72D
100
AcDbEntity
  8
Predefinito
100
AcDbVertex
100
AcDb2dVertex
 10
2391.738578659582
 20
1708.3233610871
 30
0.0
  0
VERTEX
  5
7AA
330
72D
100
AcDbEntity
  8
Predefinito
100
AcDbVertex
100
AcDb2dVertex
 10
2396.144735763425
 20
1706.335472037175
 30
0.0
  0
VERTEX
  5
7AB
330
72D
100
AcDbEntity
  8
Predefinito
100
AcDbVertex
100
AcDb2dVertex
 10
2400.606208294679
 20
1704.467878456466
 30
0.0
  0
VERTEX
  5
7AC
330
72D
100
AcDbEntity
  8
Predefinito
100
AcDbVertex
100
AcDb2dVertex
 10
2404.19331786013
 20
1703.07792822202
 30
0.0
  0
VERTEX
  5
7AD
330
72D
100
AcDbEntity
  8
Predefinito
100
AcDbVertex
100
AcDb2dVertex
 10
2407.816276663356
 20
1701.779484349458
 30
0.0
  0
VERTEX
  5
7AE
330
72D
100
AcDbEntity
  8
Predefinito
100
AcDbVertex
100
AcDb2dVertex
 10
2411.47305779796
 20
1700.580440719762
 30
0.0
  0
VERTEX
  5
7AF
330
72D
100
AcDbEntity
  8
Predefinito
100
AcDbVertex
100
AcDb2dVertex
 10
2415.161634357545
 20
1699.488691213912
 30
0.0
  0
VERTEX
  5
7B0
330
72D
100
AcDbEntity
  8
Predefinito
100
AcDbVertex
100
AcDb2dVertex
 10
2418.879979435716
 20
1698.512129712889
 30
0.0
  0
VERTEX
  5
7B1
330
72D
100
AcDbEntity
  8
Predefinito
100
AcDbVertex
100
AcDb2dVertex
 10
2422.626066126074
 20
1697.658650097672
 30
0.0
  0
VERTEX
  5
7B2
330
72D
100
AcDbEntity
  8
Predefinito
100
AcDbVertex
100
AcDb2dVertex
 10
2424.508879167574
 20
1697.280532835047
 30
0.0
  0
VERTEX
  5
7B3
330
72D
100
AcDbEntity
  8
Predefinito
100
AcDbVertex
100
AcDb2dVertex
 10
2426.397867522222
 20
1696.936146249242
 30
0.0
  0
VERTEX
  5
7B4
330
72D
100
AcDbEntity
  8
Predefinito
100
AcDbVertex
100
AcDb2dVertex
 10
2428.29277782672
 20
1696.626477075379
 30
0.0
  0
VERTEX
  5
7B5
330
72D
100
AcDbEntity
  8
Predefinito
100
AcDbVertex
100
AcDb2dVertex
 10
2430.193356717767
 20
1696.35251204858
 30
0.0
  0
VERTEX
  5
7B6
330
72D
100
AcDbEntity
  8
Predefinito
100
AcDbVertex
100
AcDb2dVertex
 10
2433.575179255536
 20
1695.956402734249
 30
0.0
  0
VERTEX
  5
7B7
330
72D
100
AcDbEntity
  8
Predefinito
100
AcDbVertex
100
AcDb2dVertex
 10
2436.970036136665
 20
1695.673572686796
 30
0.0
  0
VERTEX
  5
7B8
330
72D
100
AcDbEntity
  8
Predefinito
100
AcDbVertex
100
AcDb2dVertex
 10
2440.373945087003
 20
1695.502004964681
 30
0.0
  0
VERTEX
  5
7B9
330
72D
100
AcDbEntity
  8
Predefinito
100
AcDbVertex
100
AcDb2dVertex
 10
2443.782923832396
 20
1695.439682626366
 30
0.0
  0
VERTEX
  5
7BA
330
72D
100
AcDbEntity
  8
Predefinito
100
AcDbVertex
100
AcDb2dVertex
 10
2447.192990098692
 20
1695.484588730311
 30
0.0
  0
VERTEX
  5
7BB
330
72D
100
AcDbEntity
  8
Predefinito
100
AcDbVertex
100
AcDb2dVertex
 10
2450.600161611736
 20
1695.634706334978
 30
0.0
  0
VERTEX
  5
7BC
330
72D
100
AcDbEntity
  8
Predefinito
100
AcDbVertex
100
AcDb2dVertex
 10
2454.000456097379
 20
1695.888018498828
 30
0.0
  0
VERTEX
  5
7BD
330
72D
100
AcDbEntity
  8
Predefinito
100
AcDbVertex
100
AcDb2dVertex
 10
2457.389891281467
 20
1696.242508280322
 30
0.0
  0
VERTEX
  5
7BE
330
72D
100
AcDbEntity
  8
Predefinito
100
AcDbVertex
100
AcDb2dVertex
 10
2461.248945051942
 20
1696.768355938541
 30
0.0
  0
VERTEX
  5
7BF
330
72D
100
AcDbEntity
  8
Predefinito
100
AcDbVertex
100
AcDb2dVertex
 10
2465.088390480764
 20
1697.414738069194
 30
0.0
  0
VERTEX
  5
7C0
330
72D
100
AcDbEntity
  8
Predefinito
100
AcDbVertex
100
AcDb2dVertex
 10
2468.90803298694
 20
1698.172480435196
 30
0.0
  0
VERTEX
  5
7C1
330
72D
100
AcDbEntity
  8
Predefinito
100
AcDbVertex
100
AcDb2dVertex
 10
2472.707677989473
 20
1699.032408799462
 30
0.0
  0
VERTEX
  5
7C2
330
72D
100
AcDbEntity
  8
Predefinito
100
AcDbVertex
100
AcDb2dVertex
 10
2476.487130907366
 20
1699.985348924904
 30
0.0
  0
VERTEX
  5
7C3
330
72D
100
AcDbEntity
  8
Predefinito
100
AcDbVertex
100
AcDb2dVertex
 10
2480.246197159625
 20
1701.022126574438
 30
0.0
  0
VERTEX
  5
7C4
330
72D
100
AcDbEntity
  8
Predefinito
100
AcDbVertex
100
AcDb2dVertex
 10
2483.984682165252
 20
1702.133567510978
 30
0.0
  0
VERTEX
  5
7C5
330
72D
100
AcDbEntity
  8
Predefinito
100
AcDbVertex
100
AcDb2dVertex
 10
2487.702391343253
 20
1703.310497497436
 30
0.0
  0
VERTEX
  5
7C6
330
72D
100
AcDbEntity
  8
Predefinito
100
AcDbVertex
100
AcDb2dVertex
 10
2495.427389859013
 20
1705.955248950181
 30
0.0
  0
VERTEX
  5
7C7
330
72D
100
AcDbEntity
  8
Predefinito
100
AcDbVertex
100
AcDb2dVertex
 10
2503.076278037488
 20
1708.803523062117
 30
0.0
  0
VERTEX
  5
7C8
330
72D
100
AcDbEntity
  8
Predefinito
100
AcDbVertex
100
AcDb2dVertex
 10
2518.209599393097
 20
1714.935635050304
 30
0.0
  0
VERTEX
  5
7C9
330
72D
100
AcDbEntity
  8
Predefinito
100
AcDbVertex
100
AcDb2dVertex
 10
2579.413662901048
 20
1741.918052116798
 30
0.0
  0
VERTEX
  5
7CA
330
72D
100
AcDbEntity
  8
Predefinito
100
AcDbVertex
100
AcDb2dVertex
 10
2605.563736937786
 20
1752.827173178702
 30
0.0
  0
VERTEX
  5
7CB
330
72D
100
AcDbEntity
  8
Predefinito
100
AcDbVertex
100
AcDb2dVertex
 10
2617.926669577097
 20
1757.599142346519
 30
0.0
  0
VERTEX
  5
7CC
330
72D
100
AcDbEntity
  8
Predefinito
100
AcDbVertex
100
AcDb2dVertex
 10
2630.392560830638
 20
1762.08950259675
 30
0.0
  0
VERTEX
  5
7CD
330
72D
100
AcDbEntity
  8
Predefinito
100
AcDbVertex
100
AcDb2dVertex
 10
2642.971710409658
 20
1766.240155819603
 30
0.0
  0
VERTEX
  5
7CE
330
72D
100
AcDbEntity
  8
Predefinito
100
AcDbVertex
100
AcDb2dVertex
 10
2655.674418025403
 20
1769.993003905284
 30
0.0
  0
VERTEX
  5
7CF
330
72D
100
AcDbEntity
  8
Predefinito
100
AcDbVertex
100
AcDb2dVertex
 10
2665.914898974117
 20
1772.666394036461
 30
0.0
  0
VERTEX
  5
7D0
330
72D
100
AcDbEntity
  8
Predefinito
100
AcDbVertex
100
AcDb2dVertex
 10
2676.233860634819
 20
1775.021528867476
 30
0.0
  0
VERTEX
  5
7D1
330
72D
100
AcDbEntity
  8
Predefinito
100
AcDbVertex
100
AcDb2dVertex
 10
2686.624372978648
 20
1777.031051717539
 30
0.0
  0
VERTEX
  5
7D2
330
72D
100
AcDbEntity
  8
Predefinito
100
AcDbVertex
100
AcDb2dVertex
 10
2691.844295022716
 20
1777.897659686966
 30
0.0
  0
VERTEX
  5
7D3
330
72D
100
AcDbEntity
  8
Predefinito
100
AcDbVertex
100
AcDb2dVertex
 10
2697.079505976745
 20
1778.667605905856
 30
0.0
  0
VERTEX
  5
7D4
330
72D
100
AcDbEntity
  8
Predefinito
100
AcDbVertex
100
AcDb2dVertex
 10
2701.983014671707
 20
1779.296621540982
 30
0.0
  0
VERTEX
  5
7D5
330
72D
100
AcDbEntity
  8
Predefinito
100
AcDbVertex
100
AcDb2dVertex
 10
2706.897367821083
 20
1779.8360850407
 30
0.0
  0
VERTEX
  5
7D6
330
72D
100
AcDbEntity
  8
Predefinito
100
AcDbVertex
100
AcDb2dVertex
 10
2711.820823313643
 20
1780.283784650582
 30
0.0
  0
VERTEX
  5
7D7
330
72D
100
AcDbEntity
  8
Predefinito
100
AcDbVertex
100
AcDb2dVertex
 10
2716.751639038161
 20
1780.637508616199
 30
0.0
  0
VERTEX
  5
7D8
330
72D
100
AcDbEntity
  8
Predefinito
100
AcDbVertex
100
AcDb2dVertex
 10
2721.688072883406
 20
1780.895045183122
 30
0.0
  0
VERTEX
  5
7D9
330
72D
100
AcDbEntity
  8
Predefinito
100
AcDbVertex
100
AcDb2dVertex
 10
2726.62838273815
 20
1781.054182596924
 30
0.0
  0
VERTEX
  5
7DA
330
72D
100
AcDbEntity
  8
Predefinito
100
AcDbVertex
100
AcDb2dVertex
 10
2731.570826491165
 20
1781.112709103173
 30
0.0
  0
VERTEX
  5
7DB
330
72D
100
AcDbEntity
  8
Predefinito
100
AcDbVertex
100
AcDb2dVertex
 10
2736.513662031223
 20
1781.068412947444
 30
0.0
  0
VERTEX
  5
7DC
330
72D
100
AcDbEntity
  8
Predefinito
100
AcDbVertex
100
AcDb2dVertex
 10
2743.15974021004
 20
1780.843501651677
 30
0.0
  0
VERTEX
  5
7DD
330
72D
100
AcDbEntity
  8
Predefinito
100
AcDbVertex
100
AcDb2dVertex
 10
2749.797196597038
 20
1780.427621100858
 30
0.0
  0
VERTEX
  5
7DE
330
72D
100
AcDbEntity
  8
Predefinito
100
AcDbVertex
100
AcDb2dVertex
 10
2756.419852709603
 20
1779.819853850375
 30
0.0
  0
VERTEX
  5
7DF
330
72D
100
AcDbEntity
  8
Predefinito
100
AcDbVertex
100
AcDb2dVertex
 10
2763.021530065123
 20
1779.019282455616
 30
0.0
  0
VERTEX
  5
7E0
330
72D
100
AcDbEntity
  8
Predefinito
100
AcDbVertex
100
AcDb2dVertex
 10
2769.59605018098
 20
1778.024989471969
 30
0.0
  0
VERTEX
  5
7E1
330
72D
100
AcDbEntity
  8
Predefinito
100
AcDbVertex
100
AcDb2dVertex
 10
2776.137234574562
 20
1776.836057454824
 30
0.0
  0
VERTEX
  5
7E2
330
72D
100
AcDbEntity
  8
Predefinito
100
AcDbVertex
100
AcDb2dVertex
 10
2782.638904763253
 20
1775.451568959567
 30
0.0
  0
VERTEX
  5
7E3
330
72D
100
AcDbEntity
  8
Predefinito
100
AcDbVertex
100
AcDb2dVertex
 10
2789.09488226444
 20
1773.870606541589
 30
0.0
  0
VERTEX
  5
7E4
330
72D
100
AcDbEntity
  8
Predefinito
100
AcDbVertex
100
AcDb2dVertex
 10
2795.651482370959
 20
1772.048762549211
 30
0.0
  0
VERTEX
  5
7E5
330
72D
100
AcDbEntity
  8
Predefinito
100
AcDbVertex
100
AcDb2dVertex
 10
2802.150112278445
 20
1770.026949164969
 30
0.0
  0
VERTEX
  5
7E6
330
72D
100
AcDbEntity
  8
Predefinito
100
AcDbVertex
100
AcDb2dVertex
 10
2808.587175623202
 20
1767.812112045945
 30
0.0
  0
VERTEX
  5
7E7
330
72D
100
AcDbEntity
  8
Predefinito
100
AcDbVertex
100
AcDb2dVertex
 10
2814.959076041535
 20
1765.411196849224
 30
0.0
  0
VERTEX
  5
7E8
330
72D
100
AcDbEntity
  8
Predefinito
100
AcDbVertex
100
AcDb2dVertex
 10
2821.262217169748
 20
1762.831149231889
 30
0.0
  0
VERTEX
  5
7E9
330
72D
100
AcDbEntity
  8
Predefinito
100
AcDbVertex
100
AcDb2dVertex
 10
2827.493002644144
 20
1760.078914851023
 30
0.0
  0
VERTEX
  5
7EA
330
72D
100
AcDbEntity
  8
Predefinito
100
AcDbVertex
100
AcDb2dVertex
 10
2833.647836101029
 20
1757.16143936371
 30
0.0
  0
VERTEX
  5
7EB
330
72D
100
AcDbEntity
  8
Predefinito
100
AcDbVertex
100
AcDb2dVertex
 10
2839.723121176705
 20
1754.085668427034
 30
0.0
  0
VERTEX
  5
7EC
330
72D
100
AcDbEntity
  8
Predefinito
100
AcDbVertex
100
AcDb2dVertex
 10
2844.687030085042
 20
1751.426666015318
 30
0.0
  0
VERTEX
  5
7ED
330
72D
100
AcDbEntity
  8
Predefinito
100
AcDbVertex
100
AcDb2dVertex
 10
2849.595659401975
 20
1748.6694079186
 30
0.0
  0
VERTEX
  5
7EE
330
72D
100
AcDbEntity
  8
Predefinito
100
AcDbVertex
100
AcDb2dVertex
 10
2854.450633709842
 20
1745.819222086492
 30
0.0
  0
VERTEX
  5
7EF
330
72D
100
AcDbEntity
  8
Predefinito
100
AcDbVertex
100
AcDb2dVertex
 10
2859.253577590983
 20
1742.881436468602
 30
0.0
  0
VERTEX
  5
7F0
330
72D
100
AcDbEntity
  8
Predefinito
100
AcDbVertex
100
AcDb2dVertex
 10
2868.709872402438
 20
1736.764377673916
 30
0.0
  0
VERTEX
  5
7F1
330
72D
100
AcDbEntity
  8
Predefinito
100
AcDbVertex
100
AcDb2dVertex
 10
2877.977540495051
 20
1730.360855131416
 30
0.0
  0
VERTEX
  5
7F2
330
72D
100
AcDbEntity
  8
Predefinito
100
AcDbVertex
100
AcDb2dVertex
 10
2888.88911378644
 20
1722.345842753977
 30
0.0
  0
VERTEX
  5
7F3
330
72D
100
AcDbEntity
  8
Predefinito
100
AcDbVertex
100
AcDb2dVertex
 10
2949.753212837618
 20
1673.218204732901
 30
0.0
  0
VERTEX
  5
7F4
330
72D
100
AcDbEntity
  8
Predefinito
100
AcDbVertex
100
AcDb2dVertex
 10
2957.932427061963
 20
1666.956493707423
 30
0.0
  0
VERTEX
  5
7F5
330
72D
100
AcDbEntity
  8
Predefinito
100
AcDbVertex
100
AcDb2dVertex
 10
2961.898959038505
 20
1664.038868331844
 30
0.0
  0
VERTEX
  5
7F6
330
72D
100
AcDbEntity
  8
Predefinito
100
AcDbVertex
100
AcDb2dVertex
 10
2965.920062286786
 20
1661.198688748251
 30
0.0
  0
VERTEX
  5
7F7
330
72D
100
AcDbEntity
  8
Predefinito
100
AcDbVertex
100
AcDb2dVertex
 10
2970.01256296975
 20
1658.464760930654
 30
0.0
  0
VERTEX
  5
7F8
330
72D
100
AcDbEntity
  8
Predefinito
100
AcDbVertex
100
AcDb2dVertex
 10
2972.090845525158
 20
1657.146643300982
 30
0.0
  0
VERTEX
  5
7F9
330
72D
100
AcDbEntity
  8
Predefinito
100
AcDbVertex
100
AcDb2dVertex
 10
2974.193287250341
 20
1655.865890853063
 30
0.0
  0
VERTEX
  5
7FA
330
72D
100
AcDbEntity
  8
Predefinito
100
AcDbVertex
100
AcDb2dVertex
 10
2975.428623646108
 20
1655.142360347387
 30
0.0
  0
VERTEX
  5
7FB
330
72D
100
AcDbEntity
  8
Predefinito
100
AcDbVertex
100
AcDb2dVertex
 10
2976.67980181141
 20
1654.448181814893
 30
0.0
  0
VERTEX
  5
7FC
330
72D
100
AcDbEntity
  8
Predefinito
100
AcDbVertex
100
AcDb2dVertex
 10
2977.313508166777
 20
1654.116945045192
 30
0.0
  0
VERTEX
  5
7FD
330
72D
100
AcDbEntity
  8
Predefinito
100
AcDbVertex
100
AcDb2dVertex
 10
2977.953786895496
 20
1653.798860876709
 30
0.0
  0
VERTEX
  5
7FE
330
72D
100
AcDbEntity
  8
Predefinito
100
AcDbVertex
100
AcDb2dVertex
 10
2978.601508641222
 20
1653.495867512085
 30
0.0
  0
VERTEX
  5
7FF
330
72D
100
AcDbEntity
  8
Predefinito
100
AcDbVertex
100
AcDb2dVertex
 10
2979.257544047613
 20
1653.209903153962
 30
0.0
  0
VERTEX
  5
800
330
72D
100
AcDbEntity
  8
Predefinito
100
AcDbVertex
100
AcDb2dVertex
 10
2979.716774030618
 20
1653.023148872424
 30
0.0
  0
VERTEX
  5
801
330
72D
100
AcDbEntity
  8
Predefinito
100
AcDbVertex
100
AcDb2dVertex
 10
2980.180318791148
 20
1652.846970990098
 30
0.0
  0
VERTEX
  5
802
330
72D
100
AcDbEntity
  8
Predefinito
100
AcDbVertex
100
AcDb2dVertex
 10
2980.648095246391
 20
1652.68286354852
 30
0.0
  0
VERTEX
  5
803
330
72D
100
AcDbEntity
  8
Predefinito
100
AcDbVertex
100
AcDb2dVertex
 10
2981.120020313532
 20
1652.532320589225
 30
0.0
  0
VERTEX
  5
804
330
72D
100
AcDbEntity
  8
Predefinito
100
AcDbVertex
100
AcDb2dVertex
 10
2981.596010909758
 20
1652.39683615375
 30
0.0
  0
VERTEX
  5
805
330
72D
100
AcDbEntity
  8
Predefinito
100
AcDbVertex
100
AcDb2dVertex
 10
2981.835504817897
 20
1652.335207770423
 30
0.0
  0
VERTEX
  5
806
330
72D
100
AcDbEntity
  8
Predefinito
100
AcDbVertex
100
AcDb2dVertex
 10
2982.075983952252
 20
1652.277904283628
 30
0.0
  0
VERTEX
  5
807
330
72D
100
AcDbEntity
  8
Predefinito
100
AcDbVertex
100
AcDb2dVertex
 10
2982.317437927471
 20
1652.225112448555
 30
0.0
  0
VERTEX
  5
808
330
72D
100
AcDbEntity
  8
Predefinito
100
AcDbVertex
100
AcDb2dVertex
 10
2982.559856358203
 20
1652.177019020397
 30
0.0
  0
VERTEX
  5
809
330
72D
100
AcDbEntity
  8
Predefinito
100
AcDbVertex
100
AcDb2dVertex
 10
2982.803228859096
 20
1652.133810754345
 30
0.0
  0
VERTEX
  5
80A
330
72D
100
AcDbEntity
  8
Predefinito
100
AcDbVertex
100
AcDb2dVertex
 10
2983.047545044796
 20
1652.095674405592
 30
0.0
  0
VERTEX
  5
80B
330
72D
100
AcDbEntity
  8
Predefinito
100
AcDbVertex
100
AcDb2dVertex
 10
2983.263413562191
 20
1652.066373725566
 30
0.0
  0
VERTEX
  5
80C
330
72D
100
AcDbEntity
  8
Predefinito
100
AcDbVertex
100
AcDb2dVertex
 10
2983.479911044985
 20
1652.040854877743
 30
0.0
  0
VERTEX
  5
80D
330
72D
100
AcDbEntity
  8
Predefinito
100
AcDbVertex
100
AcDb2dVertex
 10
2983.914414770097
 20
1651.99998378452
 30
0.0
  0
VERTEX
  5
80E
330
72D
100
AcDbEntity
  8
Predefinito
100
AcDbVertex
100
AcDb2dVertex
 10
2984.350299946792
 20
1651.970703337553
 30
0.0
  0
VERTEX
  5
80F
330
72D
100
AcDbEntity
  8
Predefinito
100
AcDbVertex
100
AcDb2dVertex
 10
2984.786810301726
 20
1651.950655748474
 30
0.0
  0
VERTEX
  5
810
330
72D
100
AcDbEntity
  8
Predefinito
100
AcDbVertex
100
AcDb2dVertex
 10
2985.364354641876
 20
1651.935113503772
 30
0.0
  0
VERTEX
  5
811
330
72D
100
AcDbEntity
  8
Predefinito
100
AcDbVertex
100
AcDb2dVertex
 10
2985.941606249761
 20
1651.930993836736
 30
0.0
  0
VERTEX
  5
812
330
72D
100
AcDbEntity
  8
Predefinito
100
AcDbVertex
100
AcDb2dVertex
 10
2986.51850192133
 20
1651.937682091022
 30
0.0
  0
VERTEX
  5
813
330
72D
100
AcDbEntity
  8
Predefinito
100
AcDbVertex
100
AcDb2dVertex
 10
2987.094978452532
 20
1651.954563610283
 30
0.0
  0
VERTEX
  5
814
330
72D
100
AcDbEntity
  8
Predefinito
100
AcDbVertex
100
AcDb2dVertex
 10
2988.246421277632
 20
1652.016447818353
 30
0.0
  0
VERTEX
  5
815
330
72D
100
AcDbEntity
  8
Predefinito
100
AcDbVertex
100
AcDb2dVertex
 10
2989.395429092652
 20
1652.111729210184
 30
0.0
  0
VERTEX
  5
816
330
72D
100
AcDbEntity
  8
Predefinito
100
AcDbVertex
100
AcDb2dVertex
 10
2990.429174314238
 20
1652.222554739883
 30
0.0
  0
VERTEX
  5
817
330
72D
100
AcDbEntity
  8
Predefinito
100
AcDbVertex
100
AcDb2dVertex
 10
2991.46047380295
 20
1652.354962201943
 30
0.0
  0
VERTEX
  5
818
330
72D
100
AcDbEntity
  8
Predefinito
100
AcDbVertex
100
AcDb2dVertex
 10
2992.489273397814
 20
1652.507371309018
 30
0.0
  0
VERTEX
  5
819
330
72D
100
AcDbEntity
  8
Predefinito
100
AcDbVertex
100
AcDb2dVertex
 10
2993.515518937853
 20
1652.67820177376
 30
0.0
  0
VERTEX
  5
81A
330
72D
100
AcDbEntity
  8
Predefinito
100
AcDbVertex
100
AcDb2dVertex
 10
2995.56013120956
 20
1653.068805626852
 30
0.0
  0
VERTEX
  5
81B
330
72D
100
AcDbEntity
  8
Predefinito
100
AcDbVertex
100
AcDb2dVertex
 10
2997.593877330267
 20
1653.514131462437
 30
0.0
  0
VERTEX
  5
81C
330
72D
100
AcDbEntity
  8
Predefinito
100
AcDbVertex
100
AcDb2dVertex
 10
3000.222864711088
 20
1654.158210179421
 30
0.0
  0
VERTEX
  5
81D
330
72D
100
AcDbEntity
  8
Predefinito
100
AcDbVertex
100
AcDb2dVertex
 10
3002.833735855137
 20
1654.867813359485
 30
0.0
  0
VERTEX
  5
81E
330
72D
100
AcDbEntity
  8
Predefinito
100
AcDbVertex
100
AcDb2dVertex
 10
3005.427496100229
 20
1655.637255751243
 30
0.0
  0
VERTEX
  5
81F
330
72D
100
AcDbEntity
  8
Predefinito
100
AcDbVertex
100
AcDb2dVertex
 10
3008.005150784179
 20
1656.460852103309
 30
0.0
  0
VERTEX
  5
820
330
72D
100
AcDbEntity
  8
Predefinito
100
AcDbVertex
100
AcDb2dVertex
 10
3013.116164819906
 20
1658.247765682814
 30
0.0
  0
VERTEX
  5
821
330
72D
100
AcDbEntity
  8
Predefinito
100
AcDbVertex
100
AcDb2dVertex
 10
3018.174820664833
 20
1660.183072086911
 30
0.0
  0
VERTEX
  5
822
330
72D
100
AcDbEntity
  8
Predefinito
100
AcDbVertex
100
AcDb2dVertex
 10
3023.389698344484
 20
1662.310336515581
 30
0.0
  0
VERTEX
  5
823
330
72D
100
AcDbEntity
  8
Predefinito
100
AcDbVertex
100
AcDb2dVertex
 10
3028.563911531177
 20
1664.531229928458
 30
0.0
  0
VERTEX
  5
824
330
72D
100
AcDbEntity
  8
Predefinito
100
AcDbVertex
100
AcDb2dVertex
 10
3038.819491701871
 20
1669.183003495283
 30
0.0
  0
VERTEX
  5
825
330
72D
100
AcDbEntity
  8
Predefinito
100
AcDbVertex
100
AcDb2dVertex
 10
3083.258402142057
 20
1690.661119459582
 30
0.0
  0
VERTEX
  5
826
330
72D
100
AcDbEntity
  8
Predefinito
100
AcDbVertex
100
AcDb2dVertex
 10
3098.193425024407
 20
1697.558657986493
 30
0.0
  0
VERTEX
  5
827
330
72D
100
AcDbEntity
  8
Predefinito
100
AcDbVertex
100
AcDb2dVertex
 10
3106.689349601321
 20
1701.248458166332
 30
0.0
  0
VERTEX
  5
828
330
72D
100
AcDbEntity
  8
Predefinito
100
AcDbVertex
100
AcDb2dVertex
 10
3115.260483576885
 20
1704.759083981464
 30
0.0
  0
VERTEX
  5
829
330
72D
100
AcDbEntity
  8
Predefinito
100
AcDbVertex
100
AcDb2dVertex
 10
3123.912557319924
 20
1708.060632044509
 30
0.0
  0
VERTEX
  5
82A
330
72D
100
AcDbEntity
  8
Predefinito
100
AcDbVertex
100
AcDb2dVertex
 10
3132.651301199259
 20
1711.123198968084
 30
0.0
  0
VERTEX
  5
82B
330
72D
100
AcDbEntity
  8
Predefinito
100
AcDbVertex
100
AcDb2dVertex
 10
3140.384353389763
 20
1713.586624842865
 30
0.0
  0
VERTEX
  5
82C
330
72D
100
AcDbEntity
  8
Predefinito
100
AcDbVertex
100
AcDb2dVertex
 10
3148.186230714326
 20
1715.820881160218
 30
0.0
  0
VERTEX
  5
82D
330
72D
100
AcDbEntity
  8
Predefinito
100
AcDbVertex
100
AcDb2dVertex
 10
3156.054794270643
 20
1717.803302984261
 30
0.0
  0
VERTEX
  5
82E
330
72D
100
AcDbEntity
  8
Predefinito
100
AcDbVertex
100
AcDb2dVertex
 10
3160.01341497874
 20
1718.692993168828
 30
0.0
  0
VERTEX
  5
82F
330
72D
100
AcDbEntity
  8
Predefinito
100
AcDbVertex
100
AcDb2dVertex
 10
3163.987905156412
 20
1719.511225379111
 30
0.0
  0
VERTEX
  5
830
330
72D
100
AcDbEntity
  8
Predefinito
100
AcDbVertex
100
AcDb2dVertex
 10
3167.867236487496
 20
1720.236034046666
 30
0.0
  0
VERTEX
  5
831
330
72D
100
AcDbEntity
  8
Predefinito
100
AcDbVertex
100
AcDb2dVertex
 10
3171.759754121859
 20
1720.89048986678
 30
0.0
  0
VERTEX
  5
832
330
72D
100
AcDbEntity
  8
Predefinito
100
AcDbVertex
100
AcDb2dVertex
 10
3175.663893182642
 20
1721.474479305502
 30
0.0
  0
VERTEX
  5
833
330
72D
100
AcDbEntity
  8
Predefinito
100
AcDbVertex
100
AcDb2dVertex
 10
3179.578088792989
 20
1721.98788882888
 30
0.0
  0
VERTEX
  5
834
330
72D
100
AcDbEntity
  8
Predefinito
100
AcDbVertex
100
AcDb2dVertex
 10
3183.500776076042
 20
1722.430604902964
 30
0.0
  0
VERTEX
  5
835
330
72D
100
AcDbEntity
  8
Predefinito
100
AcDbVertex
100
AcDb2dVertex
 10
3187.430390154944
 20
1722.802513993803
 30
0.0
  0
VERTEX
  5
836
330
72D
100
AcDbEntity
  8
Predefinito
100
AcDbVertex
100
AcDb2dVertex
 10
3191.365366152839
 20
1723.103502567444
 30
0.0
  0
VERTEX
  5
837
330
72D
100
AcDbEntity
  8
Predefinito
100
AcDbVertex
100
AcDb2dVertex
 10
3195.304139192869
 20
1723.333457089937
 30
0.0
  0
VERTEX
  5
838
330
72D
100
AcDbEntity
  8
Predefinito
100
AcDbVertex
100
AcDb2dVertex
 10
3199.326980470483
 20
1723.495071015778
 30
0.0
  0
VERTEX
  5
839
330
72D
100
AcDbEntity
  8
Predefinito
100
AcDbVertex
100
AcDb2dVertex
 10
3203.35128674579
 20
1723.584048665735
 30
0.0
  0
VERTEX
  5
83A
330
72D
100
AcDbEntity
  8
Predefinito
100
AcDbVertex
100
AcDb2dVertex
 10
3211.400851633934
 20
1723.550060704017
 30
0.0
  0
VERTEX
  5
83B
330
72D
100
AcDbEntity
  8
Predefinito
100
AcDbVertex
100
AcDb2dVertex
 10
3219.445948546196
 20
1723.243424336828
 30
0.0
  0
VERTEX
  5
83C
330
72D
100
AcDbEntity
  8
Predefinito
100
AcDbVertex
100
AcDb2dVertex
 10
3227.479692171471
 20
1722.676070696211
 30
0.0
  0
VERTEX
  5
83D
330
72D
100
AcDbEntity
  8
Predefinito
100
AcDbVertex
100
AcDb2dVertex
 10
3235.495197198656
 20
1721.85993091421
 30
0.0
  0
VERTEX
  5
83E
330
72D
100
AcDbEntity
  8
Predefinito
100
AcDbVertex
100
AcDb2dVertex
 10
3243.485578316645
 20
1720.80693612287
 30
0.0
  0
VERTEX
  5
83F
330
72D
100
AcDbEntity
  8
Predefinito
100
AcDbVertex
100
AcDb2dVertex
 10
3251.443950214333
 20
1719.529017454232
 30
0.0
  0
VERTEX
  5
840
330
72D
100
AcDbEntity
  8
Predefinito
100
AcDbVertex
100
AcDb2dVertex
 10
3259.363427580617
 20
1718.038106040343
 30
0.0
  0
VERTEX
  5
841
330
72D
100
AcDbEntity
  8
Predefinito
100
AcDbVertex
100
AcDb2dVertex
 10
3266.947053047237
 20
1716.41469718127
 30
0.0
  0
VERTEX
  5
842
330
72D
100
AcDbEntity
  8
Predefinito
100
AcDbVertex
100
AcDb2dVertex
 10
3274.492520581327
 20
1714.628779265639
 30
0.0
  0
VERTEX
  5
843
330
72D
100
AcDbEntity
  8
Predefinito
100
AcDbVertex
100
AcDb2dVertex
 10
3289.486107404765
 20
1710.66494121341
 30
0.0
  0
VERTEX
  5
844
330
72D
100
AcDbEntity
  8
Predefinito
100
AcDbVertex
100
AcDb2dVertex
 10
3339.540225067813
 20
1695.748901468899
 30
0.0
  0
VERTEX
  5
845
330
72D
100
AcDbEntity
  8
Predefinito
100
AcDbVertex
100
AcDb2dVertex
 10
3356.317684982635
 20
1691.11518630497
 30
0.0
  0
VERTEX
  5
846
330
72D
100
AcDbEntity
  8
Predefinito
100
AcDbVertex
100
AcDb2dVertex
 10
3365.493152655396
 20
1688.834417433603
 30
0.0
  0
VERTEX
  5
847
330
72D
100
AcDbEntity
  8
Predefinito
100
AcDbVertex
100
AcDb2dVertex
 10
3374.715102276178
 20
1686.744493244881
 30
0.0
  0
VERTEX
  5
848
330
72D
100
AcDbEntity
  8
Predefinito
100
AcDbVertex
100
AcDb2dVertex
 10
3383.979700468334
 20
1684.85429554237
 30
0.0
  0
VERTEX
  5
849
330
72D
100
AcDbEntity
  8
Predefinito
100
AcDbVertex
100
AcDb2dVertex
 10
3393.283113855223
 20
1683.172706129635
 30
0.0
  0
VERTEX
  5
84A
330
72D
100
AcDbEntity
  8
Predefinito
100
AcDbVertex
100
AcDb2dVertex
 10
3403.056293895191
 20
1681.642673055835
 30
0.0
  0
VERTEX
  5
84B
330
72D
100
AcDbEntity
  8
Predefinito
100
AcDbVertex
100
AcDb2dVertex
 10
3412.862429394854
 20
1680.341181239834
 30
0.0
  0
VERTEX
  5
84C
330
72D
100
AcDbEntity
  8
Predefinito
100
AcDbVertex
100
AcDb2dVertex
 10
3422.696165656342
 20
1679.258588785994
 30
0.0
  0
VERTEX
  5
84D
330
72D
100
AcDbEntity
  8
Predefinito
100
AcDbVertex
100
AcDb2dVertex
 10
3432.552147981783
 20
1678.385253798683
 30
0.0
  0
VERTEX
  5
84E
330
72D
100
AcDbEntity
  8
Predefinito
100
AcDbVertex
100
AcDb2dVertex
 10
3442.425021673309
 20
1677.711534382263
 30
0.0
  0
VERTEX
  5
84F
330
72D
100
AcDbEntity
  8
Predefinito
100
AcDbVertex
100
AcDb2dVertex
 10
3452.309432033047
 20
1677.2277886411
 30
0.0
  0
VERTEX
  5
850
330
72D
100
AcDbEntity
  8
Predefinito
100
AcDbVertex
100
AcDb2dVertex
 10
3472.09144396568
 20
1676.791650602003
 30
0.0
  0
VERTEX
  5
851
330
72D
100
AcDbEntity
  8
Predefinito
100
AcDbVertex
100
AcDb2dVertex
 10
3473.503132847292
 20
1676.427570516705
 30
0.0
  0
VERTEX
  5
852
330
72D
100
AcDbEntity
  8
Predefinito
100
AcDbVertex
100
AcDb2dVertex
 10
3474.078037833875
 20
1675.632791253177
 30
0.0
  0
SEQEND
  5
853
330
72D
100
AcDbEntity
  8
Predefinito
  0
POLYLINE
  5
854
330
1F
100
AcDbEntity
  8
Linee visibili 2D
100
AcDb2dPolyline
 66
     1
 10
0.0
 20
0.0
 30
0.0
  0
VERTEX
  5
855
330
854
100
AcDbEntity
  8
Linee visibili 2D
100
AcDbVertex
100
AcDb2dVertex
 10
1885.442545053115
 20
2336.204917319268
 30
0.0
  0
VERTEX
  5
856
330
854
100
AcDbEntity
  8
Linee visibili 2D
100
AcDbVertex
100
AcDb2dVertex
 10
1970.964141035167
 20
2336.203350558888
 30
0.0
  0
VERTEX
  5
857
330
854
100
AcDbEntity
  8
Linee visibili 2D
100
AcDbVertex
100
AcDb2dVertex
 10
2003.217197156285
 20
2365.939851927003
 30
0.0
  0
VERTEX
  5
858
330
854
100
AcDbEntity
  8
Linee visibili 2D
100
AcDbVertex
100
AcDb2dVertex
 10
1853.274616621122
 20
2365.921270935613
 30
0.0
  0
VERTEX
  5
859
330
854
100
AcDbEntity
  8
Linee visibili 2D
100
AcDbVertex
100
AcDb2dVertex
 10
1885.442545053115
 20
2336.204917319268
 30
0.0
  0
SEQEND
  5
85A
330
854
100
AcDbEntity
  8
Linee visibili 2D
  0
LINE
  5
85B
330
1F
100
AcDbEntity
  8
Predefinito
100
AcDbLine
 10
3474.078037871228
 20
1676.779670733646
 30
0.0
 11
3474.078037871228
 21
1676.742388485108
 31
0.0
  0
POLYLINE
  5
85C
330
1F
100
AcDbEntity
  8
Predefinito
100
AcDb2dPolyline
 66
     1
 10
0.0
 20
0.0
 30
-0.0000000000001137
  0
VERTEX
  5
85D
330
85C
100
AcDbEntity
  8
Predefinito
100
AcDbVertex
100
AcDb2dVertex
 10
1932.620720246122
 20
235.6375457536806
 30
-0.0000000000001137
  0
VERTEX
  5
85E
330
85C
100
AcDbEntity
  8
Predefinito
100
AcDbVertex
100
AcDb2dVertex
 10
1923.894222938018
 20
235.6375457536806
 30
-0.0000000000001466
 42
-0.4415184401121687
  0
VERTEX
  5
85F
330
85C
100
AcDbEntity
  8
Predefinito
100
AcDbVertex
100
AcDb2dVertex
 10
1918.698070515311
 20
240.8336981763875
 30
-0.0000000000001137
  0
VERTEX
  5
860
330
85C
100
AcDbEntity
  8
Predefinito
100
AcDbVertex
100
AcDb2dVertex
 10
1918.698070515312
 20
270.3340195212184
 30
-0.0000000000001137
 42
0.1862173954306057
  0
VERTEX
  5
861
330
85C
100
AcDbEntity
  8
Predefinito
100
AcDbVertex
100
AcDb2dVertex
 10
1888.21216907847
 20
251.1958493491763
 30
-0.0000000000001137
  0
VERTEX
  5
862
330
85C
100
AcDbEntity
  8
Predefinito
100
AcDbVertex
100
AcDb2dVertex
 10
1889.987521156228
 20
250.1708493491765
 30
-0.0000000000001137
  0
VERTEX
  5
863
330
85C
100
AcDbEntity
  8
Predefinito
100
AcDbVertex
100
AcDb2dVertex
 10
1884.081803587634
 20
239.9418464652194
 30
-0.0000000000001137
  0
VERTEX
  5
864
330
85C
100
AcDbEntity
  8
Predefinito
100
AcDbVertex
100
AcDb2dVertex
 10
1882.306451509876
 20
240.9668464652193
 30
-0.0000000000001137
 42
0.5009451121316588
  0
VERTEX
  5
865
330
85C
100
AcDbEntity
  8
Predefinito
100
AcDbVertex
100
AcDb2dVertex
 10
1922.351754023476
 20
171.6063479071975
 30
-0.0000000000001137
  0
VERTEX
  5
866
330
85C
100
AcDbEntity
  8
Predefinito
100
AcDbVertex
100
AcDb2dVertex
 10
1922.351754023476
 20
173.6563479071975
 30
-0.0000000000001137
  0
VERTEX
  5
867
330
85C
100
AcDbEntity
  8
Predefinito
100
AcDbVertex
100
AcDb2dVertex
 10
1934.163189160664
 20
173.6563479071975
 30
-0.0000000000001137
  0
VERTEX
  5
868
330
85C
100
AcDbEntity
  8
Predefinito
100
AcDbVertex
100
AcDb2dVertex
 10
1934.163189160664
 20
171.6063479071973
 30
-0.0000000000001137
 42
0.5009451121316599
  0
VERTEX
  5
869
330
85C
100
AcDbEntity
  8
Predefinito
100
AcDbVertex
100
AcDb2dVertex
 10
1974.208491674264
 20
240.9668464652193
 30
-0.0000000000001137
  0
VERTEX
  5
86A
330
85C
100
AcDbEntity
  8
Predefinito
100
AcDbVertex
100
AcDb2dVertex
 10
1972.433139596506
 20
239.9418464652194
 30
-0.0000000000001137
  0
VERTEX
  5
86B
330
85C
100
AcDbEntity
  8
Predefinito
100
AcDbVertex
100
AcDb2dVertex
 10
1966.527422027912
 20
250.1708493491765
 30
-0.0000000000001137
  0
VERTEX
  5
86C
330
85C
100
AcDbEntity
  8
Predefinito
100
AcDbVertex
100
AcDb2dVertex
 10
1968.30277410567
 20
251.1958493491763
 30
-0.0000000000001137
 42
0.1862173954306043
  0
VERTEX
  5
86D
330
85C
100
AcDbEntity
  8
Predefinito
100
AcDbVertex
100
AcDb2dVertex
 10
1937.816872668829
 20
270.3340195212184
 30
-0.0000000000001137
  0
VERTEX
  5
86E
330
85C
100
AcDbEntity
  8
Predefinito
100
AcDbVertex
100
AcDb2dVertex
 10
1937.816872668829
 20
240.8336981763875
 30
-0.000000000000129
 42
-0.4415184401121794
  0
VERTEX
  5
86F
330
85C
100
AcDbEntity
  8
Predefinito
100
AcDbVertex
100
AcDb2dVertex
 10
1932.620720246122
 20
235.6375457536804
 30
-0.0000000000001714
  0
SEQEND
  5
870
330
85C
100
AcDbEntity
  8
Predefinito
  0
POLYLINE
  5
871
330
1F
100
AcDbEntity
  8
Predefinito
100
AcDb2dPolyline
 66
     1
 10
0.0
 20
0.0
 30
-0.0000000000001137
  0
VERTEX
  5
872
330
871
100
AcDbEntity
  8
Predefinito
100
AcDbVertex
100
AcDb2dVertex
 10
1897.851880001049
 20
248.4799589828796
 30
-0.0000000000001137
  0
VERTEX
  5
873
330
871
100
AcDbEntity
  8
Predefinito
100
AcDbVertex
100
AcDb2dVertex
 10
1893.962792704523
 20
252.3690462794054
 30
-0.0000000000001137
 42
-1.000000000000063
  0
VERTEX
  5
874
330
871
100
AcDbEntity
  8
Predefinito
100
AcDbVertex
100
AcDb2dVertex
 10
1897.144773219862
 20
255.5510267947453
 30
-0.0000000000001137
  0
VERTEX
  5
875
330
871
100
AcDbEntity
  8
Predefinito
100
AcDbVertex
100
AcDb2dVertex
 10
1901.033860516388
 20
251.6619394982195
 30
-0.0000000000001137
 42
-0.9999999999998391
  0
VERTEX
  5
876
330
871
100
AcDbEntity
  8
Predefinito
100
AcDbVertex
100
AcDb2dVertex
 10
1897.851880001049
 20
248.4799589828796
 30
-0.0000000000001137
  0
SEQEND
  5
877
330
871
100
AcDbEntity
  8
Predefinito
  0
POLYLINE
  5
878
330
1F
100
AcDbEntity
  8
Predefinito
100
AcDb2dPolyline
 66
     1
 10
0.0
 20
0.0
 30
-0.0000000000001137
  0
VERTEX
  5
879
330
878
100
AcDbEntity
  8
Predefinito
100
AcDbVertex
100
AcDb2dVertex
 10
1955.481082667752
 20
251.6619394982195
 30
-0.0000000000001137
  0
VERTEX
  5
87A
330
878
100
AcDbEntity
  8
Predefinito
100
AcDbVertex
100
AcDb2dVertex
 10
1959.370169964278
 20
255.5510267947453
 30
-0.0000000000001137
 42
-1.000000000000018
  0
VERTEX
  5
87B
330
878
100
AcDbEntity
  8
Predefinito
100
AcDbVertex
100
AcDb2dVertex
 10
1962.552150479617
 20
252.3690462794054
 30
-0.0000000000001137
  0
VERTEX
  5
87C
330
878
100
AcDbEntity
  8
Predefinito
100
AcDbVertex
100
AcDb2dVertex
 10
1958.663063175189
 20
248.479958974977
 30
-0.0000000000001137
 42
-0.9999999962746968
  0
VERTEX
  5
87D
330
878
100
AcDbEntity
  8
Predefinito
100
AcDbVertex
100
AcDb2dVertex
 10
1955.481082667752
 20
251.6619394982195
 30
-0.0000000000001137
  0
SEQEND
  5
87E
330
878
100
AcDbEntity
  8
Predefinito
  0
POLYLINE
  5
87F
330
1F
100
AcDbEntity
  8
Predefinito
100
AcDb2dPolyline
 66
     1
 10
0.0
 20
0.0
 30
-0.0000000000001137
  0
VERTEX
  5
880
330
87F
100
AcDbEntity
  8
Predefinito
100
AcDbVertex
100
AcDb2dVertex
 10
1901.033860516388
 20
190.1436495349892
 30
-0.0000000000001137
 42
-1.000000000000232
  0
VERTEX
  5
881
330
87F
100
AcDbEntity
  8
Predefinito
100
AcDbVertex
100
AcDb2dVertex
 10
1897.851880001048
 20
186.9616690196503
 30
-0.0000000000001137
  0
VERTEX
  5
882
330
87F
100
AcDbEntity
  8
Predefinito
100
AcDbVertex
100
AcDb2dVertex
 10
1893.962792704523
 20
190.8507563161761
 30
-0.0000000000001137
 42
-0.999999999999991
  0
VERTEX
  5
883
330
87F
100
AcDbEntity
  8
Predefinito
100
AcDbVertex
100
AcDb2dVertex
 10
1897.144773219862
 20
194.0327368315153
 30
-0.0000000000001137
  0
VERTEX
  5
884
330
87F
100
AcDbEntity
  8
Predefinito
100
AcDbVertex
100
AcDb2dVertex
 10
1901.033860516388
 20
190.1436495349892
 30
-0.0000000000001137
  0
SEQEND
  5
885
330
87F
100
AcDbEntity
  8
Predefinito
  0
POLYLINE
  5
886
330
1F
100
AcDbEntity
  8
Predefinito
100
AcDb2dPolyline
 66
     1
 10
0.0
 20
0.0
 30
-0.0000000000001137
  0
VERTEX
  5
887
330
886
100
AcDbEntity
  8
Predefinito
100
AcDbVertex
100
AcDb2dVertex
 10
1959.370169964278
 20
194.0327368315152
 30
-0.0000000000001137
 42
-0.9999999999998838
  0
VERTEX
  5
888
330
886
100
AcDbEntity
  8
Predefinito
100
AcDbVertex
100
AcDb2dVertex
 10
1962.552150479618
 20
190.8507563161762
 30
-0.0000000000001137
  0
VERTEX
  5
889
330
886
100
AcDbEntity
  8
Predefinito
100
AcDbVertex
100
AcDb2dVertex
 10
1958.663063183092
 20
186.9616690196501
 30
-0.0000000000001137
 42
-1.000000000000116
  0
VERTEX
  5
88A
330
886
100
AcDbEntity
  8
Predefinito
100
AcDbVertex
100
AcDb2dVertex
 10
1955.481082667752
 20
190.1436495349892
 30
-0.0000000000001137
  0
VERTEX
  5
88B
330
886
100
AcDbEntity
  8
Predefinito
100
AcDbVertex
100
AcDb2dVertex
 10
1959.370169964278
 20
194.0327368315152
 30
-0.0000000000001137
  0
SEQEND
  5
88C
330
886
100
AcDbEntity
  8
Predefinito
  0
ENDSEC
  0
SECTION
  2
OBJECTS
  0
DICTIONARY
  5
C
330
0
100
AcDbDictionary
281
     1
  3
ACAD_GROUP
350
D
  3
ACAD_LAYOUT
350
1A
  3
ACAD_MLEADERSTYLE
350
88E
  3
ACAD_MLINESTYLE
350
17
  3
ACAD_PLOTSETTINGS
350
19
  3
ACAD_PLOTSTYLENAME
350
E
  3
ACAD_TABLESTYLE
350
88D
  3
ACAD_VISUALSTYLE
350
2A
  0
DICTIONARY
  5
D
102
{ACAD_REACTORS
330
C
102
}
330
C
100
AcDbDictionary
281
     1
  0
DICTIONARY
  5
1A
102
{ACAD_REACTORS
330
C
102
}
330
C
100
AcDbDictionary
281
     1
  3
Layout1
350
1E
  3
Layout2
350
26
  3
Model
350
22
  0
DICTIONARY
  5
88E
102
{ACAD_REACTORS
330
C
102
}
330
C
100
AcDbDictionary
281
     1
  0
DICTIONARY
  5
17
102
{ACAD_REACTORS
330
C
102
}
330
C
100
AcDbDictionary
281
     1
  3
Standard
350
18
  0
DICTIONARY
  5
19
102
{ACAD_REACTORS
330
C
102
}
330
C
100
AcDbDictionary
281
     1
  0
ACDBDICTIONARYWDFLT
  5
E
102
{ACAD_REACTORS
330
C
102
}
330
C
100
AcDbDictionary
281
     1
  3
Normal
350
F
100
AcDbDictionaryWithDefault
340
F
  0
DICTIONARY
  5
88D
102
{ACAD_REACTORS
330
C
102
}
330
C
100
AcDbDictionary
281
     1
  0
DICTIONARY
  5
2A
102
{ACAD_REACTORS
330
C
102
}
330
C
100
AcDbDictionary
281
     1
  3
2dWireframe
350
2F
  3
3D Hidden
350
31
  3
3dWireframe
350
30
  3
Basic
350
32
  3
Brighten
350
36
  3
ColorChange
350
3A
  3
Conceptual
350
34
  3
Dim
350
35
  3
Facepattern
350
39
  3
Flat
350
2B
  3
FlatWithEdges
350
2C
  3
Gouraud
350
2D
  3
GouraudWithEdges
350
2E
  3
Linepattern
350
38
  3
Realistic
350
33
  3
Thicken
350
37
  0
LAYOUT
  5
1E
102
{ACAD_REACTORS
330
1A
102
}
330
1A
100
AcDbPlotSettings
  1

  2
none_device
  4

  6

 40
0.0
 41
0.0
 42
0.0
 43
0.0
 44
0.0
 45
0.0
 46
0.0
 47
0.0
 48
0.0
 49
0.0
140
0.0
141
0.0
142
1.0
143
1.0
 70
   688
 72
     0
 73
     0
 74
     5
  7

 75
    16
 76
     0
 77
     2
 78
   300
147
1.0
148
0.0
149
0.0
100
AcDbLayout
  1
Layout1
 70
     1
 71
     1
 10
0.0
 20
0.0
 11
12.0
 21
9.0
 12
0.0
 22
0.0
 32
0.0
 14
1.000000000000000E+20
 24
1.000000000000000E+20
 34
1.000000000000000E+20
 15
-1.000000000000000E+20
 25
-1.000000000000000E+20
 35
-1.000000000000000E+20
146
0.0
 13
0.0
 23
0.0
 33
0.0
 16
1.0
 26
0.0
 36
0.0
 17
0.0
 27
1.0
 37
0.0
 76
     0
330
1B
  0
LAYOUT
  5
26
102
{ACAD_REACTORS
330
1A
102
}
330
1A
100
AcDbPlotSettings
  1

  2
none_device
  4

  6

 40
0.0
 41
0.0
 42
0.0
 43
0.0
 44
0.0
 45
0.0
 46
0.0
 47
0.0
 48
0.0
 49
0.0
140
0.0
141
0.0
142
1.0
143
1.0
 70
   688
 72
     0
 73
     0
 74
     5
  7

 75
    16
 76
     0
 77
     2
 78
   300
147
1.0
148
0.0
149
0.0
100
AcDbLayout
  1
Layout2
 70
     1
 71
     2
 10
0.0
 20
0.0
 11
0.0
 21
0.0
 12
0.0
 22
0.0
 32
0.0
 14
0.0
 24
0.0
 34
0.0
 15
0.0
 25
0.0
 35
0.0
146
0.0
 13
0.0
 23
0.0
 33
0.0
 16
1.0
 26
0.0
 36
0.0
 17
0.0
 27
1.0
 37
0.0
 76
     0
330
23
  0
LAYOUT
  5
22
102
{ACAD_REACTORS
330
1A
102
}
330
1A
100
AcDbPlotSettings
  1

  2
none_device
  4

  6

 40
0.0
 41
0.0
 42
0.0
 43
0.0
 44
0.0
 45
0.0
 46
0.0
 47
0.0
 48
0.0
 49
0.0
140
0.0
141
0.0
142
1.0
143
1.0
 70
  1712
 72
     0
 73
     0
 74
     0
  7

 75
     0
 76
     0
 77
     2
 78
   300
147
1.0
148
0.0
149
0.0
100
AcDbLayout
  1
Model
 70
     1
 71
     0
 10
0.0
 20
0.0
 11
12.0
 21
9.0
 12
0.0
 22
0.0
 32
0.0
 14
0.0005077034866293
 24
-0.0067139579752951
 34
-0.0000000000001137
 15
3498.118312092955
 25
2365.939941407444
 35
0.0
146
0.0
 13
0.0
 23
0.0
 33
0.0
 16
1.0
 26
0.0
 36
0.0
 17
0.0
 27
1.0
 37
0.0
 76
     0
330
1F
331
29
  0
MLINESTYLE
  5
18
102
{ACAD_REACTORS
330
17
102
}
330
17
100
AcDbMlineStyle
  2
Standard
 70
     0
  3

 62
   256
 51
90.0
 52
90.0
 71
     2
 49
0.5
 62
   256
  6
BYLAYER
 49
-0.5
 62
   256
  6
BYLAYER
  0
ACDBPLACEHOLDER
  5
F
102
{ACAD_REACTORS
330
E
102
}
330
E
  0
VISUALSTYLE
  5
2F
102
{ACAD_REACTORS
330
2A
102
}
330
2A
100
AcDbVisualStyle
  2
2dWireframe
 70
     4
 71
     0
 72
     2
 73
     0
 90
        0
 40
-0.6
 41
-30.0
 62
     5
 63
     7
421
 16777215
 74
     1
 91
        4
 64
     7
 65
   257
 75
     1
175
     1
 42
1.0
 92
        0
 66
   257
 43
1.0
 76
     1
 77
     6
 78
     2
 67
     7
 79
     5
170
     0
171
     0
290
     0
174
     0
 93
        1
 44
0.0
173
     0
291
     0
 45
0.0
1001
ACAD
1000
AcDbSavedByObjectVersion
1070
     0
  0
VISUALSTYLE
  5
31
102
{ACAD_REACTORS
330
2A
102
}
330
2A
100
AcDbVisualStyle
  2
3D Hidden
 70
     6
 71
     1
 72
     2
 73
     2
 90
        0
 40
-0.6
 41
-30.0
 62
     5
 63
     7
421
 16777215
 74
     2
 91
        2
 64
     7
 65
   257
 75
     2
175
     1
 42
40.0
 92
        0
 66
   257
 43
1.0
 76
     1
 77
     6
 78
     2
 67
     7
 79
     3
170
     0
171
     0
290
     0
174
     0
 93
        1
 44
0.0
173
     0
291
     0
 45
0.0
1001
ACAD
1000
AcDbSavedByObjectVersion
1070
     0
  0
VISUALSTYLE
  5
30
102
{ACAD_REACTORS
330
2A
102
}
330
2A
100
AcDbVisualStyle
  2
3dWireframe
 70
     5
 71
     0
 72
     2
 73
     0
 90
        0
 40
-0.6
 41
-30.0
 62
     5
 63
     7
421
 16777215
 74
     1
 91
        4
 64
     7
 65
   257
 75
     1
175
     1
 42
1.0
 92
        0
 66
   257
 43
1.0
 76
     1
 77
     6
 78
     2
 67
     7
 79
     5
170
     0
171
     0
290
     0
174
     0
 93
        1
 44
0.0
173
     0
291
     0
 45
0.0
1001
ACAD
1000
AcDbSavedByObjectVersion
1070
     0
  0
VISUALSTYLE
  5
32
102
{ACAD_REACTORS
330
2A
102
}
330
2A
100
AcDbVisualStyle
  2
Basic
 70
     7
 71
     1
 72
     0
 73
     1
 90
        0
 40
-0.6
 41
-30.0
 62
     5
 63
     7
421
 16777215
 74
     0
 91
        4
 64
     7
 65
   257
 75
     1
175
     1
 42
1.0
 92
        8
 66
     7
 43
1.0
 76
     1
 77
     6
 78
     2
 67
     7
 79
     5
170
     0
171
     0
290
     0
174
     0
 93
        1
 44
0.0
173
     0
291
     1
 45
0.0
1001
ACAD
1000
AcDbSavedByObjectVersion
1070
     0
  0
VISUALSTYLE
  5
36
102
{ACAD_REACTORS
330
2A
102
}
330
2A
100
AcDbVisualStyle
  2
Brighten
 70
    12
 71
     2
 72
     2
 73
     0
 90
        0
 40
-0.6
 41
-30.0
 62
     5
 63
     7
421
 16777215
 74
     1
 91
        4
 64
     7
 65
   257
 75
     1
175
     1
 42
1.0
 92
        8
 66
     7
 43
1.0
 76
     1
 77
     6
 78
     2
 67
     7
 79
     5
170
     0
171
     0
290
     0
174
     0
 93
        1
 44
50.0
173
     0
291
     1
 45
0.0
1001
ACAD
1000
AcDbSavedByObjectVersion
1070
     0
  0
VISUALSTYLE
  5
3A
102
{ACAD_REACTORS
330
2A
102
}
330
2A
100
AcDbVisualStyle
  2
ColorChange
 70
    16
 71
     2
 72
     2
 73
     3
 90
        0
 40
-0.6
 41
-30.0
 62
     5
 63
     8
421
  8421504
 74
     1
 91
        4
 64
     7
 65
   257
 75
     1
175
     1
 42
1.0
 92
        8
 66
     8
424
  8421504
 43
1.0
 76
     1
 77
     6
 78
     2
 67
     7
 79
     5
170
     0
171
     0
290
     0
174
     0
 93
        1
 44
0.0
173
     0
291
     1
 45
0.0
1001
ACAD
1000
AcDbSavedByObjectVersion
1070
     0
  0
VISUALSTYLE
  5
34
102
{ACAD_REACTORS
330
2A
102
}
330
2A
100
AcDbVisualStyle
  2
Conceptual
 70
     9
 71
     3
 72
     2
 73
     0
 90
        0
 40
-0.6
 41
-30.0
 62
     5
 63
     7
421
 16777215
 74
     2
 91
        2
 64
     7
 65
   257
 75
     1
175
     1
 42
40.0
 92
        8
 66
     7
 43
1.0
 76
     1
 77
     6
 78
     2
 67
     7
 79
     3
170
     0
171
     0
290
     0
174
     0
 93
        1
 44
0.0
173
     0
291
     0
 45
0.0
1001
ACAD
1000
AcDbSavedByObjectVersion
1070
     0
  0
VISUALSTYLE
  5
35
102
{ACAD_REACTORS
330
2A
102
}
330
2A
100
AcDbVisualStyle
  2
Dim
 70
    11
 71
     2
 72
     2
 73
     0
 90
        0
 40
-0.6
 41
-30.0
 62
     5
 63
     7
421
 16777215
 74
     1
 91
        4
 64
     7
 65
   257
 75
     1
175
     1
 42
1.0
 92
        8
 66
     7
 43
1.0
 76
     1
 77
     6
 78
     2
 67
     7
 79
     5
170
     0
171
     0
290
     0
174
     0
 93
        1
 44
-50.0
173
     0
291
     1
 45
0.0
1001
ACAD
1000
AcDbSavedByObjectVersion
1070
     0
  0
VISUALSTYLE
  5
39
102
{ACAD_REACTORS
330
2A
102
}
330
2A
100
AcDbVisualStyle
  2
Facepattern
 70
    15
 71
     2
 72
     2
 73
     0
 90
        0
 40
-0.6
 41
-30.0
 62
     5
 63
     7
421
 16777215
 74
     1
 91
        4
 64
     7
 65
   257
 75
     1
175
     1
 42
1.0
 92
        8
 66
     7
 43
1.0
 76
     1
 77
     6
 78
     2
 67
     7
 79
     5
170
     0
171
     0
290
     0
174
     0
 93
        1
 44
0.0
173
     0
291
     1
 45
0.0
1001
ACAD
1000
AcDbSavedByObjectVersion
1070
     0
  0
VISUALSTYLE
  5
2B
102
{ACAD_REACTORS
330
2A
102
}
330
2A
100
AcDbVisualStyle
  2
Flat
 70
     0
 71
     2
 72
     1
 73
     1
 90
        2
 40
-0.6
 41
30.0
 62
     5
 63
     7
421
 16777215
 74
     0
 91
        4
 64
     7
 65
   257
 75
     1
175
     1
 42
1.0
 92
        8
 66
     7
 43
1.0
 76
     1
 77
     6
 78
     2
 67
     7
 79
     5
170
     0
171
     0
290
     0
174
     0
 93
       13
 44
0.0
173
     0
291
     1
 45
0.0
1001
ACAD
1000
AcDbSavedByObjectVersion
1070
     0
  0
VISUALSTYLE
  5
2C
102
{ACAD_REACTORS
330
2A
102
}
330
2A
100
AcDbVisualStyle
  2
FlatWithEdges
 70
     1
 71
     2
 72
     1
 73
     1
 90
        2
 40
-0.6
 41
30.0
 62
     5
 63
     7
421
 16777215
 74
     1
 91
        4
 64
     7
 65
   257
 75
     1
175
     1
 42
1.0
 92
        0
 66
   257
 43
1.0
 76
     1
 77
     6
 78
     2
 67
     7
 79
     5
170
     0
171
     0
290
     0
174
     0
 93
       13
 44
0.0
173
     0
291
     1
 45
0.0
1001
ACAD
1000
AcDbSavedByObjectVersion
1070
     0
  0
VISUALSTYLE
  5
2D
102
{ACAD_REACTORS
330
2A
102
}
330
2A
100
AcDbVisualStyle
  2
Gouraud
 70
     2
 71
     2
 72
     2
 73
     1
 90
        2
 40
-0.6
 41
30.0
 62
     5
 63
     7
421
 16777215
 74
     0
 91
        4
 64
     7
 65
   257
 75
     1
175
     1
 42
1.0
 92
        0
 66
     7
 43
1.0
 76
     1
 77
     6
 78
     2
 67
     7
 79
     5
170
     0
171
     0
290
     0
174
     0
 93
       13
 44
0.0
173
     0
291
     1
 45
0.0
1001
ACAD
1000
AcDbSavedByObjectVersion
1070
     0
  0
VISUALSTYLE
  5
2E
102
{ACAD_REACTORS
330
2A
102
}
330
2A
100
AcDbVisualStyle
  2
GouraudWithEdges
 70
     3
 71
     2
 72
     2
 73
     1
 90
        2
 40
-0.6
 41
30.0
 62
     5
 63
     7
421
 16777215
 74
     1
 91
        4
 64
     7
 65
   257
 75
     1
175
     1
 42
1.0
 92
        0
 66
   257
 43
1.0
 76
     1
 77
     6
 78
     2
 67
     7
 79
     5
170
     0
171
     0
290
     0
174
     0
 93
       13
 44
0.0
173
     0
291
     1
 45
0.0
1001
ACAD
1000
AcDbSavedByObjectVersion
1070
     0
  0
VISUALSTYLE
  5
38
102
{ACAD_REACTORS
330
2A
102
}
330
2A
100
AcDbVisualStyle
  2
Linepattern
 70
    14
 71
     2
 72
     2
 73
     0
 90
        0
 40
-0.6
 41
-30.0
 62
     5
 63
     7
421
 16777215
 74
     1
 91
        4
 64
     7
 65
   257
 75
     7
175
     7
 42
1.0
 92
        8
 66
     7
 43
1.0
 76
     1
 77
     6
 78
     2
 67
     7
 79
     5
170
     0
171
     0
290
     0
174
     0
 93
        1
 44
0.0
173
     0
291
     1
 45
0.0
1001
ACAD
1000
AcDbSavedByObjectVersion
1070
     0
  0
VISUALSTYLE
  5
33
102
{ACAD_REACTORS
330
2A
102
}
330
2A
100
AcDbVisualStyle
  2
Realistic
 70
     8
 71
     2
 72
     2
 73
     0
 90
        0
 40
-0.6
 41
-30.0
 62
     5
 63
     7
421
 16777215
 74
     1
 91
        0
 64
     7
 65
   257
 75
     1
175
     1
 42
1.0
 92
        8
 66
     8
424
  7895160
 43
1.0
 76
     1
 77
     6
 78
     2
 67
     7
 79
     5
170
     0
171
     0
290
     0
174
     0
 93
       13
 44
0.0
173
     0
291
     0
 45
0.0
1001
ACAD
1000
AcDbSavedByObjectVersion
1070
     0
  0
VISUALSTYLE
  5
37
102
{ACAD_REACTORS
330
2A
102
}
330
2A
100
AcDbVisualStyle
  2
Thicken
 70
    13
 71
     2
 72
     2
 73
     0
 90
        0
 40
-0.6
 41
-30.0
 62
     5
 63
     7
421
 16777215
 74
     1
 91
        4
 64
     7
 65
   257
 75
     1
175
     1
 42
1.0
 92
       12
 66
     7
 43
1.0
 76
     1
 77
     6
 78
     2
 67
     7
 79
     5
170
     0
171
     0
290
     0
174
     0
 93
        1
 44
0.0
173
     0
291
     1
 45
0.0
1001
ACAD
1000
AcDbSavedByObjectVersion
1070
     0
  0
ENDSEC
  0
EOF
