  0
SECTION
  2
HEADER
  9
$ACADVER
  1
AC1015
  9
$ACADMAINTVER
 70
    20
  9
$DWGCODEPAGE
  3
ANSI_1252
  9
$INSBASE
 10
0.0
 20
0.0
 30
0.0
  9
$EXTMIN
 10
-143.6962479183374
 20
-1090.524403942875
 30
0.0
  9
$EXTMAX
 10
1039.77830116693
 20
754.8548906476335
 30
0.0
  9
$LIMMIN
 10
0.0
 20
0.0
  9
$LIMMAX
 10
0.0
 20
0.0
  9
$ORTHOMODE
 70
     0
  9
$REGENMODE
 70
     1
  9
$FILLMODE
 70
     1
  9
$QTEXTMODE
 70
     0
  9
$MIRRTEXT
 70
     1
  9
$LTSCALE
 40
1.0
  9
$ATTMODE
 70
     1
  9
$TEXTSIZE
 40
0.0
  9
$TRACEWID
 40
0.05
  9
$TEXTSTYLE
  7
STANDARD
  9
$CLAYER
  8
0
  9
$CELTYPE
  6
CONTINUOUS
  9
$CECOLOR
 62
   256
  9
$CELTSCALE
 40
1.0
  9
$DISPSILH
 70
     0
  9
$DIMSCALE
 40
1.0
  9
$DIMASZ
 40
6.0
  9
$DIMEXO
 40
1.0
  9
$DIMDLI
 40
0.38
  9
$DIMRND
 40
0.0
  9
$DIMDLE
 40
1.0
  9
$DIMEXE
 40
0.18
  9
$DIMTP
 40
0.0
  9
$DIMTM
 40
0.0
  9
$DIMTXT
 40
3.5
  9
$DIMCEN
 40
0.09
  9
$DIMTSZ
 40
0.0
  9
$DIMTOL
 70
     0
  9
$DIMLIM
 70
     0
  9
$DIMTIH
 70
     1
  9
$DIMTOH
 70
     1
  9
$DIMSE1
 70
     0
  9
$DIMSE2
 70
     0
  9
$DIMTAD
 70
     1
  9
$DIMZIN
 70
     0
  9
$DIMBLK
  1

  9
$DIMASO
 70
     1
  9
$DIMSHO
 70
     1
  9
$DIMPOST
  1

  9
$DIMAPOST
  1

  9
$DIMALT
 70
     0
  9
$DIMALTD
 70
     2
  9
$DIMALTF
 40
0.0394
  9
$DIMLFAC
 40
1.0
  9
$DIMTOFL
 70
     0
  9
$DIMTVP
 40
0.0
  9
$DIMTIX
 70
     0
  9
$DIMSOXD
 70
     0
  9
$DIMSAH
 70
     0
  9
$DIMBLK1
  1

  9
$DIMBLK2
  1

  9
$DIMSTYLE
  2
STANDARD
  9
$DIMCLRD
 70
     0
  9
$DIMCLRE
 70
     0
  9
$DIMCLRT
 70
     0
  9
$DIMTFAC
 40
1.0
  9
$DIMGAP
 40
1.0
  9
$DIMJUST
 70
     0
  9
$DIMSD1
 70
     0
  9
$DIMSD2
 70
     0
  9
$DIMTOLJ
 70
     1
  9
$DIMTZIN
 70
     0
  9
$DIMALTZ
 70
     0
  9
$DIMALTTZ
 70
     0
  9
$DIMUPT
 70
     0
  9
$DIMDEC
 70
     4
  9
$DIMTDEC
 70
     4
  9
$DIMALTU
 70
     2
  9
$DIMALTTD
 70
     2
  9
$DIMTXSTY
  7
STANDARD
  9
$DIMAUNIT
 70
     0
  9
$DIMADEC
 70
     0
  9
$DIMALTRND
 40
0.0
  9
$DIMAZIN
 70
     0
  9
$DIMDSEP
 70
    46
  9
$DIMATFIT
 70
     3
  9
$DIMFRAC
 70
     0
  9
$DIMLDRBLK
  1

  9
$DIMLUNIT
 70
     2
  9
$DIMLWD
 70
    -2
  9
$DIMLWE
 70
    -2
  9
$DIMTMOVE
 70
     0
  9
$LUNITS
 70
     2
  9
$LUPREC
 70
     2
  9
$SKETCHINC
 40
0.1
  9
$FILLETRAD
 40
0.0
  9
$AUNITS
 70
     0
  9
$AUPREC
 70
     2
  9
$MENU
  1
acad
  9
$ELEVATION
 40
0.0
  9
$PELEVATION
 40
0.0
  9
$THICKNESS
 40
0.0
  9
$LIMCHECK
 70
     0
  9
$CHAMFERA
 40
0.0
  9
$CHAMFERB
 40
0.0
  9
$CHAMFERC
 40
0.0
  9
$CHAMFERD
 40
0.0
  9
$SKPOLY
 70
     0
  9
$TDCREATE
 40
2444972.041666667
  9
$TDUCREATE
 40
2444972.000000000
  9
$TDUPDATE
 40
2453782.465395498
  9
$TDUUPDATE
 40
2453782.423728831
  9
$TDINDWG
 40
0.0003343750
  9
$TDUSRTIMER
 40
0.0003343750
  9
$USRTIMER
 70
     1
  9
$ANGBASE
 50
0.0
  9
$ANGDIR
 70
     0
  9
$PDMODE
 70
     0
  9
$PDSIZE
 40
-1.0
  9
$PLINEWID
 40
0.0
  9
$SPLFRAME
 70
     0
  9
$SPLINETYPE
 70
     6
  9
$SPLINESEGS
 70
     8
  9
$HANDSEED
  5
B6
  9
$SURFTAB1
 70
     6
  9
$SURFTAB2
 70
     6
  9
$SURFTYPE
 70
     6
  9
$SURFU
 70
     6
  9
$SURFV
 70
     6
  9
$UCSBASE
  2

  9
$UCSNAME
  2

  9
$UCSORG
 10
0.0
 20
0.0
 30
0.0
  9
$UCSXDIR
 10
1.0
 20
0.0
 30
0.0
  9
$UCSYDIR
 10
0.0
 20
1.0
 30
0.0
  9
$UCSORTHOREF
  2

  9
$UCSORTHOVIEW
 70
     1
  9
$UCSORGTOP
 10
0.0
 20
0.0
 30
0.0
  9
$UCSORGBOTTOM
 10
0.0
 20
0.0
 30
0.0
  9
$UCSORGLEFT
 10
0.0
 20
0.0
 30
0.0
  9
$UCSORGRIGHT
 10
0.0
 20
0.0
 30
0.0
  9
$UCSORGFRONT
 10
0.0
 20
0.0
 30
0.0
  9
$UCSORGBACK
 10
0.0
 20
0.0
 30
0.0
  9
$PUCSBASE
  2

  9
$PUCSNAME
  2

  9
$PUCSORG
 10
0.0
 20
0.0
 30
0.0
  9
$PUCSXDIR
 10
1.0
 20
0.0
 30
0.0
  9
$PUCSYDIR
 10
0.0
 20
1.0
 30
0.0
  9
$PUCSORTHOREF
  2

  9
$PUCSORTHOVIEW
 70
     0
  9
$PUCSORGTOP
 10
0.0
 20
0.0
 30
0.0
  9
$PUCSORGBOTTOM
 10
0.0
 20
0.0
 30
0.0
  9
$PUCSORGLEFT
 10
0.0
 20
0.0
 30
0.0
  9
$PUCSORGRIGHT
 10
0.0
 20
0.0
 30
0.0
  9
$PUCSORGFRONT
 10
0.0
 20
0.0
 30
0.0
  9
$PUCSORGBACK
 10
0.0
 20
0.0
 30
0.0
  9
$USERI1
 70
     0
  9
$USERI2
 70
     0
  9
$USERI3
 70
     0
  9
$USERI4
 70
     0
  9
$USERI5
 70
     0
  9
$USERR1
 40
0.0
  9
$USERR2
 40
0.0
  9
$USERR3
 40
0.0
  9
$USERR4
 40
0.0
  9
$USERR5
 40
0.0
  9
$WORLDVIEW
 70
     1
  9
$SHADEDGE
 70
     3
  9
$SHADEDIF
 70
    70
  9
$TILEMODE
 70
     1
  9
$MAXACTVP
 70
    16
  9
$PINSBASE
 10
0.0
 20
0.0
 30
0.0
  9
$PLIMCHECK
 70
     0
  9
$PEXTMIN
 10
1.000000000000000E+20
 20
1.000000000000000E+20
 30
1.000000000000000E+20
  9
$PEXTMAX
 10
-1.000000000000000E+20
 20
-1.000000000000000E+20
 30
-1.000000000000000E+20
  9
$PLIMMIN
 10
0.0
 20
0.0
  9
$PLIMMAX
 10
12.0
 20
9.0
  9
$UNITMODE
 70
     0
  9
$VISRETAIN
 70
     0
  9
$PLINEGEN
 70
     1
  9
$PSLTSCALE
 70
     1
  9
$TREEDEPTH
 70
  3020
  9
$CMLSTYLE
  2
STANDARD
  9
$CMLJUST
 70
     0
  9
$CMLSCALE
 40
1.0
  9
$PROXYGRAPHICS
 70
     0
  9
$MEASUREMENT
 70
     0
  9
$CELWEIGHT
370
    -1
  9
$ENDCAPS
280
     0
  9
$JOINSTYLE
280
     0
  9
$LWDISPLAY
290
     0
  9
$INSUNITS
 70
     0
  9
$HYPERLINKBASE
  1

  9
$STYLESHEET
  1

  9
$XEDIT
290
     1
  9
$CEPSNTYPE
380
     0
  9
$PSTYLEMODE
290
     1
  9
$FINGERPRINTGUID
  2
{AD88CE03-857B-49F2-9B3F-1D8FBDED6671}
  9
$VERSIONGUID
  2
{DA270F7D-8FBF-4C1B-A9F4-DD367D8F7DA9}
  9
$EXTNAMES
290
     1
  9
$PSVPSCALE
 40
0.0
  9
$OLESTARTUP
290
     0
  0
ENDSEC
  0
SECTION
  2
CLASSES
  0
CLASS
  1
IMAGE
  2
AcDbRasterImage
  3
ISM
 90
    32895
280
     0
281
     1
  0
CLASS
  1
DICTIONARYVAR
  2
AcDbDictionaryVar
  3
ObjectDBX Classes
 90
        0
280
     0
281
     0
  0
CLASS
  1
RASTERVARIABLES
  2
AcDbRasterVariables
  3
ISM
 90
    32768
280
     0
281
     0
  0
CLASS
  1
IMAGEDEF
  2
AcDbRasterImageDef
  3
ISM
 90
    32768
280
     0
281
     0
  0
CLASS
  1
IMAGEDEF_REACTOR
  2
AcDbRasterImageDefReactor
  3
ISM
 90
    32769
280
     0
281
     0
  0
CLASS
  1
IDBUFFER
  2
AcDbIdBuffer
  3
ObjectDBX Classes
 90
    32768
280
     0
281
     0
  0
CLASS
  1
SPATIAL_FILTER
  2
AcDbSpatialFilter
  3
ObjectDBX Classes
 90
    32768
280
     0
281
     0
  0
CLASS
  1
SORTENTSTABLE
  2
AcDbSortentsTable
  3
ObjectDBX Classes
 90
    32768
280
     0
281
     0
  0
CLASS
  1
LAYER_INDEX
  2
AcDbLayerIndex
  3
ObjectDBX Classes
 90
    32768
280
     0
281
     0
  0
CLASS
  1
SPATIAL_INDEX
  2
AcDbSpatialIndex
  3
ObjectDBX Classes
 90
    32768
280
     0
281
     0
  0
CLASS
  1
OBJECT_PTR
  2
CAseDLPNTableRecord
  3
ASE-LPNTableRecord
 90
    32769
280
     0
281
     0
  0
CLASS
  1
LAYOUT
  2
AcDbLayout
  3
ObjectDBX Classes
 90
        0
280
     0
281
     0
  0
CLASS
  1
PLOTSETTINGS
  2
AcDbPlotSettings
  3
ObjectDBX Classes
 90
    32768
280
     0
281
     0
  0
CLASS
  1
ACDBDICTIONARYWDFLT
  2
AcDbDictionaryWithDefault
  3
ObjectDBX Classes
 90
        0
280
     0
281
     0
  0
CLASS
  1
ACDBPLACEHOLDER
  2
AcDbPlaceHolder
  3
ObjectDBX Classes
 90
        0
280
     0
281
     0
  0
CLASS
  1
VBA_PROJECT
  2
AcDbVbaProject
  3
acad
 90
    32768
280
     0
281
     0
  0
CLASS
  1
WIPEOUT
  2
AcDbWipeout
  3
"WipeOut|Product Desc: Object Enabler for WipeOut entity^I^I^I^I^I^I|Company: Autodesk, Inc.^I^I^I^I^I^I|WEB Address: www.autodesk.com"
 90
    32895
280
     0
281
     1
  0
CLASS
  1
WIPEOUTVARIABLES
  2
AcDbWipeoutVariables
  3
"WipeOut|Product Desc:     WipeOut Dbx Application|Company:          Autodesk, Inc.|WEB Address:      www.autodesk.com"
 90
    32768
280
     0
281
     0
  0
CLASS
  1
RTEXT
  2
RText
  3
RText|AutoCAD Express Tool|expresstools@autodesk.com
 90
    32768
280
     0
281
     1
  0
CLASS
  1
ARCALIGNEDTEXT
  2
AcDbArcAlignedText
  3
ATEXT|AutoCAD Express Tool|expresstools@autodesk.com
 90
    32768
280
     0
281
     1
  0
ENDSEC
  0
SECTION
  2
TABLES
  0
TABLE
  2
VPORT
  5
7
330
0
100
AcDbSymbolTable
 70
     3
  0
VPORT
  5
B0
330
7
100
AcDbSymbolTableRecord
100
AcDbViewportTableRecord
  2
*Active
 70
     0
 10
0.0
 20
0.0
 11
1.0
 21
1.0
 12
448.0410266242965
 22
-167.8347566476208
 13
0.0
 23
0.0
 14
1.0
 24
1.0
 15
0.0
 25
0.0
 16
0.0
 26
0.0
 36
1.0
 17
0.0
 27
0.0
 37
0.0
 40
1859.758873509395
 41
1.569570871261378
 42
50.0
 43
0.0
 44
0.0
 50
0.0
 51
0.0
 71
     0
 72
  2000
 73
     1
 74
     1
 75
     0
 76
     0
 77
     0
 78
     0
281
     0
 65
     1
110
0.0
120
0.0
130
0.0
111
1.0
121
0.0
131
0.0
112
0.0
122
1.0
132
0.0
 79
     1
146
0.0
  0
ENDTAB
  0
TABLE
  2
LTYPE
  5
4
330
0
100
AcDbSymbolTable
 70
     6
  0
LTYPE
  5
11
330
4
100
AcDbSymbolTableRecord
100
AcDbLinetypeTableRecord
  2
BYBLOCK
 70
     0
  3

 72
    65
 73
     0
 40
0.0
  0
LTYPE
  5
12
330
4
100
AcDbSymbolTableRecord
100
AcDbLinetypeTableRecord
  2
BYLAYER
 70
     0
  3

 72
    65
 73
     0
 40
0.0
  0
LTYPE
  5
13
330
4
100
AcDbSymbolTableRecord
100
AcDbLinetypeTableRecord
  2
CONTINUOUS
 70
     0
  3
Solid line
 72
    65
 73
     0
 40
0.0
  0
LTYPE
  5
1E
330
4
100
AcDbSymbolTableRecord
100
AcDbLinetypeTableRecord
  2
HIDDEN
 70
     0
  3
Hidden __ __ __ __ __ __ __ __ __ __ __ __ __ __
 72
    65
 73
     2
 40
1.905
 49
1.27
 74
     0
 49
-0.635
 74
     0
  0
LTYPE
  5
1F
330
4
100
AcDbSymbolTableRecord
100
AcDbLinetypeTableRecord
  2
PHANTOM
 70
     0
  3
Phantom ______  __  __  ______  __  __  ______
 72
    65
 73
     6
 40
12.7
 49
6.349999999999999
 74
     0
 49
-1.27
 74
     0
 49
1.27
 74
     0
 49
-1.27
 74
     0
 49
1.27
 74
     0
 49
-1.27
 74
     0
  0
LTYPE
  5
20
330
4
100
AcDbSymbolTableRecord
100
AcDbLinetypeTableRecord
  2
CENTER
 70
     0
  3
Center ____ _ ____ _ ____ _ ____ _ ____ _ ____
 72
    65
 73
     4
 40
10.16
 49
6.349999999999999
 74
     0
 49
-1.27
 74
     0
 49
1.27
 74
     0
 49
-1.27
 74
     0
  0
LTYPE
  5
21
330
4
100
AcDbSymbolTableRecord
100
AcDbLinetypeTableRecord
  2
CENTERX2
 70
     0
  3
Center (2x) ________  __  ________  __  _____
 72
    65
 73
     4
 40
20.32
 49
12.7
 74
     0
 49
-2.54
 74
     0
 49
2.54
 74
     0
 49
-2.54
 74
     0
  0
LTYPE
  5
22
330
4
100
AcDbSymbolTableRecord
100
AcDbLinetypeTableRecord
  2
DOT2
 70
     0
  3
Dot (.5x) ........................................
 72
    65
 73
     2
 40
0.635
 49
0.0
 74
     0
 49
-0.635
 74
     0
  0
ENDTAB
  0
TABLE
  2
LAYER
  5
2
330
0
100
AcDbSymbolTable
 70
     2
  0
LAYER
  5
14
330
2
100
AcDbSymbolTableRecord
100
AcDbLayerTableRecord
  2
0
 70
     0
 62
     7
  6
CONTINUOUS
370
    -3
390
97
  0
LAYER
  5
26
330
2
100
AcDbSymbolTableRecord
100
AcDbLayerTableRecord
  2
DEFPOINTS
 70
     0
 62
     7
  6
CONTINUOUS
290
     0
370
    -3
390
97
  0
ENDTAB
  0
TABLE
  2
STYLE
  5
3
330
0
100
AcDbSymbolTable
 70
     1
  0
STYLE
  5
17
330
3
100
AcDbSymbolTableRecord
100
AcDbTextStyleTableRecord
  2
STANDARD
 70
     0
 40
0.0
 41
1.0
 50
0.0
 71
     0
 42
0.0
  3
Century Gothic
  4

  0
ENDTAB
  0
TABLE
  2
VIEW
  5
5
330
0
100
AcDbSymbolTable
 70
     0
  0
ENDTAB
  0
TABLE
  2
UCS
  5
6
330
0
100
AcDbSymbolTable
 70
     0
  0
ENDTAB
  0
TABLE
  2
APPID
  5
8
330
0
100
AcDbSymbolTable
 70
     2
  0
APPID
  5
16
330
8
100
AcDbSymbolTableRecord
100
AcDbRegAppTableRecord
  2
ACAD
 70
     0
  0
APPID
  5
A2
330
8
100
AcDbSymbolTableRecord
100
AcDbRegAppTableRecord
  2
DCO15
 70
     0
  0
ENDTAB
  0
TABLE
  2
DIMSTYLE
  5
9
330
0
100
AcDbSymbolTable
 70
     1
100
AcDbDimStyleTable
 71
     0
  0
DIMSTYLE
105
18
330
9
100
AcDbSymbolTableRecord
100
AcDbDimStyleTableRecord
  2
STANDARD
 70
     0
289
     0
340
17
  0
ENDTAB
  0
TABLE
  2
BLOCK_RECORD
  5
1
330
0
100
AcDbSymbolTable
 70
     0
  0
BLOCK_RECORD
  5
A
330
1
100
AcDbSymbolTableRecord
100
AcDbBlockTableRecord
  2
*MODEL_SPACE
340
9C
  0
BLOCK_RECORD
  5
B
330
1
100
AcDbSymbolTableRecord
100
AcDbBlockTableRecord
  2
*PAPER_SPACE
340
9D
  0
ENDTAB
  0
ENDSEC
  0
SECTION
  2
BLOCKS
  0
BLOCK
  5
D
330
A
100
AcDbEntity
  8
0
100
AcDbBlockBegin
  2
*MODEL_SPACE
 70
     0
 10
0.0
 20
0.0
 30
0.0
  3
*MODEL_SPACE
  1

  0
ENDBLK
  5
E
330
A
100
AcDbEntity
  8
0
100
AcDbBlockEnd
  0
BLOCK
  5
F
330
B
100
AcDbEntity
 67
     1
  8
0
100
AcDbBlockBegin
  2
*PAPER_SPACE
 70
     0
 10
0.0
 20
0.0
 30
0.0
  3
*PAPER_SPACE
  1

  0
ENDBLK
  5
10
330
B
100
AcDbEntity
 67
     1
  8
0
100
AcDbBlockEnd
  0
ENDSEC
  0
SECTION
  2
ENTITIES
  0
LINE
  5
27
330
A
100
AcDbEntity
  8
0
  6
Continuous
 62
     7
100
AcDbLine
 10
-5.150000000000002
 20
752.8548906476335
 30
0.0
 11
27.26915777130521
 21
722.6235369460144
 31
0.0
  0
LINE
  5
28
330
A
100
AcDbEntity
  8
0
  6
Continuous
 62
     7
100
AcDbLine
 10
112.4308422286948
 20
722.6235369460144
 30
0.0
 11
144.8499999999999
 21
752.8548906476335
 31
0.0
  0
LINE
  5
29
330
A
100
AcDbEntity
  8
0
  6
Continuous
 62
     7
100
AcDbLine
 10
119.85
 20
752.8548906476335
 30
0.0
 11
119.85
 21
754.8548906476335
 31
0.0
  0
LINE
  5
2A
330
A
100
AcDbEntity
  8
0
  6
Continuous
 62
     7
100
AcDbLine
 10
19.84999999999999
 20
754.8548906476335
 30
0.0
 11
19.84999999999999
 21
752.8548906476335
 31
0.0
  0
ARC
  5
2B
330
A
100
AcDbEntity
  8
0
  6
Continuous
 62
     7
100
AcDbCircle
 10
27.95115613136764
 20
723.3548906476336
 30
0.0
 40
1.000000000000021
100
AcDbArc
 50
227.0000000000054
 51
270.0000000000008
  0
ARC
  5
2C
330
A
100
AcDbEntity
  8
0
  6
Continuous
 62
     7
100
AcDbCircle
 10
111.7488438686323
 20
723.3548906476336
 30
0.0
 40
1.000000000000019
100
AcDbArc
 50
270.0000000000008
 51
312.9999999999961
  0
LINE
  5
2D
330
A
100
AcDbEntity
  8
0
  6
Continuous
 62
     7
100
AcDbLine
 10
19.84999999999999
 20
-27.64510935236641
 30
0.0
 11
19.84999999999999
 21
-28.64510935236642
 31
0.0
  0
LINE
  5
2E
330
A
100
AcDbEntity
  8
0
  6
Continuous
 62
     7
100
AcDbLine
 10
119.85
 20
-28.64510935236642
 30
0.0
 11
119.85
 21
-27.64510935236641
 31
0.0
  0
LINE
  5
2F
330
A
100
AcDbEntity
  8
0
  6
Continuous
 62
     7
100
AcDbLine
 10
69.1
 20
722.3548906476336
 30
0.0
 11
69.1
 21
-27.64510935236641
 31
0.0
  0
LINE
  5
30
330
A
100
AcDbEntity
  8
0
  6
Continuous
 62
     7
100
AcDbLine
 10
70.59999999999999
 20
-27.64510935236641
 30
0.0
 11
70.59999999999999
 21
722.3548906476336
 31
0.0
  0
LINE
  5
31
330
A
100
AcDbEntity
  8
0
  6
Continuous
 62
     7
100
AcDbLine
 10
283.3962479183374
 20
-84.01737886466831
 30
0.0
 11
71.97132034355964
 21
-256.6451093523668
 31
0.0
  0
LINE
  5
32
330
A
100
AcDbEntity
  8
0
  6
Continuous
 62
     7
100
AcDbLine
 10
71.97132034355964
 20
-256.6451093523668
 30
0.0
 11
69.84999999999999
 21
-253.181007737229
 31
0.0
  0
LINE
  5
33
330
A
100
AcDbEntity
  8
0
  6
Continuous
 62
     7
100
AcDbLine
 10
69.84999999999999
 20
-253.181007737229
 30
0.0
 11
281.2749275747777
 21
-80.55327724953059
 31
0.0
  0
LINE
  5
34
330
A
100
AcDbEntity
  8
0
  6
Continuous
 62
     7
100
AcDbLine
 10
281.2749275747777
 20
-80.55327724953059
 30
0.0
 11
283.3962479183374
 21
-84.01737886466831
 31
0.0
  0
LINE
  5
35
330
A
100
AcDbEntity
  8
0
  6
Continuous
 62
     7
100
AcDbLine
 10
67.7286796564404
 20
-256.6451093523668
 30
0.0
 11
-143.6962479183373
 21
-84.01737886466838
 31
0.0
  0
LINE
  5
36
330
A
100
AcDbEntity
  8
0
  6
Continuous
 62
     7
100
AcDbLine
 10
-143.6962479183373
 20
-84.01737886466838
 30
0.0
 11
-141.5749275747777
 21
-80.55327724953059
 31
0.0
  0
LINE
  5
37
330
A
100
AcDbEntity
  8
0
  6
Continuous
 62
     7
100
AcDbLine
 10
-141.5749275747777
 20
-80.55327724953059
 30
0.0
 11
69.84999999999999
 21
-253.181007737229
 31
0.0
  0
LINE
  5
38
330
A
100
AcDbEntity
  8
0
  6
Continuous
 62
     7
100
AcDbLine
 10
67.7286796564404
 20
-256.6451093523668
 30
0.0
 11
69.84999999999999
 21
-253.181007737229
 31
0.0
  0
LINE
  5
39
330
A
100
AcDbEntity
  8
0
  6
Continuous
 62
     7
100
AcDbLine
 10
71.97132034355964
 20
-256.6451093523668
 30
0.0
 11
67.7286796564404
 21
-256.6451093523668
 31
0.0
  0
LINE
  5
3A
330
A
100
AcDbEntity
  8
0
  6
Continuous
 62
     7
100
AcDbLine
 10
281.2749275747777
 20
-80.55327724953059
 30
0.0
 11
217.7006651593923
 21
-28.64510935236642
 31
0.0
  0
LINE
  5
3B
330
A
100
AcDbEntity
  8
0
  6
Continuous
 62
     7
100
AcDbLine
 10
-78.00066515939253
 20
-28.64510935236642
 30
0.0
 11
-141.5749275747777
 21
-80.55327724953059
 31
0.0
  0
LINE
  5
3C
330
A
100
AcDbEntity
  8
0
  6
Continuous
 62
     7
100
AcDbLine
 10
-78.00066515939253
 20
-28.64510935236642
 30
0.0
 11
217.7006651593923
 21
-28.64510935236642
 31
0.0
  0
LINE
  5
3D
330
A
100
AcDbEntity
  8
0
  6
Continuous
 62
     7
100
AcDbLine
 10
67.7286796564404
 20
-429.272839840065
 30
0.0
 11
67.7286796564404
 21
-256.6451093523668
 31
0.0
  0
LINE
  5
3E
330
A
100
AcDbEntity
  8
0
  6
Continuous
 62
     7
100
AcDbLine
 10
-143.6962479183373
 20
-256.6451093523667
 30
0.0
 11
67.7286796564404
 21
-429.272839840065
 31
0.0
  0
LINE
  5
3F
330
A
100
AcDbEntity
  8
0
  6
Continuous
 62
     7
100
AcDbLine
 10
-143.6962479183373
 20
-84.01737886466838
 30
0.0
 11
-143.6962479183373
 21
-256.6451093523667
 31
0.0
  0
LINE
  5
40
330
A
100
AcDbEntity
  8
0
  6
Continuous
 62
     7
100
AcDbLine
 10
71.97132034355964
 20
-256.6451093523668
 30
0.0
 11
71.97132034355964
 21
-429.2728398400649
 31
0.0
  0
LINE
  5
41
330
A
100
AcDbEntity
  8
0
  6
Continuous
 62
     7
100
AcDbLine
 10
71.97132034355964
 20
-429.2728398400649
 30
0.0
 11
67.7286796564404
 21
-429.272839840065
 31
0.0
  0
LINE
  5
42
330
A
100
AcDbEntity
  8
0
  6
Continuous
 62
     7
100
AcDbLine
 10
283.3962479183374
 20
-256.6451093523667
 30
0.0
 11
283.3962479183374
 21
-84.01737886466831
 31
0.0
  0
LINE
  5
43
330
A
100
AcDbEntity
  8
0
  6
Continuous
 62
     7
100
AcDbLine
 10
71.97132034355964
 20
-429.2728398400649
 30
0.0
 11
283.3962479183374
 21
-256.6451093523667
 31
0.0
  0
LINE
  5
44
330
A
100
AcDbEntity
  8
0
  6
Continuous
 62
     7
100
AcDbLine
 10
283.3962479183374
 20
-80.55327724953054
 30
0.0
 11
283.3962479183374
 21
-84.01737886466831
 31
0.0
  0
LINE
  5
45
330
A
100
AcDbEntity
  8
0
  6
Continuous
 62
     7
100
AcDbLine
 10
283.3962479183374
 20
-80.55327724953054
 30
0.0
 11
281.2749275747777
 21
-80.55327724953059
 31
0.0
  0
LINE
  5
46
330
A
100
AcDbEntity
  8
0
  6
Continuous
 62
     7
100
AcDbLine
 10
-143.6962479183373
 20
-84.01737886466838
 30
0.0
 11
-143.6962479183374
 21
-80.55327724953063
 31
0.0
  0
LINE
  5
47
330
A
100
AcDbEntity
  8
0
  6
Continuous
 62
     7
100
AcDbLine
 10
-141.5749275747777
 20
-80.55327724953059
 30
0.0
 11
-143.6962479183374
 21
-80.55327724953063
 31
0.0
  0
LINE
  5
48
330
A
100
AcDbEntity
  8
0
  6
Continuous
 62
     7
100
AcDbLine
 10
219.821985502952
 20
-28.64510935236645
 30
0.0
 11
283.3962479183374
 21
-80.55327724953054
 31
0.0
  0
LINE
  5
49
330
A
100
AcDbEntity
  8
0
  6
Continuous
 62
     7
100
AcDbLine
 10
217.7006651593923
 20
-28.64510935236642
 30
0.0
 11
219.821985502952
 21
-28.64510935236645
 31
0.0
  0
LINE
  5
4A
330
A
100
AcDbEntity
  8
0
  6
Continuous
 62
     7
100
AcDbLine
 10
-143.6962479183374
 20
-80.55327724953063
 30
0.0
 11
-80.12198550295209
 21
-28.64510935236645
 31
0.0
  0
LINE
  5
4B
330
A
100
AcDbEntity
  8
0
  6
Continuous
 62
     7
100
AcDbLine
 10
-80.12198550295209
 20
-28.64510935236645
 30
0.0
 11
-78.00066515939253
 21
-28.64510935236642
 31
0.0
  0
LINE
  5
4C
330
A
100
AcDbEntity
  8
0
  6
Continuous
 62
     7
100
AcDbLine
 10
144.8499999999999
 20
752.8548906476335
 30
0.0
 11
-5.150000000000002
 21
752.8548906476335
 31
0.0
  0
LINE
  5
4D
330
A
100
AcDbEntity
  8
0
  6
Continuous
 62
     7
100
AcDbLine
 10
119.85
 20
754.8548906476335
 30
0.0
 11
19.84999999999999
 21
754.8548906476335
 31
0.0
  0
LINE
  5
4E
330
A
100
AcDbEntity
  8
0
  6
Continuous
 62
     7
100
AcDbLine
 10
69.84999999999999
 20
722.3548906476336
 30
0.0
 11
27.95115613136767
 21
722.3548906476336
 31
0.0
  0
LINE
  5
4F
330
A
100
AcDbEntity
  8
0
  6
Continuous
 62
     7
100
AcDbLine
 10
111.7488438686323
 20
722.3548906476336
 30
0.0
 11
69.84999999999999
 21
722.3548906476336
 31
0.0
  0
LINE
  5
50
330
A
100
AcDbEntity
  8
0
  6
Continuous
 62
     7
100
AcDbLine
 10
119.85
 20
-27.64510935236641
 30
0.0
 11
19.84999999999999
 21
-27.64510935236641
 31
0.0
  0
LINE
  5
51
330
A
100
AcDbEntity
  8
0
  6
PHANTOM
 62
     7
100
AcDbLine
 10
27.26915777130521
 20
722.6235369460144
 30
0.0
 11
112.4308422286948
 21
722.6235369460144
 31
0.0
  0
LINE
  5
52
330
A
100
AcDbEntity
  8
0
  6
Continuous
 62
     7
100
AcDbLine
 10
217.7006651593923
 20
-931.753547575126
 30
0.0
 11
219.821985502952
 21
-928.0793129609509
 31
0.0
  0
LINE
  5
53
330
A
100
AcDbEntity
  8
0
  6
Continuous
 62
     7
100
AcDbLine
 10
-78.00066515939253
 20
-931.7535475751258
 30
0.0
 11
217.7006651593923
 21
-931.753547575126
 31
0.0
  0
LINE
  5
54
330
A
100
AcDbEntity
  8
0
  6
Continuous
 62
     7
100
AcDbLine
 10
-80.12198550295209
 20
-928.0793129609509
 30
0.0
 11
-78.00066515939253
 21
-931.7535475751258
 31
0.0
  0
LINE
  5
55
330
A
100
AcDbEntity
  8
0
  6
Continuous
 62
     7
100
AcDbLine
 10
67.72867965644033
 20
-671.9944489720297
 30
0.0
 11
-80.12198550295209
 21
-928.0793129609509
 31
0.0
  0
LINE
  5
56
330
A
100
AcDbEntity
  8
0
  6
Continuous
 62
     7
100
AcDbLine
 10
71.97132034355965
 20
-671.9944489720295
 30
0.0
 11
67.72867965644033
 21
-671.9944489720297
 31
0.0
  0
LINE
  5
57
330
A
100
AcDbEntity
  8
0
  6
Continuous
 62
     7
100
AcDbLine
 10
219.821985502952
 20
-928.0793129609509
 30
0.0
 11
71.97132034355965
 21
-671.9944489720295
 31
0.0
  0
LINE
  5
58
330
A
100
AcDbEntity
  8
0
  6
Continuous
 62
     7
100
AcDbLine
 10
-143.6962479183374
 20
-964.7839304800054
 30
0.0
 11
-80.12198550295209
 21
-928.0793129609509
 31
0.0
  0
LINE
  5
59
330
A
100
AcDbEntity
  8
0
  6
Continuous
 62
     7
100
AcDbLine
 10
-143.6962479183374
 20
-720.6514527826145
 30
0.0
 11
-143.6962479183374
 21
-964.7839304800054
 31
0.0
  0
LINE
  5
5A
330
A
100
AcDbEntity
  8
0
  6
Continuous
 62
     7
100
AcDbLine
 10
67.72867965644033
 20
-598.5852139339199
 30
0.0
 11
-143.6962479183374
 21
-720.6514527826145
 31
0.0
  0
LINE
  5
5B
330
A
100
AcDbEntity
  8
0
  6
Continuous
 62
     7
100
AcDbLine
 10
67.72867965644033
 20
-671.9944489720297
 30
0.0
 11
67.72867965644033
 21
-598.5852139339199
 31
0.0
  0
LINE
  5
5C
330
A
100
AcDbEntity
  8
0
  6
Continuous
 62
     7
100
AcDbLine
 10
283.3962479183374
 20
-964.7839304800056
 30
0.0
 11
283.3962479183374
 21
-720.6514527826146
 31
0.0
  0
LINE
  5
5D
330
A
100
AcDbEntity
  8
0
  6
Continuous
 62
     7
100
AcDbLine
 10
219.821985502952
 20
-928.0793129609509
 30
0.0
 11
283.3962479183374
 21
-964.7839304800056
 31
0.0
  0
LINE
  5
5E
330
A
100
AcDbEntity
  8
0
  6
Continuous
 62
     7
100
AcDbLine
 10
71.97132034355966
 20
-598.5852139339198
 30
0.0
 11
71.97132034355965
 21
-671.9944489720295
 31
0.0
  0
LINE
  5
5F
330
A
100
AcDbEntity
  8
0
  6
Continuous
 62
     7
100
AcDbLine
 10
283.3962479183374
 20
-720.6514527826146
 30
0.0
 11
71.97132034355966
 21
-598.5852139339198
 31
0.0
  0
LINE
  5
60
330
A
100
AcDbEntity
  8
0
  6
Continuous
 62
     7
100
AcDbLine
 10
283.3962479183374
 20
-964.7839304800056
 30
0.0
 11
281.2749275747777
 21
-968.4581650941803
 31
0.0
  0
LINE
  5
61
330
A
100
AcDbEntity
  8
0
  6
Continuous
 62
     7
100
AcDbLine
 10
281.2749275747777
 20
-968.4581650941803
 30
0.0
 11
217.7006651593923
 21
-931.753547575126
 31
0.0
  0
LINE
  5
62
330
A
100
AcDbEntity
  8
0
  6
Continuous
 62
     7
100
AcDbLine
 10
-78.00066515939253
 20
-931.7535475751258
 30
0.0
 11
-141.5749275747777
 21
-968.4581650941803
 31
0.0
  0
LINE
  5
63
330
A
100
AcDbEntity
  8
0
  6
Continuous
 62
     7
100
AcDbLine
 10
-141.5749275747777
 20
-968.4581650941803
 30
0.0
 11
-143.6962479183374
 21
-964.7839304800054
 31
0.0
  0
LINE
  5
64
330
A
100
AcDbEntity
  8
0
  6
Continuous
 62
     7
100
AcDbLine
 10
67.72867965644033
 20
-598.5852139339199
 30
0.0
 11
71.97132034355966
 21
-598.5852139339198
 31
0.0
  0
LINE
  5
65
330
A
100
AcDbEntity
  8
0
  6
Continuous
 62
     7
100
AcDbLine
 10
69.84999999999999
 20
-1090.524403942875
 30
0.0
 11
281.2749275747777
 21
-968.4581650941803
 31
0.0
  0
LINE
  5
66
330
A
100
AcDbEntity
  8
0
  6
Continuous
 62
     7
100
AcDbLine
 10
-141.5749275747777
 20
-968.4581650941803
 30
0.0
 11
69.84999999999999
 21
-1090.524403942875
 31
0.0
  0
LINE
  5
67
330
A
100
AcDbEntity
  8
0
  6
Continuous
 62
     7
100
AcDbLine
 10
-143.6962479183373
 20
-967.2334202227885
 30
0.0
 11
-143.6962479183374
 21
-964.7839304800054
 31
0.0
  0
LINE
  5
68
330
A
100
AcDbEntity
  8
0
  6
Continuous
 62
     7
100
AcDbLine
 10
-143.6962479183373
 20
-967.2334202227885
 30
0.0
 11
-141.5749275747777
 21
-968.4581650941803
 31
0.0
  0
LINE
  5
69
330
A
100
AcDbEntity
  8
0
  6
Continuous
 62
     7
100
AcDbLine
 10
283.3962479183374
 20
-964.7839304800056
 30
0.0
 11
283.3962479183374
 21
-967.2334202227888
 31
0.0
  0
LINE
  5
6A
330
A
100
AcDbEntity
  8
0
  6
Continuous
 62
     7
100
AcDbLine
 10
281.2749275747777
 20
-968.4581650941803
 30
0.0
 11
283.3962479183374
 21
-967.2334202227888
 31
0.0
  0
LINE
  5
6B
330
A
100
AcDbEntity
  8
0
  6
Continuous
 62
     7
100
AcDbLine
 10
71.97132034355966
 20
-598.5852139339198
 30
0.0
 11
69.84999999999998
 21
-597.3604690625285
 31
0.0
  0
LINE
  5
6C
330
A
100
AcDbEntity
  8
0
  6
Continuous
 62
     7
100
AcDbLine
 10
67.72867965644033
 20
-598.5852139339199
 30
0.0
 11
69.84999999999998
 21
-597.3604690625285
 31
0.0
  0
CIRCLE
  5
6D
330
A
100
AcDbEntity
  8
0
  6
Continuous
 62
     7
100
AcDbCircle
 10
69.84999999999999
 20
-843.905885328238
 30
0.0
 40
50.00000000000011
  0
CIRCLE
  5
6E
330
A
100
AcDbEntity
  8
0
  6
Continuous
 62
     7
100
AcDbCircle
 10
69.84999999999999
 20
-843.905885328238
 30
0.0
 40
75.00000000000011
  0
LINE
  5
6F
330
A
100
AcDbEntity
  8
0
  6
Continuous
 62
     7
100
AcDbLine
 10
718.1597825522898
 20
752.8548906476335
 30
0.0
 11
750.5789403235949
 21
722.6235369460144
 31
0.0
  0
LINE
  5
70
330
A
100
AcDbEntity
  8
0
  6
Continuous
 62
     7
100
AcDbLine
 10
835.7406247809844
 20
722.6235369460144
 30
0.0
 11
868.1597825522898
 21
752.8548906476335
 31
0.0
  0
LINE
  5
71
330
A
100
AcDbEntity
  8
0
  6
Continuous
 62
     7
100
AcDbLine
 10
843.1597825522898
 20
752.8548906476335
 30
0.0
 11
843.1597825522898
 21
754.8548906476335
 31
0.0
  0
LINE
  5
72
330
A
100
AcDbEntity
  8
0
  6
Continuous
 62
     7
100
AcDbLine
 10
743.1597825522898
 20
754.8548906476335
 30
0.0
 11
743.1597825522898
 21
752.8548906476335
 31
0.0
  0
ARC
  5
73
330
A
100
AcDbEntity
  8
0
  6
Continuous
 62
     7
100
AcDbCircle
 10
751.2609386836573
 20
723.3548906476336
 30
0.0
 40
1.000000000000048
100
AcDbArc
 50
227.0000000000038
 51
270.0000000000008
  0
ARC
  5
74
330
A
100
AcDbEntity
  8
0
  6
Continuous
 62
     7
100
AcDbCircle
 10
835.0586264209221
 20
723.3548906476336
 30
0.0
 40
1.000000000000048
100
AcDbArc
 50
270.0000000000008
 51
312.9999999999979
  0
LINE
  5
75
330
A
100
AcDbEntity
  8
0
  6
Continuous
 62
     7
100
AcDbLine
 10
743.1597825522898
 20
-27.64510935236641
 30
0.0
 11
743.1597825522898
 21
-28.64510935236642
 31
0.0
  0
LINE
  5
76
330
A
100
AcDbEntity
  8
0
  6
Continuous
 62
     7
100
AcDbLine
 10
843.1597825522898
 20
-28.64510935236642
 30
0.0
 11
843.1597825522898
 21
-27.64510935236641
 31
0.0
  0
LINE
  5
77
330
A
100
AcDbEntity
  8
0
  6
Continuous
 62
     7
100
AcDbLine
 10
792.4097825522898
 20
722.3548906476336
 30
0.0
 11
792.4097825522898
 21
-27.64510935236641
 31
0.0
  0
LINE
  5
78
330
A
100
AcDbEntity
  8
0
  6
Continuous
 62
     7
100
AcDbLine
 10
793.9097825522898
 20
-27.64510935236641
 30
0.0
 11
793.9097825522898
 21
722.3548906476336
 31
0.0
  0
LINE
  5
79
330
A
100
AcDbEntity
  8
0
  6
Continuous
 62
     7
100
AcDbLine
 10
914.0378277040609
 20
-80.55327724953063
 30
0.0
 11
877.3332101850062
 21
-28.64510935236645
 31
0.0
  0
LINE
  5
7A
330
A
100
AcDbEntity
  8
0
  6
Continuous
 62
     7
100
AcDbLine
 10
669.9053500066707
 20
-253.181007737229
 30
0.0
 11
914.0378277040609
 21
-80.55327724953063
 31
0.0
  0
LINE
  5
7B
330
A
100
AcDbEntity
  8
0
  6
Continuous
 62
     7
100
AcDbLine
 10
547.8391111579746
 20
-80.55327724953071
 30
0.0
 11
669.9053500066707
 21
-253.181007737229
 31
0.0
  0
LINE
  5
7C
330
A
100
AcDbEntity
  8
0
  6
Continuous
 62
     7
100
AcDbLine
 10
621.2483461960843
 20
-28.64510935236636
 30
0.0
 11
547.8391111579746
 21
-80.55327724953071
 31
0.0
  0
LINE
  5
7D
330
A
100
AcDbEntity
  8
0
  6
Continuous
 62
     7
100
AcDbLine
 10
621.2483461960843
 20
-28.64510935236636
 30
0.0
 11
877.3332101850062
 21
-28.64510935236645
 31
0.0
  0
LINE
  5
7E
330
A
100
AcDbEntity
  8
0
  6
Continuous
 62
     7
100
AcDbLine
 10
668.680605135279
 20
-256.6451093523668
 30
0.0
 11
669.9053500066707
 21
-253.181007737229
 31
0.0
  0
LINE
  5
7F
330
A
100
AcDbEntity
  8
0
  6
Continuous
 62
     7
100
AcDbLine
 10
668.680605135279
 20
-256.6451093523668
 30
0.0
 11
546.6143662865831
 21
-84.01737886466847
 31
0.0
  0
LINE
  5
80
330
A
100
AcDbEntity
  8
0
  6
Continuous
 62
     7
100
AcDbLine
 10
547.8391111579746
 20
-80.55327724953071
 30
0.0
 11
546.6143662865831
 21
-84.01737886466847
 31
0.0
  0
LINE
  5
81
330
A
100
AcDbEntity
  8
0
  6
Continuous
 62
     7
100
AcDbLine
 10
672.3548397494539
 20
-256.6451093523667
 30
0.0
 11
669.9053500066707
 21
-253.181007737229
 31
0.0
  0
LINE
  5
82
330
A
100
AcDbEntity
  8
0
  6
Continuous
 62
     7
100
AcDbLine
 10
668.680605135279
 20
-256.6451093523668
 30
0.0
 11
672.3548397494539
 21
-256.6451093523667
 31
0.0
  0
LINE
  5
83
330
A
100
AcDbEntity
  8
0
  6
Continuous
 62
     7
100
AcDbLine
 10
916.4873174468439
 20
-84.01737886466838
 30
0.0
 11
672.3548397494539
 21
-256.6451093523667
 31
0.0
  0
LINE
  5
84
330
A
100
AcDbEntity
  8
0
  6
Continuous
 62
     7
100
AcDbLine
 10
916.4873174468439
 20
-84.01737886466838
 30
0.0
 11
914.0378277040609
 21
-80.55327724953063
 31
0.0
  0
LINE
  5
85
330
A
100
AcDbEntity
  8
0
  6
Continuous
 62
     7
100
AcDbLine
 10
790.7468439839738
 20
-429.2728398400653
 30
0.0
 11
668.680605135279
 21
-256.6451093523668
 31
0.0
  0
LINE
  5
86
330
A
100
AcDbEntity
  8
0
  6
Continuous
 62
     7
100
AcDbLine
 10
672.3548397494539
 20
-256.6451093523667
 30
0.0
 11
794.4210785981486
 21
-429.2728398400651
 31
0.0
  0
LINE
  5
87
330
A
100
AcDbEntity
  8
0
  6
Continuous
 62
     7
100
AcDbLine
 10
790.7468439839738
 20
-429.2728398400653
 30
0.0
 11
794.4210785981486
 21
-429.2728398400651
 31
0.0
  0
LINE
  5
88
330
A
100
AcDbEntity
  8
0
  6
Continuous
 62
     7
100
AcDbLine
 10
794.4210785981486
 20
-429.2728398400651
 30
0.0
 11
1038.553556295539
 21
-256.6451093523669
 31
0.0
  0
LINE
  5
89
330
A
100
AcDbEntity
  8
0
  6
Continuous
 62
     7
100
AcDbLine
 10
1038.553556295539
 20
-256.6451093523669
 30
0.0
 11
916.4873174468439
 21
-84.01737886466838
 31
0.0
  0
LINE
  5
8A
330
A
100
AcDbEntity
  8
0
  6
Continuous
 62
     7
100
AcDbLine
 10
881.007444799181
 20
-28.64510935236642
 30
0.0
 11
917.7120623182359
 21
-80.55327724953059
 31
0.0
  0
LINE
  5
8B
330
A
100
AcDbEntity
  8
0
  6
Continuous
 62
     7
100
AcDbLine
 10
917.7120623182359
 20
-80.55327724953059
 30
0.0
 11
914.0378277040609
 21
-80.55327724953063
 31
0.0
  0
LINE
  5
8C
330
A
100
AcDbEntity
  8
0
  6
Continuous
 62
     7
100
AcDbLine
 10
877.3332101850062
 20
-28.64510935236645
 30
0.0
 11
881.007444799181
 21
-28.64510935236642
 31
0.0
  0
LINE
  5
8D
330
A
100
AcDbEntity
  8
0
  6
Continuous
 62
     7
100
AcDbLine
 10
916.4873174468439
 20
-84.01737886466838
 30
0.0
 11
917.7120623182359
 21
-80.55327724953059
 31
0.0
  0
LINE
  5
8E
330
A
100
AcDbEntity
  8
0
  6
Continuous
 62
     7
100
AcDbLine
 10
917.7120623182359
 20
-80.55327724953059
 30
0.0
 11
1039.77830116693
 21
-253.1810077372291
 31
0.0
  0
LINE
  5
8F
330
A
100
AcDbEntity
  8
0
  6
Continuous
 62
     7
100
AcDbLine
 10
1038.553556295539
 20
-256.6451093523669
 30
0.0
 11
1039.77830116693
 21
-253.1810077372291
 31
0.0
  0
LINE
  5
90
330
A
100
AcDbEntity
  8
0
  6
Continuous
 62
     7
100
AcDbLine
 10
868.1597825522898
 20
752.8548906476335
 30
0.0
 11
718.1597825522898
 21
752.8548906476335
 31
0.0
  0
LINE
  5
91
330
A
100
AcDbEntity
  8
0
  6
Continuous
 62
     7
100
AcDbLine
 10
843.1597825522898
 20
754.8548906476335
 30
0.0
 11
743.1597825522898
 21
754.8548906476335
 31
0.0
  0
LINE
  5
92
330
A
100
AcDbEntity
  8
0
  6
Continuous
 62
     7
100
AcDbLine
 10
835.0586264209221
 20
722.3548906476336
 30
0.0
 11
751.260938732325
 21
722.3548906476336
 31
0.0
  0
LINE
  5
93
330
A
100
AcDbEntity
  8
0
  6
Continuous
 62
     7
100
AcDbLine
 10
843.1597825522898
 20
-27.64510935236641
 30
0.0
 11
743.1597825522898
 21
-27.64510935236641
 31
0.0
  0
LINE
  5
94
330
A
100
AcDbEntity
  8
0
  6
PHANTOM
 62
     7
100
AcDbLine
 10
750.5789403235949
 20
722.6235369460144
 30
0.0
 11
835.7406247809844
 21
722.6235369460144
 31
0.0
  0
ENDSEC
  0
SECTION
  2
OBJECTS
  0
DICTIONARY
  5
19
330
0
100
AcDbDictionary
281
     1
  3
ACAD_COLOR
350
99
  3
ACAD_GROUP
350
1A
  3
ACAD_LAYOUT
350
9A
  3
ACAD_MATERIAL
350
98
  3
ACAD_MLINESTYLE
350
1B
  3
ACAD_PLOTSETTINGS
350
9B
  3
ACAD_PLOTSTYLENAME
350
96
  3
ACDBHEADERROUNDTRIPXREC
350
B1
  3
AcDbVariableDictionary
350
AD
  3
ASE_INDEX_DICTIONARY
350
A1
  0
DICTIONARY
  5
99
102
{ACAD_REACTORS
330
19
102
}
330
19
100
AcDbDictionary
281
     1
  0
DICTIONARY
  5
1A
102
{ACAD_REACTORS
330
19
102
}
330
19
100
AcDbDictionary
281
     1
  0
DICTIONARY
  5
9A
102
{ACAD_REACTORS
330
19
102
}
330
19
100
AcDbDictionary
281
     1
  3
Layout1
350
9D
  3
Model
350
9C
  0
DICTIONARY
  5
98
102
{ACAD_REACTORS
330
19
102
}
330
19
100
AcDbDictionary
281
     1
  0
DICTIONARY
  5
1B
102
{ACAD_REACTORS
330
19
102
}
330
19
100
AcDbDictionary
281
     1
  3
STANDARD
350
1C
  0
DICTIONARY
  5
9B
102
{ACAD_REACTORS
330
19
102
}
330
19
100
AcDbDictionary
281
     1
  0
ACDBDICTIONARYWDFLT
  5
96
102
{ACAD_REACTORS
330
19
102
}
330
19
100
AcDbDictionary
281
     1
  3
Normal
350
97
100
AcDbDictionaryWithDefault
340
97
  0
DICTIONARY
  5
B1
102
{ACAD_REACTORS
330
19
102
}
330
19
100
AcDbDictionary
281
     1
  0
DICTIONARY
  5
AD
102
{ACAD_REACTORS
330
19
102
}
330
19
100
AcDbDictionary
281
     1
  3
DIMASSOC
350
AE
  3
PROJECTNAME
350
AF
  0
DICTIONARY
  5
A1
102
{ACAD_REACTORS
330
19
102
}
330
19
100
AcDbDictionary
281
     1
  3
ASEBlockHierarchyIndexRecord
350
A3
1001
DCO15
1040
1553407506.171
  0
LAYOUT
  5
9D
102
{ACAD_XDICTIONARY
360
B4
102
}
102
{ACAD_REACTORS
330
9A
102
}
330
9A
100
AcDbPlotSettings
  1

  2
ProgeSOFT PDF Wizard
  4

  6

 40
0.0
 41
0.0
 42
0.0
 43
0.0
 44
0.0
 45
0.0
 46
0.0
 47
0.0
 48
0.0
 49
0.0
140
0.0
141
0.0
142
1.0
143
1.0
 70
   688
 72
     0
 73
     0
 74
     5
  7

 75
    16
147
1.0
148
0.0
149
0.0
100
AcDbLayout
  1
Layout1
 70
     1
 71
     1
 10
0.0
 20
0.0
 11
12.0
 21
9.0
 12
0.0
 22
0.0
 32
0.0
 14
1.000000000000000E+20
 24
1.000000000000000E+20
 34
1.000000000000000E+20
 15
-1.000000000000000E+20
 25
-1.000000000000000E+20
 35
-1.000000000000000E+20
146
0.0
 13
0.0
 23
0.0
 33
0.0
 16
1.0
 26
0.0
 36
0.0
 17
0.0
 27
1.0
 37
0.0
 76
     0
330
B
  0
LAYOUT
  5
9C
102
{ACAD_XDICTIONARY
360
B2
102
}
102
{ACAD_REACTORS
330
9A
102
}
330
9A
100
AcDbPlotSettings
  1

  2
ProgeSOFT PDF Wizard
  4

  6

 40
0.0
 41
0.0
 42
0.0
 43
0.0
 44
0.0
 45
0.0
 46
0.0
 47
0.0
 48
0.0
 49
0.0
140
0.0
141
0.0
142
1.0
143
1.0
 70
  1712
 72
     0
 73
     0
 74
     0
  7

 75
     0
147
1.0
148
0.0
149
0.0
100
AcDbLayout
  1
Model
 70
     1
 71
     0
 10
0.0
 20
0.0
 11
12.0
 21
9.0
 12
0.0
 22
0.0
 32
0.0
 14
0.0
 24
0.0
 34
0.0
 15
0.0
 25
0.0
 35
0.0
146
0.0
 13
0.0
 23
0.0
 33
0.0
 16
1.0
 26
0.0
 36
0.0
 17
0.0
 27
1.0
 37
0.0
 76
     0
330
A
  0
MLINESTYLE
  5
1C
102
{ACAD_REACTORS
330
1B
102
}
330
1B
100
AcDbMlineStyle
  2
STANDARD
 70
     0
  3

 62
     0
 51
90.0
 52
90.0
 71
     2
 49
0.5
 62
   256
  6
BYLAYER
 49
-0.5
 62
   256
  6
BYLAYER
  0
ACDBPLACEHOLDER
  5
97
102
{ACAD_REACTORS
330
96
102
}
330
96
  0
DICTIONARYVAR
  5
AE
102
{ACAD_REACTORS
330
AD
102
}
330
AD
100
DictionaryVariables
280
     0
  1
1
  0
DICTIONARYVAR
  5
AF
102
{ACAD_REACTORS
330
AD
102
}
330
AD
100
DictionaryVariables
280
     0
  1

  0
XRECORD
  5
A3
102
{ACAD_REACTORS
330
A1
102
}
330
A1
100
AcDbXrecord
280
     1
  0
DICTIONARY
  5
B4
330
9D
100
AcDbDictionary
280
     1
281
     1
  3
ACAD_XREC_ROUNDTRIP
360
B5
  0
DICTIONARY
  5
B2
330
9C
100
AcDbDictionary
280
     1
281
     1
  3
ACAD_XREC_ROUNDTRIP
360
B3
  0
XRECORD
  5
B5
102
{ACAD_REACTORS
330
B4
102
}
330
B4
100
AcDbXrecord
280
     1
102
SHADEPLOT
 70
     0
102
SHADEPLOTRESLEVEL
 70
     2
102
SHADEPLOTCUSTOMDPI
 70
   300
  0
XRECORD
  5
B3
102
{ACAD_REACTORS
330
B2
102
}
330
B2
100
AcDbXrecord
280
     1
102
SHADEPLOT
 70
     0
102
SHADEPLOTRESLEVEL
 70
     2
102
SHADEPLOTCUSTOMDPI
 70
   300
  0
ENDSEC
  0
EOF
