  0
SECTION
  2
HEADER
  9
$ACADVER
  1
AC1018
  9
$ACADMAINTVER
 70
     0
  9
$DWGCODEPAGE
  3
ANSI_1252
  9
$INSBASE
 10
0.0
 20
0.0
 30
0.0
  9
$EXTMIN
 10
-4235.999996406586
 20
0.0403032184931634
 30
0.0
  9
$EXTMAX
 10
-622.7852718690481
 20
4390.581499773847
 30
0.0
  9
$LIMMIN
 10
0.0
 20
0.0
  9
$LIMMAX
 10
12.0
 20
9.0
  9
$ORTHOMODE
 70
     0
  9
$REGENMODE
 70
     1
  9
$FILLMODE
 70
     1
  9
$QTEXTMODE
 70
     0
  9
$MIRRTEXT
 70
     1
  9
$LTSCALE
 40
1.0
  9
$ATTMODE
 70
     1
  9
$TEXTSIZE
 40
0.2
  9
$TRACEWID
 40
0.05
  9
$TEXTSTYLE
  7
Standard
  9
$CLAYER
  8
Predefinito
  9
$CELTYPE
  6
ByLayer
  9
$CECOLOR
 62
   256
  9
$CELTSCALE
 40
1.0
  9
$DISPSILH
 70
     0
  9
$DIMSCALE
 40
1.0
  9
$DIMASZ
 40
0.18
  9
$DIMEXO
 40
0.0625
  9
$DIMDLI
 40
0.38
  9
$DIMRND
 40
0.0
  9
$DIMDLE
 40
0.0
  9
$DIMEXE
 40
0.18
  9
$DIMTP
 40
0.0
  9
$DIMTM
 40
0.0
  9
$DIMTXT
 40
0.18
  9
$DIMCEN
 40
0.09
  9
$DIMTSZ
 40
0.0
  9
$DIMTOL
 70
     0
  9
$DIMLIM
 70
     0
  9
$DIMTIH
 70
     1
  9
$DIMTOH
 70
     1
  9
$DIMSE1
 70
     0
  9
$DIMSE2
 70
     0
  9
$DIMTAD
 70
     0
  9
$DIMZIN
 70
     0
  9
$DIMBLK
  1

  9
$DIMASO
 70
     1
  9
$DIMSHO
 70
     1
  9
$DIMPOST
  1

  9
$DIMAPOST
  1

  9
$DIMALT
 70
     0
  9
$DIMALTD
 70
     2
  9
$DIMALTF
 40
25.4
  9
$DIMLFAC
 40
1.0
  9
$DIMTOFL
 70
     0
  9
$DIMTVP
 40
0.0
  9
$DIMTIX
 70
     0
  9
$DIMSOXD
 70
     0
  9
$DIMSAH
 70
     0
  9
$DIMBLK1
  1

  9
$DIMBLK2
  1

  9
$DIMSTYLE
  2
Standard
  9
$DIMCLRD
 70
     0
  9
$DIMCLRE
 70
     0
  9
$DIMCLRT
 70
     0
  9
$DIMTFAC
 40
1.0
  9
$DIMGAP
 40
0.09
  9
$DIMJUST
 70
     0
  9
$DIMSD1
 70
     0
  9
$DIMSD2
 70
     0
  9
$DIMTOLJ
 70
     1
  9
$DIMTZIN
 70
     0
  9
$DIMALTZ
 70
     0
  9
$DIMALTTZ
 70
     0
  9
$DIMUPT
 70
     0
  9
$DIMDEC
 70
     4
  9
$DIMTDEC
 70
     4
  9
$DIMALTU
 70
     2
  9
$DIMALTTD
 70
     2
  9
$DIMTXSTY
  7
Standard
  9
$DIMAUNIT
 70
     0
  9
$DIMADEC
 70
     0
  9
$DIMALTRND
 40
0.0
  9
$DIMAZIN
 70
     0
  9
$DIMDSEP
 70
    46
  9
$DIMATFIT
 70
     3
  9
$DIMFRAC
 70
     0
  9
$DIMLDRBLK
  1

  9
$DIMLUNIT
 70
     2
  9
$DIMLWD
 70
    -2
  9
$DIMLWE
 70
    -2
  9
$DIMTMOVE
 70
     2
  9
$LUNITS
 70
     2
  9
$LUPREC
 70
     3
  9
$SKETCHINC
 40
0.1
  9
$FILLETRAD
 40
0.5
  9
$AUNITS
 70
     0
  9
$AUPREC
 70
     0
  9
$MENU
  1
.
  9
$ELEVATION
 40
0.0
  9
$PELEVATION
 40
0.0
  9
$THICKNESS
 40
0.0
  9
$LIMCHECK
 70
     0
  9
$CHAMFERA
 40
0.5
  9
$CHAMFERB
 40
0.5
  9
$CHAMFERC
 40
1.0
  9
$CHAMFERD
 40
0.0
  9
$SKPOLY
 70
     0
  9
$TDCREATE
 40
2458323.391757998
  9
$TDUCREATE
 40
2458323.308424664
  9
$TDUPDATE
 40
2458323.391758009
  9
$TDUUPDATE
 40
2458323.308424676
  9
$TDINDWG
 40
0.0000000116
  9
$TDUSRTIMER
 40
0.0000000116
  9
$USRTIMER
 70
     1
  9
$ANGBASE
 50
0.0
  9
$ANGDIR
 70
     0
  9
$PDMODE
 70
     0
  9
$PDSIZE
 40
0.0
  9
$PLINEWID
 40
0.0
  9
$SPLFRAME
 70
     0
  9
$SPLINETYPE
 70
     6
  9
$SPLINESEGS
 70
     8
  9
$HANDSEED
  5
2EE
  9
$SURFTAB1
 70
     6
  9
$SURFTAB2
 70
     6
  9
$SURFTYPE
 70
     6
  9
$SURFU
 70
     6
  9
$SURFV
 70
     6
  9
$UCSBASE
  2

  9
$UCSNAME
  2

  9
$UCSORG
 10
0.0
 20
0.0
 30
0.0
  9
$UCSXDIR
 10
1.0
 20
0.0
 30
0.0
  9
$UCSYDIR
 10
0.0
 20
1.0
 30
0.0
  9
$UCSORTHOREF
  2

  9
$UCSORTHOVIEW
 70
     0
  9
$UCSORGTOP
 10
0.0
 20
0.0
 30
0.0
  9
$UCSORGBOTTOM
 10
0.0
 20
0.0
 30
0.0
  9
$UCSORGLEFT
 10
0.0
 20
0.0
 30
0.0
  9
$UCSORGRIGHT
 10
0.0
 20
0.0
 30
0.0
  9
$UCSORGFRONT
 10
0.0
 20
0.0
 30
0.0
  9
$UCSORGBACK
 10
0.0
 20
0.0
 30
0.0
  9
$PUCSBASE
  2

  9
$PUCSNAME
  2

  9
$PUCSORG
 10
0.0
 20
0.0
 30
0.0
  9
$PUCSXDIR
 10
1.0
 20
0.0
 30
0.0
  9
$PUCSYDIR
 10
0.0
 20
1.0
 30
0.0
  9
$PUCSORTHOREF
  2

  9
$PUCSORTHOVIEW
 70
     0
  9
$PUCSORGTOP
 10
0.0
 20
0.0
 30
0.0
  9
$PUCSORGBOTTOM
 10
0.0
 20
0.0
 30
0.0
  9
$PUCSORGLEFT
 10
0.0
 20
0.0
 30
0.0
  9
$PUCSORGRIGHT
 10
0.0
 20
0.0
 30
0.0
  9
$PUCSORGFRONT
 10
0.0
 20
0.0
 30
0.0
  9
$PUCSORGBACK
 10
0.0
 20
0.0
 30
0.0
  9
$USERI1
 70
     0
  9
$USERI2
 70
     0
  9
$USERI3
 70
     0
  9
$USERI4
 70
     0
  9
$USERI5
 70
     0
  9
$USERR1
 40
0.0
  9
$USERR2
 40
0.0
  9
$USERR3
 40
0.0
  9
$USERR4
 40
0.0
  9
$USERR5
 40
0.0
  9
$WORLDVIEW
 70
     1
  9
$SHADEDGE
 70
     3
  9
$SHADEDIF
 70
    70
  9
$TILEMODE
 70
     0
  9
$MAXACTVP
 70
    64
  9
$PINSBASE
 10
0.0
 20
0.0
 30
0.0
  9
$PLIMCHECK
 70
     0
  9
$PEXTMIN
 10
0.0
 20
0.0
 30
0.0
  9
$PEXTMAX
 10
0.0
 20
0.0
 30
0.0
  9
$PLIMMIN
 10
0.0
 20
0.0
  9
$PLIMMAX
 10
12.0
 20
9.0
  9
$UNITMODE
 70
     0
  9
$VISRETAIN
 70
     1
  9
$PLINEGEN
 70
     0
  9
$PSLTSCALE
 70
     1
  9
$TREEDEPTH
 70
  3020
  9
$CMLSTYLE
  2
Standard
  9
$CMLJUST
 70
     0
  9
$CMLSCALE
 40
1.0
  9
$PROXYGRAPHICS
 70
     1
  9
$MEASUREMENT
 70
     0
  9
$CELWEIGHT
370
    -1
  9
$ENDCAPS
280
     0
  9
$JOINSTYLE
280
     0
  9
$LWDISPLAY
290
     0
  9
$INSUNITS
 70
     4
  9
$HYPERLINKBASE
  1

  9
$STYLESHEET
  1

  9
$XEDIT
290
     1
  9
$CEPSNTYPE
380
     0
  9
$PSTYLEMODE
290
     1
  9
$FINGERPRINTGUID
  2
{22EC67EC-91CB-4D82-AD00-477876E0ACAD}
  9
$VERSIONGUID
  2
{FAEB1C32-E019-11D5-929B-00C0DF256EC4}
  9
$EXTNAMES
290
     1
  9
$PSVPSCALE
 40
0.0
  9
$OLESTARTUP
290
     0
  9
$SORTENTS
280
   127
  9
$INDEXCTL
280
     0
  9
$HIDETEXT
280
     1
  9
$XCLIPFRAME
290
     0
  9
$HALOGAP
280
     0
  9
$OBSCOLOR
 70
   257
  9
$OBSLTYPE
280
     0
  9
$INTERSECTIONDISPLAY
280
     0
  9
$INTERSECTIONCOLOR
 70
   257
  9
$DIMASSOC
280
     2
  9
$PROJECTNAME
  1

  0
ENDSEC
  0
SECTION
  2
CLASSES
  0
CLASS
  1
ACDBDICTIONARYWDFLT
  2
AcDbDictionaryWithDefault
  3
ObjectDBX Classes
 90
        0
 91
        4
280
     0
281
     0
  0
CLASS
  1
VISUALSTYLE
  2
AcDbVisualStyle
  3
ObjectDBX Classes
 90
     4095
 91
        4
280
     0
281
     0
  0
CLASS
  1
SCALE
  2
AcDbScale
  3
ObjectDBX Classes
 90
     1153
 91
        4
280
     0
281
     0
  0
CLASS
  1
DICTIONARYVAR
  2
AcDbDictionaryVar
  3
ObjectDBX Classes
 90
        0
 91
        4
280
     0
281
     0
  0
ENDSEC
  0
SECTION
  2
TABLES
  0
TABLE
  2
VPORT
  5
8
330
0
100
AcDbSymbolTable
 70
     1
  0
VPORT
  5
29
330
8
100
AcDbSymbolTableRecord
100
AcDbViewportTableRecord
  2
*Active
 70
     0
 10
0.0
 20
0.0
 11
1.0
 21
1.0
 12
-2429.392634137817
 22
2195.31090149617
 13
0.0
 23
0.0
 14
0.5
 24
0.5
 15
0.5
 25
0.5
 16
0.0
 26
0.0
 36
1.0
 17
0.0
 27
0.0
 37
0.0
 40
4478.352020486461
 41
0.8229542925988997
 42
50.0
 43
0.0
 44
0.0
 50
0.0
 51
0.0
 71
     0
 72
   100
 73
     1
 74
     3
 75
     0
 76
     0
 77
     0
 78
     0
281
     0
 65
     1
110
0.0
120
0.0
130
0.0
111
1.0
121
0.0
131
0.0
112
0.0
122
1.0
132
0.0
 79
     0
146
0.0
  0
ENDTAB
  0
TABLE
  2
LTYPE
  5
5
330
0
100
AcDbSymbolTable
 70
     1
  0
LTYPE
  5
14
330
5
100
AcDbSymbolTableRecord
100
AcDbLinetypeTableRecord
  2
ByBlock
 70
     0
  3

 72
    65
 73
     0
 40
0.0
  0
LTYPE
  5
15
330
5
100
AcDbSymbolTableRecord
100
AcDbLinetypeTableRecord
  2
ByLayer
 70
     0
  3

 72
    65
 73
     0
 40
0.0
  0
LTYPE
  5
16
330
5
100
AcDbSymbolTableRecord
100
AcDbLinetypeTableRecord
  2
Continuous
 70
     0
  3
Solid line
 72
    65
 73
     0
 40
0.0
  0
ENDTAB
  0
TABLE
  2
LAYER
  5
2
330
0
100
AcDbSymbolTable
 70
     2
  0
LAYER
  5
10
330
2
100
AcDbSymbolTableRecord
100
AcDbLayerTableRecord
  2
0
 70
     0
 62
     7
  6
Continuous
370
    -3
390
F
  0
LAYER
  5
3B
330
2
100
AcDbSymbolTableRecord
100
AcDbLayerTableRecord
  2
Predefinito
 70
     0
 62
     7
  6
Continuous
370
    -3
390
F
  0
ENDTAB
  0
TABLE
  2
STYLE
  5
3
330
0
100
AcDbSymbolTable
 70
     1
  0
STYLE
  5
11
330
3
100
AcDbSymbolTableRecord
100
AcDbTextStyleTableRecord
  2
Standard
 70
     0
 40
0.0
 41
1.0
 50
0.0
 71
     0
 42
0.2
  3
txt
  4

  0
ENDTAB
  0
TABLE
  2
VIEW
  5
6
330
0
100
AcDbSymbolTable
 70
     0
  0
ENDTAB
  0
TABLE
  2
UCS
  5
7
330
0
100
AcDbSymbolTable
 70
     0
  0
ENDTAB
  0
TABLE
  2
APPID
  5
9
330
0
100
AcDbSymbolTable
 70
     1
  0
APPID
  5
12
330
9
100
AcDbSymbolTableRecord
100
AcDbRegAppTableRecord
  2
ACAD
 70
     0
  0
ENDTAB
  0
TABLE
  2
DIMSTYLE
  5
A
330
0
100
AcDbSymbolTable
 70
     1
100
AcDbDimStyleTable
  0
DIMSTYLE
105
27
330
A
100
AcDbSymbolTableRecord
100
AcDbDimStyleTableRecord
  2
Standard
 70
     0
340
11
  0
ENDTAB
  0
TABLE
  2
BLOCK_RECORD
  5
1
330
0
100
AcDbSymbolTable
 70
     3
  0
BLOCK_RECORD
  5
1F
330
1
100
AcDbSymbolTableRecord
100
AcDbBlockTableRecord
  2
*Model_Space
340
22
  0
BLOCK_RECORD
  5
2C3
330
1
100
AcDbSymbolTableRecord
100
AcDbBlockTableRecord
  2
*Paper_Space
340
2C4
  0
BLOCK_RECORD
  5
23
330
1
100
AcDbSymbolTableRecord
100
AcDbBlockTableRecord
  2
*Paper_Space0
340
26
  0
BLOCK_RECORD
  5
1B
330
1
100
AcDbSymbolTableRecord
100
AcDbBlockTableRecord
  2
*Paper_Space1
340
1E
  0
BLOCK_RECORD
  5
2BE
330
1
100
AcDbSymbolTableRecord
100
AcDbBlockTableRecord
  2
*Paper_Space2
340
2BF
  0
ENDTAB
  0
ENDSEC
  0
SECTION
  2
BLOCKS
  0
BLOCK
  5
20
330
1F
100
AcDbEntity
  8
0
100
AcDbBlockBegin
  2
*Model_Space
 70
     0
 10
0.0
 20
0.0
 30
0.0
  3
*Model_Space
  1

  0
ENDBLK
  5
21
330
1F
100
AcDbEntity
  8
0
100
AcDbBlockEnd
  0
BLOCK
  5
2C5
330
2C3
100
AcDbEntity
 67
     1
  8
0
100
AcDbBlockBegin
  2
*Paper_Space
 70
     0
 10
0.0
 20
0.0
 30
0.0
  3
*Paper_Space
  1

  0
ENDBLK
  5
2C6
330
2C3
100
AcDbEntity
 67
     1
  8
0
100
AcDbBlockEnd
  0
BLOCK
  5
24
330
23
100
AcDbEntity
  8
0
100
AcDbBlockBegin
  2
*Paper_Space0
 70
     0
 10
0.0
 20
0.0
 30
0.0
  3
*Paper_Space0
  1

  0
ENDBLK
  5
25
330
23
100
AcDbEntity
  8
0
100
AcDbBlockEnd
  0
BLOCK
  5
1C
330
1B
100
AcDbEntity
  8
0
100
AcDbBlockBegin
  2
*Paper_Space1
 70
     0
 10
0.0
 20
0.0
 30
0.0
  3
*Paper_Space1
  1

  0
ENDBLK
  5
1D
330
1B
100
AcDbEntity
  8
0
100
AcDbBlockEnd
  0
BLOCK
  5
2C0
330
2BE
100
AcDbEntity
  8
0
100
AcDbBlockBegin
  2
*Paper_Space2
 70
     0
 10
0.0
 20
0.0
 30
0.0
  3
*Paper_Space2
  1

  0
VIEWPORT
  5
2C2
330
2BE
100
AcDbEntity
  8
0
100
AcDbViewport
 10
6.0
 20
4.5
 30
0.0
 40
12.696
 41
9.522
 68
     1
 69
     1
 12
6.0
 22
4.5
 13
0.0
 23
0.0
 14
0.5
 24
0.5
 15
0.5
 25
0.5
 16
0.0
 26
0.0
 36
1.0
 17
0.0
 27
0.0
 37
0.0
 42
50.0
 43
0.0
 44
0.0
 45
9.522
 50
0.0
 51
0.0
 72
   100
 90
   557152
  1

281
     0
 71
     1
 74
     0
110
0.0
120
0.0
130
0.0
111
1.0
121
0.0
131
0.0
112
0.0
122
1.0
132
0.0
 79
     0
146
0.0
170
     0
  0
ENDBLK
  5
2C1
330
2BE
100
AcDbEntity
  8
0
100
AcDbBlockEnd
  0
ENDSEC
  0
SECTION
  2
ENTITIES
  0
SPLINE
  5
3C
330
1F
100
AcDbEntity
  8
Predefinito
100
AcDbSpline
210
0.0
220
0.0
230
1.0
 70
     8
 71
     2
 72
     6
 73
     3
 74
     0
 42
0.0000000001
 43
0.0000000001
 40
0.0
 40
0.0
 40
0.0
 40
2.591399581151964
 40
2.591399581151964
 40
2.591399581151964
 10
-4114.737918212233
 20
3942.853557671265
 30
0.0
 10
-4114.711586315514
 20
3941.38360589817
 30
0.0
 10
-4114.686928794234
 20
3940.088140748525
 30
0.0
  0
SPLINE
  5
3D
330
1F
100
AcDbEntity
  8
Predefinito
100
AcDbSpline
210
0.0
220
0.0
230
1.0
 70
    12
 71
     3
 72
    25
 73
    21
 74
     0
 42
0.0000000001
 43
0.0000000001
 40
-4.57407183568059
 40
-4.57407183568059
 40
-4.57407183568059
 40
-4.57407183568059
 40
-4.088322403071592
 40
-3.094309185931454
 40
-2.131814538472816
 40
-1.728419983045269
 40
-1.231993446766234
 40
-1.064422563576465
 40
-1.064422563576465
 40
-1.064422563576465
 40
-0.848037174756135
 40
-0.848037174756135
 40
-0.848037174756135
 40
1.5707963267949
 40
1.5707963267949
 40
1.5707963267949
 40
3.14159265358979
 40
3.14159265358979
 40
3.14159265358979
 40
4.71238898038469
 40
4.71238898038469
 40
4.71238898038469
 40
4.71238898038469
 10
-4117.296579378955
 20
3947.129787830166
 30
0.0
 41
1.0
 10
-4117.137026705237
 20
3947.117480804251
 30
0.0
 41
1.0
 10
-4116.657321031855
 20
3947.060244205142
 30
0.0
 41
1.0
 10
-4115.936964138935
 20
3946.870957007722
 30
0.0
 41
1.0
 10
-4115.369659758847
 20
3946.554101503084
 30
0.0
 41
1.0
 10
-4115.012022137387
 20
3946.184765669851
 30
0.0
 41
1.0
 10
-4114.857178207099
 20
3945.920275789987
 30
0.0
 41
1.0
 10
-4114.797223457757
 20
3945.738041862119
 30
0.0
 41
1.0
 10
-4114.772244599484
 20
3945.637159028445
 30
0.0
 41
1.0
 10
-4114.750874338515
 20
3945.53014179194
 30
0.0
 41
0.9977689980153116
 10
-4114.739421140664
 20
3945.438709601586
 30
0.0
 41
0.9977689980153116
 10
-4114.737961662251
 20
3945.36347441358
 30
0.0
 41
1.0
 10
-4114.737932695572
 20
3944.554152901374
 30
0.0
 41
1.0
 10
-4114.737918212233
 20
3943.717513987269
 30
0.0
 41
1.0
 10
-4114.737918212233
 20
3942.853557671265
 30
0.0
 41
1.0
 10
-4114.737918212234
 20
3942.098125343874
 30
0.0
 41
0.8047378541243653
 10
-4115.987662840905
 20
3941.563954022448
 30
0.0
 41
0.8047378541243653
 10
-4117.755068644274
 20
3941.563954022448
 30
0.0
 41
1.0
 10
-4119.522474447645
 20
3941.563954022448
 30
0.0
 41
0.8047378541243653
 10
-4120.772219076315
 20
3942.062288529526
 30
0.0
 41
0.8047378541243653
 10
-4120.818348343726
 20
3942.931300551047
 30
0.0
 41
1.0
  0
SPLINE
  5
3E
330
1F
100
AcDbEntity
  8
Predefinito
100
AcDbSpline
210
0.0
220
0.0
230
1.0
 70
     8
 71
     2
 72
     6
 73
     3
 74
     0
 42
0.0000000001
 43
0.0000000001
 40
-2.679510331200088
 40
-2.679510331200088
 40
-2.679510331200088
 40
0.0
 40
0.0
 40
0.0
 10
-4120.823210890539
 20
3942.679883802866
 30
0.0
 10
-4120.797714983428
 20
3944.019396349457
 30
0.0
 10
-4120.761258948987
 20
3945.470894745875
 30
0.0
  0
SPLINE
  5
3F
330
1F
100
AcDbEntity
  8
Predefinito
100
AcDbSpline
210
0.0
220
0.0
230
1.0
 70
    12
 71
     2
 72
     6
 73
     3
 74
     0
 42
0.0000000001
 43
0.0000000001
 40
0.0
 40
0.0
 40
0.0
 40
0.1217605834520736
 40
0.1217605834520736
 40
0.1217605834520736
 10
-4120.761258948987
 20
3945.470894745875
 30
0.0
 41
1.0
 10
-4120.739249381255
 20
3945.642792331706
 30
0.0
 41
0.9989701285602127
 10
-4120.71882763859
 20
3945.715121398797
 30
0.0
 41
1.0
  0
SPLINE
  5
40
330
1F
100
AcDbEntity
  8
Predefinito
100
AcDbSpline
210
0.0
220
0.0
230
1.0
 70
    12
 71
     3
 72
    13
 73
     9
 74
     0
 42
0.0000000001
 43
0.0000000001
 40
0.4209946083509778
 40
0.4209946083509778
 40
0.4209946083509778
 40
0.4209946083509778
 40
0.9105168720795822
 40
1.408166031790523
 40
2.371803821813326
 40
3.024311026248826
 40
3.95634738034606
 40
4.002925169122584
 40
4.002925169122584
 40
4.002925169122584
 40
4.002925169122584
 10
-4120.71882763859
 20
3945.715121398797
 30
0.0
 41
1.0
 10
-4120.673957638447
 20
3945.863600367205
 30
0.0
 41
1.0
 10
-4120.550016586475
 20
3946.118833690014
 30
0.0
 41
1.0
 10
-4120.189073964485
 20
3946.522890871824
 30
0.0
 41
1.0
 10
-4119.684297588902
 20
3946.812389782297
 30
0.0
 41
1.0
 10
-4118.96347362778
 20
3947.040007484237
 30
0.0
 41
1.0
 10
-4118.435902798929
 20
3947.117047565562
 30
0.0
 41
1.0
 10
-4118.112009551648
 20
3947.1367564583
 30
0.0
 41
1.0
 10
-4118.096579372267
 20
3947.137634534323
 30
0.0
 41
1.0
  0
SPLINE
  5
41
330
1F
100
AcDbEntity
  8
Predefinito
100
AcDbSpline
210
0.0
220
0.0
230
1.0
 70
    12
 71
     2
 72
     6
 73
     3
 74
     0
 42
0.0000000001
 43
0.0000000001
 40
0.0
 40
0.0
 40
0.0
 40
2.292727996162794
 40
2.292727996162794
 40
2.292727996162794
 10
-4117.033366822695
 20
4004.14803215496
 30
0.0
 41
1.0
 10
-4117.169692451713
 20
4003.009799860001
 30
0.0
 41
0.9999959945914054
 10
-4117.312459030157
 20
4001.872357492894
 30
0.0
 41
1.0
  0
SPLINE
  5
42
330
1F
100
AcDbEntity
  8
Predefinito
100
AcDbSpline
210
0.0
220
0.0
230
1.0
 70
    12
 71
     2
 72
     6
 73
     3
 74
     0
 42
0.0000000001
 43
0.0000000001
 40
0.0
 40
0.0
 40
0.0
 40
9.473861299248366
 40
9.473861299248366
 40
9.473861299248366
 10
-4115.490753681807
 20
4022.52417034402
 30
0.0
 41
1.0
 10
-4115.709390661035
 20
4017.791667377741
 30
0.0
 41
0.9998036976760666
 10
-4116.115402646496
 20
4013.070953351692
 30
0.0
 41
1.0
  0
SPLINE
  5
43
330
1F
100
AcDbEntity
  8
Predefinito
100
AcDbSpline
210
0.0
220
0.0
230
1.0
 70
    12
 71
     2
 72
     6
 73
     3
 74
     0
 42
0.0000000001
 43
0.0000000001
 40
0.0
 40
0.0
 40
0.0
 40
8.87878403866186
 40
8.87878403866186
 40
8.87878403866186
 10
-4116.115402646496
 20
4013.070953351692
 30
0.0
 41
1.0
 10
-4116.495978028292
 20
4008.646904873474
 30
0.0
 41
0.9998632989992475
 10
-4117.022552382988
 20
4004.238445532248
 30
0.0
 41
1.0
  0
SPLINE
  5
44
330
1F
100
AcDbEntity
  8
Predefinito
100
AcDbSpline
210
0.0
220
0.0
230
1.0
 70
    24
 71
     2
 72
     6
 73
     3
 74
     0
 42
0.0000000001
 43
0.0000000001
 40
0.0
 40
0.0
 40
0.0
 40
11.55000000000155
 40
11.55000000000155
 40
11.55000000000155
 10
-4115.271277694753
 20
4093.583759202686
 30
0.0
 10
-4115.271277694754
 20
4087.808759202685
 30
0.0
 10
-4115.271277694756
 20
4082.033759202684
 30
0.0
  0
SPLINE
  5
45
330
1F
100
AcDbEntity
  8
Predefinito
100
AcDbSpline
210
0.0
220
0.0
230
1.0
 70
    24
 71
     2
 72
     6
 73
     3
 74
     0
 42
0.0000000001
 43
0.0000000001
 40
-50.0
 40
-50.0
 40
-50.0
 40
0.0
 40
0.0
 40
0.0
 10
-4115.271277694756
 20
4082.033759202684
 30
0.0
 10
-4115.271277694756
 20
4057.033759202696
 30
0.0
 10
-4115.271277694756
 20
4032.033759202708
 30
0.0
  0
SPLINE
  5
46
330
1F
100
AcDbEntity
  8
Predefinito
100
AcDbSpline
210
0.0
220
0.0
230
1.0
 70
    12
 71
     2
 72
     6
 73
     3
 74
     0
 42
0.0000000001
 43
0.0000000001
 40
0.0
 40
0.0
 40
0.0
 40
9.506077064372882
 40
9.506077064372882
 40
9.506077064372882
 10
-4115.271277694756
 20
4032.033759202708
 30
0.0
 41
0.9999999999999987
 10
-4115.271234741566
 20
4027.279877434267
 30
0.0
 41
0.9997339534724958
 10
-4115.490435836528
 20
4022.531052026849
 30
0.0
 41
1.0
  0
SPLINE
  5
47
330
1F
100
AcDbEntity
  8
Predefinito
100
AcDbSpline
210
0.0
220
0.0
230
1.0
 70
    12
 71
     2
 72
     6
 73
     3
 74
     0
 42
0.0000000001
 43
0.0000000001
 40
0.0
 40
0.0
 40
0.0
 40
0.6579151316553176
 40
0.6579151316553176
 40
0.6579151316553176
 10
-4118.096579379671
 20
3995.976655146111
 30
0.0
 41
1.0
 10
-4118.142340219372
 20
3995.650895919698
 30
0.0
 41
0.9999996678229672
 10
-4118.188962751168
 20
3995.322885094784
 30
0.0
 41
1.0
  0
SPLINE
  5
48
330
1F
100
AcDbEntity
  8
Predefinito
100
AcDbSpline
210
0.0
220
0.0
230
1.0
 70
    12
 71
     2
 72
     6
 73
     3
 74
     0
 42
0.0000000001
 43
0.0000000001
 40
0.0
 40
0.0
 40
0.0
 40
7.920863914014086
 40
7.920863914014086
 40
7.920863914014086
 10
-4118.188962751168
 20
3995.322885094784
 30
0.0
 41
1.0
 10
-4118.746668345289
 20
3991.399484278592
 30
0.0
 41
0.999977610442981
 10
-4119.356754167744
 20
3987.484392648887
 30
0.0
 41
1.0
  0
SPLINE
  5
49
330
1F
100
AcDbEntity
  8
Predefinito
100
AcDbSpline
210
0.0
220
0.0
230
1.0
 70
    12
 71
     2
 72
     6
 73
     3
 74
     0
 42
0.0000000001
 43
0.0000000001
 40
0.0
 40
0.0
 40
0.0
 40
7.842712195861317
 40
7.842712195861317
 40
7.842712195861317
 10
-4119.356754167744
 20
3987.484392648887
 30
0.0
 41
1.0
 10
-4119.960873153586
 20
3983.607977019982
 30
0.0
 41
0.9999994445052977
 10
-4120.561396973731
 20
3979.700498650917
 30
0.0
 41
1.0
  0
SPLINE
  5
4A
330
1F
100
AcDbEntity
  8
Predefinito
100
AcDbSpline
210
0.0
220
0.0
230
1.0
 70
    12
 71
     2
 72
     6
 73
     3
 74
     0
 42
0.0000000001
 43
0.0000000001
 40
0.0
 40
0.0
 40
0.0
 40
7.267359002269586
 40
7.267359002269586
 40
7.267359002269586
 10
-4120.561396973731
 20
3979.700498650917
 30
0.0
 41
1.0
 10
-4121.118141339007
 20
3976.077306657168
 30
0.0
 41
0.999983293158819
 10
-4121.637400847332
 20
3972.416477886935
 30
0.0
 41
1.0
  0
SPLINE
  5
4B
330
1F
100
AcDbEntity
  8
Predefinito
100
AcDbSpline
210
0.0
220
0.0
230
1.0
 70
    12
 71
     2
 72
     6
 73
     3
 74
     0
 42
0.0000000001
 43
0.0000000001
 40
0.0
 40
0.0
 40
0.0
 40
6.813112008153873
 40
6.813112008153873
 40
6.813112008153873
 10
-4121.637400847332
 20
3972.416477886935
 30
0.0
 41
1.0
 10
-4122.124294714392
 20
3968.980222705683
 30
0.0
 41
0.9998808206810607
 10
-4122.508998586501
 20
3965.492171615527
 30
0.0
 41
1.0
  0
SPLINE
  5
4C
330
1F
100
AcDbEntity
  8
Predefinito
100
AcDbSpline
210
0.0
220
0.0
230
1.0
 70
    12
 71
     2
 72
     6
 73
     3
 74
     0
 42
0.0000000001
 43
0.0000000001
 40
0.0
 40
0.0
 40
0.0
 40
6.437141271679265
 40
6.437141271679265
 40
6.437141271679265
 10
-4122.508998586501
 20
3965.492171615527
 30
0.0
 41
1.0
 10
-4122.871111057767
 20
3962.190458946575
 30
0.0
 41
0.9997369019152901
 10
-4123.076986824546
 20
3958.945432148616
 30
0.0
 41
1.0
  0
SPLINE
  5
4D
330
1F
100
AcDbEntity
  8
Predefinito
100
AcDbSpline
210
0.0
220
0.0
230
1.0
 70
    12
 71
     2
 72
     6
 73
     3
 74
     0
 42
0.0000000001
 43
0.0000000001
 40
0.0
 40
0.0
 40
0.0
 40
5.759706578165851
 40
5.759706578165851
 40
5.759706578165851
 10
-4123.076986824546
 20
3958.945432148616
 30
0.0
 41
1.0
 10
-4123.261349764813
 20
3956.038107277574
 30
0.0
 41
0.9995337388998639
 10
-4123.267887751624
 20
3953.081364517969
 30
0.0
 41
1.0
  0
SPLINE
  5
4E
330
1F
100
AcDbEntity
  8
Predefinito
100
AcDbSpline
210
0.0
220
0.0
230
1.0
 70
    24
 71
     2
 72
     6
 73
     3
 74
     0
 42
0.0000000001
 43
0.0000000001
 40
0.0
 40
0.0
 40
0.0
 40
1.642288703692429
 40
1.642288703692429
 40
1.642288703692429
 10
-4123.267887751624
 20
3953.081364517969
 30
0.0
 10
-4123.267887751624
 20
3952.184218855834
 30
0.0
 10
-4123.267887751623
 20
3951.340981350584
 30
0.0
  0
SPLINE
  5
4F
330
1F
100
AcDbEntity
  8
Predefinito
100
AcDbSpline
210
0.0
220
0.0
230
1.0
 70
    12
 71
     2
 72
     6
 73
     3
 74
     0
 42
0.0000000001
 43
0.0000000001
 40
0.0
 40
0.0
 40
0.0
 40
0.5960611867093941
 40
0.5960611867093941
 40
0.5960611867093941
 10
-4123.267887751623
 20
3951.340981350584
 30
0.0
 41
1.0
 10
-4123.2681053594
 20
3951.020796553494
 30
0.0
 41
0.9996924229406494
 10
-4123.241382444623
 20
3950.575578955051
 30
0.0
 41
1.0
  0
SPLINE
  5
50
330
1F
100
AcDbEntity
  8
Predefinito
100
AcDbSpline
210
0.0
220
0.0
230
1.0
 70
    12
 71
     2
 72
     6
 73
     3
 74
     0
 42
0.0000000001
 43
0.0000000001
 40
0.0
 40
0.0
 40
0.0
 40
0.1347605246211172
 40
0.1347605246211172
 40
0.1347605246211172
 10
-4123.241382444623
 20
3950.575578955051
 30
0.0
 41
1.0
 10
-4123.22141926295
 20
3950.361163810743
 30
0.0
 41
0.9998567126214664
 10
-4123.203045575665
 20
3950.200922696593
 30
0.0
 41
1.0
  0
SPLINE
  5
51
330
1F
100
AcDbEntity
  8
Predefinito
100
AcDbSpline
210
0.0
220
0.0
230
1.0
 70
    12
 71
     2
 72
     6
 73
     3
 74
     0
 42
0.0000000001
 43
0.0000000001
 40
0.0
 40
0.0
 40
0.0
 40
0.1334653235916852
 40
0.1334653235916852
 40
0.1334653235916852
 10
-4123.203045575665
 20
3950.200922696593
 30
0.0
 41
1.0
 10
-4123.165072286258
 20
3950.047492339756
 30
0.0
 41
0.9991273073532981
 10
-4123.120933518372
 20
3949.969857618105
 30
0.0
 41
1.0
  0
SPLINE
  5
52
330
1F
100
AcDbEntity
  8
Predefinito
100
AcDbSpline
210
0.0
220
0.0
230
1.0
 70
    12
 71
     2
 72
     6
 73
     3
 74
     0
 42
0.0000000001
 43
0.0000000001
 40
0.0
 40
0.0
 40
0.0
 40
0.1420111130949449
 40
0.1420111130949449
 40
0.1420111130949449
 10
-4123.120933518372
 20
3949.969857618105
 30
0.0
 41
1.0
 10
-4123.045817219161
 20
3949.909961100888
 30
0.0
 41
0.9983990746040445
 10
-4122.985617838192
 20
3949.872169144757
 30
0.0
 41
0.9999998808854779
  0
SPLINE
  5
53
330
1F
100
AcDbEntity
  8
Predefinito
100
AcDbSpline
210
0.0
220
0.0
230
1.0
 70
    12
 71
     2
 72
     8
 73
     5
 74
     0
 42
0.0000000001
 43
0.0000000001
 40
-4.793185107148754
 40
-4.793185107148754
 40
-4.793185107148754
 40
-2.514285471140092
 40
-2.514285471140092
 40
-0.1121712858444504
 40
-0.1121712858444504
 40
-0.1121712858444504
 10
-4122.985617838192
 20
3949.872169144757
 30
0.0
 41
0.9805455170202266
 10
-4122.481619178611
 20
3949.553550803491
 30
0.0
 41
0.8960980934820815
 10
-4122.663825294863
 20
3948.554763295861
 30
0.0
 41
1.0
 10
-4122.92423713091
 20
3947.35648697719
 30
0.0
 41
0.9694667050684544
 10
-4123.723075259845
 20
3946.426143973774
 30
0.0
 41
1.0
  0
SPLINE
  5
54
330
1F
100
AcDbEntity
  8
Predefinito
100
AcDbSpline
210
0.0
220
0.0
230
1.0
 70
    12
 71
     2
 72
     8
 73
     5
 74
     0
 42
0.0000000001
 43
0.0000000001
 40
-3.133278705979313
 40
-3.133278705979313
 40
-3.133278705979313
 40
-0.2343095298663218
 40
-0.2343095298663218
 40
0.0
 40
0.0
 40
0.0
 10
-4123.723075259845
 20
3946.426143973774
 30
0.0
 41
1.0
 10
-4124.739193893636
 20
3945.222990183931
 30
0.0
 41
0.8485843113786617
 10
-4125.5522239311
 20
3945.392731502087
 30
0.0
 41
1.0
 10
-4125.668307601911
 20
3945.4163060898
 30
0.0
 41
0.9836334289813372
 10
-4125.768498125624
 20
3945.479496585714
 30
0.0
 41
0.9999988902438921
  0
SPLINE
  5
55
330
1F
100
AcDbEntity
  8
Predefinito
100
AcDbSpline
210
0.0
220
0.0
230
1.0
 70
    12
 71
     2
 72
     6
 73
     3
 74
     0
 42
0.0000000001
 43
0.0000000001
 40
0.0
 40
0.0
 40
0.0
 40
1.365335388030892
 40
1.365335388030892
 40
1.365335388030892
 10
-4125.768498125624
 20
3945.479496585714
 30
0.0
 41
0.9999999260454836
 10
-4126.349530243359
 20
3945.843404113506
 30
0.0
 41
0.9936224655607117
 10
-4126.94889102323
 20
3946.451928771636
 30
0.0
 41
1.0
  0
SPLINE
  5
56
330
1F
100
AcDbEntity
  8
Predefinito
100
AcDbSpline
210
0.0
220
0.0
230
1.0
 70
    12
 71
     2
 72
     6
 73
     3
 74
     0
 42
0.0000000001
 43
0.0000000001
 40
0.0
 40
0.0
 40
0.0
 40
1.589824248817736
 40
1.589824248817736
 40
1.589824248817736
 10
-4126.94889102323
 20
3946.451928771636
 30
0.0
 41
1.0
 10
-4127.591392400462
 20
3947.178428109492
 30
0.0
 41
0.988114981989925
 10
-4127.903461553388
 20
3947.916471784918
 30
0.0
 41
0.9999994324238223
  0
SPLINE
  5
57
330
1F
100
AcDbEntity
  8
Predefinito
100
AcDbSpline
210
0.0
220
0.0
230
1.0
 70
    12
 71
     2
 72
     6
 73
     3
 74
     0
 42
0.0000000001
 43
0.0000000001
 40
0.0
 40
0.0
 40
0.0
 40
0.2861941427438652
 40
0.2861941427438652
 40
0.2861941427438652
 10
-4127.903461553388
 20
3947.916471784918
 30
0.0
 41
0.9999725508782492
 10
-4127.967693869253
 20
3948.044487618234
 30
0.0
 41
0.996020091776672
 10
-4128.016083017983
 20
3948.179033111026
 30
0.0
 41
0.999999985356526
  0
SPLINE
  5
58
330
1F
100
AcDbEntity
  8
Predefinito
100
AcDbSpline
210
0.0
220
0.0
230
1.0
 70
    12
 71
     2
 72
     6
 73
     3
 74
     0
 42
0.0000000001
 43
0.0000000001
 40
0.0
 40
0.0
 40
0.0
 40
1.081443674578161
 40
1.081443674578161
 40
1.081443674578161
 10
-4128.016083017983
 20
3948.179033111026
 30
0.0
 41
0.9999999971324174
 10
-4128.1991158936
 20
3948.688970123084
 30
0.0
 41
0.9970437971734197
 10
-4128.327341174259
 20
3949.368735193678
 30
0.0
 41
1.0
  0
SPLINE
  5
59
330
1F
100
AcDbEntity
  8
Predefinito
100
AcDbSpline
210
0.0
220
0.0
230
1.0
 70
    12
 71
     2
 72
     6
 73
     3
 74
     0
 42
0.0000000001
 43
0.0000000001
 40
0.0
 40
0.0
 40
0.0
 40
0.74222098303175
 40
0.74222098303175
 40
0.74222098303175
 10
-4128.327341174259
 20
3949.368735193678
 30
0.0
 41
1.0
 10
-4128.40822531405
 20
3949.883689262143
 30
0.0
 41
0.9992156787306123
 10
-4128.440756513455
 20
3950.359347595273
 30
0.0
 41
1.0
  0
SPLINE
  5
5A
330
1F
100
AcDbEntity
  8
Predefinito
100
AcDbSpline
210
0.0
220
0.0
230
1.0
 70
    12
 71
     2
 72
     6
 73
     3
 74
     0
 42
0.0000000001
 43
0.0000000001
 40
0.0
 40
0.0
 40
0.0
 40
0.3905069088389312
 40
0.3905069088389312
 40
0.3905069088389312
 10
-4128.440756513455
 20
3950.359347595273
 30
0.0
 41
1.0
 10
-4128.456787914723
 20
3950.659647512127
 30
0.0
 41
0.9999310330300953
 10
-4128.464882371054
 20
3951.108997369835
 30
0.0
 41
1.0
  0
SPLINE
  5
5B
330
1F
100
AcDbEntity
  8
Predefinito
100
AcDbSpline
210
0.0
220
0.0
230
1.0
 70
     8
 71
     2
 72
     6
 73
     3
 74
     0
 42
0.0000000001
 43
0.0000000001
 40
0.0
 40
0.0
 40
0.0
 40
1.725933857696873
 40
1.725933857696873
 40
1.725933857696873
 10
-4128.464882371054
 20
3951.108997369835
 30
0.0
 10
-4128.467887751623
 20
3952.226118052934
 30
0.0
 10
-4128.467887751623
 20
3953.12322540502
 30
0.0
  0
SPLINE
  5
5C
330
1F
100
AcDbEntity
  8
Predefinito
100
AcDbSpline
210
0.0
220
0.0
230
1.0
 70
    12
 71
     2
 72
     6
 73
     3
 74
     0
 42
0.0000000001
 43
0.0000000001
 40
0.0
 40
0.0
 40
0.0
 40
6.028226476516514
 40
6.028226476516514
 40
6.028226476516514
 10
-4128.467887751623
 20
3953.12322540502
 30
0.0
 41
1.0
 10
-4128.461585171944
 20
3956.172399284843
 30
0.0
 41
0.999538972521323
 10
-4128.268641570556
 20
3959.240792676765
 30
0.0
 41
1.0
  0
SPLINE
  5
5D
330
1F
100
AcDbEntity
  8
Predefinito
100
AcDbSpline
210
0.0
220
0.0
230
1.0
 70
    12
 71
     2
 72
     6
 73
     3
 74
     0
 42
0.0000000001
 43
0.0000000001
 40
0.0
 40
0.0
 40
0.0
 40
6.875965984908474
 40
6.875965984908474
 40
6.875965984908474
 10
-4128.268641570556
 20
3959.240792676765
 30
0.0
 41
1.0
 10
-4128.047160955663
 20
3962.731805154891
 30
0.0
 41
0.9997232033032163
 10
-4127.668143883446
 20
3966.149470571634
 30
0.0
 41
1.0
  0
SPLINE
  5
5E
330
1F
100
AcDbEntity
  8
Predefinito
100
AcDbSpline
210
0.0
220
0.0
230
1.0
 70
    12
 71
     2
 72
     6
 73
     3
 74
     0
 42
0.0000000001
 43
0.0000000001
 40
0.0
 40
0.0
 40
0.0
 40
6.989782402808492
 40
6.989782402808492
 40
6.989782402808492
 10
-4127.668143883446
 20
3966.149470571634
 30
0.0
 41
1.0
 10
-4127.285106003203
 20
3969.623588827469
 30
0.0
 41
0.9998802101601724
 10
-4126.786237262804
 20
3973.144140817837
 30
0.0
 41
1.0
  0
SPLINE
  5
5F
330
1F
100
AcDbEntity
  8
Predefinito
100
AcDbSpline
210
0.0
220
0.0
230
1.0
 70
    12
 71
     2
 72
     6
 73
     3
 74
     0
 42
0.0000000001
 43
0.0000000001
 40
0.0
 40
0.0
 40
0.0
 40
7.367485931197866
 40
7.367485931197866
 40
7.367485931197866
 10
-4126.786237262804
 20
3973.144140817837
 30
0.0
 41
1.0
 10
-4126.260434180127
 20
3976.851374471957
 30
0.0
 41
0.9999831044294052
 10
-4125.698836955547
 20
3980.504822062912
 30
0.0
 41
1.0
  0
SPLINE
  5
60
330
1F
100
AcDbEntity
  8
Predefinito
100
AcDbSpline
210
0.0
220
0.0
230
1.0
 70
    12
 71
     2
 72
     6
 73
     3
 74
     0
 42
0.0000000001
 43
0.0000000001
 40
0.0
 40
0.0
 40
0.0
 40
7.847285454600262
 40
7.847285454600262
 40
7.847285454600262
 10
-4125.698836955547
 20
3980.504822062912
 30
0.0
 41
1.0
 10
-4125.100920461788
 20
3984.395363749744
 30
0.0
 41
0.9999994452705651
 10
-4124.494942810852
 20
3988.283779769272
 30
0.0
 41
1.0
  0
SPLINE
  5
61
330
1F
100
AcDbEntity
  8
Predefinito
100
AcDbSpline
210
0.0
220
0.0
230
1.0
 70
    12
 71
     2
 72
     6
 73
     3
 74
     0
 42
0.0000000001
 43
0.0000000001
 40
0.0
 40
0.0
 40
0.0
 40
7.847341803204007
 40
7.847341803204007
 40
7.847341803204007
 10
-4124.494942810852
 20
3988.283779769272
 30
0.0
 41
1.0
 10
-4123.88903910643
 20
3992.172293650844
 30
0.0
 41
0.999977603306973
 10
-4123.336409451505
 20
3996.060330389162
 30
0.0
 41
1.0
  0
SPLINE
  5
62
330
1F
100
AcDbEntity
  8
Predefinito
100
AcDbSpline
210
0.0
220
0.0
230
1.0
 70
    12
 71
     2
 72
     6
 73
     3
 74
     0
 42
0.0000000001
 43
0.0000000001
 40
0.0
 40
0.0
 40
0.0
 40
8.802481928227358
 40
8.802481928227358
 40
8.802481928227358
 10
-4123.336409451505
 20
3996.060330389162
 30
0.0
 41
1.0
 10
-4122.716602196697
 20
4000.421309604273
 30
0.0
 41
0.9999392751154925
 10
-4122.192355980553
 20
4004.800757181978
 30
0.0
 41
1.0
  0
SPLINE
  5
63
330
1F
100
AcDbEntity
  8
Predefinito
100
AcDbSpline
210
0.0
220
0.0
230
1.0
 70
    12
 71
     2
 72
     6
 73
     3
 74
     0
 42
0.0000000001
 43
0.0000000001
 40
0.0
 40
0.0
 40
0.0
 40
8.753508704547935
 40
8.753508704547935
 40
8.753508704547935
 10
-4122.192355980553
 20
4004.800757181978
 30
0.0
 41
1.0
 10
-4121.671385347589
 20
4009.156161715857
 30
0.0
 41
0.9998619440022277
 10
-4121.296218604297
 20
4013.517211513572
 30
0.0
 41
1.0
  0
SPLINE
  5
64
330
1F
100
AcDbEntity
  8
Predefinito
100
AcDbSpline
210
0.0
220
0.0
230
1.0
 70
    12
 71
     2
 72
     6
 73
     3
 74
     0
 42
0.0000000001
 43
0.0000000001
 40
0.0
 40
0.0
 40
0.0
 40
9.23779264305229
 40
9.23779264305229
 40
9.23779264305229
 10
-4121.294455570407
 20
4013.537717311093
 30
0.0
 41
1.0
 10
-4120.899017852213
 20
4018.14025806649
 30
0.0
 41
0.9998049695804232
 10
-4120.685644247123
 20
4022.754824579037
 30
0.0
 41
1.0
  0
SPLINE
  5
65
330
1F
100
AcDbEntity
  8
Predefinito
100
AcDbSpline
210
0.0
220
0.0
230
1.0
 70
    12
 71
     2
 72
     6
 73
     3
 74
     0
 42
0.0000000001
 43
0.0000000001
 40
0.0
 40
0.0
 40
0.0
 40
9.266150457502127
 40
9.266150457502127
 40
9.266150457502127
 10
-4120.684901730117
 20
4022.770893808733
 30
0.0
 41
1.0
 10
-4120.471215544478
 20
4027.399861729425
 30
0.0
 41
0.999733859247301
 10
-4120.471277694755
 20
4032.033759202708
 30
0.0
 41
0.9999999999999987
  0
SPLINE
  5
66
330
1F
100
AcDbEntity
  8
Predefinito
100
AcDbSpline
210
0.0
220
0.0
230
1.0
 70
    24
 71
     2
 72
     6
 73
     3
 74
     0
 42
0.0000000001
 43
0.0000000001
 40
0.0
 40
0.0
 40
0.0
 40
50.00000000000091
 40
50.00000000000091
 40
50.00000000000091
 10
-4120.471277694755
 20
4032.033759202708
 30
0.0
 10
-4120.471277694755
 20
4057.033759202696
 30
0.0
 10
-4120.471277694755
 20
4082.033759202685
 30
0.0
  0
SPLINE
  5
67
330
1F
100
AcDbEntity
  8
Predefinito
100
AcDbSpline
210
0.0
220
0.0
230
1.0
 70
    24
 71
     2
 72
     6
 73
     3
 74
     0
 42
0.0000000001
 43
0.0000000001
 40
0.0
 40
0.0
 40
0.0
 40
11.54999999999973
 40
11.54999999999973
 40
11.54999999999973
 10
-4120.471277694755
 20
4082.033759202685
 30
0.0
 10
-4120.471277694754
 20
4087.808759202685
 30
0.0
 10
-4120.471277694753
 20
4093.583759202685
 30
0.0
  0
SPLINE
  5
68
330
1F
100
AcDbEntity
  8
Predefinito
100
AcDbSpline
210
0.0
220
0.0
230
1.0
 70
    12
 71
     2
 72
     6
 73
     3
 74
     0
 42
0.0000000001
 43
0.0000000001
 40
0.0
 40
0.0
 40
0.0
 40
1.154455475433873
 40
1.154455475433873
 40
1.154455475433873
 10
-1056.831936914518
 20
3948.663494688265
 30
0.0
 41
1.0
 10
-1057.259571057491
 20
3948.275651006992
 30
0.0
 41
0.99977087565419
 10
-1057.703413505085
 20
3947.906466008576
 30
0.0
 41
1.0
  0
SPLINE
  5
69
330
1F
100
AcDbEntity
  8
Predefinito
100
AcDbSpline
210
0.0
220
0.0
230
1.0
 70
    24
 71
     2
 72
     6
 73
     3
 74
     0
 42
0.0000000001
 43
0.0000000001
 40
0.0
 40
0.0
 40
0.0
 40
2.591868948014508
 40
2.591868948014508
 40
2.591868948014508
 10
-4115.73776590739
 20
3943.668095117272
 30
0.0
 10
-4115.73776590739
 20
3944.96402959128
 30
0.0
 10
-4115.73776590739
 20
3946.259964065287
 30
0.0
  0
SPLINE
  5
6A
330
1F
100
AcDbEntity
  8
Predefinito
100
AcDbSpline
210
0.0
220
0.0
230
1.0
 70
    12
 71
     2
 72
     8
 73
     5
 74
     0
 42
0.0000000001
 43
0.0000000001
 40
0.0
 40
0.0
 40
0.0
 40
3.16877172913117
 40
3.16877172913117
 40
6.33754345826233
 40
6.33754345826233
 40
6.33754345826233
 10
-4119.772371381158
 20
3943.668095117272
 30
0.0
 41
1.0
 10
-4119.772371381158
 20
3942.863697529199
 30
0.0
 41
0.707106781186548
 10
-4117.755068644274
 20
3942.863697529199
 30
0.0
 41
1.0
 10
-4115.737765907389
 20
3942.863697529199
 30
0.0
 41
0.707106781186548
 10
-4115.73776590739
 20
3943.668095117272
 30
0.0
 41
1.0
  0
SPLINE
  5
6B
330
1F
100
AcDbEntity
  8
Predefinito
100
AcDbSpline
210
0.0
220
0.0
230
1.0
 70
    24
 71
     2
 72
     6
 73
     3
 74
     0
 42
0.0000000001
 43
0.0000000001
 40
0.0
 40
0.0
 40
0.0
 40
2.591868948014508
 40
2.591868948014508
 40
2.591868948014508
 10
-4119.772371381158
 20
3946.259964065287
 30
0.0
 10
-4119.772371381158
 20
3944.96402959128
 30
0.0
 10
-4119.772371381158
 20
3943.668095117272
 30
0.0
  0
SPLINE
  5
6C
330
1F
100
AcDbEntity
  8
Predefinito
100
AcDbSpline
210
0.0
220
0.0
230
1.0
 70
    12
 71
     2
 72
     6
 73
     3
 74
     0
 42
0.0000000001
 43
0.0000000001
 40
3.537818909060491
 40
3.537818909060491
 40
3.537818909060491
 40
6.33754345826233
 40
6.33754345826233
 40
6.33754345826233
 10
-4118.096579380323
 20
3947.052751098728
 30
0.0
 41
0.9397225877644491
 10
-4119.772371381158
 20
3946.937970813458
 30
0.0
 41
0.7412182368745105
 10
-4119.772371381158
 20
3946.259964065287
 30
0.0
 41
1.0
  0
SPLINE
  5
6D
330
1F
100
AcDbEntity
  8
Predefinito
100
AcDbSpline
210
0.0
220
0.0
230
1.0
 70
    12
 71
     2
 72
     6
 73
     3
 74
     0
 42
0.0000000001
 43
0.0000000001
 40
0.0
 40
0.0
 40
0.0
 40
2.71519951818527
 40
2.71519951818527
 40
2.71519951818527
 10
-4115.73776590739
 20
3946.259964065287
 30
0.0
 41
1.0
 10
-4115.73776590739
 20
3946.910643038816
 30
0.0
 41
0.7490309827965844
 10
-4117.33354531035
 20
3947.046604967197
 30
0.0
 41
0.9281535044223055
  0
SPLINE
  5
6E
330
1F
100
AcDbEntity
  8
Predefinito
100
AcDbSpline
210
0.0
220
0.0
230
1.0
 70
    24
 71
     2
 72
     6
 73
     3
 74
     0
 42
0.0000000001
 43
0.0000000001
 40
0.0
 40
0.0
 40
0.0
 40
0.8293935444685303
 40
0.8293935444685303
 40
0.8293935444685303
 10
-4126.214191939433
 20
3980.937057876726
 30
0.0
 10
-4126.214191939433
 20
3981.35175464896
 30
0.0
 10
-4126.214191939433
 20
3981.766451421195
 30
0.0
  0
SPLINE
  5
6F
330
1F
100
AcDbEntity
  8
Predefinito
100
AcDbSpline
210
0.0
220
0.0
230
1.0
 70
    24
 71
     2
 72
     6
 73
     3
 74
     0
 42
0.0000000001
 43
0.0000000001
 40
0.0
 40
0.0
 40
0.0
 40
0.4226217744399037
 40
0.4226217744399037
 40
0.4226217744399037
 10
-4126.214191939433
 20
3980.193374945439
 30
0.0
 10
-4126.214191939433
 20
3980.404685832659
 30
0.0
 10
-4126.214191939433
 20
3980.615996719879
 30
0.0
  0
SPLINE
  5
70
330
1F
100
AcDbEntity
  8
Predefinito
100
AcDbSpline
210
0.0
220
0.0
230
1.0
 70
    24
 71
     2
 72
     6
 73
     3
 74
     0
 42
0.0000000001
 43
0.0000000001
 40
0.0
 40
0.0
 40
0.0
 40
0.3210611554090974
 40
0.3210611554090974
 40
0.3210611554090974
 10
-4126.214191939433
 20
3980.615996719914
 30
0.0
 10
-4126.214191939433
 20
3980.776527297618
 30
0.0
 10
-4126.214191939433
 20
3980.937057875323
 30
0.0
  0
SPLINE
  5
71
330
1F
100
AcDbEntity
  8
Predefinito
100
AcDbSpline
210
0.0
220
0.0
230
1.0
 70
    24
 71
     2
 72
     6
 73
     3
 74
     0
 42
0.0000000001
 43
0.0000000001
 40
0.0
 40
0.0
 40
0.0
 40
29.45000000000164
 40
29.45000000000164
 40
29.45000000000164
 10
-4120.301632835646
 20
4154.583759202685
 30
0.0
 10
-4120.301632835643
 20
4169.308759202686
 30
0.0
 10
-4120.301632835641
 20
4184.033759202686
 30
0.0
  0
SPLINE
  5
72
330
1F
100
AcDbEntity
  8
Predefinito
100
AcDbSpline
210
0.0
220
0.0
230
1.0
 70
    24
 71
     2
 72
     6
 73
     3
 74
     0
 42
0.0000000001
 43
0.0000000001
 40
0.0
 40
0.0
 40
0.0
 40
29.45000000000073
 40
29.45000000000073
 40
29.45000000000073
 10
-4115.10163283564
 20
4184.033759202686
 30
0.0
 10
-4115.101632835644
 20
4169.308759202686
 30
0.0
 10
-4115.101632835646
 20
4154.583759202686
 30
0.0
  0
LINE
  5
73
330
1F
100
AcDbEntity
  8
Predefinito
100
AcDbLine
 10
-4120.301632835641
 20
4239.033759202642
 30
0.0
 11
-4120.301632835641
 21
4245.709012182269
 31
0.0
  0
LINE
  5
74
330
1F
100
AcDbEntity
  8
Predefinito
100
AcDbLine
 10
-4115.101632835641
 20
4245.701281612036
 30
0.0
 11
-4115.101632835641
 21
4239.033759202642
 31
0.0
  0
SPLINE
  5
75
330
1F
100
AcDbEntity
  8
Predefinito
100
AcDbSpline
210
0.0
220
0.0
230
1.0
 70
    24
 71
     2
 72
     6
 73
     3
 74
     0
 42
0.0000000001
 43
0.0000000001
 40
0.0
 40
0.0
 40
0.0
 40
2.590268457511684
 40
2.590268457511684
 40
2.590268457511684
 10
-4120.823226121024
 20
3940.088014854852
 30
0.0
 10
-4120.823226121023
 20
3941.383149083607
 30
0.0
 10
-4120.823226121023
 20
3942.678283312363
 30
0.0
  0
SPLINE
  5
76
330
1F
100
AcDbEntity
  8
Predefinito
100
AcDbSpline
210
0.0
220
0.0
230
1.0
 70
    28
 71
     3
 72
     9
 73
     5
 74
     0
 42
0.0000000001
 43
0.0000000001
 40
2105.308901636681
 40
2105.308901636681
 40
2105.308901636681
 40
2105.308901636681
 40
2114.523757516399
 40
2115.909803029558
 40
2115.909803029558
 40
2115.909803029558
 40
2115.909803029558
 10
-4126.214191939433
 20
3985.839064192377
 30
0.0
 41
1.0
 10
-4126.214191939433
 20
3985.888482781245
 30
0.0
 41
1.0
 10
-4126.214191939433
 20
3985.924168055847
 30
0.0
 41
1.0
 10
-4126.214191939433
 20
3985.920532072707
 30
0.0
 41
1.0
 10
-4126.214191939433
 20
3985.921481657834
 30
0.0
 41
1.0
  0
SPLINE
  5
77
330
1F
100
AcDbEntity
  8
Predefinito
100
AcDbSpline
210
0.0
220
0.0
230
1.0
 70
    24
 71
     2
 72
     6
 73
     3
 74
     0
 42
0.0000000001
 43
0.0000000001
 40
0.0
 40
0.0
 40
0.0
 40
0.1373158877777314
 40
0.1373158877777314
 40
0.1373158877777314
 10
-4126.214191939433
 20
3985.528657340042
 30
0.0
 10
-4126.214191939433
 20
3985.597315283931
 30
0.0
 10
-4126.214191939433
 20
3985.66597322782
 30
0.0
  0
SPLINE
  5
78
330
1F
100
AcDbEntity
  8
Predefinito
100
AcDbSpline
210
0.0
220
0.0
230
1.0
 70
    24
 71
     2
 72
     6
 73
     3
 74
     0
 42
0.0000000001
 43
0.0000000001
 40
0.0
 40
0.0
 40
0.0
 40
0.5529264882516145
 40
0.5529264882516145
 40
0.5529264882516145
 10
-4126.214191939433
 20
3984.109670346572
 30
0.0
 10
-4126.214191939433
 20
3984.386133590698
 30
0.0
 10
-4126.214191939433
 20
3984.662596834823
 30
0.0
  0
SPLINE
  5
79
330
1F
100
AcDbEntity
  8
Predefinito
100
AcDbSpline
210
0.0
220
0.0
230
1.0
 70
    24
 71
     2
 72
     6
 73
     3
 74
     0
 42
0.0000000001
 43
0.0000000001
 40
0.0
 40
0.0
 40
0.0
 40
0.2493929180232044
 40
0.2493929180232044
 40
0.2493929180232044
 10
-4126.214191939433
 20
3983.638170460106
 30
0.0
 10
-4126.214191939433
 20
3983.762866919117
 30
0.0
 10
-4126.214191939433
 20
3983.887563378129
 30
0.0
  0
SPLINE
  5
7A
330
1F
100
AcDbEntity
  8
Predefinito
100
AcDbSpline
210
0.0
220
0.0
230
1.0
 70
    24
 71
     2
 72
     6
 73
     3
 74
     0
 42
0.0000000001
 43
0.0000000001
 40
0.0
 40
0.0
 40
0.0
 40
0.6428699603961832
 40
0.6428699603961832
 40
0.6428699603961832
 10
-4126.214191939433
 20
3943.802907771444
 30
0.0
 10
-4126.214191939433
 20
3944.124342751642
 30
0.0
 10
-4126.214191939433
 20
3944.44577773184
 30
0.0
  0
SPLINE
  5
7B
330
1F
100
AcDbEntity
  8
Predefinito
100
AcDbSpline
210
0.0
220
0.0
230
1.0
 70
    24
 71
     2
 72
     6
 73
     3
 74
     0
 42
0.0000000001
 43
0.0000000001
 40
0.0
 40
0.0
 40
0.0
 40
1.119045238763192
 40
1.119045238763192
 40
1.119045238763192
 10
-4126.214191939433
 20
3934.81941943082
 30
0.0
 10
-4126.214191939433
 20
3935.378942050202
 30
0.0
 10
-4126.214191939433
 20
3935.938464669583
 30
0.0
  0
SPLINE
  5
7C
330
1F
100
AcDbEntity
  8
Predefinito
100
AcDbSpline
210
0.0
220
0.0
230
1.0
 70
    24
 71
     2
 72
     6
 73
     3
 74
     0
 42
0.0000000001
 43
0.0000000001
 40
0.0
 40
0.0
 40
0.0
 40
1.017543871996622
 40
1.017543871996622
 40
1.017543871996622
 10
-4126.214191939433
 20
3931.586295725087
 30
0.0
 10
-4126.214191939433
 20
3932.095067661085
 30
0.0
 10
-4126.214191939433
 20
3932.603839597083
 30
0.0
  0
SPLINE
  5
7D
330
1F
100
AcDbEntity
  8
Predefinito
100
AcDbSpline
210
0.0
220
0.0
230
1.0
 70
    24
 71
     2
 72
     6
 73
     3
 74
     0
 42
0.0000000001
 43
0.0000000001
 40
0.0
 40
0.0
 40
0.0
 40
0.140436628345924
 40
0.140436628345924
 40
0.140436628345924
 10
-4126.214191939433
 20
3922.792173583855
 30
0.0
 10
-4126.214191939433
 20
3922.862391898028
 30
0.0
 10
-4126.214191939433
 20
3922.932610212201
 30
0.0
  0
SPLINE
  5
7E
330
1F
100
AcDbEntity
  8
Predefinito
100
AcDbSpline
210
0.0
220
0.0
230
1.0
 70
    24
 71
     2
 72
     6
 73
     3
 74
     0
 42
0.0000000001
 43
0.0000000001
 40
0.0
 40
0.0
 40
0.0
 40
1.736085993674806
 40
1.736085993674806
 40
1.736085993674806
 10
-4126.214191939433
 20
3917.610836893647
 30
0.0
 10
-4126.214191939433
 20
3918.478879890485
 30
0.0
 10
-4126.214191939433
 20
3919.346922887322
 30
0.0
  0
SPLINE
  5
7F
330
1F
100
AcDbEntity
  8
Predefinito
100
AcDbSpline
210
0.0
220
0.0
230
1.0
 70
    24
 71
     2
 72
     6
 73
     3
 74
     0
 42
0.0000000001
 43
0.0000000001
 40
0.0
 40
0.0
 40
0.0
 40
1.325574599423362
 40
1.325574599423362
 40
1.325574599423362
 10
-4126.214191939433
 20
3903.381884567221
 30
0.0
 10
-4126.214191939433
 20
3904.044671866933
 30
0.0
 10
-4126.214191939433
 20
3904.707459166645
 30
0.0
  0
SPLINE
  5
80
330
1F
100
AcDbEntity
  8
Predefinito
100
AcDbSpline
210
0.0
220
0.0
230
1.0
 70
    24
 71
     2
 72
     6
 73
     3
 74
     0
 42
0.0000000001
 43
0.0000000001
 40
0.0
 40
0.0
 40
0.0
 40
0.3662166531798903
 40
0.3662166531798903
 40
0.3662166531798903
 10
-4126.214191939433
 20
3897.809320266605
 30
0.0
 10
-4126.214191939433
 20
3897.992428593196
 30
0.0
 10
-4126.214191939433
 20
3898.175536919785
 30
0.0
  0
SPLINE
  5
81
330
1F
100
AcDbEntity
  8
Predefinito
100
AcDbSpline
210
0.0
220
0.0
230
1.0
 70
    24
 71
     2
 72
     6
 73
     3
 74
     0
 42
0.0000000001
 43
0.0000000001
 40
0.0
 40
0.0
 40
0.0
 40
0.8599852222419031
 40
0.8599852222419031
 40
0.8599852222419031
 10
-4126.214191939433
 20
3892.681456559207
 30
0.0
 10
-4126.214191939433
 20
3893.111449170327
 30
0.0
 10
-4126.214191939433
 20
3893.541441781449
 30
0.0
  0
SPLINE
  5
82
330
1F
100
AcDbEntity
  8
Predefinito
100
AcDbSpline
210
0.0
220
0.0
230
1.0
 70
    24
 71
     2
 72
     6
 73
     3
 74
     0
 42
0.0000000001
 43
0.0000000001
 40
0.0
 40
0.0
 40
0.0
 40
1.611318334643329
 40
1.611318334643329
 40
1.611318334643329
 10
-4126.214191939433
 20
3887.104644074779
 30
0.0
 10
-4126.214191939433
 20
3887.9103032421
 30
0.0
 10
-4126.214191939433
 20
3888.715962409422
 30
0.0
  0
SPLINE
  5
83
330
1F
100
AcDbEntity
  8
Predefinito
100
AcDbSpline
210
0.0
220
0.0
230
1.0
 70
    24
 71
     2
 72
     6
 73
     3
 74
     0
 42
0.0000000001
 43
0.0000000001
 40
0.0
 40
0.0
 40
0.0
 40
1.153257330444831
 40
1.153257330444831
 40
1.153257330444831
 10
-4126.214191939433
 20
3880.2253624385
 30
0.0
 10
-4126.214191939433
 20
3880.801991103723
 30
0.0
 10
-4126.214191939433
 20
3881.378619768945
 30
0.0
  0
SPLINE
  5
84
330
1F
100
AcDbEntity
  8
Predefinito
100
AcDbSpline
210
0.0
220
0.0
230
1.0
 70
    24
 71
     2
 72
     6
 73
     3
 74
     0
 42
0.0000000001
 43
0.0000000001
 40
0.0
 40
0.0
 40
0.0
 40
0.3960333758041088
 40
0.3960333758041088
 40
0.3960333758041088
 10
-4126.214191939433
 20
3875.462206684191
 30
0.0
 10
-4126.214191939433
 20
3875.660223372093
 30
0.0
 10
-4126.214191939433
 20
3875.858240059995
 30
0.0
  0
SPLINE
  5
85
330
1F
100
AcDbEntity
  8
Predefinito
100
AcDbSpline
210
0.0
220
0.0
230
1.0
 70
    24
 71
     2
 72
     6
 73
     3
 74
     0
 42
0.0000000001
 43
0.0000000001
 40
0.0
 40
0.0
 40
0.0
 40
1.209164035813046
 40
1.209164035813046
 40
1.209164035813046
 10
-4126.214191939433
 20
3869.484672184818
 30
0.0
 10
-4126.214191939433
 20
3870.089254202725
 30
0.0
 10
-4126.214191939433
 20
3870.693836220632
 30
0.0
  0
SPLINE
  5
86
330
1F
100
AcDbEntity
  8
Predefinito
100
AcDbSpline
210
0.0
220
0.0
230
1.0
 70
    24
 71
     2
 72
     6
 73
     3
 74
     0
 42
0.0000000001
 43
0.0000000001
 40
0.0
 40
0.0
 40
0.0
 40
1.041090194193657
 40
1.041090194193657
 40
1.041090194193657
 10
-4126.214191939433
 20
3862.278972784487
 30
0.0
 10
-4126.214191939433
 20
3862.799517881585
 30
0.0
 10
-4126.214191939433
 20
3863.320062978681
 30
0.0
  0
SPLINE
  5
87
330
1F
100
AcDbEntity
  8
Predefinito
100
AcDbSpline
210
0.0
220
0.0
230
1.0
 70
    24
 71
     2
 72
     6
 73
     3
 74
     0
 42
0.0000000001
 43
0.0000000001
 40
0.0
 40
0.0
 40
0.0
 40
1.790036942001279
 40
1.790036942001279
 40
1.790036942001279
 10
-4126.214191939433
 20
3855.804877956016
 30
0.0
 10
-4126.214191939433
 20
3856.699896427017
 30
0.0
 10
-4126.214191939433
 20
3857.594914898018
 30
0.0
  0
SPLINE
  5
88
330
1F
100
AcDbEntity
  8
Predefinito
100
AcDbSpline
210
0.0
220
0.0
230
1.0
 70
    24
 71
     2
 72
     6
 73
     3
 74
     0
 42
0.0000000001
 43
0.0000000001
 40
0.0
 40
0.0
 40
0.0
 40
0.0880940714432654
 40
0.0880940714432654
 40
0.0880940714432654
 10
-4126.214191939433
 20
3850.562224010998
 30
0.0
 10
-4126.214191939433
 20
3850.606271046719
 30
0.0
 10
-4126.214191939433
 20
3850.650318082441
 30
0.0
  0
SPLINE
  5
89
330
1F
100
AcDbEntity
  8
Predefinito
100
AcDbSpline
210
0.0
220
0.0
230
1.0
 70
    24
 71
     2
 72
     6
 73
     3
 74
     0
 42
0.0000000001
 43
0.0000000001
 40
0.0
 40
0.0
 40
0.0
 40
0.8948635914980514
 40
0.8948635914980514
 40
0.8948635914980514
 10
-4126.214191939433
 20
3843.080094879968
 30
0.0
 10
-4126.214191939433
 20
3843.527526675717
 30
0.0
 10
-4126.214191939433
 20
3843.974958471466
 30
0.0
  0
SPLINE
  5
8A
330
1F
100
AcDbEntity
  8
Predefinito
100
AcDbSpline
210
0.0
220
0.0
230
1.0
 70
    24
 71
     2
 72
     6
 73
     3
 74
     0
 42
0.0000000001
 43
0.0000000001
 40
0.0
 40
0.0
 40
0.0
 40
0.8441106031414165
 40
0.8441106031414165
 40
0.8441106031414165
 10
-4126.214191939433
 20
3837.245796209381
 30
0.0
 10
-4126.214191939433
 20
3837.667851510952
 30
0.0
 10
-4126.214191939433
 20
3838.089906812523
 30
0.0
  0
SPLINE
  5
8B
330
1F
100
AcDbEntity
  8
Predefinito
100
AcDbSpline
210
0.0
220
0.0
230
1.0
 70
    24
 71
     2
 72
     6
 73
     3
 74
     0
 42
0.0000000001
 43
0.0000000001
 40
0.0
 40
0.0
 40
0.0
 40
0.8136020138113054
 40
0.8136020138113054
 40
0.8136020138113054
 10
-4126.214191939433
 20
3822.673964461853
 30
0.0
 10
-4126.214191939433
 20
3823.080765468759
 30
0.0
 10
-4126.214191939433
 20
3823.487566475664
 30
0.0
  0
SPLINE
  5
8C
330
1F
100
AcDbEntity
  8
Predefinito
100
AcDbSpline
210
0.0
220
0.0
230
1.0
 70
    24
 71
     2
 72
     6
 73
     3
 74
     0
 42
0.0000000001
 43
0.0000000001
 40
0.0
 40
0.0
 40
0.0
 40
0.4896828961136634
 40
0.4896828961136634
 40
0.4896828961136634
 10
-4126.214191939433
 20
3801.107511677885
 30
0.0
 10
-4126.214191939433
 20
3801.352353125942
 30
0.0
 10
-4126.214191939433
 20
3801.597194573998
 30
0.0
  0
SPLINE
  5
8D
330
1F
100
AcDbEntity
  8
Predefinito
100
AcDbSpline
210
0.0
220
0.0
230
1.0
 70
    24
 71
     2
 72
     6
 73
     3
 74
     0
 42
0.0000000001
 43
0.0000000001
 40
0.0
 40
0.0
 40
0.0
 40
1.565519526603566
 40
1.565519526603566
 40
1.565519526603566
 10
-4126.214191939433
 20
3786.43063144201
 30
0.0
 10
-4126.214191939433
 20
3787.213391205312
 30
0.0
 10
-4126.214191939433
 20
3787.996150968614
 30
0.0
  0
SPLINE
  5
8E
330
1F
100
AcDbEntity
  8
Predefinito
100
AcDbSpline
210
0.0
220
0.0
230
1.0
 70
    24
 71
     2
 72
     6
 73
     3
 74
     0
 42
0.0000000001
 43
0.0000000001
 40
0.0
 40
0.0
 40
0.0
 40
4.468565516366652
 40
4.468565516366652
 40
4.468565516366652
 10
-4126.214191939433
 20
3762.220070420348
 30
0.0
 10
-4126.214191939433
 20
3764.454353178532
 30
0.0
 10
-4126.214191939433
 20
3766.688635936715
 30
0.0
  0
SPLINE
  5
8F
330
1F
100
AcDbEntity
  8
Predefinito
100
AcDbSpline
210
0.0
220
0.0
230
1.0
 70
    24
 71
     2
 72
     6
 73
     3
 74
     0
 42
0.0000000001
 43
0.0000000001
 40
0.0
 40
0.0
 40
0.0
 40
3.039199491700401
 40
3.039199491700401
 40
3.039199491700401
 10
-4126.214191939433
 20
3753.175464489109
 30
0.0
 10
-4126.214191939433
 20
3754.695064234959
 30
0.0
 10
-4126.214191939433
 20
3756.21466398081
 30
0.0
  0
SPLINE
  5
90
330
1F
100
AcDbEntity
  8
Predefinito
100
AcDbSpline
210
0.0
220
0.0
230
1.0
 70
    24
 71
     2
 72
     6
 73
     3
 74
     0
 42
0.0000000001
 43
0.0000000001
 40
0.0
 40
0.0
 40
0.0
 40
2.206933029506217
 40
2.206933029506217
 40
2.206933029506217
 10
-4126.214191939433
 20
3746.392138752592
 30
0.0
 10
-4126.214191939433
 20
3747.495605267346
 30
0.0
 10
-4126.214191939433
 20
3748.599071782099
 30
0.0
  0
SPLINE
  5
91
330
1F
100
AcDbEntity
  8
Predefinito
100
AcDbSpline
210
0.0
220
0.0
230
1.0
 70
    24
 71
     2
 72
     6
 73
     3
 74
     0
 42
0.0000000001
 43
0.0000000001
 40
0.0
 40
0.0
 40
0.0
 40
0.4575965611770698
 40
0.4575965611770698
 40
0.4575965611770698
 10
-4126.214191939433
 20
3729.492002113099
 30
0.0
 10
-4126.214191939433
 20
3729.720800393688
 30
0.0
 10
-4126.214191939433
 20
3729.949598674276
 30
0.0
  0
SPLINE
  5
92
330
1F
100
AcDbEntity
  8
Predefinito
100
AcDbSpline
210
0.0
220
0.0
230
1.0
 70
    24
 71
     2
 72
     6
 73
     3
 74
     0
 42
0.0000000001
 43
0.0000000001
 40
0.0
 40
0.0
 40
0.0
 40
1.654916960321316
 40
1.654916960321316
 40
1.654916960321316
 10
-4126.214191939433
 20
3720.990900513552
 30
0.0
 10
-4126.214191939433
 20
3721.818358993713
 30
0.0
 10
-4126.214191939433
 20
3722.645817473873
 30
0.0
  0
SPLINE
  5
93
330
1F
100
AcDbEntity
  8
Predefinito
100
AcDbSpline
210
0.0
220
0.0
230
1.0
 70
    24
 71
     2
 72
     6
 73
     3
 74
     0
 42
0.0000000001
 43
0.0000000001
 40
0.0
 40
0.0
 40
0.0
 40
1.543464582814977
 40
1.543464582814977
 40
1.543464582814977
 10
-4126.214191939433
 20
3710.767249693013
 30
0.0
 10
-4126.214191939433
 20
3711.53898198442
 30
0.0
 10
-4126.214191939433
 20
3712.310714275828
 30
0.0
  0
SPLINE
  5
94
330
1F
100
AcDbEntity
  8
Predefinito
100
AcDbSpline
210
0.0
220
0.0
230
1.0
 70
    24
 71
     2
 72
     6
 73
     3
 74
     0
 42
0.0000000001
 43
0.0000000001
 40
0.0
 40
0.0
 40
0.0
 40
2.519878162838722
 40
2.519878162838722
 40
2.519878162838722
 10
-4126.214191939433
 20
3701.739733294824
 30
0.0
 10
-4126.214191939433
 20
3702.999672376244
 30
0.0
 10
-4126.214191939433
 20
3704.259611457663
 30
0.0
  0
SPLINE
  5
95
330
1F
100
AcDbEntity
  8
Predefinito
100
AcDbSpline
210
0.0
220
0.0
230
1.0
 70
    24
 71
     2
 72
     6
 73
     3
 74
     0
 42
0.0000000001
 43
0.0000000001
 40
0.0
 40
0.0
 40
0.0
 40
0.0211057287469885
 40
0.0211057287469885
 40
0.0211057287469885
 10
-4126.214191939433
 20
3694.63379867963
 30
0.0
 10
-4126.214191939433
 20
3694.644351544003
 30
0.0
 10
-4126.214191939433
 20
3694.654904408377
 30
0.0
  0
SPLINE
  5
96
330
1F
100
AcDbEntity
  8
Predefinito
100
AcDbSpline
210
0.0
220
0.0
230
1.0
 70
    24
 71
     2
 72
     6
 73
     3
 74
     0
 42
0.0000000001
 43
0.0000000001
 40
0.0
 40
0.0
 40
0.0
 40
1.2380834148139
 40
1.2380834148139
 40
1.2380834148139
 10
-4126.214191939433
 20
3684.40672777093
 30
0.0
 10
-4126.214191939433
 20
3685.025769478337
 30
0.0
 10
-4126.214191939433
 20
3685.644811185743
 30
0.0
  0
SPLINE
  5
97
330
1F
100
AcDbEntity
  8
Predefinito
100
AcDbSpline
210
0.0
220
0.0
230
1.0
 70
    24
 71
     2
 72
     6
 73
     3
 74
     0
 42
0.0000000001
 43
0.0000000001
 40
0.0
 40
0.0
 40
0.0
 40
1.123269238906232
 40
1.123269238906232
 40
1.123269238906232
 10
-4126.214191939433
 20
3676.557867932262
 30
0.0
 10
-4126.214191939433
 20
3677.119502551715
 30
0.0
 10
-4126.214191939433
 20
3677.681137171168
 30
0.0
  0
SPLINE
  5
98
330
1F
100
AcDbEntity
  8
Predefinito
100
AcDbSpline
210
0.0
220
0.0
230
1.0
 70
    24
 71
     2
 72
     6
 73
     3
 74
     0
 42
0.0000000001
 43
0.0000000001
 40
0.0
 40
0.0
 40
0.0
 40
1.245560530363491
 40
1.245560530363491
 40
1.245560530363491
 10
-4126.214191939433
 20
3657.202507644687
 30
0.0
 10
-4126.214191939433
 20
3657.825287909869
 30
0.0
 10
-4126.214191939433
 20
3658.448068175051
 30
0.0
  0
SPLINE
  5
99
330
1F
100
AcDbEntity
  8
Predefinito
100
AcDbSpline
210
0.0
220
0.0
230
1.0
 70
    24
 71
     2
 72
     6
 73
     3
 74
     0
 42
0.0000000001
 43
0.0000000001
 40
0.0
 40
0.0
 40
0.0
 40
1.539414349048457
 40
1.539414349048457
 40
1.539414349048457
 10
-4126.214191939433
 20
3648.734523391714
 30
0.0
 10
-4126.214191939433
 20
3649.504230566238
 30
0.0
 10
-4126.214191939433
 20
3650.273937740762
 30
0.0
  0
SPLINE
  5
9A
330
1F
100
AcDbEntity
  8
Predefinito
100
AcDbSpline
210
0.0
220
0.0
230
1.0
 70
    24
 71
     2
 72
     6
 73
     3
 74
     0
 42
0.0000000001
 43
0.0000000001
 40
0.0
 40
0.0
 40
0.0
 40
1.076901453386199
 40
1.076901453386199
 40
1.076901453386199
 10
-4126.214191939433
 20
3628.664055368867
 30
0.0
 10
-4126.214191939433
 20
3629.20250609556
 30
0.0
 10
-4126.214191939433
 20
3629.740956822253
 30
0.0
  0
SPLINE
  5
9B
330
1F
100
AcDbEntity
  8
Predefinito
100
AcDbSpline
210
0.0
220
0.0
230
1.0
 70
    24
 71
     2
 72
     6
 73
     3
 74
     0
 42
0.0000000001
 43
0.0000000001
 40
0.0
 40
0.0
 40
0.0
 40
1.003378352384516
 40
1.003378352384516
 40
1.003378352384516
 10
-4126.214191939433
 20
3620.117981611803
 30
0.0
 10
-4126.214191939433
 20
3620.619670787995
 30
0.0
 10
-4126.214191939433
 20
3621.121359964188
 30
0.0
  0
SPLINE
  5
9C
330
1F
100
AcDbEntity
  8
Predefinito
100
AcDbSpline
210
0.0
220
0.0
230
1.0
 70
    24
 71
     2
 72
     6
 73
     3
 74
     0
 42
0.0000000001
 43
0.0000000001
 40
0.0
 40
0.0
 40
0.0
 40
2.338470424035677
 40
2.338470424035677
 40
2.338470424035677
 10
-4126.214191939433
 20
3598.294115864201
 30
0.0
 10
-4126.214191939433
 20
3599.463351076219
 30
0.0
 10
-4126.214191939433
 20
3600.632586288236
 30
0.0
  0
SPLINE
  5
9D
330
1F
100
AcDbEntity
  8
Predefinito
100
AcDbSpline
210
0.0
220
0.0
230
1.0
 70
    24
 71
     2
 72
     6
 73
     3
 74
     0
 42
0.0000000001
 43
0.0000000001
 40
0.0
 40
0.0
 40
0.0
 40
2.606169035444509
 40
2.606169035444509
 40
2.606169035444509
 10
-4126.214191939433
 20
3590.625506956606
 30
0.0
 10
-4126.214191939433
 20
3591.928591474329
 30
0.0
 10
-4126.214191939433
 20
3593.231675992051
 30
0.0
  0
SPLINE
  5
9E
330
1F
100
AcDbEntity
  8
Predefinito
100
AcDbSpline
210
0.0
220
0.0
230
1.0
 70
    24
 71
     2
 72
     6
 73
     3
 74
     0
 42
0.0000000001
 43
0.0000000001
 40
0.0
 40
0.0
 40
0.0
 40
0.3134545042803438
 40
0.3134545042803438
 40
0.3134545042803438
 10
-4126.214191939433
 20
3570.842905686799
 30
0.0
 10
-4126.214191939433
 20
3570.999632938939
 30
0.0
 10
-4126.214191939433
 20
3571.156360191079
 30
0.0
  0
SPLINE
  5
9F
330
1F
100
AcDbEntity
  8
Predefinito
100
AcDbSpline
210
0.0
220
0.0
230
1.0
 70
    24
 71
     2
 72
     6
 73
     3
 74
     0
 42
0.0000000001
 43
0.0000000001
 40
0.0
 40
0.0
 40
0.0
 40
4.015340439456395
 40
4.015340439456395
 40
4.015340439456395
 10
-4126.214191939433
 20
3559.708071107127
 30
0.0
 10
-4126.214191939433
 20
3561.715741326855
 30
0.0
 10
-4126.214191939433
 20
3563.723411546583
 30
0.0
  0
SPLINE
  5
A0
330
1F
100
AcDbEntity
  8
Predefinito
100
AcDbSpline
210
0.0
220
0.0
230
1.0
 70
    24
 71
     2
 72
     6
 73
     3
 74
     0
 42
0.0000000001
 43
0.0000000001
 40
0.0
 40
0.0
 40
0.0
 40
0.7749362562235547
 40
0.7749362562235547
 40
0.7749362562235547
 10
-4126.214191939433
 20
3540.440937991055
 30
0.0
 10
-4126.214191939433
 20
3540.828406119167
 30
0.0
 10
-4126.214191939433
 20
3541.215874247279
 30
0.0
  0
SPLINE
  5
A1
330
1F
100
AcDbEntity
  8
Predefinito
100
AcDbSpline
210
0.0
220
0.0
230
1.0
 70
    24
 71
     2
 72
     6
 73
     3
 74
     0
 42
0.0000000001
 43
0.0000000001
 40
0.0
 40
0.0
 40
0.0
 40
1.449865519179184
 40
1.449865519179184
 40
1.449865519179184
 10
-4126.214191939433
 20
3518.417765076627
 30
0.0
 10
-4126.214191939433
 20
3519.142697836217
 30
0.0
 10
-4126.214191939433
 20
3519.867630595807
 30
0.0
  0
SPLINE
  5
A2
330
1F
100
AcDbEntity
  8
Predefinito
100
AcDbSpline
210
0.0
220
0.0
230
1.0
 70
    24
 71
     2
 72
     6
 73
     3
 74
     0
 42
0.0000000001
 43
0.0000000001
 40
0.0
 40
0.0
 40
0.0
 40
1.26134571224884
 40
1.26134571224884
 40
1.26134571224884
 10
-4126.214191939433
 20
3509.497485823609
 30
0.0
 10
-4126.214191939433
 20
3510.128158679733
 30
0.0
 10
-4126.214191939433
 20
3510.758831535858
 30
0.0
  0
SPLINE
  5
A3
330
1F
100
AcDbEntity
  8
Predefinito
100
AcDbSpline
210
0.0
220
0.0
230
1.0
 70
    24
 71
     2
 72
     6
 73
     3
 74
     0
 42
0.0000000001
 43
0.0000000001
 40
0.0
 40
0.0
 40
0.0
 40
1.65176090097566
 40
1.65176090097566
 40
1.65176090097566
 10
-4126.214191939433
 20
3487.618930314805
 30
0.0
 10
-4126.214191939433
 20
3488.444810765293
 30
0.0
 10
-4126.214191939433
 20
3489.270691215781
 30
0.0
  0
SPLINE
  5
A4
330
1F
100
AcDbEntity
  8
Predefinito
100
AcDbSpline
210
0.0
220
0.0
230
1.0
 70
    24
 71
     2
 72
     6
 73
     3
 74
     0
 42
0.0000000001
 43
0.0000000001
 40
0.0
 40
0.0
 40
0.0
 40
1.77014803735392
 40
1.77014803735392
 40
1.77014803735392
 10
-4126.214191939433
 20
3478.084716709808
 30
0.0
 10
-4126.214191939433
 20
3478.969790728484
 30
0.0
 10
-4126.214191939433
 20
3479.854864747162
 30
0.0
  0
SPLINE
  5
A5
330
1F
100
AcDbEntity
  8
Predefinito
100
AcDbSpline
210
0.0
220
0.0
230
1.0
 70
    24
 71
     2
 72
     6
 73
     3
 74
     0
 42
0.0000000001
 43
0.0000000001
 40
0.0
 40
0.0
 40
0.0
 40
1.437014086122872
 40
1.437014086122872
 40
1.437014086122872
 10
-4126.214191939433
 20
3456.425846478197
 30
0.0
 10
-4126.214191939433
 20
3457.144353521259
 30
0.0
 10
-4126.214191939433
 20
3457.86286056432
 30
0.0
  0
SPLINE
  5
A6
330
1F
100
AcDbEntity
  8
Predefinito
100
AcDbSpline
210
0.0
220
0.0
230
1.0
 70
    24
 71
     2
 72
     6
 73
     3
 74
     0
 42
0.0000000001
 43
0.0000000001
 40
0.0
 40
0.0
 40
0.0
 40
2.298472424552074
 40
2.298472424552074
 40
2.298472424552074
 10
-4126.214191939433
 20
3446.275799009207
 30
0.0
 10
-4126.214191939433
 20
3447.425035221483
 30
0.0
 10
-4126.214191939433
 20
3448.574271433759
 30
0.0
  0
SPLINE
  5
A7
330
1F
100
AcDbEntity
  8
Predefinito
100
AcDbSpline
210
0.0
220
0.0
230
1.0
 70
    24
 71
     2
 72
     6
 73
     3
 74
     0
 42
0.0000000001
 43
0.0000000001
 40
0.0
 40
0.0
 40
0.0
 40
1.648454302859591
 40
1.648454302859591
 40
1.648454302859591
 10
-4126.214191939433
 20
3424.909476825891
 30
0.0
 10
-4126.214191939433
 20
3425.73370397732
 30
0.0
 10
-4126.214191939433
 20
3426.55793112875
 30
0.0
  0
SPLINE
  5
A8
330
1F
100
AcDbEntity
  8
Predefinito
100
AcDbSpline
210
0.0
220
0.0
230
1.0
 70
    24
 71
     2
 72
     6
 73
     3
 74
     0
 42
0.0000000001
 43
0.0000000001
 40
0.0
 40
0.0
 40
0.0
 40
2.843312304562915
 40
2.843312304562915
 40
2.843312304562915
 10
-4126.214191939433
 20
3414.145010905572
 30
0.0
 10
-4126.214191939433
 20
3415.566667057854
 30
0.0
 10
-4126.214191939433
 20
3416.988323210135
 30
0.0
  0
SPLINE
  5
A9
330
1F
100
AcDbEntity
  8
Predefinito
100
AcDbSpline
210
0.0
220
0.0
230
1.0
 70
    24
 71
     2
 72
     6
 73
     3
 74
     0
 42
0.0000000001
 43
0.0000000001
 40
0.0
 40
0.0
 40
0.0
 40
0.1639742773804755
 40
0.1639742773804755
 40
0.1639742773804755
 10
-4126.214191939433
 20
3403.212186647081
 30
0.0
 10
-4126.214191939433
 20
3403.294173785771
 30
0.0
 10
-4126.214191939433
 20
3403.376160924461
 30
0.0
  0
SPLINE
  5
AA
330
1F
100
AcDbEntity
  8
Predefinito
100
AcDbSpline
210
0.0
220
0.0
230
1.0
 70
    24
 71
     2
 72
     6
 73
     3
 74
     0
 42
0.0000000001
 43
0.0000000001
 40
0.0
 40
0.0
 40
0.0
 40
2.409015394907783
 40
2.409015394907783
 40
2.409015394907783
 10
-4126.214191939433
 20
3392.582605604147
 30
0.0
 10
-4126.214191939433
 20
3393.787113301601
 30
0.0
 10
-4126.214191939433
 20
3394.991620999055
 30
0.0
  0
SPLINE
  5
AB
330
1F
100
AcDbEntity
  8
Predefinito
100
AcDbSpline
210
0.0
220
0.0
230
1.0
 70
    24
 71
     2
 72
     6
 73
     3
 74
     0
 42
0.0000000001
 43
0.0000000001
 40
0.0
 40
0.0
 40
0.0
 40
5.140552240118268
 40
5.140552240118268
 40
5.140552240118268
 10
-4126.214191939433
 20
3380.028240400916
 30
0.0
 10
-4126.214191939433
 20
3382.598516520975
 30
0.0
 10
-4126.214191939433
 20
3385.168792641035
 30
0.0
  0
SPLINE
  5
AC
330
1F
100
AcDbEntity
  8
Predefinito
100
AcDbSpline
210
0.0
220
0.0
230
1.0
 70
    24
 71
     2
 72
     6
 73
     3
 74
     0
 42
0.0000000001
 43
0.0000000001
 40
0.0
 40
0.0
 40
0.0
 40
1.112034380881141
 40
1.112034380881141
 40
1.112034380881141
 10
-4126.214191939433
 20
3360.082310927192
 30
0.0
 10
-4126.214191939433
 20
3360.638328117632
 30
0.0
 10
-4126.214191939433
 20
3361.194345308073
 30
0.0
  0
SPLINE
  5
AD
330
1F
100
AcDbEntity
  8
Predefinito
100
AcDbSpline
210
0.0
220
0.0
230
1.0
 70
    24
 71
     2
 72
     6
 73
     3
 74
     0
 42
0.0000000001
 43
0.0000000001
 40
0.0
 40
0.0
 40
0.0
 40
3.969965548181335
 40
3.969965548181335
 40
3.969965548181335
 10
-4126.214191939433
 20
3349.218039050128
 30
0.0
 10
-4126.214191939433
 20
3351.203021824219
 30
0.0
 10
-4126.214191939433
 20
3353.18800459831
 30
0.0
  0
SPLINE
  5
AE
330
1F
100
AcDbEntity
  8
Predefinito
100
AcDbSpline
210
0.0
220
0.0
230
1.0
 70
    24
 71
     2
 72
     6
 73
     3
 74
     0
 42
0.0000000001
 43
0.0000000001
 40
0.0
 40
0.0
 40
0.0
 40
1.183782088731277
 40
1.183782088731277
 40
1.183782088731277
 10
-4126.214191939433
 20
3337.159858097134
 30
0.0
 10
-4126.214191939433
 20
3337.751749141499
 30
0.0
 10
-4126.214191939433
 20
3338.343640185865
 30
0.0
  0
SPLINE
  5
AF
330
1F
100
AcDbEntity
  8
Predefinito
100
AcDbSpline
210
0.0
220
0.0
230
1.0
 70
    24
 71
     2
 72
     6
 73
     3
 74
     0
 42
0.0000000001
 43
0.0000000001
 40
0.0
 40
0.0
 40
0.0
 40
3.175227041597282
 40
3.175227041597282
 40
3.175227041597282
 10
-4126.214191939433
 20
3325.965102675486
 30
0.0
 10
-4126.214191939433
 20
3327.552716196285
 30
0.0
 10
-4126.214191939433
 20
3329.140329717084
 30
0.0
  0
SPLINE
  5
B0
330
1F
100
AcDbEntity
  8
Predefinito
100
AcDbSpline
210
0.0
220
0.0
230
1.0
 70
    24
 71
     2
 72
     6
 73
     3
 74
     0
 42
0.0000000001
 43
0.0000000001
 40
0.0
 40
0.0
 40
0.0
 40
3.202319139305473
 40
3.202319139305473
 40
3.202319139305473
 10
-4126.214191939433
 20
3316.090488732615
 30
0.0
 10
-4126.214191939433
 20
3317.691648302268
 30
0.0
 10
-4126.214191939433
 20
3319.292807871921
 30
0.0
  0
SPLINE
  5
B1
330
1F
100
AcDbEntity
  8
Predefinito
100
AcDbSpline
210
0.0
220
0.0
230
1.0
 70
    24
 71
     2
 72
     6
 73
     3
 74
     0
 42
0.0000000001
 43
0.0000000001
 40
0.0
 40
0.0
 40
0.0
 40
1.364625881409211
 40
1.364625881409211
 40
1.364625881409211
 10
-4126.214191939433
 20
3304.379132499499
 30
0.0
 10
-4126.214191939433
 20
3305.061445440203
 30
0.0
 10
-4126.214191939433
 20
3305.743758380908
 30
0.0
  0
SPLINE
  5
B2
330
1F
100
AcDbEntity
  8
Predefinito
100
AcDbSpline
210
0.0
220
0.0
230
1.0
 70
    24
 71
     2
 72
     6
 73
     3
 74
     0
 42
0.0000000001
 43
0.0000000001
 40
0.0
 40
0.0
 40
0.0
 40
6.362709470761729
 40
6.362709470761729
 40
6.362709470761729
 10
-4126.214191939433
 20
3290.526685652704
 30
0.0
 10
-4126.214191939433
 20
3293.708040388085
 30
0.0
 10
-4126.214191939433
 20
3296.889395123465
 30
0.0
  0
SPLINE
  5
B3
330
1F
100
AcDbEntity
  8
Predefinito
100
AcDbSpline
210
0.0
220
0.0
230
1.0
 70
    24
 71
     2
 72
     6
 73
     3
 74
     0
 42
0.0000000001
 43
0.0000000001
 40
0.0
 40
0.0
 40
0.0
 40
1.606265274830093
 40
1.606265274830093
 40
1.606265274830093
 10
-4126.214191939433
 20
3282.508639293122
 30
0.0
 10
-4126.214191939433
 20
3283.311771930537
 30
0.0
 10
-4126.214191939433
 20
3284.114904567952
 30
0.0
  0
SPLINE
  5
B4
330
1F
100
AcDbEntity
  8
Predefinito
100
AcDbSpline
210
0.0
220
0.0
230
1.0
 70
    24
 71
     2
 72
     6
 73
     3
 74
     0
 42
0.0000000001
 43
0.0000000001
 40
0.0
 40
0.0
 40
0.0
 40
2.682950332697601
 40
2.682950332697601
 40
2.682950332697601
 10
-4126.214191939433
 20
3271.551824601934
 30
0.0
 10
-4126.214191939433
 20
3272.893299768282
 30
0.0
 10
-4126.214191939433
 20
3274.234774934631
 30
0.0
  0
SPLINE
  5
B5
330
1F
100
AcDbEntity
  8
Predefinito
100
AcDbSpline
210
0.0
220
0.0
230
1.0
 70
    24
 71
     2
 72
     6
 73
     3
 74
     0
 42
0.0000000001
 43
0.0000000001
 40
0.0
 40
0.0
 40
0.0
 40
4.51887633979868
 40
4.51887633979868
 40
4.51887633979868
 10
-4126.214191939433
 20
3258.989792082007
 30
0.0
 10
-4126.214191939433
 20
3261.249230251906
 30
0.0
 10
-4126.214191939433
 20
3263.508668421805
 30
0.0
  0
SPLINE
  5
B6
330
1F
100
AcDbEntity
  8
Predefinito
100
AcDbSpline
210
0.0
220
0.0
230
1.0
 70
    24
 71
     2
 72
     6
 73
     3
 74
     0
 42
0.0000000001
 43
0.0000000001
 40
0.0
 40
0.0
 40
0.0
 40
0.3978489500445903
 40
0.3978489500445903
 40
0.3978489500445903
 10
-4126.214191939433
 20
3251.328693883648
 30
0.0
 10
-4126.214191939433
 20
3251.52761835867
 30
0.0
 10
-4126.214191939433
 20
3251.726542833693
 30
0.0
  0
SPLINE
  5
B7
330
1F
100
AcDbEntity
  8
Predefinito
100
AcDbSpline
210
0.0
220
0.0
230
1.0
 70
    24
 71
     2
 72
     6
 73
     3
 74
     0
 42
0.0000000001
 43
0.0000000001
 40
0.0
 40
0.0
 40
0.0
 40
1.52875183638389
 40
1.52875183638389
 40
1.52875183638389
 10
-4126.214191939433
 20
3239.427212874879
 30
0.0
 10
-4126.214191939433
 20
3240.191588793071
 30
0.0
 10
-4126.214191939433
 20
3240.955964711263
 30
0.0
  0
SPLINE
  5
B8
330
1F
100
AcDbEntity
  8
Predefinito
100
AcDbSpline
210
0.0
220
0.0
230
1.0
 70
    24
 71
     2
 72
     6
 73
     3
 74
     0
 42
0.0000000001
 43
0.0000000001
 40
0.0
 40
0.0
 40
0.0
 40
3.609771528343117
 40
3.609771528343117
 40
3.609771528343117
 10
-4126.214191939433
 20
3228.207755566665
 30
0.0
 10
-4126.214191939433
 20
3230.012641330837
 30
0.0
 10
-4126.214191939433
 20
3231.817527095008
 30
0.0
  0
SPLINE
  5
B9
330
1F
100
AcDbEntity
  8
Predefinito
100
AcDbSpline
210
0.0
220
0.0
230
1.0
 70
    24
 71
     2
 72
     6
 73
     3
 74
     0
 42
0.0000000001
 43
0.0000000001
 40
0.0
 40
0.0
 40
0.0
 40
0.9897132010028145
 40
0.9897132010028145
 40
0.9897132010028145
 10
-4126.214191939433
 20
3219.470040568878
 30
0.0
 10
-4126.214191939433
 20
3219.96489716938
 30
0.0
 10
-4126.214191939433
 20
3220.459753769881
 30
0.0
  0
SPLINE
  5
BA
330
1F
100
AcDbEntity
  8
Predefinito
100
AcDbSpline
210
0.0
220
0.0
230
1.0
 70
    24
 71
     2
 72
     6
 73
     3
 74
     0
 42
0.0000000001
 43
0.0000000001
 40
0.0
 40
0.0
 40
0.0
 40
1.287295492239991
 40
1.287295492239991
 40
1.287295492239991
 10
-4126.214191939433
 20
3207.473340176879
 30
0.0
 10
-4126.214191939433
 20
3208.116987922999
 30
0.0
 10
-4126.214191939433
 20
3208.760635669119
 30
0.0
  0
SPLINE
  5
BB
330
1F
100
AcDbEntity
  8
Predefinito
100
AcDbSpline
210
0.0
220
0.0
230
1.0
 70
    24
 71
     2
 72
     6
 73
     3
 74
     0
 42
0.0000000001
 43
0.0000000001
 40
0.0
 40
0.0
 40
0.0
 40
5.892705409575228
 40
5.892705409575228
 40
5.892705409575228
 10
-4126.214191939433
 20
3196.833275240896
 30
0.0
 10
-4126.214191939433
 20
3199.779627945684
 30
0.0
 10
-4126.214191939433
 20
3202.725980650472
 30
0.0
  0
SPLINE
  5
BC
330
1F
100
AcDbEntity
  8
Predefinito
100
AcDbSpline
210
0.0
220
0.0
230
1.0
 70
    24
 71
     2
 72
     6
 73
     3
 74
     0
 42
0.0000000001
 43
0.0000000001
 40
0.0
 40
0.0
 40
0.0
 40
1.882091423525253
 40
1.882091423525253
 40
1.882091423525253
 10
-4126.214191939433
 20
3187.421381236138
 30
0.0
 10
-4126.214191939433
 20
3188.362426947901
 30
0.0
 10
-4126.214191939433
 20
3189.303472659663
 30
0.0
  0
SPLINE
  5
BD
330
1F
100
AcDbEntity
  8
Predefinito
100
AcDbSpline
210
0.0
220
0.0
230
1.0
 70
    24
 71
     2
 72
     6
 73
     3
 74
     0
 42
0.0000000001
 43
0.0000000001
 40
0.0
 40
0.0
 40
0.0
 40
1.034541522053587
 40
1.034541522053587
 40
1.034541522053587
 10
-4126.214191939433
 20
3175.763083287104
 30
0.0
 10
-4126.214191939433
 20
3176.280354048131
 30
0.0
 10
-4126.214191939433
 20
3176.797624809158
 30
0.0
  0
SPLINE
  5
BE
330
1F
100
AcDbEntity
  8
Predefinito
100
AcDbSpline
210
0.0
220
0.0
230
1.0
 70
    24
 71
     2
 72
     6
 73
     3
 74
     0
 42
0.0000000001
 43
0.0000000001
 40
0.0
 40
0.0
 40
0.0
 40
4.549503751087286
 40
4.549503751087286
 40
4.549503751087286
 10
-4126.214191939433
 20
3163.332565337939
 30
0.0
 10
-4126.214191939433
 20
3165.607317213483
 30
0.0
 10
-4126.214191939433
 20
3167.882069089027
 30
0.0
  0
SPLINE
  5
BF
330
1F
100
AcDbEntity
  8
Predefinito
100
AcDbSpline
210
0.0
220
0.0
230
1.0
 70
    24
 71
     2
 72
     6
 73
     3
 74
     0
 42
0.0000000001
 43
0.0000000001
 40
0.0
 40
0.0
 40
0.0
 40
0.7726705542218042
 40
0.7726705542218042
 40
0.7726705542218042
 10
-4126.214191939433
 20
3144.36871466107
 30
0.0
 10
-4126.214191939433
 20
3144.755049938181
 30
0.0
 10
-4126.214191939433
 20
3145.141385215292
 30
0.0
  0
SPLINE
  5
C0
330
1F
100
AcDbEntity
  8
Predefinito
100
AcDbSpline
210
0.0
220
0.0
230
1.0
 70
    24
 71
     2
 72
     6
 73
     3
 74
     0
 42
0.0000000001
 43
0.0000000001
 40
0.0
 40
0.0
 40
0.0
 40
4.393036221616512
 40
4.393036221616512
 40
4.393036221616512
 10
-4126.214191939433
 20
3132.184842454031
 30
0.0
 10
-4126.214191939433
 20
3134.381360564839
 30
0.0
 10
-4126.214191939433
 20
3136.577878675648
 30
0.0
  0
SPLINE
  5
C1
330
1F
100
AcDbEntity
  8
Predefinito
100
AcDbSpline
210
0.0
220
0.0
230
1.0
 70
    24
 71
     2
 72
     6
 73
     3
 74
     0
 42
0.0000000001
 43
0.0000000001
 40
0.0
 40
0.0
 40
0.0
 40
0.5039822311869102
 40
0.5039822311869102
 40
0.5039822311869102
 10
-4126.214191939433
 20
3113.361738812132
 30
0.0
 10
-4126.214191939433
 20
3113.613729927726
 30
0.0
 10
-4126.214191939433
 20
3113.865721043319
 30
0.0
  0
SPLINE
  5
C2
330
1F
100
AcDbEntity
  8
Predefinito
100
AcDbSpline
210
0.0
220
0.0
230
1.0
 70
    24
 71
     2
 72
     6
 73
     3
 74
     0
 42
0.0000000001
 43
0.0000000001
 40
0.0
 40
0.0
 40
0.0
 40
2.673059226406167
 40
2.673059226406167
 40
2.673059226406167
 10
-4126.214191939433
 20
3103.005758938106
 30
0.0
 10
-4126.214191939433
 20
3104.342288551309
 30
0.0
 10
-4126.214191939433
 20
3105.678818164512
 30
0.0
  0
SPLINE
  5
C3
330
1F
100
AcDbEntity
  8
Predefinito
100
AcDbSpline
210
0.0
220
0.0
230
1.0
 70
    24
 71
     2
 72
     6
 73
     3
 74
     0
 42
0.0000000001
 43
0.0000000001
 40
0.0
 40
0.0
 40
0.0
 40
0.2308841326730544
 40
0.2308841326730544
 40
0.2308841326730544
 10
-4126.214191939433
 20
3082.812730487758
 30
0.0
 10
-4126.214191939433
 20
3082.928172554095
 30
0.0
 10
-4126.214191939433
 20
3083.043614620431
 30
0.0
  0
SPLINE
  5
C4
330
1F
100
AcDbEntity
  8
Predefinito
100
AcDbSpline
210
0.0
220
0.0
230
1.0
 70
    24
 71
     2
 72
     6
 73
     3
 74
     0
 42
0.0000000001
 43
0.0000000001
 40
0.0
 40
0.0
 40
0.0
 40
3.511391899095088
 40
3.511391899095088
 40
3.511391899095088
 10
-4126.214191939433
 20
3071.74381291789
 30
0.0
 10
-4126.214191939433
 20
3073.499508867438
 30
0.0
 10
-4126.214191939433
 20
3075.255204816985
 30
0.0
  0
SPLINE
  5
C5
330
1F
100
AcDbEntity
  8
Predefinito
100
AcDbSpline
210
0.0
220
0.0
230
1.0
 70
    24
 71
     2
 72
     6
 73
     3
 74
     0
 42
0.0000000001
 43
0.0000000001
 40
0.0
 40
0.0
 40
0.0
 40
2.384182984991185
 40
2.384182984991185
 40
2.384182984991185
 10
-4126.214191939433
 20
3030.662250425053
 30
0.0
 10
-4126.214191939433
 20
3031.854341917548
 30
0.0
 10
-4126.214191939433
 20
3033.046433410044
 30
0.0
  0
SPLINE
  5
C6
330
1F
100
AcDbEntity
  8
Predefinito
100
AcDbSpline
210
0.0
220
0.0
230
1.0
 70
    24
 71
     2
 72
     6
 73
     3
 74
     0
 42
0.0000000001
 43
0.0000000001
 40
0.0
 40
0.0
 40
0.0
 40
2.330952185823207
 40
2.330952185823207
 40
2.330952185823207
 10
-4126.214191939433
 20
3023.046872343934
 30
0.0
 10
-4126.214191939433
 20
3024.212348436846
 30
0.0
 10
-4126.214191939433
 20
3025.377824529758
 30
0.0
  0
SPLINE
  5
C7
330
1F
100
AcDbEntity
  8
Predefinito
100
AcDbSpline
210
0.0
220
0.0
230
1.0
 70
    24
 71
     2
 72
     6
 73
     3
 74
     0
 42
0.0000000001
 43
0.0000000001
 40
0.0
 40
0.0
 40
0.0
 40
1.885562355172169
 40
1.885562355172169
 40
1.885562355172169
 10
-4126.214191939433
 20
3001.727100044791
 30
0.0
 10
-4126.214191939433
 20
3002.669881222377
 30
0.0
 10
-4126.214191939433
 20
3003.612662399963
 30
0.0
  0
SPLINE
  5
C8
330
1F
100
AcDbEntity
  8
Predefinito
100
AcDbSpline
210
0.0
220
0.0
230
1.0
 70
    24
 71
     2
 72
     6
 73
     3
 74
     0
 42
0.0000000001
 43
0.0000000001
 40
0.0
 40
0.0
 40
0.0
 40
0.9953229231809928
 40
0.9953229231809928
 40
0.9953229231809928
 10
-4126.214191939433
 20
2994.012562118962
 30
0.0
 10
-4126.214191939433
 20
2994.510223580553
 30
0.0
 10
-4126.214191939433
 20
2995.007885042143
 30
0.0
  0
SPLINE
  5
C9
330
1F
100
AcDbEntity
  8
Predefinito
100
AcDbSpline
210
0.0
220
0.0
230
1.0
 70
    24
 71
     2
 72
     6
 73
     3
 74
     0
 42
0.0000000001
 43
0.0000000001
 40
0.0
 40
0.0
 40
0.0
 40
1.556404824774745
 40
1.556404824774745
 40
1.556404824774745
 10
-4126.214191939433
 20
2973.503597555059
 30
0.0
 10
-4126.214191939433
 20
2974.281799967446
 30
0.0
 10
-4126.214191939433
 20
2975.060002379833
 30
0.0
  0
SPLINE
  5
CA
330
1F
100
AcDbEntity
  8
Predefinito
100
AcDbSpline
210
0.0
220
0.0
230
1.0
 70
    24
 71
     2
 72
     6
 73
     3
 74
     0
 42
0.0000000001
 43
0.0000000001
 40
0.0
 40
0.0
 40
0.0
 40
1.339998387780724
 40
1.339998387780724
 40
1.339998387780724
 10
-4126.214191939433
 20
2965.223872204796
 30
0.0
 10
-4126.214191939433
 20
2965.893871398687
 30
0.0
 10
-4126.214191939433
 20
2966.563870592577
 30
0.0
  0
SPLINE
  5
CB
330
1F
100
AcDbEntity
  8
Predefinito
100
AcDbSpline
210
0.0
220
0.0
230
1.0
 70
    24
 71
     2
 72
     6
 73
     3
 74
     0
 42
0.0000000001
 43
0.0000000001
 40
0.0
 40
0.0
 40
0.0
 40
1.230059916616028
 40
1.230059916616028
 40
1.230059916616028
 10
-4126.214191939433
 20
2946.055768409144
 30
0.0
 10
-4126.214191939433
 20
2946.670798367452
 30
0.0
 10
-4126.214191939433
 20
2947.28582832576
 30
0.0
  0
SPLINE
  5
CC
330
1F
100
AcDbEntity
  8
Predefinito
100
AcDbSpline
210
0.0
220
0.0
230
1.0
 70
    24
 71
     2
 72
     6
 73
     3
 74
     0
 42
0.0000000001
 43
0.0000000001
 40
0.0
 40
0.0
 40
0.0
 40
1.10816113722376
 40
1.10816113722376
 40
1.10816113722376
 10
-4126.214191939433
 20
2938.212154974154
 30
0.0
 10
-4126.214191939433
 20
2938.766235542766
 30
0.0
 10
-4126.214191939433
 20
2939.320316111377
 30
0.0
  0
SPLINE
  5
CD
330
1F
100
AcDbEntity
  8
Predefinito
100
AcDbSpline
210
0.0
220
0.0
230
1.0
 70
    24
 71
     2
 72
     6
 73
     3
 74
     0
 42
0.0000000001
 43
0.0000000001
 40
0.0
 40
0.0
 40
0.0
 40
0.9119556037298935
 40
0.9119556037298935
 40
0.9119556037298935
 10
-4126.214191939433
 20
2919.443034843118
 30
0.0
 10
-4126.214191939433
 20
2919.899012644983
 30
0.0
 10
-4126.214191939433
 20
2920.354990446848
 30
0.0
  0
SPLINE
  5
CE
330
1F
100
AcDbEntity
  8
Predefinito
100
AcDbSpline
210
0.0
220
0.0
230
1.0
 70
    24
 71
     2
 72
     6
 73
     3
 74
     0
 42
0.0000000001
 43
0.0000000001
 40
0.0
 40
0.0
 40
0.0
 40
1.351213218210432
 40
1.351213218210432
 40
1.351213218210432
 10
-4126.214191939433
 20
2911.579252174613
 30
0.0
 10
-4126.214191939433
 20
2912.254858783718
 30
0.0
 10
-4126.214191939433
 20
2912.930465392823
 30
0.0
  0
SPLINE
  5
CF
330
1F
100
AcDbEntity
  8
Predefinito
100
AcDbSpline
210
0.0
220
0.0
230
1.0
 70
    24
 71
     2
 72
     6
 73
     3
 74
     0
 42
0.0000000001
 43
0.0000000001
 40
0.0
 40
0.0
 40
0.0
 40
0.6001782097023352
 40
0.6001782097023352
 40
0.6001782097023352
 10
-4126.214191939433
 20
2893.733234770046
 30
0.0
 10
-4126.214191939433
 20
2894.033323874897
 30
0.0
 10
-4126.214191939433
 20
2894.333412979749
 30
0.0
  0
SPLINE
  5
D0
330
1F
100
AcDbEntity
  8
Predefinito
100
AcDbSpline
210
0.0
220
0.0
230
1.0
 70
    24
 71
     2
 72
     6
 73
     3
 74
     0
 42
0.0000000001
 43
0.0000000001
 40
0.0
 40
0.0
 40
0.0
 40
1.529590026859751
 40
1.529590026859751
 40
1.529590026859751
 10
-4126.214191939433
 20
2885.868547355771
 30
0.0
 10
-4126.214191939433
 20
2886.633342369201
 30
0.0
 10
-4126.214191939433
 20
2887.398137382631
 30
0.0
  0
SPLINE
  5
D1
330
1F
100
AcDbEntity
  8
Predefinito
100
AcDbSpline
210
0.0
220
0.0
230
1.0
 70
    24
 71
     2
 72
     6
 73
     3
 74
     0
 42
0.0000000001
 43
0.0000000001
 40
0.0
 40
0.0
 40
0.0
 40
0.1976923995921425
 40
0.1976923995921425
 40
0.1976923995921425
 10
-4126.214191939433
 20
2860.951101723195
 30
0.0
 10
-4126.214191939433
 20
2861.049947922991
 30
0.0
 10
-4126.214191939433
 20
2861.148794122787
 30
0.0
  0
SPLINE
  5
D2
330
1F
100
AcDbEntity
  8
Predefinito
100
AcDbSpline
210
0.0
220
0.0
230
1.0
 70
    24
 71
     2
 72
     6
 73
     3
 74
     0
 42
0.0000000001
 43
0.0000000001
 40
0.0
 40
0.0
 40
0.0
 40
1.200340930108268
 40
1.200340930108268
 40
1.200340930108268
 10
-4126.214191939433
 20
2839.40481832131
 30
0.0
 10
-4126.214191939433
 20
2840.004988786364
 30
0.0
 10
-4126.214191939433
 20
2840.605159251419
 30
0.0
  0
SPLINE
  5
D3
330
1F
100
AcDbEntity
  8
Predefinito
100
AcDbSpline
210
0.0
220
0.0
230
1.0
 70
    24
 71
     2
 72
     6
 73
     3
 74
     0
 42
0.0000000001
 43
0.0000000001
 40
0.0
 40
0.0
 40
0.0
 40
0.8625502672134644
 40
0.8625502672134644
 40
0.8625502672134644
 10
-4126.214191939433
 20
2832.907279907582
 30
0.0
 10
-4126.214191939433
 20
2833.338555041189
 30
0.0
 10
-4126.214191939433
 20
2833.769830174795
 30
0.0
  0
SPLINE
  5
D4
330
1F
100
AcDbEntity
  8
Predefinito
100
AcDbSpline
210
0.0
220
0.0
230
1.0
 70
    24
 71
     2
 72
     6
 73
     3
 74
     0
 42
0.0000000001
 43
0.0000000001
 40
0.0
 40
0.0
 40
0.0
 40
2.791993303279014
 40
2.791993303279014
 40
2.791993303279014
 10
-4126.214191939433
 20
2825.332901355385
 30
0.0
 10
-4126.214191939433
 20
2826.728898007024
 30
0.0
 10
-4126.214191939433
 20
2828.124894658664
 30
0.0
  0
SPLINE
  5
D5
330
1F
100
AcDbEntity
  8
Predefinito
100
AcDbSpline
210
0.0
220
0.0
230
1.0
 70
    24
 71
     2
 72
     6
 73
     3
 74
     0
 42
0.0000000001
 43
0.0000000001
 40
0.0
 40
0.0
 40
0.0
 40
1.209723152414881
 40
1.209723152414881
 40
1.209723152414881
 10
-4126.214191939433
 20
2822.300667195561
 30
0.0
 10
-4126.214191939433
 20
2822.905528771769
 30
0.0
 10
-4126.214191939433
 20
2823.510390347976
 30
0.0
  0
SPLINE
  5
D6
330
1F
100
AcDbEntity
  8
Predefinito
100
AcDbSpline
210
0.0
220
0.0
230
1.0
 70
    24
 71
     2
 72
     6
 73
     3
 74
     0
 42
0.0000000001
 43
0.0000000001
 40
0.0
 40
0.0
 40
0.0
 40
1.351641627059507
 40
1.351641627059507
 40
1.351641627059507
 10
-4126.214191939433
 20
2806.280936626451
 30
0.0
 10
-4126.214191939433
 20
2806.956757439981
 30
0.0
 10
-4126.214191939433
 20
2807.632578253511
 30
0.0
  0
SPLINE
  5
D7
330
1F
100
AcDbEntity
  8
Predefinito
100
AcDbSpline
210
0.0
220
0.0
230
1.0
 70
    24
 71
     2
 72
     6
 73
     3
 74
     0
 42
0.0000000001
 43
0.0000000001
 40
0.0
 40
0.0
 40
0.0
 40
0.8140777352477926
 40
0.8140777352477926
 40
0.8140777352477926
 10
-4126.214191939433
 20
2800.184373903988
 30
0.0
 10
-4126.214191939433
 20
2800.591412771612
 30
0.0
 10
-4126.214191939433
 20
2800.998451639236
 30
0.0
  0
SPLINE
  5
D8
330
1F
100
AcDbEntity
  8
Predefinito
100
AcDbSpline
210
0.0
220
0.0
230
1.0
 70
    24
 71
     2
 72
     6
 73
     3
 74
     0
 42
0.0000000001
 43
0.0000000001
 40
0.0
 40
0.0
 40
0.0
 40
1.085018030435094
 40
1.085018030435094
 40
1.085018030435094
 10
-4126.214191939433
 20
2793.485284459066
 30
0.0
 10
-4126.214191939433
 20
2794.027793474283
 30
0.0
 10
-4126.214191939433
 20
2794.570302489501
 30
0.0
  0
SPLINE
  5
D9
330
1F
100
AcDbEntity
  8
Predefinito
100
AcDbSpline
210
0.0
220
0.0
230
1.0
 70
    24
 71
     2
 72
     6
 73
     3
 74
     0
 42
0.0000000001
 43
0.0000000001
 40
0.0
 40
0.0
 40
0.0
 40
1.019821206017241
 40
1.019821206017241
 40
1.019821206017241
 10
-4126.214191939433
 20
2785.590801697031
 30
0.0
 10
-4126.214191939433
 20
2786.10071230004
 30
0.0
 10
-4126.214191939433
 20
2786.610622903048
 30
0.0
  0
SPLINE
  5
DA
330
1F
100
AcDbEntity
  8
Predefinito
100
AcDbSpline
210
0.0
220
0.0
230
1.0
 70
    24
 71
     2
 72
     6
 73
     3
 74
     0
 42
0.0000000001
 43
0.0000000001
 40
0.0
 40
0.0
 40
0.0
 40
0.7294592133625883
 40
0.7294592133625883
 40
0.7294592133625883
 10
-4126.214191939433
 20
2779.874688811207
 30
0.0
 10
-4126.214191939433
 20
2780.239418417888
 30
0.0
 10
-4126.214191939433
 20
2780.604148024569
 30
0.0
  0
SPLINE
  5
DB
330
1F
100
AcDbEntity
  8
Predefinito
100
AcDbSpline
210
0.0
220
0.0
230
1.0
 70
    24
 71
     2
 72
     6
 73
     3
 74
     0
 42
0.0000000001
 43
0.0000000001
 40
0.0
 40
0.0
 40
0.0
 40
5.099835838197123
 40
5.099835838197123
 40
5.099835838197123
 10
-4126.214191939433
 20
2770.859560572298
 30
0.0
 10
-4126.214191939433
 20
2773.409478491397
 30
0.0
 10
-4126.214191939433
 20
2775.959396410495
 30
0.0
  0
SPLINE
  5
DC
330
1F
100
AcDbEntity
  8
Predefinito
100
AcDbSpline
210
0.0
220
0.0
230
1.0
 70
    24
 71
     2
 72
     6
 73
     3
 74
     0
 42
0.0000000001
 43
0.0000000001
 40
0.0
 40
0.0
 40
0.0
 40
1.765431119659752
 40
1.765431119659752
 40
1.765431119659752
 10
-4126.214191939433
 20
2766.101631305137
 30
0.0
 10
-4126.214191939433
 20
2766.984346864967
 30
0.0
 10
-4126.214191939433
 20
2767.867062424797
 30
0.0
  0
SPLINE
  5
DD
330
1F
100
AcDbEntity
  8
Predefinito
100
AcDbSpline
210
0.0
220
0.0
230
1.0
 70
    24
 71
     2
 72
     6
 73
     3
 74
     0
 42
0.0000000001
 43
0.0000000001
 40
0.0
 40
0.0
 40
0.0
 40
0.9301276553783282
 40
0.9301276553783282
 40
0.9301276553783282
 10
-4126.214191939433
 20
2760.492038413774
 30
0.0
 10
-4126.214191939433
 20
2760.957102241464
 30
0.0
 10
-4126.214191939433
 20
2761.422166069153
 30
0.0
  0
SPLINE
  5
DE
330
1F
100
AcDbEntity
  8
Predefinito
100
AcDbSpline
210
0.0
220
0.0
230
1.0
 70
    24
 71
     2
 72
     6
 73
     3
 74
     0
 42
0.0000000001
 43
0.0000000001
 40
0.0
 40
0.0
 40
0.0
 40
0.428865344688802
 40
0.428865344688802
 40
0.428865344688802
 10
-4126.214191939433
 20
2747.856255779785
 30
0.0
 10
-4126.214191939433
 20
2748.070688452129
 30
0.0
 10
-4126.214191939433
 20
2748.285121124473
 30
0.0
  0
SPLINE
  5
DF
330
1F
100
AcDbEntity
  8
Predefinito
100
AcDbSpline
210
0.0
220
0.0
230
1.0
 70
    24
 71
     2
 72
     6
 73
     3
 74
     0
 42
0.0000000001
 43
0.0000000001
 40
0.0
 40
0.0
 40
0.0
 40
1.096184058688323
 40
1.096184058688323
 40
1.096184058688323
 10
-4126.214191939433
 20
2742.398071475767
 30
0.0
 10
-4126.214191939433
 20
2742.946163505111
 30
0.0
 10
-4126.214191939433
 20
2743.494255534455
 30
0.0
  0
SPLINE
  5
E0
330
1F
100
AcDbEntity
  8
Predefinito
100
AcDbSpline
210
0.0
220
0.0
230
1.0
 70
    24
 71
     2
 72
     6
 73
     3
 74
     0
 42
0.0000000001
 43
0.0000000001
 40
0.0
 40
0.0
 40
0.0
 40
0.9383293221740132
 40
0.9383293221740132
 40
0.9383293221740132
 10
-4126.214191939433
 20
2730.130498599366
 30
0.0
 10
-4126.214191939433
 20
2730.599663260453
 30
0.0
 10
-4126.214191939433
 20
2731.06882792154
 30
0.0
  0
SPLINE
  5
E1
330
1F
100
AcDbEntity
  8
Predefinito
100
AcDbSpline
210
0.0
220
0.0
230
1.0
 70
    24
 71
     2
 72
     6
 73
     3
 74
     0
 42
0.0000000001
 43
0.0000000001
 40
0.0
 40
0.0
 40
0.0
 40
1.233599516428512
 40
1.233599516428512
 40
1.233599516428512
 10
-4126.214191939433
 20
2725.628603150853
 30
0.0
 10
-4126.214191939433
 20
2726.245402909068
 30
0.0
 10
-4126.214191939433
 20
2726.862202667282
 30
0.0
  0
SPLINE
  5
E2
330
1F
100
AcDbEntity
  8
Predefinito
100
AcDbSpline
210
0.0
220
0.0
230
1.0
 70
    24
 71
     2
 72
     6
 73
     3
 74
     0
 42
0.0000000001
 43
0.0000000001
 40
0.0
 40
0.0
 40
0.0
 40
1.298190618340868
 40
1.298190618340868
 40
1.298190618340868
 10
-4126.214191939433
 20
2719.043217185407
 30
0.0
 10
-4126.214191939433
 20
2719.692312494577
 30
0.0
 10
-4126.214191939433
 20
2720.341407803748
 30
0.0
  0
SPLINE
  5
E3
330
1F
100
AcDbEntity
  8
Predefinito
100
AcDbSpline
210
0.0
220
0.0
230
1.0
 70
    24
 71
     2
 72
     6
 73
     3
 74
     0
 42
0.0000000001
 43
0.0000000001
 40
0.0
 40
0.0
 40
0.0
 40
0.0511753733962905
 40
0.0511753733962905
 40
0.0511753733962905
 10
-4126.214191939433
 20
2715.207156105606
 30
0.0
 10
-4126.214191939433
 20
2715.232743792305
 30
0.0
 10
-4126.214191939433
 20
2715.258331479003
 30
0.0
  0
SPLINE
  5
E4
330
1F
100
AcDbEntity
  8
Predefinito
100
AcDbSpline
210
0.0
220
0.0
230
1.0
 70
    24
 71
     2
 72
     6
 73
     3
 74
     0
 42
0.0000000001
 43
0.0000000001
 40
0.0
 40
0.0
 40
0.0
 40
1.746700384882388
 40
1.746700384882388
 40
1.746700384882388
 10
-4126.214191939433
 20
2709.815006807028
 30
0.0
 10
-4126.214191939433
 20
2710.688356999469
 30
0.0
 10
-4126.214191939433
 20
2711.561707191911
 30
0.0
  0
SPLINE
  5
E5
330
1F
100
AcDbEntity
  8
Predefinito
100
AcDbSpline
210
0.0
220
0.0
230
1.0
 70
    24
 71
     2
 72
     6
 73
     3
 74
     0
 42
0.0000000001
 43
0.0000000001
 40
0.0
 40
0.0
 40
0.0
 40
0.9832162578541102
 40
0.9832162578541102
 40
0.9832162578541102
 10
-4126.214191939433
 20
2704.420097117348
 30
0.0
 10
-4126.214191939433
 20
2704.911705246275
 30
0.0
 10
-4126.214191939433
 20
2705.403313375202
 30
0.0
  0
SPLINE
  5
E6
330
1F
100
AcDbEntity
  8
Predefinito
100
AcDbSpline
210
0.0
220
0.0
230
1.0
 70
    24
 71
     2
 72
     6
 73
     3
 74
     0
 42
0.0000000001
 43
0.0000000001
 40
0.0
 40
0.0
 40
0.0
 40
0.2423456218557476
 40
0.2423456218557476
 40
0.2423456218557476
 10
-4126.214191939433
 20
2700.737179148603
 30
0.0
 10
-4126.214191939433
 20
2700.85835195953
 30
0.0
 10
-4126.214191939433
 20
2700.979524770458
 30
0.0
  0
SPLINE
  5
E7
330
1F
100
AcDbEntity
  8
Predefinito
100
AcDbSpline
210
0.0
220
0.0
230
1.0
 70
    24
 71
     2
 72
     6
 73
     3
 74
     0
 42
0.0000000001
 43
0.0000000001
 40
0.0
 40
0.0
 40
0.0
 40
0.9046070344961663
 40
0.9046070344961663
 40
0.9046070344961663
 10
-4126.214191939433
 20
2691.181037621236
 30
0.0
 10
-4126.214191939433
 20
2691.633341138484
 30
0.0
 10
-4126.214191939433
 20
2692.085644655732
 30
0.0
  0
SPLINE
  5
E8
330
1F
100
AcDbEntity
  8
Predefinito
100
AcDbSpline
210
0.0
220
0.0
230
1.0
 70
    24
 71
     2
 72
     6
 73
     3
 74
     0
 42
0.0000000001
 43
0.0000000001
 40
0.0
 40
0.0
 40
0.0
 40
0.3967304873644935
 40
0.3967304873644935
 40
0.3967304873644935
 10
-4126.214191939433
 20
2687.694069800696
 30
0.0
 10
-4126.214191939433
 20
2687.892435044379
 30
0.0
 10
-4126.214191939433
 20
2688.090800288061
 30
0.0
  0
SPLINE
  5
E9
330
1F
100
AcDbEntity
  8
Predefinito
100
AcDbSpline
210
0.0
220
0.0
230
1.0
 70
    24
 71
     2
 72
     6
 73
     3
 74
     0
 42
0.0000000001
 43
0.0000000001
 40
0.0
 40
0.0
 40
0.0
 40
0.4537927256183139
 40
0.4537927256183139
 40
0.4537927256183139
 10
-4126.214191939433
 20
2679.353873719736
 30
0.0
 10
-4126.214191939433
 20
2679.580770082545
 30
0.0
 10
-4126.214191939433
 20
2679.807666445354
 30
0.0
  0
SPLINE
  5
EA
330
1F
100
AcDbEntity
  8
Predefinito
100
AcDbSpline
210
0.0
220
0.0
230
1.0
 70
    24
 71
     2
 72
     6
 73
     3
 74
     0
 42
0.0000000001
 43
0.0000000001
 40
0.0
 40
0.0
 40
0.0
 40
0.5118139571832216
 40
0.5118139571832216
 40
0.5118139571832216
 10
-4126.214191939433
 20
2676.109025625575
 30
0.0
 10
-4126.214191939433
 20
2676.364932604166
 30
0.0
 10
-4126.214191939433
 20
2676.620839582758
 30
0.0
  0
SPLINE
  5
EB
330
1F
100
AcDbEntity
  8
Predefinito
100
AcDbSpline
210
0.0
220
0.0
230
1.0
 70
    24
 71
     2
 72
     6
 73
     3
 74
     0
 42
0.0000000001
 43
0.0000000001
 40
0.0
 40
0.0
 40
0.0
 40
2.743015746425499
 40
2.743015746425499
 40
2.743015746425499
 10
-4126.214191939433
 20
2671.425971924017
 30
0.0
 10
-4126.214191939433
 20
2672.797479797229
 30
0.0
 10
-4126.214191939433
 20
2674.168987670442
 30
0.0
  0
SPLINE
  5
EC
330
1F
100
AcDbEntity
  8
Predefinito
100
AcDbSpline
210
0.0
220
0.0
230
1.0
 70
    24
 71
     2
 72
     6
 73
     3
 74
     0
 42
0.0000000001
 43
0.0000000001
 40
0.0
 40
0.0
 40
0.0
 40
0.2455216666589877
 40
0.2455216666589877
 40
0.2455216666589877
 10
-4126.214191939433
 20
2668.964856054097
 30
0.0
 10
-4126.214191939433
 20
2669.087616887427
 30
0.0
 10
-4126.214191939433
 20
2669.210377720756
 30
0.0
  0
SPLINE
  5
ED
330
1F
100
AcDbEntity
  8
Predefinito
100
AcDbSpline
210
0.0
220
0.0
230
1.0
 70
    24
 71
     2
 72
     6
 73
     3
 74
     0
 42
0.0000000001
 43
0.0000000001
 40
0.0
 40
0.0
 40
0.0
 40
0.5850381063619352
 40
0.5850381063619352
 40
0.5850381063619352
 10
-4126.214191939433
 20
2666.010037498384
 30
0.0
 10
-4126.214191939433
 20
2666.302556551565
 30
0.0
 10
-4126.214191939433
 20
2666.595075604746
 30
0.0
  0
SPLINE
  5
EE
330
1F
100
AcDbEntity
  8
Predefinito
100
AcDbSpline
210
0.0
220
0.0
230
1.0
 70
    24
 71
     2
 72
     6
 73
     3
 74
     0
 42
0.0000000001
 43
0.0000000001
 40
0.0
 40
0.0
 40
0.0
 40
0.1089974774590701
 40
0.1089974774590701
 40
0.1089974774590701
 10
-4126.214191939433
 20
2660.036943966973
 30
0.0
 10
-4126.214191939433
 20
2660.091442705702
 30
0.0
 10
-4126.214191939433
 20
2660.145941444432
 30
0.0
  0
SPLINE
  5
EF
330
1F
100
AcDbEntity
  8
Predefinito
100
AcDbSpline
210
0.0
220
0.0
230
1.0
 70
    24
 71
     2
 72
     6
 73
     3
 74
     0
 42
0.0000000001
 43
0.0000000001
 40
0.0
 40
0.0
 40
0.0
 40
1.105873415648603
 40
1.105873415648603
 40
1.105873415648603
 10
-4126.214191939433
 20
2656.929763298781
 30
0.0
 10
-4126.214191939433
 20
2657.482700006605
 30
0.0
 10
-4126.214191939433
 20
2658.03563671443
 30
0.0
  0
SPLINE
  5
F0
330
1F
100
AcDbEntity
  8
Predefinito
100
AcDbSpline
210
0.0
220
0.0
230
1.0
 70
    24
 71
     2
 72
     6
 73
     3
 74
     0
 42
0.0000000001
 43
0.0000000001
 40
0.0
 40
0.0
 40
0.0
 40
0.3164814575566197
 40
0.3164814575566197
 40
0.3164814575566197
 10
-4126.214191939433
 20
2650.048457765537
 30
0.0
 10
-4126.214191939433
 20
2650.206698494315
 30
0.0
 10
-4126.214191939433
 20
2650.364939223094
 30
0.0
  0
SPLINE
  5
F1
330
1F
100
AcDbEntity
  8
Predefinito
100
AcDbSpline
210
0.0
220
0.0
230
1.0
 70
    24
 71
     2
 72
     6
 73
     3
 74
     0
 42
0.0000000001
 43
0.0000000001
 40
0.0
 40
0.0
 40
0.0
 40
0.0701101963941255
 40
0.0701101963941255
 40
0.0701101963941255
 10
-4126.214191939433
 20
2648.288001262588
 30
0.0
 10
-4126.214191939433
 20
2648.323056360785
 30
0.0
 10
-4126.214191939433
 20
2648.358111458982
 30
0.0
  0
SPLINE
  5
F2
330
1F
100
AcDbEntity
  8
Predefinito
100
AcDbSpline
210
0.0
220
0.0
230
1.0
 70
    24
 71
     2
 72
     6
 73
     3
 74
     0
 42
0.0000000001
 43
0.0000000001
 40
0.0
 40
0.0
 40
0.0
 40
0.1193377014587895
 40
0.1193377014587895
 40
0.1193377014587895
 10
-4126.214191939433
 20
2646.520185309972
 30
0.0
 10
-4126.214191939433
 20
2646.579854160702
 30
0.0
 10
-4126.214191939433
 20
2646.639523011431
 30
0.0
  0
SPLINE
  5
F3
330
1F
100
AcDbEntity
  8
Predefinito
100
AcDbSpline
210
0.0
220
0.0
230
1.0
 70
    24
 71
     2
 72
     6
 73
     3
 74
     0
 42
0.0000000001
 43
0.0000000001
 40
0.0
 40
0.0
 40
0.0
 40
0.2013092529177811
 40
0.2013092529177811
 40
0.2013092529177811
 10
-4126.214191939433
 20
2643.167064447307
 30
0.0
 10
-4126.214191939433
 20
2643.267719073766
 30
0.0
 10
-4126.214191939433
 20
2643.368373700225
 30
0.0
  0
SPLINE
  5
F4
330
1F
100
AcDbEntity
  8
Predefinito
100
AcDbSpline
210
0.0
220
0.0
230
1.0
 70
    24
 71
     2
 72
     6
 73
     3
 74
     0
 42
0.0000000001
 43
0.0000000001
 40
0.0
 40
0.0
 40
0.0
 40
0.2935724770295565
 40
0.2935724770295565
 40
0.2935724770295565
 10
-4126.214191939433
 20
2641.905488958506
 30
0.0
 10
-4126.214191939433
 20
2642.052275197021
 30
0.0
 10
-4126.214191939433
 20
2642.199061435535
 30
0.0
  0
SPLINE
  5
F5
330
1F
100
AcDbEntity
  8
Predefinito
100
AcDbSpline
210
0.0
220
0.0
230
1.0
 70
    24
 71
     2
 72
     6
 73
     3
 74
     0
 42
0.0000000001
 43
0.0000000001
 40
0.0
 40
0.0
 40
0.0
 40
0.3354489268317593
 40
0.3354489268317593
 40
0.3354489268317593
 10
-4126.214191939433
 20
2640.832268764017
 30
0.0
 10
-4126.214191939433
 20
2640.999993227433
 30
0.0
 10
-4126.214191939433
 20
2641.167717690849
 30
0.0
  0
SPLINE
  5
F6
330
1F
100
AcDbEntity
  8
Predefinito
100
AcDbSpline
210
0.0
220
0.0
230
1.0
 70
    24
 71
     2
 72
     6
 73
     3
 74
     0
 42
0.0000000001
 43
0.0000000001
 40
0.0
 40
0.0
 40
0.0
 40
0.3224908714150843
 40
0.3224908714150843
 40
0.3224908714150843
 10
-4126.214191939433
 20
2638.95524693427
 30
0.0
 10
-4126.214191939433
 20
2639.116492369978
 30
0.0
 10
-4126.214191939433
 20
2639.277737805685
 30
0.0
  0
SPLINE
  5
F7
330
1F
100
AcDbEntity
  8
Predefinito
100
AcDbSpline
210
0.0
220
0.0
230
1.0
 70
    24
 71
     2
 72
     6
 73
     3
 74
     0
 42
0.0000000001
 43
0.0000000001
 40
0.0
 40
0.0
 40
0.0
 40
0.7689316496575884
 40
0.7689316496575884
 40
0.7689316496575884
 10
-4126.214191939433
 20
2638.049785424853
 30
0.0
 10
-4126.214191939433
 20
2638.434251249681
 30
0.0
 10
-4126.214191939433
 20
2638.81871707451
 30
0.0
  0
SPLINE
  5
F8
330
1F
100
AcDbEntity
  8
Predefinito
100
AcDbSpline
210
0.0
220
0.0
230
1.0
 70
    24
 71
     2
 72
     6
 73
     3
 74
     0
 42
0.0000000001
 43
0.0000000001
 40
0.0
 40
0.0
 40
0.0
 40
0.1730909650686954
 40
0.1730909650686954
 40
0.1730909650686954
 10
-4126.214191939433
 20
3985.665973227307
 30
0.0
 10
-4126.214191939433
 20
3985.752518709841
 30
0.0
 10
-4126.214191939433
 20
3985.839064192376
 30
0.0
  0
SPLINE
  5
F9
330
1F
100
AcDbEntity
  8
Predefinito
100
AcDbSpline
210
0.0
220
0.0
230
1.0
 70
    24
 71
     2
 72
     6
 73
     3
 74
     0
 42
0.0000000001
 43
0.0000000001
 40
0.0
 40
0.0
 40
0.0
 40
0.8660605039199254
 40
0.8660605039199254
 40
0.8660605039199254
 10
-4126.214191939433
 20
3984.66259683618
 30
0.0
 10
-4126.214191939433
 20
3985.09562708814
 30
0.0
 10
-4126.214191939433
 20
3985.528657340099
 30
0.0
  0
SPLINE
  5
FA
330
1F
100
AcDbEntity
  8
Predefinito
100
AcDbSpline
210
0.0
220
0.0
230
1.0
 70
    24
 71
     2
 72
     6
 73
     3
 74
     0
 42
0.0000000001
 43
0.0000000001
 40
0.0
 40
0.0
 40
0.0
 40
0.2221069694865037
 40
0.2221069694865037
 40
0.2221069694865037
 10
-4126.214191939433
 20
3983.887563376859
 30
0.0
 10
-4126.214191939433
 20
3983.998616861602
 30
0.0
 10
-4126.214191939433
 20
3984.109670346345
 30
0.0
  0
SPLINE
  5
FB
330
1F
100
AcDbEntity
  8
Predefinito
100
AcDbSpline
210
0.0
220
0.0
230
1.0
 70
    24
 71
     2
 72
     6
 73
     3
 74
     0
 42
0.0000000001
 43
0.0000000001
 40
0.0
 40
0.0
 40
0.0
 40
1.871719040427706
 40
1.871719040427706
 40
1.871719040427706
 10
-4126.214191939433
 20
3981.766451422078
 30
0.0
 10
-4126.214191939433
 20
3982.702310942292
 30
0.0
 10
-4126.214191939433
 20
3983.638170462506
 30
0.0
  0
SPLINE
  5
FC
330
1F
100
AcDbEntity
  8
Predefinito
100
AcDbSpline
210
0.0
220
0.0
230
1.0
 70
    24
 71
     2
 72
     6
 73
     3
 74
     0
 42
0.0000000001
 43
0.0000000001
 40
0.0
 40
0.0
 40
0.0
 40
3.102705087804679
 40
3.102705087804679
 40
3.102705087804679
 10
-4126.214191939433
 20
3977.090669861339
 30
0.0
 10
-4126.214191939433
 20
3978.642022405241
 30
0.0
 10
-4126.214191939433
 20
3980.193374949144
 30
0.0
  0
SPLINE
  5
FD
330
1F
100
AcDbEntity
  8
Predefinito
100
AcDbSpline
210
0.0
220
0.0
230
1.0
 70
    24
 71
     2
 72
     6
 73
     3
 74
     0
 42
0.0000000001
 43
0.0000000001
 40
0.0
 40
0.0
 40
0.0
 40
1.341976541960321
 40
1.341976541960321
 40
1.341976541960321
 10
-4126.214191939433
 20
3944.445777731835
 30
0.0
 10
-4126.214191939433
 20
3945.116766002815
 30
0.0
 10
-4126.214191939433
 20
3945.787754273796
 30
0.0
  0
SPLINE
  5
FE
330
1F
100
AcDbEntity
  8
Predefinito
100
AcDbSpline
210
0.0
220
0.0
230
1.0
 70
    24
 71
     2
 72
     6
 73
     3
 74
     0
 42
0.0000000001
 43
0.0000000001
 40
0.0
 40
0.0
 40
0.0
 40
7.864443101858797
 40
7.864443101858797
 40
7.864443101858797
 10
-4126.214191939433
 20
3935.938464669581
 30
0.0
 10
-4126.214191939433
 20
3939.87068622051
 30
0.0
 10
-4126.214191939433
 20
3943.80290777144
 30
0.0
  0
SPLINE
  5
FF
330
1F
100
AcDbEntity
  8
Predefinito
100
AcDbSpline
210
0.0
220
0.0
230
1.0
 70
    24
 71
     2
 72
     6
 73
     3
 74
     0
 42
0.0000000001
 43
0.0000000001
 40
0.0
 40
0.0
 40
0.0
 40
2.21557983376124
 40
2.21557983376124
 40
2.21557983376124
 10
-4126.214191939433
 20
3932.60383959708
 30
0.0
 10
-4126.214191939433
 20
3933.711629513961
 30
0.0
 10
-4126.214191939433
 20
3934.819419430842
 30
0.0
  0
SPLINE
  5
100
330
1F
100
AcDbEntity
  8
Predefinito
100
AcDbSpline
210
0.0
220
0.0
230
1.0
 70
    24
 71
     2
 72
     6
 73
     3
 74
     0
 42
0.0000000001
 43
0.0000000001
 40
0.0
 40
0.0
 40
0.0
 40
8.653685512887023
 40
8.653685512887023
 40
8.653685512887023
 10
-4126.214191939433
 20
3922.932610212199
 30
0.0
 10
-4126.214191939433
 20
3927.259452968643
 30
0.0
 10
-4126.214191939433
 20
3931.586295725086
 30
0.0
  0
SPLINE
  5
101
330
1F
100
AcDbEntity
  8
Predefinito
100
AcDbSpline
210
0.0
220
0.0
230
1.0
 70
    24
 71
     2
 72
     6
 73
     3
 74
     0
 42
0.0000000001
 43
0.0000000001
 40
0.0
 40
0.0
 40
0.0
 40
3.445250696533094
 40
3.445250696533094
 40
3.445250696533094
 10
-4126.214191939433
 20
3919.346922887321
 30
0.0
 10
-4126.214191939433
 20
3921.069548235588
 30
0.0
 10
-4126.214191939433
 20
3922.792173583854
 30
0.0
  0
SPLINE
  5
102
330
1F
100
AcDbEntity
  8
Predefinito
100
AcDbSpline
210
0.0
220
0.0
230
1.0
 70
    24
 71
     2
 72
     6
 73
     3
 74
     0
 42
0.0000000001
 43
0.0000000001
 40
0.0
 40
0.0
 40
0.0
 40
12.90337772700786
 40
12.90337772700786
 40
12.90337772700786
 10
-4126.214191939433
 20
3904.707459166644
 30
0.0
 10
-4126.214191939433
 20
3911.159148030148
 30
0.0
 10
-4126.214191939433
 20
3917.610836893652
 30
0.0
  0
SPLINE
  5
103
330
1F
100
AcDbEntity
  8
Predefinito
100
AcDbSpline
210
0.0
220
0.0
230
1.0
 70
    24
 71
     2
 72
     6
 73
     3
 74
     0
 42
0.0000000001
 43
0.0000000001
 40
0.0
 40
0.0
 40
0.0
 40
5.206347657705919
 40
5.206347657705919
 40
5.206347657705919
 10
-4126.214191939433
 20
3898.175536919769
 30
0.0
 10
-4126.214191939433
 20
3900.778710748622
 30
0.0
 10
-4126.214191939433
 20
3903.381884577475
 30
0.0
  0
SPLINE
  5
104
330
1F
100
AcDbEntity
  8
Predefinito
100
AcDbSpline
210
0.0
220
0.0
230
1.0
 70
    24
 71
     2
 72
     6
 73
     3
 74
     0
 42
0.0000000001
 43
0.0000000001
 40
0.0
 40
0.0
 40
0.0
 40
4.267878485155961
 40
4.267878485155961
 40
4.267878485155961
 10
-4126.214191939433
 20
3893.541441781449
 30
0.0
 10
-4126.214191939433
 20
3895.675381024027
 30
0.0
 10
-4126.214191939433
 20
3897.809320266605
 30
0.0
  0
SPLINE
  5
105
330
1F
100
AcDbEntity
  8
Predefinito
100
AcDbSpline
210
0.0
220
0.0
230
1.0
 70
    24
 71
     2
 72
     6
 73
     3
 74
     0
 42
0.0000000001
 43
0.0000000001
 40
0.0
 40
0.0
 40
0.0
 40
3.965494150417726
 40
3.965494150417726
 40
3.965494150417726
 10
-4126.214191939433
 20
3888.715962409422
 30
0.0
 10
-4126.214191939433
 20
3890.69870948463
 30
0.0
 10
-4126.214191939433
 20
3892.681456559839
 30
0.0
  0
SPLINE
  5
106
330
1F
100
AcDbEntity
  8
Predefinito
100
AcDbSpline
210
0.0
220
0.0
230
1.0
 70
    24
 71
     2
 72
     6
 73
     3
 74
     0
 42
0.0000000001
 43
0.0000000001
 40
0.0
 40
0.0
 40
0.0
 40
5.726024306055933
 40
5.726024306055933
 40
5.726024306055933
 10
-4126.214191939433
 20
3881.378619769362
 30
0.0
 10
-4126.214191939433
 20
3884.241631922389
 30
0.0
 10
-4126.214191939433
 20
3887.104644075418
 30
0.0
  0
SPLINE
  5
107
330
1F
100
AcDbEntity
  8
Predefinito
100
AcDbSpline
210
0.0
220
0.0
230
1.0
 70
    24
 71
     2
 72
     6
 73
     3
 74
     0
 42
0.0000000001
 43
0.0000000001
 40
0.0
 40
0.0
 40
0.0
 40
4.367122383547212
 40
4.367122383547212
 40
4.367122383547212
 10
-4126.214191939433
 20
3875.858240054954
 30
0.0
 10
-4126.214191939433
 20
3878.041801246727
 30
0.0
 10
-4126.214191939433
 20
3880.225362438501
 30
0.0
  0
SPLINE
  5
108
330
1F
100
AcDbEntity
  8
Predefinito
100
AcDbSpline
210
0.0
220
0.0
230
1.0
 70
    24
 71
     2
 72
     6
 73
     3
 74
     0
 42
0.0000000001
 43
0.0000000001
 40
0.0
 40
0.0
 40
0.0
 40
4.768370463558767
 40
4.768370463558767
 40
4.768370463558767
 10
-4126.214191939433
 20
3870.693836220632
 30
0.0
 10
-4126.214191939433
 20
3873.078021452411
 30
0.0
 10
-4126.214191939433
 20
3875.46220668419
 30
0.0
  0
SPLINE
  5
109
330
1F
100
AcDbEntity
  8
Predefinito
100
AcDbSpline
210
0.0
220
0.0
230
1.0
 70
    24
 71
     2
 72
     6
 73
     3
 74
     0
 42
0.0000000001
 43
0.0000000001
 40
0.0
 40
0.0
 40
0.0
 40
6.164609199617644
 40
6.164609199617644
 40
6.164609199617644
 10
-4126.214191939433
 20
3863.320062985201
 30
0.0
 10
-4126.214191939433
 20
3866.40236758501
 30
0.0
 10
-4126.214191939433
 20
3869.484672184819
 30
0.0
  0
SPLINE
  5
10A
330
1F
100
AcDbEntity
  8
Predefinito
100
AcDbSpline
210
0.0
220
0.0
230
1.0
 70
    24
 71
     2
 72
     6
 73
     3
 74
     0
 42
0.0000000001
 43
0.0000000001
 40
0.0
 40
0.0
 40
0.0
 40
4.684057901238248
 40
4.684057901238248
 40
4.684057901238248
 10
-4126.214191939433
 20
3857.59491488325
 30
0.0
 10
-4126.214191939433
 20
3859.936943833869
 30
0.0
 10
-4126.214191939433
 20
3862.278972784488
 30
0.0
  0
SPLINE
  5
10B
330
1F
100
AcDbEntity
  8
Predefinito
100
AcDbSpline
210
0.0
220
0.0
230
1.0
 70
    24
 71
     2
 72
     6
 73
     3
 74
     0
 42
0.0000000001
 43
0.0000000001
 40
0.0
 40
0.0
 40
0.0
 40
5.154559873641119
 40
5.154559873641119
 40
5.154559873641119
 10
-4126.214191939433
 20
3850.650318082377
 30
0.0
 10
-4126.214191939433
 20
3853.227598019198
 30
0.0
 10
-4126.214191939433
 20
3855.804877956019
 30
0.0
  0
SPLINE
  5
10C
330
1F
100
AcDbEntity
  8
Predefinito
100
AcDbSpline
210
0.0
220
0.0
230
1.0
 70
    24
 71
     2
 72
     6
 73
     3
 74
     0
 42
0.0000000001
 43
0.0000000001
 40
0.0
 40
0.0
 40
0.0
 40
6.587265524082341
 40
6.587265524082341
 40
6.587265524082341
 10
-4126.214191939433
 20
3843.974958479622
 30
0.0
 10
-4126.214191939433
 20
3847.268591241663
 30
0.0
 10
-4126.214191939433
 20
3850.562224003704
 30
0.0
  0
SPLINE
  5
10D
330
1F
100
AcDbEntity
  8
Predefinito
100
AcDbSpline
210
0.0
220
0.0
230
1.0
 70
    24
 71
     2
 72
     6
 73
     3
 74
     0
 42
0.0000000001
 43
0.0000000001
 40
0.0
 40
0.0
 40
0.0
 40
4.990188043323542
 40
4.990188043323542
 40
4.990188043323542
 10
-4126.214191939433
 20
3838.089906836645
 30
0.0
 10
-4126.214191939433
 20
3840.585000858307
 30
0.0
 10
-4126.214191939433
 20
3843.080094879968
 30
0.0
  0
SPLINE
  5
10E
330
1F
100
AcDbEntity
  8
Predefinito
100
AcDbSpline
210
0.0
220
0.0
230
1.0
 70
    24
 71
     2
 72
     6
 73
     3
 74
     0
 42
0.0000000001
 43
0.0000000001
 40
0.0
 40
0.0
 40
0.0
 40
13.75822973561571
 40
13.75822973561571
 40
13.75822973561571
 10
-4126.214191939433
 20
3823.487566475595
 30
0.0
 10
-4126.214191939433
 20
3830.366681343402
 30
0.0
 10
-4126.214191939433
 20
3837.24579621121
 30
0.0
  0
SPLINE
  5
10F
330
1F
100
AcDbEntity
  8
Predefinito
100
AcDbSpline
210
0.0
220
0.0
230
1.0
 70
    24
 71
     2
 72
     6
 73
     3
 74
     0
 42
0.0000000001
 43
0.0000000001
 40
0.0
 40
0.0
 40
0.0
 40
21.07676965867449
 40
21.07676965867449
 40
21.07676965867449
 10
-4126.214191939433
 20
3801.597194779722
 30
0.0
 10
-4126.214191939433
 20
3812.135579609059
 30
0.0
 10
-4126.214191939433
 20
3822.673964438396
 30
0.0
  0
SPLINE
  5
110
330
1F
100
AcDbEntity
  8
Predefinito
100
AcDbSpline
210
0.0
220
0.0
230
1.0
 70
    24
 71
     2
 72
     6
 73
     3
 74
     0
 42
0.0000000001
 43
0.0000000001
 40
0.0
 40
0.0
 40
0.0
 40
13.11136100796875
 40
13.11136100796875
 40
13.11136100796875
 10
-4126.214191939433
 20
3787.996150767857
 30
0.0
 10
-4126.214191939433
 20
3794.551831271841
 30
0.0
 10
-4126.214191939433
 20
3801.107511775826
 30
0.0
  0
SPLINE
  5
111
330
1F
100
AcDbEntity
  8
Predefinito
100
AcDbSpline
210
0.0
220
0.0
230
1.0
 70
    24
 71
     2
 72
     6
 73
     3
 74
     0
 42
0.0000000001
 43
0.0000000001
 40
0.0
 40
0.0
 40
0.0
 40
19.74199557743532
 40
19.74199557743532
 40
19.74199557743532
 10
-4126.214191939433
 20
3766.688635936715
 30
0.0
 10
-4126.214191939433
 20
3776.559633725433
 30
0.0
 10
-4126.214191939433
 20
3786.430631514151
 30
0.0
  0
SPLINE
  5
112
330
1F
100
AcDbEntity
  8
Predefinito
100
AcDbSpline
210
0.0
220
0.0
230
1.0
 70
    24
 71
     2
 72
     6
 73
     3
 74
     0
 42
0.0000000001
 43
0.0000000001
 40
0.0
 40
0.0
 40
0.0
 40
6.00540646649506
 40
6.00540646649506
 40
6.00540646649506
 10
-4126.214191939433
 20
3756.214663953624
 30
0.0
 10
-4126.214191939433
 20
3759.217367186872
 30
0.0
 10
-4126.214191939433
 20
3762.22007042012
 30
0.0
  0
SPLINE
  5
113
330
1F
100
AcDbEntity
  8
Predefinito
100
AcDbSpline
210
0.0
220
0.0
230
1.0
 70
    24
 71
     2
 72
     6
 73
     3
 74
     0
 42
0.0000000001
 43
0.0000000001
 40
0.0
 40
0.0
 40
0.0
 40
4.576392635799493
 40
4.576392635799493
 40
4.576392635799493
 10
-4126.214191939433
 20
3748.59907183351
 30
0.0
 10
-4126.214191939433
 20
3750.887268151409
 30
0.0
 10
-4126.214191939433
 20
3753.175464469309
 30
0.0
  0
SPLINE
  5
114
330
1F
100
AcDbEntity
  8
Predefinito
100
AcDbSpline
210
0.0
220
0.0
230
1.0
 70
    24
 71
     2
 72
     6
 73
     3
 74
     0
 42
0.0000000001
 43
0.0000000001
 40
0.0
 40
0.0
 40
0.0
 40
16.44254010983377
 40
16.44254010983377
 40
16.44254010983377
 10
-4126.214191939433
 20
3729.949598674081
 30
0.0
 10
-4126.214191939433
 20
3738.170868728997
 30
0.0
 10
-4126.214191939433
 20
3746.392138783915
 30
0.0
  0
SPLINE
  5
115
330
1F
100
AcDbEntity
  8
Predefinito
100
AcDbSpline
210
0.0
220
0.0
230
1.0
 70
    24
 71
     2
 72
     6
 73
     3
 74
     0
 42
0.0000000001
 43
0.0000000001
 40
0.0
 40
0.0
 40
0.0
 40
6.846184686699416
 40
6.846184686699416
 40
6.846184686699416
 10
-4126.214191939433
 20
3722.645817426517
 30
0.0
 10
-4126.214191939433
 20
3726.068909769866
 30
0.0
 10
-4126.214191939433
 20
3729.492002113216
 30
0.0
  0
SPLINE
  5
116
330
1F
100
AcDbEntity
  8
Predefinito
100
AcDbSpline
210
0.0
220
0.0
230
1.0
 70
    24
 71
     2
 72
     6
 73
     3
 74
     0
 42
0.0000000001
 43
0.0000000001
 40
0.0
 40
0.0
 40
0.0
 40
8.680186267794852
 40
8.680186267794852
 40
8.680186267794852
 10
-4126.214191939433
 20
3712.310714277727
 30
0.0
 10
-4126.214191939433
 20
3716.650807411624
 30
0.0
 10
-4126.214191939433
 20
3720.990900545522
 30
0.0
  0
SPLINE
  5
117
330
1F
100
AcDbEntity
  8
Predefinito
100
AcDbSpline
210
0.0
220
0.0
230
1.0
 70
    24
 71
     2
 72
     6
 73
     3
 74
     0
 42
0.0000000001
 43
0.0000000001
 40
0.0
 40
0.0
 40
0.0
 40
6.50763823688294
 40
6.50763823688294
 40
6.50763823688294
 10
-4126.214191939433
 20
3704.25961145613
 30
0.0
 10
-4126.214191939433
 20
3707.513430574571
 30
0.0
 10
-4126.214191939433
 20
3710.767249693013
 30
0.0
  0
SPLINE
  5
118
330
1F
100
AcDbEntity
  8
Predefinito
100
AcDbSpline
210
0.0
220
0.0
230
1.0
 70
    24
 71
     2
 72
     6
 73
     3
 74
     0
 42
0.0000000001
 43
0.0000000001
 40
0.0
 40
0.0
 40
0.0
 40
7.084828907749397
 40
7.084828907749397
 40
7.084828907749397
 10
-4126.214191939433
 20
3694.654904404627
 30
0.0
 10
-4126.214191939433
 20
3698.197318858502
 30
0.0
 10
-4126.214191939433
 20
3701.739733312377
 30
0.0
  0
SPLINE
  5
119
330
1F
100
AcDbEntity
  8
Predefinito
100
AcDbSpline
210
0.0
220
0.0
230
1.0
 70
    24
 71
     2
 72
     6
 73
     3
 74
     0
 42
0.0000000001
 43
0.0000000001
 40
0.0
 40
0.0
 40
0.0
 40
8.988987496377376
 40
8.988987496377376
 40
8.988987496377376
 10
-4126.214191939433
 20
3685.644811187681
 30
0.0
 10
-4126.214191939433
 20
3690.13930493587
 30
0.0
 10
-4126.214191939433
 20
3694.633798684059
 30
0.0
  0
SPLINE
  5
11A
330
1F
100
AcDbEntity
  8
Predefinito
100
AcDbSpline
210
0.0
220
0.0
230
1.0
 70
    24
 71
     2
 72
     6
 73
     3
 74
     0
 42
0.0000000001
 43
0.0000000001
 40
0.0
 40
0.0
 40
0.0
 40
6.725590601299245
 40
6.725590601299245
 40
6.725590601299245
 10
-4126.214191939433
 20
3677.68113716963
 30
0.0
 10
-4126.214191939433
 20
3681.04393247028
 30
0.0
 10
-4126.214191939433
 20
3684.40672777093
 30
0.0
  0
SPLINE
  5
11B
330
1F
100
AcDbEntity
  8
Predefinito
100
AcDbSpline
210
0.0
220
0.0
230
1.0
 70
    24
 71
     2
 72
     6
 73
     3
 74
     0
 42
0.0000000001
 43
0.0000000001
 40
0.0
 40
0.0
 40
0.0
 40
18.10979974793418
 40
18.10979974793418
 40
18.10979974793418
 10
-4126.214191939433
 20
3658.448068175027
 30
0.0
 10
-4126.214191939433
 20
3667.502968048994
 30
0.0
 10
-4126.214191939433
 20
3676.557867922962
 30
0.0
  0
SPLINE
  5
11C
330
1F
100
AcDbEntity
  8
Predefinito
100
AcDbSpline
210
0.0
220
0.0
230
1.0
 70
    24
 71
     2
 72
     6
 73
     3
 74
     0
 42
0.0000000001
 43
0.0000000001
 40
0.0
 40
0.0
 40
0.0
 40
6.9285699227853
 40
6.9285699227853
 40
6.9285699227853
 10
-4126.214191939433
 20
3650.273937721902
 30
0.0
 10
-4126.214191939433
 20
3653.738222683294
 30
0.0
 10
-4126.214191939433
 20
3657.202507644687
 30
0.0
  0
SPLINE
  5
11D
330
1F
100
AcDbEntity
  8
Predefinito
100
AcDbSpline
210
0.0
220
0.0
230
1.0
 70
    24
 71
     2
 72
     6
 73
     3
 74
     0
 42
0.0000000001
 43
0.0000000001
 40
0.0
 40
0.0
 40
0.0
 40
18.99356658932993
 40
18.99356658932993
 40
18.99356658932993
 10
-4126.214191939433
 20
3629.740956822795
 30
0.0
 10
-4126.214191939433
 20
3639.23774011746
 30
0.0
 10
-4126.214191939433
 20
3648.734523412125
 30
0.0
  0
SPLINE
  5
11E
330
1F
100
AcDbEntity
  8
Predefinito
100
AcDbSpline
210
0.0
220
0.0
230
1.0
 70
    24
 71
     2
 72
     6
 73
     3
 74
     0
 42
0.0000000001
 43
0.0000000001
 40
0.0
 40
0.0
 40
0.0
 40
7.542695387624917
 40
7.542695387624917
 40
7.542695387624917
 10
-4126.214191939433
 20
3621.12135998124
 30
0.0
 10
-4126.214191939433
 20
3624.892707675053
 30
0.0
 10
-4126.214191939433
 20
3628.664055368865
 30
0.0
  0
SPLINE
  5
11F
330
1F
100
AcDbEntity
  8
Predefinito
100
AcDbSpline
210
0.0
220
0.0
230
1.0
 70
    24
 71
     2
 72
     6
 73
     3
 74
     0
 42
0.0000000001
 43
0.0000000001
 40
0.0
 40
0.0
 40
0.0
 40
19.48539536672433
 40
19.48539536672433
 40
19.48539536672433
 10
-4126.214191939433
 20
3600.632586289425
 30
0.0
 10
-4126.214191939433
 20
3610.375283972787
 30
0.0
 10
-4126.214191939433
 20
3620.117981656149
 30
0.0
  0
SPLINE
  5
120
330
1F
100
AcDbEntity
  8
Predefinito
100
AcDbSpline
210
0.0
220
0.0
230
1.0
 70
    24
 71
     2
 72
     6
 73
     3
 74
     0
 42
0.0000000001
 43
0.0000000001
 40
0.0
 40
0.0
 40
0.0
 40
5.062439884471587
 40
5.062439884471587
 40
5.062439884471587
 10
-4126.214191939433
 20
3593.231675983036
 30
0.0
 10
-4126.214191939433
 20
3595.762895925272
 30
0.0
 10
-4126.214191939433
 20
3598.294115867508
 30
0.0
  0
SPLINE
  5
121
330
1F
100
AcDbEntity
  8
Predefinito
100
AcDbSpline
210
0.0
220
0.0
230
1.0
 70
    24
 71
     2
 72
     6
 73
     3
 74
     0
 42
0.0000000001
 43
0.0000000001
 40
0.0
 40
0.0
 40
0.0
 40
19.4691468148003
 40
19.4691468148003
 40
19.4691468148003
 10
-4126.214191939433
 20
3571.156360156579
 30
0.0
 10
-4126.214191939433
 20
3580.890933563979
 30
0.0
 10
-4126.214191939433
 20
3590.625506971379
 30
0.0
  0
SPLINE
  5
122
330
1F
100
AcDbEntity
  8
Predefinito
100
AcDbSpline
210
0.0
220
0.0
230
1.0
 70
    24
 71
     2
 72
     6
 73
     3
 74
     0
 42
0.0000000001
 43
0.0000000001
 40
0.0
 40
0.0
 40
0.0
 40
7.119494128024598
 40
7.119494128024598
 40
7.119494128024598
 10
-4126.214191939433
 20
3563.723411527118
 30
0.0
 10
-4126.214191939433
 20
3567.28315859113
 30
0.0
 10
-4126.214191939433
 20
3570.842905655142
 30
0.0
  0
SPLINE
  5
123
330
1F
100
AcDbEntity
  8
Predefinito
100
AcDbSpline
210
0.0
220
0.0
230
1.0
 70
    24
 71
     2
 72
     6
 73
     3
 74
     0
 42
0.0000000001
 43
0.0000000001
 40
0.0
 40
0.0
 40
0.0
 40
18.49219688557559
 40
18.49219688557559
 40
18.49219688557559
 10
-4126.214191939433
 20
3541.215874221551
 30
0.0
 10
-4126.214191939433
 20
3550.461972664339
 30
0.0
 10
-4126.214191939433
 20
3559.708071107126
 30
0.0
  0
SPLINE
  5
124
330
1F
100
AcDbEntity
  8
Predefinito
100
AcDbSpline
210
0.0
220
0.0
230
1.0
 70
    24
 71
     2
 72
     6
 73
     3
 74
     0
 42
0.0000000001
 43
0.0000000001
 40
0.0
 40
0.0
 40
0.0
 40
20.57330740082853
 40
20.57330740082853
 40
20.57330740082853
 10
-4126.214191939433
 20
3519.86763060054
 30
0.0
 10
-4126.214191939433
 20
3530.154284300955
 30
0.0
 10
-4126.214191939433
 20
3540.440938001369
 30
0.0
  0
SPLINE
  5
125
330
1F
100
AcDbEntity
  8
Predefinito
100
AcDbSpline
210
0.0
220
0.0
230
1.0
 70
    24
 71
     2
 72
     6
 73
     3
 74
     0
 42
0.0000000001
 43
0.0000000001
 40
0.0
 40
0.0
 40
0.0
 40
7.6589335428298
 40
7.6589335428298
 40
7.6589335428298
 10
-4126.214191939433
 20
3510.758831559819
 30
0.0
 10
-4126.214191939433
 20
3514.588298331234
 30
0.0
 10
-4126.214191939433
 20
3518.417765102649
 30
0.0
  0
SPLINE
  5
126
330
1F
100
AcDbEntity
  8
Predefinito
100
AcDbSpline
210
0.0
220
0.0
230
1.0
 70
    24
 71
     2
 72
     6
 73
     3
 74
     0
 42
0.0000000001
 43
0.0000000001
 40
0.0
 40
0.0
 40
0.0
 40
20.22679462975748
 40
20.22679462975748
 40
20.22679462975748
 10
-4126.214191939433
 20
3489.270691197391
 30
0.0
 10
-4126.214191939433
 20
3499.38408851227
 30
0.0
 10
-4126.214191939433
 20
3509.497485827149
 30
0.0
  0
SPLINE
  5
127
330
1F
100
AcDbEntity
  8
Predefinito
100
AcDbSpline
210
0.0
220
0.0
230
1.0
 70
    24
 71
     2
 72
     6
 73
     3
 74
     0
 42
0.0000000001
 43
0.0000000001
 40
0.0
 40
0.0
 40
0.0
 40
7.764065568646856
 40
7.764065568646856
 40
7.764065568646856
 10
-4126.214191939433
 20
3479.854864766615
 30
0.0
 10
-4126.214191939433
 20
3483.736897550938
 30
0.0
 10
-4126.214191939433
 20
3487.618930335262
 30
0.0
  0
SPLINE
  5
128
330
1F
100
AcDbEntity
  8
Predefinito
100
AcDbSpline
210
0.0
220
0.0
230
1.0
 70
    24
 71
     2
 72
     6
 73
     3
 74
     0
 42
0.0000000001
 43
0.0000000001
 40
0.0
 40
0.0
 40
0.0
 40
20.22185616514707
 40
20.22185616514707
 40
20.22185616514707
 10
-4126.214191939433
 20
3457.862860544939
 30
0.0
 10
-4126.214191939433
 20
3467.973788627513
 30
0.0
 10
-4126.214191939433
 20
3478.084716710086
 30
0.0
  0
SPLINE
  5
129
330
1F
100
AcDbEntity
  8
Predefinito
100
AcDbSpline
210
0.0
220
0.0
230
1.0
 70
    24
 71
     2
 72
     6
 73
     3
 74
     0
 42
0.0000000001
 43
0.0000000001
 40
0.0
 40
0.0
 40
0.0
 40
7.851575045164282
 40
7.851575045164282
 40
7.851575045164282
 10
-4126.214191939433
 20
3448.574271449911
 30
0.0
 10
-4126.214191939433
 20
3452.500058972493
 30
0.0
 10
-4126.214191939433
 20
3456.425846495075
 30
0.0
  0
SPLINE
  5
12A
330
1F
100
AcDbEntity
  8
Predefinito
100
AcDbSpline
210
0.0
220
0.0
230
1.0
 70
    24
 71
     2
 72
     6
 73
     3
 74
     0
 42
0.0000000001
 43
0.0000000001
 40
0.0
 40
0.0
 40
0.0
 40
19.71786782393019
 40
19.71786782393019
 40
19.71786782393019
 10
-4126.214191939433
 20
3426.557931185252
 30
0.0
 10
-4126.214191939433
 20
3436.416865097217
 30
0.0
 10
-4126.214191939433
 20
3446.275799009182
 30
0.0
  0
SPLINE
  5
12B
330
1F
100
AcDbEntity
  8
Predefinito
100
AcDbSpline
210
0.0
220
0.0
230
1.0
 70
    24
 71
     2
 72
     6
 73
     3
 74
     0
 42
0.0000000001
 43
0.0000000001
 40
0.0
 40
0.0
 40
0.0
 40
7.921153632571077
 40
7.921153632571077
 40
7.921153632571077
 10
-4126.214191939433
 20
3416.988323210145
 30
0.0
 10
-4126.214191939433
 20
3420.94890002643
 30
0.0
 10
-4126.214191939433
 20
3424.909476842716
 30
0.0
  0
SPLINE
  5
12C
330
1F
100
AcDbEntity
  8
Predefinito
100
AcDbSpline
210
0.0
220
0.0
230
1.0
 70
    24
 71
     2
 72
     6
 73
     3
 74
     0
 42
0.0000000001
 43
0.0000000001
 40
0.0
 40
0.0
 40
0.0
 40
10.76885001604433
 40
10.76885001604433
 40
10.76885001604433
 10
-4126.214191939433
 20
3403.376160881697
 30
0.0
 10
-4126.214191939433
 20
3408.760585889719
 30
0.0
 10
-4126.214191939433
 20
3414.145010897741
 30
0.0
  0
SPLINE
  5
12D
330
1F
100
AcDbEntity
  8
Predefinito
100
AcDbSpline
210
0.0
220
0.0
230
1.0
 70
    24
 71
     2
 72
     6
 73
     3
 74
     0
 42
0.0000000001
 43
0.0000000001
 40
0.0
 40
0.0
 40
0.0
 40
8.220565605018237
 40
8.220565605018237
 40
8.220565605018237
 10
-4126.214191939433
 20
3394.991620999713
 30
0.0
 10
-4126.214191939433
 20
3399.101903802222
 30
0.0
 10
-4126.214191939433
 20
3403.212186604731
 30
0.0
  0
SPLINE
  5
12E
330
1F
100
AcDbEntity
  8
Predefinito
100
AcDbSpline
210
0.0
220
0.0
230
1.0
 70
    24
 71
     2
 72
     6
 73
     3
 74
     0
 42
0.0000000001
 43
0.0000000001
 40
0.0
 40
0.0
 40
0.0
 40
7.413812946111193
 40
7.413812946111193
 40
7.413812946111193
 10
-4126.214191939433
 20
3385.168792653799
 30
0.0
 10
-4126.214191939433
 20
3388.875699126855
 30
0.0
 10
-4126.214191939433
 20
3392.58260559991
 30
0.0
  0
SPLINE
  5
12F
330
1F
100
AcDbEntity
  8
Predefinito
100
AcDbSpline
210
0.0
220
0.0
230
1.0
 70
    24
 71
     2
 72
     6
 73
     3
 74
     0
 42
0.0000000001
 43
0.0000000001
 40
0.0
 40
0.0
 40
0.0
 40
18.83389507980564
 40
18.83389507980564
 40
18.83389507980564
 10
-4126.214191939433
 20
3361.194345293387
 30
0.0
 10
-4126.214191939433
 20
3370.61129283329
 30
0.0
 10
-4126.214191939433
 20
3380.028240373193
 30
0.0
  0
SPLINE
  5
130
330
1F
100
AcDbEntity
  8
Predefinito
100
AcDbSpline
210
0.0
220
0.0
230
1.0
 70
    24
 71
     2
 72
     6
 73
     3
 74
     0
 42
0.0000000001
 43
0.0000000001
 40
0.0
 40
0.0
 40
0.0
 40
6.89430635703502
 40
6.89430635703502
 40
6.89430635703502
 10
-4126.214191939433
 20
3353.188004610195
 30
0.0
 10
-4126.214191939433
 20
3356.635157788713
 30
0.0
 10
-4126.214191939433
 20
3360.08231096723
 30
0.0
  0
SPLINE
  5
131
330
1F
100
AcDbEntity
  8
Predefinito
100
AcDbSpline
210
0.0
220
0.0
230
1.0
 70
    24
 71
     2
 72
     6
 73
     3
 74
     0
 42
0.0000000001
 43
0.0000000001
 40
0.0
 40
0.0
 40
0.0
 40
10.87439882847502
 40
10.87439882847502
 40
10.87439882847502
 10
-4126.214191939433
 20
3338.343640221538
 30
0.0
 10
-4126.214191939433
 20
3343.780839635775
 30
0.0
 10
-4126.214191939433
 20
3349.218039050013
 30
0.0
  0
SPLINE
  5
132
330
1F
100
AcDbEntity
  8
Predefinito
100
AcDbSpline
210
0.0
220
0.0
230
1.0
 70
    24
 71
     2
 72
     6
 73
     3
 74
     0
 42
0.0000000001
 43
0.0000000001
 40
0.0
 40
0.0
 40
0.0
 40
8.019528342328613
 40
8.019528342328613
 40
8.019528342328613
 10
-4126.214191939433
 20
3329.140329766514
 30
0.0
 10
-4126.214191939433
 20
3333.150093937678
 30
0.0
 10
-4126.214191939433
 20
3337.159858108843
 30
0.0
  0
SPLINE
  5
133
330
1F
100
AcDbEntity
  8
Predefinito
100
AcDbSpline
210
0.0
220
0.0
230
1.0
 70
    24
 71
     2
 72
     6
 73
     3
 74
     0
 42
0.0000000001
 43
0.0000000001
 40
0.0
 40
0.0
 40
0.0
 40
6.672294794062509
 40
6.672294794062509
 40
6.672294794062509
 10
-4126.214191939433
 20
3319.292807874345
 30
0.0
 10
-4126.214191939433
 20
3322.628955271376
 30
0.0
 10
-4126.214191939433
 20
3325.965102668407
 30
0.0
  0
SPLINE
  5
134
330
1F
100
AcDbEntity
  8
Predefinito
100
AcDbSpline
210
0.0
220
0.0
230
1.0
 70
    24
 71
     2
 72
     6
 73
     3
 74
     0
 42
0.0000000001
 43
0.0000000001
 40
0.0
 40
0.0
 40
0.0
 40
10.34673035420201
 40
10.34673035420201
 40
10.34673035420201
 10
-4126.214191939433
 20
3305.743758379744
 30
0.0
 10
-4126.214191939433
 20
3310.917123556845
 30
0.0
 10
-4126.214191939433
 20
3316.090488733946
 30
0.0
  0
SPLINE
  5
135
330
1F
100
AcDbEntity
  8
Predefinito
100
AcDbSpline
210
0.0
220
0.0
230
1.0
 70
    24
 71
     2
 72
     6
 73
     3
 74
     0
 42
0.0000000001
 43
0.0000000001
 40
0.0
 40
0.0
 40
0.0
 40
7.489737392665575
 40
7.489737392665575
 40
7.489737392665575
 10
-4126.214191939433
 20
3296.8893951082
 30
0.0
 10
-4126.214191939433
 20
3300.634263804533
 30
0.0
 10
-4126.214191939433
 20
3304.379132500866
 30
0.0
  0
SPLINE
  5
136
330
1F
100
AcDbEntity
  8
Predefinito
100
AcDbSpline
210
0.0
220
0.0
230
1.0
 70
    24
 71
     2
 72
     6
 73
     3
 74
     0
 42
0.0000000001
 43
0.0000000001
 40
0.0
 40
0.0
 40
0.0
 40
6.411781068677101
 40
6.411781068677101
 40
6.411781068677101
 10
-4126.214191939433
 20
3284.114904570548
 30
0.0
 10
-4126.214191939433
 20
3287.320795104887
 30
0.0
 10
-4126.214191939433
 20
3290.526685639225
 30
0.0
  0
SPLINE
  5
137
330
1F
100
AcDbEntity
  8
Predefinito
100
AcDbSpline
210
0.0
220
0.0
230
1.0
 70
    24
 71
     2
 72
     6
 73
     3
 74
     0
 42
0.0000000001
 43
0.0000000001
 40
0.0
 40
0.0
 40
0.0
 40
8.273864345880611
 40
8.273864345880611
 40
8.273864345880611
 10
-4126.214191939433
 20
3274.234774932727
 30
0.0
 10
-4126.214191939433
 20
3278.371707105668
 30
0.0
 10
-4126.214191939433
 20
3282.508639278608
 30
0.0
  0
SPLINE
  5
138
330
1F
100
AcDbEntity
  8
Predefinito
100
AcDbSpline
210
0.0
220
0.0
230
1.0
 70
    24
 71
     2
 72
     6
 73
     3
 74
     0
 42
0.0000000001
 43
0.0000000001
 40
0.0
 40
0.0
 40
0.0
 40
8.043156192703918
 40
8.043156192703918
 40
8.043156192703918
 10
-4126.214191939433
 20
3263.508668414661
 30
0.0
 10
-4126.214191939433
 20
3267.530246511014
 30
0.0
 10
-4126.214191939433
 20
3271.551824607365
 30
0.0
  0
SPLINE
  5
139
330
1F
100
AcDbEntity
  8
Predefinito
100
AcDbSpline
210
0.0
220
0.0
230
1.0
 70
    24
 71
     2
 72
     6
 73
     3
 74
     0
 42
0.0000000001
 43
0.0000000001
 40
0.0
 40
0.0
 40
0.0
 40
7.263249232414637
 40
7.263249232414637
 40
7.263249232414637
 10
-4126.214191939433
 20
3251.726542873767
 30
0.0
 10
-4126.214191939433
 20
3255.358167489975
 30
0.0
 10
-4126.214191939433
 20
3258.989792106182
 30
0.0
  0
SPLINE
  5
13A
330
1F
100
AcDbEntity
  8
Predefinito
100
AcDbSpline
210
0.0
220
0.0
230
1.0
 70
    24
 71
     2
 72
     6
 73
     3
 74
     0
 42
0.0000000001
 43
0.0000000001
 40
0.0
 40
0.0
 40
0.0
 40
10.37272917750897
 40
10.37272917750897
 40
10.37272917750897
 10
-4126.214191939433
 20
3240.955964707084
 30
0.0
 10
-4126.214191939433
 20
3246.142329295838
 30
0.0
 10
-4126.214191939433
 20
3251.328693884593
 30
0.0
  0
SPLINE
  5
13B
330
1F
100
AcDbEntity
  8
Predefinito
100
AcDbSpline
210
0.0
220
0.0
230
1.0
 70
    24
 71
     2
 72
     6
 73
     3
 74
     0
 42
0.0000000001
 43
0.0000000001
 40
0.0
 40
0.0
 40
0.0
 40
7.609685777592858
 40
7.609685777592858
 40
7.609685777592858
 10
-4126.214191939433
 20
3231.817527100001
 30
0.0
 10
-4126.214191939433
 20
3235.622369988798
 30
0.0
 10
-4126.214191939433
 20
3239.427212877594
 30
0.0
  0
SPLINE
  5
13C
330
1F
100
AcDbEntity
  8
Predefinito
100
AcDbSpline
210
0.0
220
0.0
230
1.0
 70
    24
 71
     2
 72
     6
 73
     3
 74
     0
 42
0.0000000001
 43
0.0000000001
 40
0.0
 40
0.0
 40
0.0
 40
7.748001813944029
 40
7.748001813944029
 40
7.748001813944029
 10
-4126.214191939433
 20
3220.459753769586
 30
0.0
 10
-4126.214191939433
 20
3224.333754676558
 30
0.0
 10
-4126.214191939433
 20
3228.20775558353
 30
0.0
  0
SPLINE
  5
13D
330
1F
100
AcDbEntity
  8
Predefinito
100
AcDbSpline
210
0.0
220
0.0
230
1.0
 70
    24
 71
     2
 72
     6
 73
     3
 74
     0
 42
0.0000000001
 43
0.0000000001
 40
0.0
 40
0.0
 40
0.0
 40
10.7094049066427
 40
10.7094049066427
 40
10.7094049066427
 10
-4126.214191939433
 20
3208.760635662448
 30
0.0
 10
-4126.214191939433
 20
3214.115338115769
 30
0.0
 10
-4126.214191939433
 20
3219.470040569091
 30
0.0
  0
SPLINE
  5
13E
330
1F
100
AcDbEntity
  8
Predefinito
100
AcDbSpline
210
0.0
220
0.0
230
1.0
 70
    24
 71
     2
 72
     6
 73
     3
 74
     0
 42
0.0000000001
 43
0.0000000001
 40
0.0
 40
0.0
 40
0.0
 40
4.747359491510906
 40
4.747359491510906
 40
4.747359491510906
 10
-4126.214191939433
 20
3202.725980683718
 30
0.0
 10
-4126.214191939433
 20
3205.099660429473
 30
0.0
 10
-4126.214191939433
 20
3207.473340175229
 30
0.0
  0
SPLINE
  5
13F
330
1F
100
AcDbEntity
  8
Predefinito
100
AcDbSpline
210
0.0
220
0.0
230
1.0
 70
    24
 71
     2
 72
     6
 73
     3
 74
     0
 42
0.0000000001
 43
0.0000000001
 40
0.0
 40
0.0
 40
0.0
 40
7.529802582118464
 40
7.529802582118464
 40
7.529802582118464
 10
-4126.214191939433
 20
3189.303472659044
 30
0.0
 10
-4126.214191939433
 20
3193.068373950103
 30
0.0
 10
-4126.214191939433
 20
3196.833275241162
 30
0.0
  0
SPLINE
  5
140
330
1F
100
AcDbEntity
  8
Predefinito
100
AcDbSpline
210
0.0
220
0.0
230
1.0
 70
    24
 71
     2
 72
     6
 73
     3
 74
     0
 42
0.0000000001
 43
0.0000000001
 40
0.0
 40
0.0
 40
0.0
 40
10.62375647482304
 40
10.62375647482304
 40
10.62375647482304
 10
-4126.214191939433
 20
3176.797624799738
 30
0.0
 10
-4126.214191939433
 20
3182.109503037149
 30
0.0
 10
-4126.214191939433
 20
3187.421381274561
 30
0.0
  0
SPLINE
  5
141
330
1F
100
AcDbEntity
  8
Predefinito
100
AcDbSpline
210
0.0
220
0.0
230
1.0
 70
    24
 71
     2
 72
     6
 73
     3
 74
     0
 42
0.0000000001
 43
0.0000000001
 40
0.0
 40
0.0
 40
0.0
 40
7.881014202943788
 40
7.881014202943788
 40
7.881014202943788
 10
-4126.214191939433
 20
3167.882069077762
 30
0.0
 10
-4126.214191939433
 20
3171.822576179235
 30
0.0
 10
-4126.214191939433
 20
3175.763083280706
 30
0.0
  0
SPLINE
  5
142
330
1F
100
AcDbEntity
  8
Predefinito
100
AcDbSpline
210
0.0
220
0.0
230
1.0
 70
    24
 71
     2
 72
     6
 73
     3
 74
     0
 42
0.0000000001
 43
0.0000000001
 40
0.0
 40
0.0
 40
0.0
 40
18.19118019194593
 40
18.19118019194593
 40
18.19118019194593
 10
-4126.214191939433
 20
3145.141385202784
 30
0.0
 10
-4126.214191939433
 20
3154.236975298757
 30
0.0
 10
-4126.214191939433
 20
3163.332565394729
 30
0.0
  0
SPLINE
  5
143
330
1F
100
AcDbEntity
  8
Predefinito
100
AcDbSpline
210
0.0
220
0.0
230
1.0
 70
    24
 71
     2
 72
     6
 73
     3
 74
     0
 42
0.0000000001
 43
0.0000000001
 40
0.0
 40
0.0
 40
0.0
 40
7.79083598799798
 40
7.79083598799798
 40
7.79083598799798
 10
-4126.214191939433
 20
3136.577878661815
 30
0.0
 10
-4126.214191939433
 20
3140.473296655814
 30
0.0
 10
-4126.214191939433
 20
3144.368714649813
 30
0.0
  0
SPLINE
  5
144
330
1F
100
AcDbEntity
  8
Predefinito
100
AcDbSpline
210
0.0
220
0.0
230
1.0
 70
    24
 71
     2
 72
     6
 73
     3
 74
     0
 42
0.0000000001
 43
0.0000000001
 40
0.0
 40
0.0
 40
0.0
 40
18.31912147982757
 40
18.31912147982757
 40
18.31912147982757
 10
-4126.214191939433
 20
3113.865721027193
 30
0.0
 10
-4126.214191939433
 20
3123.025281767107
 30
0.0
 10
-4126.214191939433
 20
3132.184842507021
 30
0.0
  0
SPLINE
  5
145
330
1F
100
AcDbEntity
  8
Predefinito
100
AcDbSpline
210
0.0
220
0.0
230
1.0
 70
    24
 71
     2
 72
     6
 73
     3
 74
     0
 42
0.0000000001
 43
0.0000000001
 40
0.0
 40
0.0
 40
0.0
 40
7.682920644151181
 40
7.682920644151181
 40
7.682920644151181
 10
-4126.214191939433
 20
3105.678818151904
 30
0.0
 10
-4126.214191939433
 20
3109.520278473979
 30
0.0
 10
-4126.214191939433
 20
3113.361738796055
 30
0.0
  0
SPLINE
  5
146
330
1F
100
AcDbEntity
  8
Predefinito
100
AcDbSpline
210
0.0
220
0.0
230
1.0
 70
    24
 71
     2
 72
     6
 73
     3
 74
     0
 42
0.0000000001
 43
0.0000000001
 40
0.0
 40
0.0
 40
0.0
 40
19.96214433775413
 40
19.96214433775413
 40
19.96214433775413
 10
-4126.214191939433
 20
3083.043614599718
 30
0.0
 10
-4126.214191939433
 20
3093.024686768595
 30
0.0
 10
-4126.214191939433
 20
3103.005758937472
 30
0.0
  0
SPLINE
  5
147
330
1F
100
AcDbEntity
  8
Predefinito
100
AcDbSpline
210
0.0
220
0.0
230
1.0
 70
    24
 71
     2
 72
     6
 73
     3
 74
     0
 42
0.0000000001
 43
0.0000000001
 40
0.0
 40
0.0
 40
0.0
 40
7.557525652144705
 40
7.557525652144705
 40
7.557525652144705
 10
-4126.214191939433
 20
3075.255204814664
 30
0.0
 10
-4126.214191939433
 20
3079.033967640736
 30
0.0
 10
-4126.214191939433
 20
3082.812730466808
 30
0.0
  0
SPLINE
  5
148
330
1F
100
AcDbEntity
  8
Predefinito
100
AcDbSpline
210
0.0
220
0.0
230
1.0
 70
    24
 71
     2
 72
     6
 73
     3
 74
     0
 42
0.0000000001
 43
0.0000000001
 40
0.0
 40
0.0
 40
0.0
 40
38.69737951758862
 40
38.69737951758862
 40
38.69737951758862
 10
-4126.214191939433
 20
3033.04643340665
 30
0.0
 10
-4126.214191939433
 20
3052.395123165444
 30
0.0
 10
-4126.214191939433
 20
3071.743812924238
 30
0.0
  0
SPLINE
  5
149
330
1F
100
AcDbEntity
  8
Predefinito
100
AcDbSpline
210
0.0
220
0.0
230
1.0
 70
    24
 71
     2
 72
     6
 73
     3
 74
     0
 42
0.0000000001
 43
0.0000000001
 40
0.0
 40
0.0
 40
0.0
 40
5.284425973331508
 40
5.284425973331508
 40
5.284425973331508
 10
-4126.214191939433
 20
3025.37782450827
 30
0.0
 10
-4126.214191939433
 20
3028.020037494935
 30
0.0
 10
-4126.214191939433
 20
3030.662250481601
 30
0.0
  0
SPLINE
  5
14A
330
1F
100
AcDbEntity
  8
Predefinito
100
AcDbSpline
210
0.0
220
0.0
230
1.0
 70
    24
 71
     2
 72
     6
 73
     3
 74
     0
 42
0.0000000001
 43
0.0000000001
 40
0.0
 40
0.0
 40
0.0
 40
19.43420997941121
 40
19.43420997941121
 40
19.43420997941121
 10
-4126.214191939433
 20
3003.612662381976
 30
0.0
 10
-4126.214191939433
 20
3013.329767371682
 30
0.0
 10
-4126.214191939433
 20
3023.046872361387
 30
0.0
  0
SPLINE
  5
14B
330
1F
100
AcDbEntity
  8
Predefinito
100
AcDbSpline
210
0.0
220
0.0
230
1.0
 70
    24
 71
     2
 72
     6
 73
     3
 74
     0
 42
0.0000000001
 43
0.0000000001
 40
0.0
 40
0.0
 40
0.0
 40
6.719215070572318
 40
6.719215070572318
 40
6.719215070572318
 10
-4126.214191939433
 20
2995.007885003331
 30
0.0
 10
-4126.214191939433
 20
2998.367492538617
 30
0.0
 10
-4126.214191939433
 20
3001.727100073903
 30
0.0
  0
SPLINE
  5
14C
330
1F
100
AcDbEntity
  8
Predefinito
100
AcDbSpline
210
0.0
220
0.0
230
1.0
 70
    24
 71
     2
 72
     6
 73
     3
 74
     0
 42
0.0000000001
 43
0.0000000001
 40
0.0
 40
0.0
 40
0.0
 40
18.95255974064821
 40
18.95255974064821
 40
18.95255974064821
 10
-4126.214191939433
 20
2975.060002357763
 30
0.0
 10
-4126.214191939433
 20
2984.536282228087
 30
0.0
 10
-4126.214191939433
 20
2994.012562098411
 30
0.0
  0
SPLINE
  5
14D
330
1F
100
AcDbEntity
  8
Predefinito
100
AcDbSpline
210
0.0
220
0.0
230
1.0
 70
    24
 71
     2
 72
     6
 73
     3
 74
     0
 42
0.0000000001
 43
0.0000000001
 40
0.0
 40
0.0
 40
0.0
 40
6.939727004768429
 40
6.939727004768429
 40
6.939727004768429
 10
-4126.214191939433
 20
2966.563870571005
 30
0.0
 10
-4126.214191939433
 20
2970.033734073389
 30
0.0
 10
-4126.214191939433
 20
2973.503597575773
 30
0.0
  0
SPLINE
  5
14E
330
1F
100
AcDbEntity
  8
Predefinito
100
AcDbSpline
210
0.0
220
0.0
230
1.0
 70
    24
 71
     2
 72
     6
 73
     3
 74
     0
 42
0.0000000001
 43
0.0000000001
 40
0.0
 40
0.0
 40
0.0
 40
17.93804387207047
 40
17.93804387207047
 40
17.93804387207047
 10
-4126.214191939433
 20
2947.285828341889
 30
0.0
 10
-4126.214191939433
 20
2956.254850277924
 30
0.0
 10
-4126.214191939433
 20
2965.223872213959
 30
0.0
  0
SPLINE
  5
14F
330
1F
100
AcDbEntity
  8
Predefinito
100
AcDbSpline
210
0.0
220
0.0
230
1.0
 70
    24
 71
     2
 72
     6
 73
     3
 74
     0
 42
0.0000000001
 43
0.0000000001
 40
0.0
 40
0.0
 40
0.0
 40
6.735452295773939
 40
6.735452295773939
 40
6.735452295773939
 10
-4126.214191939433
 20
2939.320316126223
 30
0.0
 10
-4126.214191939433
 20
2942.68804227411
 30
0.0
 10
-4126.214191939433
 20
2946.055768421997
 30
0.0
  0
SPLINE
  5
150
330
1F
100
AcDbEntity
  8
Predefinito
100
AcDbSpline
210
0.0
220
0.0
230
1.0
 70
    24
 71
     2
 72
     6
 73
     3
 74
     0
 42
0.0000000001
 43
0.0000000001
 40
0.0
 40
0.0
 40
0.0
 40
17.85716450070504
 40
17.85716450070504
 40
17.85716450070504
 10
-4126.214191939433
 20
2920.354990461984
 30
0.0
 10
-4126.214191939433
 20
2929.283572712337
 30
0.0
 10
-4126.214191939433
 20
2938.21215496269
 30
0.0
  0
SPLINE
  5
151
330
1F
100
AcDbEntity
  8
Predefinito
100
AcDbSpline
210
0.0
220
0.0
230
1.0
 70
    24
 71
     2
 72
     6
 73
     3
 74
     0
 42
0.0000000001
 43
0.0000000001
 40
0.0
 40
0.0
 40
0.0
 40
6.51256945715204
 40
6.51256945715204
 40
6.51256945715204
 10
-4126.214191939433
 20
2912.930465392824
 30
0.0
 10
-4126.214191939433
 20
2916.1867501214
 30
0.0
 10
-4126.214191939433
 20
2919.443034849976
 30
0.0
  0
SPLINE
  5
152
330
1F
100
AcDbEntity
  8
Predefinito
100
AcDbSpline
210
0.0
220
0.0
230
1.0
 70
    24
 71
     2
 72
     6
 73
     3
 74
     0
 42
0.0000000001
 43
0.0000000001
 40
0.0
 40
0.0
 40
0.0
 40
17.24583919456745
 40
17.24583919456745
 40
17.24583919456745
 10
-4126.214191939433
 20
2894.333412979749
 30
0.0
 10
-4126.214191939433
 20
2902.956332577032
 30
0.0
 10
-4126.214191939433
 20
2911.579252174316
 30
0.0
  0
SPLINE
  5
153
330
1F
100
AcDbEntity
  8
Predefinito
100
AcDbSpline
210
0.0
220
0.0
230
1.0
 70
    24
 71
     2
 72
     6
 73
     3
 74
     0
 42
0.0000000001
 43
0.0000000001
 40
0.0
 40
0.0
 40
0.0
 40
6.335097388643135
 40
6.335097388643135
 40
6.335097388643135
 10
-4126.214191939433
 20
2887.398137382631
 30
0.0
 10
-4126.214191939433
 20
2890.565686076952
 30
0.0
 10
-4126.214191939433
 20
2893.733234771274
 30
0.0
  0
SPLINE
  5
154
330
1F
100
AcDbEntity
  8
Predefinito
100
AcDbSpline
210
0.0
220
0.0
230
1.0
 70
    24
 71
     2
 72
     6
 73
     3
 74
     0
 42
0.0000000001
 43
0.0000000001
 40
0.0
 40
0.0
 40
0.0
 40
24.71975323299466
 40
24.71975323299466
 40
24.71975323299466
 10
-4126.214191939433
 20
2861.148794122778
 30
0.0
 10
-4126.214191939433
 20
2873.508670739275
 30
0.0
 10
-4126.214191939433
 20
2885.868547355773
 30
0.0
  0
SPLINE
  5
155
330
1F
100
AcDbEntity
  8
Predefinito
100
AcDbSpline
210
0.0
220
0.0
230
1.0
 70
    24
 71
     2
 72
     6
 73
     3
 74
     0
 42
0.0000000001
 43
0.0000000001
 40
0.0
 40
0.0
 40
0.0
 40
20.34594261334269
 40
20.34594261334269
 40
20.34594261334269
 10
-4126.214191939433
 20
2840.605159109968
 30
0.0
 10
-4126.214191939433
 20
2850.778130416639
 30
0.0
 10
-4126.214191939433
 20
2860.95110172331
 30
0.0
  0
SPLINE
  5
156
330
1F
100
AcDbEntity
  8
Predefinito
100
AcDbSpline
210
0.0
220
0.0
230
1.0
 70
    24
 71
     2
 72
     6
 73
     3
 74
     0
 42
0.0000000001
 43
0.0000000001
 40
0.0
 40
0.0
 40
0.0
 40
5.634987964680477
 40
5.634987964680477
 40
5.634987964680477
 10
-4126.214191939433
 20
2833.769830230128
 30
0.0
 10
-4126.214191939433
 20
2836.587324212469
 30
0.0
 10
-4126.214191939433
 20
2839.404818194809
 30
0.0
  0
SPLINE
  5
157
330
1F
100
AcDbEntity
  8
Predefinito
100
AcDbSpline
210
0.0
220
0.0
230
1.0
 70
    24
 71
     2
 72
     6
 73
     3
 74
     0
 42
0.0000000001
 43
0.0000000001
 40
0.0
 40
0.0
 40
0.0
 40
4.782385332046033
 40
4.782385332046033
 40
4.782385332046033
 10
-4126.214191939433
 20
2828.124894573698
 30
0.0
 10
-4126.214191939433
 20
2830.516087239721
 30
0.0
 10
-4126.214191939433
 20
2832.907279905744
 30
0.0
  0
SPLINE
  5
158
330
1F
100
AcDbEntity
  8
Predefinito
100
AcDbSpline
210
0.0
220
0.0
230
1.0
 70
    24
 71
     2
 72
     6
 73
     3
 74
     0
 42
0.0000000001
 43
0.0000000001
 40
0.0
 40
0.0
 40
0.0
 40
1.822511112823122
 40
1.822511112823122
 40
1.822511112823122
 10
-4126.214191939433
 20
2823.510390346692
 30
0.0
 10
-4126.214191939433
 20
2824.421645903104
 30
0.0
 10
-4126.214191939433
 20
2825.332901459516
 30
0.0
  0
SPLINE
  5
159
330
1F
100
AcDbEntity
  8
Predefinito
100
AcDbSpline
210
0.0
220
0.0
230
1.0
 70
    24
 71
     2
 72
     6
 73
     3
 74
     0
 42
0.0000000001
 43
0.0000000001
 40
0.0
 40
0.0
 40
0.0
 40
14.6680888636879
 40
14.6680888636879
 40
14.6680888636879
 10
-4126.214191939433
 20
2807.63257828345
 30
0.0
 10
-4126.214191939433
 20
2814.966622715294
 30
0.0
 10
-4126.214191939433
 20
2822.300667147138
 30
0.0
  0
SPLINE
  5
15A
330
1F
100
AcDbEntity
  8
Predefinito
100
AcDbSpline
210
0.0
220
0.0
230
1.0
 70
    24
 71
     2
 72
     6
 73
     3
 74
     0
 42
0.0000000001
 43
0.0000000001
 40
0.0
 40
0.0
 40
0.0
 40
5.282484939215465
 40
5.282484939215465
 40
5.282484939215465
 10
-4126.214191939433
 20
2800.998451639236
 30
0.0
 10
-4126.214191939433
 20
2803.639694108844
 30
0.0
 10
-4126.214191939433
 20
2806.280936578451
 30
0.0
  0
SPLINE
  5
15B
330
1F
100
AcDbEntity
  8
Predefinito
100
AcDbSpline
210
0.0
220
0.0
230
1.0
 70
    24
 71
     2
 72
     6
 73
     3
 74
     0
 42
0.0000000001
 43
0.0000000001
 40
0.0
 40
0.0
 40
0.0
 40
5.614071415718627
 40
5.614071415718627
 40
5.614071415718627
 10
-4126.214191939433
 20
2794.570302489501
 30
0.0
 10
-4126.214191939433
 20
2797.377338197361
 30
0.0
 10
-4126.214191939433
 20
2800.18437390522
 30
0.0
  0
SPLINE
  5
15C
330
1F
100
AcDbEntity
  8
Predefinito
100
AcDbSpline
210
0.0
220
0.0
230
1.0
 70
    24
 71
     2
 72
     6
 73
     3
 74
     0
 42
0.0000000001
 43
0.0000000001
 40
0.0
 40
0.0
 40
0.0
 40
6.87466155806942
 40
6.87466155806942
 40
6.87466155806942
 10
-4126.214191939433
 20
2786.610622901007
 30
0.0
 10
-4126.214191939433
 20
2790.047953680042
 30
0.0
 10
-4126.214191939433
 20
2793.485284459076
 30
0.0
  0
SPLINE
  5
15D
330
1F
100
AcDbEntity
  8
Predefinito
100
AcDbSpline
210
0.0
220
0.0
230
1.0
 70
    24
 71
     2
 72
     6
 73
     3
 74
     0
 42
0.0000000001
 43
0.0000000001
 40
0.0
 40
0.0
 40
0.0
 40
4.98665367246258
 40
4.98665367246258
 40
4.98665367246258
 10
-4126.214191939433
 20
2780.604148024569
 30
0.0
 10
-4126.214191939433
 20
2783.097474860801
 30
0.0
 10
-4126.214191939433
 20
2785.590801697032
 30
0.0
  0
SPLINE
  5
15E
330
1F
100
AcDbEntity
  8
Predefinito
100
AcDbSpline
210
0.0
220
0.0
230
1.0
 70
    24
 71
     2
 72
     6
 73
     3
 74
     0
 42
0.0000000001
 43
0.0000000001
 40
0.0
 40
0.0
 40
0.0
 40
3.915292400712133
 40
3.915292400712133
 40
3.915292400712133
 10
-4126.214191939433
 20
2775.959396410495
 30
0.0
 10
-4126.214191939433
 20
2777.917042610851
 30
0.0
 10
-4126.214191939433
 20
2779.874688811207
 30
0.0
  0
SPLINE
  5
15F
330
1F
100
AcDbEntity
  8
Predefinito
100
AcDbSpline
210
0.0
220
0.0
230
1.0
 70
    24
 71
     2
 72
     6
 73
     3
 74
     0
 42
0.0000000001
 43
0.0000000001
 40
0.0
 40
0.0
 40
0.0
 40
2.992498158861054
 40
2.992498158861054
 40
2.992498158861054
 10
-4126.214191939433
 20
2767.867062413437
 30
0.0
 10
-4126.214191939433
 20
2769.363311492868
 30
0.0
 10
-4126.214191939433
 20
2770.859560572298
 30
0.0
  0
SPLINE
  5
160
330
1F
100
AcDbEntity
  8
Predefinito
100
AcDbSpline
210
0.0
220
0.0
230
1.0
 70
    24
 71
     2
 72
     6
 73
     3
 74
     0
 42
0.0000000001
 43
0.0000000001
 40
0.0
 40
0.0
 40
0.0
 40
4.679465251195325
 40
4.679465251195325
 40
4.679465251195325
 10
-4126.214191939433
 20
2761.422166069152
 30
0.0
 10
-4126.214191939433
 20
2763.76189869475
 30
0.0
 10
-4126.214191939433
 20
2766.101631320347
 30
0.0
  0
SPLINE
  5
161
330
1F
100
AcDbEntity
  8
Predefinito
100
AcDbSpline
210
0.0
220
0.0
230
1.0
 70
    24
 71
     2
 72
     6
 73
     3
 74
     0
 42
0.0000000001
 43
0.0000000001
 40
0.0
 40
0.0
 40
0.0
 40
12.20691728715428
 40
12.20691728715428
 40
12.20691728715428
 10
-4126.214191939433
 20
2748.285121124474
 30
0.0
 10
-4126.214191939433
 20
2754.388579768051
 30
0.0
 10
-4126.214191939433
 20
2760.492038411628
 30
0.0
  0
SPLINE
  5
162
330
1F
100
AcDbEntity
  8
Predefinito
100
AcDbSpline
210
0.0
220
0.0
230
1.0
 70
    24
 71
     2
 72
     6
 73
     3
 74
     0
 42
0.0000000001
 43
0.0000000001
 40
0.0
 40
0.0
 40
0.0
 40
4.362000251010613
 40
4.362000251010613
 40
4.362000251010613
 10
-4126.214191939433
 20
2743.494255534451
 30
0.0
 10
-4126.214191939433
 20
2745.675255659957
 30
0.0
 10
-4126.214191939433
 20
2747.856255785462
 30
0.0
  0
SPLINE
  5
163
330
1F
100
AcDbEntity
  8
Predefinito
100
AcDbSpline
210
0.0
220
0.0
230
1.0
 70
    24
 71
     2
 72
     6
 73
     3
 74
     0
 42
0.0000000001
 43
0.0000000001
 40
0.0
 40
0.0
 40
0.0
 40
11.32924358153195
 40
11.32924358153195
 40
11.32924358153195
 10
-4126.214191939433
 20
2731.068827911278
 30
0.0
 10
-4126.214191939433
 20
2736.733449702044
 30
0.0
 10
-4126.214191939433
 20
2742.39807149281
 30
0.0
  0
SPLINE
  5
164
330
1F
100
AcDbEntity
  8
Predefinito
100
AcDbSpline
210
0.0
220
0.0
230
1.0
 70
    24
 71
     2
 72
     6
 73
     3
 74
     0
 42
0.0000000001
 43
0.0000000001
 40
0.0
 40
0.0
 40
0.0
 40
3.268295932091405
 40
3.268295932091405
 40
3.268295932091405
 10
-4126.214191939433
 20
2726.862202667275
 30
0.0
 10
-4126.214191939433
 20
2728.496350633321
 30
0.0
 10
-4126.214191939433
 20
2730.130498599366
 30
0.0
  0
SPLINE
  5
165
330
1F
100
AcDbEntity
  8
Predefinito
100
AcDbSpline
210
0.0
220
0.0
230
1.0
 70
    24
 71
     2
 72
     6
 73
     3
 74
     0
 42
0.0000000001
 43
0.0000000001
 40
0.0
 40
0.0
 40
0.0
 40
5.287195333919954
 40
5.287195333919954
 40
5.287195333919954
 10
-4126.214191939433
 20
2720.341407817036
 30
0.0
 10
-4126.214191939433
 20
2722.985005483996
 30
0.0
 10
-4126.214191939433
 20
2725.628603150956
 30
0.0
  0
SPLINE
  5
166
330
1F
100
AcDbEntity
  8
Predefinito
100
AcDbSpline
210
0.0
220
0.0
230
1.0
 70
    24
 71
     2
 72
     6
 73
     3
 74
     0
 42
0.0000000001
 43
0.0000000001
 40
0.0
 40
0.0
 40
0.0
 40
3.784885706403657
 40
3.784885706403657
 40
3.784885706403657
 10
-4126.214191939433
 20
2715.258331479004
 30
0.0
 10
-4126.214191939433
 20
2717.150774332205
 30
0.0
 10
-4126.214191939433
 20
2719.043217185407
 30
0.0
  0
SPLINE
  5
167
330
1F
100
AcDbEntity
  8
Predefinito
100
AcDbSpline
210
0.0
220
0.0
230
1.0
 70
    24
 71
     2
 72
     6
 73
     3
 74
     0
 42
0.0000000001
 43
0.0000000001
 40
0.0
 40
0.0
 40
0.0
 40
3.645448913711789
 40
3.645448913711789
 40
3.645448913711789
 10
-4126.214191939433
 20
2711.561707191896
 30
0.0
 10
-4126.214191939433
 20
2713.384431648752
 30
0.0
 10
-4126.214191939433
 20
2715.207156105608
 30
0.0
  0
SPLINE
  5
168
330
1F
100
AcDbEntity
  8
Predefinito
100
AcDbSpline
210
0.0
220
0.0
230
1.0
 70
    24
 71
     2
 72
     6
 73
     3
 74
     0
 42
0.0000000001
 43
0.0000000001
 40
0.0
 40
0.0
 40
0.0
 40
4.411693446297249
 40
4.411693446297249
 40
4.411693446297249
 10
-4126.214191939433
 20
2705.403313375217
 30
0.0
 10
-4126.214191939433
 20
2707.609160098365
 30
0.0
 10
-4126.214191939433
 20
2709.815006821514
 30
0.0
  0
SPLINE
  5
169
330
1F
100
AcDbEntity
  8
Predefinito
100
AcDbSpline
210
0.0
220
0.0
230
1.0
 70
    24
 71
     2
 72
     6
 73
     3
 74
     0
 42
0.0000000001
 43
0.0000000001
 40
0.0
 40
0.0
 40
0.0
 40
3.440572346893987
 40
3.440572346893987
 40
3.440572346893987
 10
-4126.214191939433
 20
2700.979524770455
 30
0.0
 10
-4126.214191939433
 20
2702.699810943902
 30
0.0
 10
-4126.214191939433
 20
2704.420097117349
 30
0.0
  0
SPLINE
  5
16A
330
1F
100
AcDbEntity
  8
Predefinito
100
AcDbSpline
210
0.0
220
0.0
230
1.0
 70
    24
 71
     2
 72
     6
 73
     3
 74
     0
 42
0.0000000001
 43
0.0000000001
 40
0.0
 40
0.0
 40
0.0
 40
8.651534491212715
 40
8.651534491212715
 40
8.651534491212715
 10
-4126.214191939433
 20
2692.085644655727
 30
0.0
 10
-4126.214191939433
 20
2696.411411901334
 30
0.0
 10
-4126.214191939433
 20
2700.73717914694
 30
0.0
  0
SPLINE
  5
16B
330
1F
100
AcDbEntity
  8
Predefinito
100
AcDbSpline
210
0.0
220
0.0
230
1.0
 70
    24
 71
     2
 72
     6
 73
     3
 74
     0
 42
0.0000000001
 43
0.0000000001
 40
0.0
 40
0.0
 40
0.0
 40
3.090237333196455
 40
3.090237333196455
 40
3.090237333196455
 10
-4126.214191939433
 20
2688.090800288041
 30
0.0
 10
-4126.214191939433
 20
2689.635918954639
 30
0.0
 10
-4126.214191939433
 20
2691.181037621237
 30
0.0
  0
SPLINE
  5
16C
330
1F
100
AcDbEntity
  8
Predefinito
100
AcDbSpline
210
0.0
220
0.0
230
1.0
 70
    24
 71
     2
 72
     6
 73
     3
 74
     0
 42
0.0000000001
 43
0.0000000001
 40
0.0
 40
0.0
 40
0.0
 40
7.88640334862157
 40
7.88640334862157
 40
7.88640334862157
 10
-4126.214191939433
 20
2679.807666445357
 30
0.0
 10
-4126.214191939433
 20
2683.750868119667
 30
0.0
 10
-4126.214191939433
 20
2687.694069793978
 30
0.0
  0
SPLINE
  5
16D
330
1F
100
AcDbEntity
  8
Predefinito
100
AcDbSpline
210
0.0
220
0.0
230
1.0
 70
    24
 71
     2
 72
     6
 73
     3
 74
     0
 42
0.0000000001
 43
0.0000000001
 40
0.0
 40
0.0
 40
0.0
 40
2.733034137045706
 40
2.733034137045706
 40
2.733034137045706
 10
-4126.214191939433
 20
2676.620839582692
 30
0.0
 10
-4126.214191939433
 20
2677.987356651214
 30
0.0
 10
-4126.214191939433
 20
2679.353873719737
 30
0.0
  0
SPLINE
  5
16E
330
1F
100
AcDbEntity
  8
Predefinito
100
AcDbSpline
210
0.0
220
0.0
230
1.0
 70
    24
 71
     2
 72
     6
 73
     3
 74
     0
 42
0.0000000001
 43
0.0000000001
 40
0.0
 40
0.0
 40
0.0
 40
1.940037955154367
 40
1.940037955154367
 40
1.940037955154367
 10
-4126.214191939433
 20
2674.16898767043
 30
0.0
 10
-4126.214191939433
 20
2675.139006648008
 30
0.0
 10
-4126.214191939433
 20
2676.109025625585
 30
0.0
  0
SPLINE
  5
16F
330
1F
100
AcDbEntity
  8
Predefinito
100
AcDbSpline
210
0.0
220
0.0
230
1.0
 70
    24
 71
     2
 72
     6
 73
     3
 74
     0
 42
0.0000000001
 43
0.0000000001
 40
0.0
 40
0.0
 40
0.0
 40
2.215594203259116
 40
2.215594203259116
 40
2.215594203259116
 10
-4126.214191939433
 20
2669.21037772076
 30
0.0
 10
-4126.214191939433
 20
2670.31817482239
 30
0.0
 10
-4126.214191939433
 20
2671.425971924019
 30
0.0
  0
SPLINE
  5
170
330
1F
100
AcDbEntity
  8
Predefinito
100
AcDbSpline
210
0.0
220
0.0
230
1.0
 70
    24
 71
     2
 72
     6
 73
     3
 74
     0
 42
0.0000000001
 43
0.0000000001
 40
0.0
 40
0.0
 40
0.0
 40
2.369780449537757
 40
2.369780449537757
 40
2.369780449537757
 10
-4126.214191939433
 20
2666.595075604564
 30
0.0
 10
-4126.214191939433
 20
2667.779965829333
 30
0.0
 10
-4126.214191939433
 20
2668.964856054102
 30
0.0
  0
SPLINE
  5
171
330
1F
100
AcDbEntity
  8
Predefinito
100
AcDbSpline
210
0.0
220
0.0
230
1.0
 70
    24
 71
     2
 72
     6
 73
     3
 74
     0
 42
0.0000000001
 43
0.0000000001
 40
0.0
 40
0.0
 40
0.0
 40
5.864096053790945
 40
5.864096053790945
 40
5.864096053790945
 10
-4126.214191939433
 20
2660.14594144462
 30
0.0
 10
-4126.214191939433
 20
2663.077989471516
 30
0.0
 10
-4126.214191939433
 20
2666.010037498411
 30
0.0
  0
SPLINE
  5
172
330
1F
100
AcDbEntity
  8
Predefinito
100
AcDbSpline
210
0.0
220
0.0
230
1.0
 70
    24
 71
     2
 72
     6
 73
     3
 74
     0
 42
0.0000000001
 43
0.0000000001
 40
0.0
 40
0.0
 40
0.0
 40
2.00130725673489
 40
2.00130725673489
 40
2.00130725673489
 10
-4126.214191939433
 20
2658.035636714011
 30
0.0
 10
-4126.214191939433
 20
2659.036290342378
 30
0.0
 10
-4126.214191939433
 20
2660.036943970746
 30
0.0
  0
SPLINE
  5
173
330
1F
100
AcDbEntity
  8
Predefinito
100
AcDbSpline
210
0.0
220
0.0
230
1.0
 70
    24
 71
     2
 72
     6
 73
     3
 74
     0
 42
0.0000000001
 43
0.0000000001
 40
0.0
 40
0.0
 40
0.0
 40
6.564824075462184
 40
6.564824075462184
 40
6.564824075462184
 10
-4126.214191939433
 20
2650.364939223314
 30
0.0
 10
-4126.214191939433
 20
2653.647351261046
 30
0.0
 10
-4126.214191939433
 20
2656.929763298776
 30
0.0
  0
SPLINE
  5
174
330
1F
100
AcDbEntity
  8
Predefinito
100
AcDbSpline
210
0.0
220
0.0
230
1.0
 70
    24
 71
     2
 72
     6
 73
     3
 74
     0
 42
0.0000000001
 43
0.0000000001
 40
0.0
 40
0.0
 40
0.0
 40
1.690346306545052
 40
1.690346306545052
 40
1.690346306545052
 10
-4126.214191939433
 20
2648.358111458986
 30
0.0
 10
-4126.214191939433
 20
2649.203284612258
 30
0.0
 10
-4126.214191939433
 20
2650.048457765531
 30
0.0
  0
SPLINE
  5
175
330
1F
100
AcDbEntity
  8
Predefinito
100
AcDbSpline
210
0.0
220
0.0
230
1.0
 70
    24
 71
     2
 72
     6
 73
     3
 74
     0
 42
0.0000000001
 43
0.0000000001
 40
0.0
 40
0.0
 40
0.0
 40
1.648478252059704
 40
1.648478252059704
 40
1.648478252059704
 10
-4126.214191939433
 20
2646.639523010531
 30
0.0
 10
-4126.214191939433
 20
2647.463762136561
 30
0.0
 10
-4126.214191939433
 20
2648.288001262591
 30
0.0
  0
SPLINE
  5
176
330
1F
100
AcDbEntity
  8
Predefinito
100
AcDbSpline
210
0.0
220
0.0
230
1.0
 70
    24
 71
     2
 72
     6
 73
     3
 74
     0
 42
0.0000000001
 43
0.0000000001
 40
0.0
 40
0.0
 40
0.0
 40
3.151811609945071
 40
3.151811609945071
 40
3.151811609945071
 10
-4126.214191939433
 20
2643.368373700239
 30
0.0
 10
-4126.214191939433
 20
2644.944279505211
 30
0.0
 10
-4126.214191939433
 20
2646.520185310184
 30
0.0
  0
SPLINE
  5
177
330
1F
100
AcDbEntity
  8
Predefinito
100
AcDbSpline
210
0.0
220
0.0
230
1.0
 70
    24
 71
     2
 72
     6
 73
     3
 74
     0
 42
0.0000000001
 43
0.0000000001
 40
0.0
 40
0.0
 40
0.0
 40
0.9680030116055605
 40
0.9680030116055605
 40
0.9680030116055605
 10
-4126.214191939433
 20
2642.199061435902
 30
0.0
 10
-4126.214191939433
 20
2642.683062941705
 30
0.0
 10
-4126.214191939433
 20
2643.167064447507
 30
0.0
  0
SPLINE
  5
178
330
1F
100
AcDbEntity
  8
Predefinito
100
AcDbSpline
210
0.0
220
0.0
230
1.0
 70
    24
 71
     2
 72
     6
 73
     3
 74
     0
 42
0.0000000001
 43
0.0000000001
 40
0.0
 40
0.0
 40
0.0
 40
0.7377712672578127
 40
0.7377712672578127
 40
0.7377712672578127
 10
-4126.214191939433
 20
2641.167717693696
 30
0.0
 10
-4126.214191939433
 20
2641.536603327324
 30
0.0
 10
-4126.214191939433
 20
2641.905488960953
 30
0.0
  0
SPLINE
  5
179
330
1F
100
AcDbEntity
  8
Predefinito
100
AcDbSpline
210
0.0
220
0.0
230
1.0
 70
    24
 71
     2
 72
     6
 73
     3
 74
     0
 42
0.0000000001
 43
0.0000000001
 40
0.0
 40
0.0
 40
0.0
 40
1.554530956105282
 40
1.554530956105282
 40
1.554530956105282
 10
-4126.214191939433
 20
2639.277737805731
 30
0.0
 10
-4126.214191939433
 20
2640.055003283784
 30
0.0
 10
-4126.214191939433
 20
2640.832268761837
 30
0.0
  0
SPLINE
  5
17A
330
1F
100
AcDbEntity
  8
Predefinito
100
AcDbSpline
210
0.0
220
0.0
230
1.0
 70
    24
 71
     2
 72
     6
 73
     3
 74
     0
 42
0.0000000001
 43
0.0000000001
 40
0.0
 40
0.0
 40
0.0
 40
0.1365298597524998
 40
0.1365298597524998
 40
0.1365298597524998
 10
-4126.214191939433
 20
2638.818717074518
 30
0.0
 10
-4126.214191939433
 20
2638.886982004395
 30
0.0
 10
-4126.214191939433
 20
2638.955246934271
 30
0.0
  0
SPLINE
  5
17B
330
1F
100
AcDbEntity
  8
Predefinito
100
AcDbSpline
210
0.0
220
0.0
230
1.0
 70
    24
 71
     2
 72
     6
 73
     3
 74
     0
 42
0.0000000001
 43
0.0000000001
 40
0.0
 40
0.0
 40
0.0
 40
0.299326702813687
 40
0.299326702813687
 40
0.299326702813687
 10
-4126.214191939433
 20
2637.750458722885
 30
0.0
 10
-4126.214191939433
 20
2637.900122074292
 30
0.0
 10
-4126.214191939433
 20
2638.049785425699
 30
0.0
  0
SPLINE
  5
17C
330
1F
100
AcDbEntity
  8
Predefinito
100
AcDbSpline
210
0.0
220
0.0
230
1.0
 70
     8
 71
     3
 72
    14
 73
    10
 74
     0
 42
0.0000000001
 43
0.0000000001
 40
0.0
 40
0.0
 40
0.0
 40
0.0
 40
1.092717899409486
 40
2.147541414257044
 40
2.587758856246201
 40
2.705809836426599
 40
3.60951188180678
 40
6.230616510522809
 40
17.20153990487569
 40
17.20153990487569
 40
17.20153990487569
 40
17.20153990487569
 10
-4117.312459042164
 20
4001.87235748876
 30
0.0
 10
-4116.951779364676
 20
4001.824097423708
 30
0.0
 10
-4116.258310711833
 20
4001.599678951643
 30
0.0
 10
-4115.574693584615
 20
4001.053957053718
 30
0.0
 10
-4115.243329443062
 20
4000.6280848411
 30
0.0
 10
-4114.990309606461
 20
4000.211555281577
 30
0.0
 10
-4114.354848529611
 20
3999.176989581098
 30
0.0
 10
-4111.927284200966
 20
3994.996426773645
 30
0.0
 10
-4110.286040020884
 20
3990.735095988148
 30
0.0
 10
-4109.372392683366
 20
3987.196136716136
 30
0.0
  0
SPLINE
  5
17D
330
1F
100
AcDbEntity
  8
Predefinito
100
AcDbSpline
210
0.0
220
0.0
230
1.0
 70
    12
 71
     2
 72
     6
 73
     3
 74
     0
 42
0.0000000001
 43
0.0000000001
 40
0.0
 40
0.0
 40
0.0
 40
7.600814577778859
 40
7.600814577778859
 40
7.600814577778859
 10
-4126.07030403091
 20
3987.114366042975
 30
0.0
 41
1.0
 10
-4125.133204727352
 20
3990.806710849947
 30
0.0
 41
0.9964608640941166
 10
-4123.590802732612
 20
3994.28989349875
 30
0.0
 41
1.0
  0
SPLINE
  5
17E
330
1F
100
AcDbEntity
  8
Predefinito
100
AcDbSpline
210
0.0
220
0.0
230
1.0
 70
    12
 71
     2
 72
     6
 73
     3
 74
     0
 42
0.0000000001
 43
0.0000000001
 40
0.0
 40
0.0
 40
0.0
 40
1.126029145868666
 40
1.126029145868666
 40
1.126029145868666
 10
-4126.214191939433
 20
3985.921481657932
 30
0.0
 41
1.0
 10
-4126.211190966983
 20
3986.486661329412
 30
0.0
 41
0.9942426801810793
 10
-4126.087836274808
 20
3987.03822337199
 30
0.0
 41
1.0
  0
SPLINE
  5
17F
330
1F
100
AcDbEntity
  8
Predefinito
100
AcDbSpline
210
0.0
220
0.0
230
1.0
 70
    12
 71
     2
 72
     6
 73
     3
 74
     0
 42
0.0000000001
 43
0.0000000001
 40
0.0
 40
0.0
 40
0.0
 40
1.126102900630997
 40
1.126102900630997
 40
1.126102900630997
 10
-4126.0876838703
 20
2636.633699846881
 30
0.0
 41
1.0
 10
-4126.211666374409
 20
2637.18519987556
 30
0.0
 41
0.9941377569757468
 10
-4126.214191939433
 20
2637.750458722885
 30
0.0
 41
1.0
  0
SPLINE
  5
180
330
1F
100
AcDbEntity
  8
Predefinito
100
AcDbSpline
210
0.0
220
0.0
230
1.0
 70
     8
 71
     3
 72
    17
 73
    13
 74
     0
 42
0.0000000001
 43
0.0000000001
 40
0.0
 40
0.0
 40
0.0
 40
0.0
 40
6.005175211251921
 40
11.8773735059664
 40
14.58389417976358
 40
15.31483263663415
 40
17.6085056201723
 40
19.85296832568301
 40
20.24877664672173
 40
20.64448831814208
 40
23.42129695238141
 40
35.2395041113538
 40
35.2395041113538
 40
35.2395041113538
 40
35.2395041113538
 10
-4109.372392683366
 20
2636.475803664679
 30
0.0
 10
-4109.877469538995
 20
2634.542370039855
 30
0.0
 10
-4111.087954446469
 20
2630.755288344124
 30
0.0
 10
-4113.232642572921
 20
2626.386615602318
 30
0.0
 10
-4114.80290215904
 20
2623.706561957887
 30
0.0
 10
-4115.90937531477
 20
2622.146618475217
 30
0.0
 10
-4117.732241098183
 20
2621.489807966691
 30
0.0
 10
-4119.322359566498
 20
2622.112765251024
 30
0.0
 10
-4120.047211641358
 20
2622.860524342066
 30
0.0
 10
-4120.677623029206
 20
2623.862012297853
 30
0.0
 10
-4123.273368000882
 20
2628.138869715343
 30
0.0
 10
-4125.083421841959
 20
2632.69801287517
 30
0.0
 10
-4126.059615287748
 20
2636.514774503476
 30
0.0
  0
SPLINE
  5
181
330
1F
100
AcDbEntity
  8
Predefinito
100
AcDbSpline
210
0.0
220
0.0
230
1.0
 70
    24
 71
     2
 72
     6
 73
     3
 74
     0
 42
0.0000000001
 43
0.0000000001
 40
0.0
 40
0.0
 40
0.0
 40
61.0
 40
61.0
 40
61.0
 10
-4109.20163283564
 20
4154.583759202686
 30
0.0
 10
-4109.20163283564
 20
4124.083759202686
 30
0.0
 10
-4109.20163283564
 20
4093.583759202686
 30
0.0
  0
SPLINE
  5
182
330
1F
100
AcDbEntity
  8
Predefinito
100
AcDbSpline
210
0.0
220
0.0
230
1.0
 70
    24
 71
     2
 72
     6
 73
     3
 74
     0
 42
0.0000000001
 43
0.0000000001
 40
0.0
 40
0.0
 40
0.0
 40
61.0
 40
61.0
 40
61.0
 10
-4126.20163283564
 20
4093.583759202686
 30
0.0
 10
-4126.20163283564
 20
4124.083759202686
 30
0.0
 10
-4126.20163283564
 20
4154.583759202686
 30
0.0
  0
SPLINE
  5
183
330
1F
100
AcDbEntity
  8
Predefinito
100
AcDbSpline
210
0.0
220
0.0
230
1.0
 70
    24
 71
     2
 72
     6
 73
     3
 74
     0
 42
0.0000000001
 43
0.0000000001
 40
0.0
 40
0.0
 40
0.0
 40
43.00122078843687
 40
43.00122078843687
 40
43.00122078843687
 10
-4235.624750004842
 20
4346.581527077405
 30
0.0
 10
-4235.812373205714
 20
4368.081318817291
 30
0.0
 10
-4235.999996406586
 20
4389.581110557177
 30
0.0
  0
SPLINE
  5
184
330
1F
100
AcDbEntity
  8
Predefinito
100
AcDbSpline
210
0.0
220
0.0
230
1.0
 70
    24
 71
     2
 72
     6
 73
     3
 74
     0
 42
0.0000000001
 43
0.0000000001
 40
0.0
 40
0.0
 40
0.0
 40
43.00161963856726
 40
43.00161963856726
 40
43.00161963856726
 10
-3999.408430401631
 20
4389.58150478328
 30
0.0
 10
-3999.596047251133
 20
4368.08151355531
 30
0.0
 10
-3999.783664100636
 20
4346.58152232734
 30
0.0
  0
SPLINE
  5
185
330
1F
100
AcDbEntity
  8
Predefinito
100
AcDbSpline
210
0.0
220
0.0
230
1.0
 70
    24
 71
     2
 72
     6
 73
     3
 74
     0
 42
0.0000000001
 43
0.0000000001
 40
0.0
 40
0.0
 40
0.0
 40
138.7666600466323
 40
138.7666600466323
 40
138.7666600466323
 10
-4118.096579378965
 20
3946.564934782594
 30
0.0
 10
-4118.096579378965
 20
4015.94826480591
 30
0.0
 10
-4118.096579378965
 20
4085.331594829227
 30
0.0
  0
SPLINE
  5
186
330
1F
100
AcDbEntity
  8
Predefinito
100
AcDbSpline
210
0.0
220
0.0
230
1.0
 70
    24
 71
     2
 72
     6
 73
     3
 74
     0
 42
0.0000000001
 43
0.0000000001
 40
0.0
 40
0.0
 40
0.0
 40
138.7560757350825
 40
138.7560757350825
 40
138.7560757350825
 10
-4117.296579378964
 20
4085.331594829227
 30
0.0
 10
-4117.296579378964
 20
4015.953556961686
 30
0.0
 10
-4117.296579378964
 20
3946.575519094144
 30
0.0
  0
SPLINE
  5
187
330
1F
100
AcDbEntity
  8
Predefinito
100
AcDbSpline
210
0.0
220
0.0
230
1.0
 70
    24
 71
     2
 72
     6
 73
     3
 74
     0
 42
0.0000000001
 43
0.0000000001
 40
0.0
 40
0.0
 40
0.0
 40
191.9977631246547
 40
191.9977631246547
 40
191.9977631246547
 10
-4118.096579378965
 20
4154.583759202686
 30
0.0
 10
-4118.096579378965
 20
4250.582640765013
 30
0.0
 10
-4118.096579378965
 20
4346.58152232734
 30
0.0
  0
SPLINE
  5
188
330
1F
100
AcDbEntity
  8
Predefinito
100
AcDbSpline
210
0.0
220
0.0
230
1.0
 70
    24
 71
     2
 72
     6
 73
     3
 74
     0
 42
0.0000000001
 43
0.0000000001
 40
0.0
 40
0.0
 40
0.0
 40
8.252164373458527
 40
8.252164373458527
 40
8.252164373458527
 10
-4118.096579378965
 20
4085.331594829227
 30
0.0
 10
-4118.096579378965
 20
4089.457677015956
 30
0.0
 10
-4118.096579378965
 20
4093.583759202685
 30
0.0
  0
SPLINE
  5
189
330
1F
100
AcDbEntity
  8
Predefinito
100
AcDbSpline
210
0.0
220
0.0
230
1.0
 70
    24
 71
     2
 72
     6
 73
     3
 74
     0
 42
0.0000000001
 43
0.0000000001
 40
0.0
 40
0.0
 40
0.0
 40
8.252164373458527
 40
8.252164373458527
 40
8.252164373458527
 10
-4117.296579378964
 20
4093.583759202685
 30
0.0
 10
-4117.296579378964
 20
4089.457677015956
 30
0.0
 10
-4117.296579378964
 20
4085.331594829227
 30
0.0
  0
SPLINE
  5
18A
330
1F
100
AcDbEntity
  8
Predefinito
100
AcDbSpline
210
0.0
220
0.0
230
1.0
 70
    24
 71
     2
 72
     6
 73
     3
 74
     0
 42
0.0000000001
 43
0.0000000001
 40
0.0
 40
0.0
 40
0.0
 40
191.9977631246547
 40
191.9977631246547
 40
191.9977631246547
 10
-4117.296579378964
 20
4346.58152232734
 30
0.0
 10
-4117.296579378964
 20
4250.582640765013
 30
0.0
 10
-4117.296579378964
 20
4154.583759202686
 30
0.0
  0
SPLINE
  5
18B
330
1F
100
AcDbEntity
  8
Predefinito
100
AcDbSpline
210
0.0
220
0.0
230
1.0
 70
    24
 71
     2
 72
     6
 73
     3
 74
     0
 42
0.0000000001
 43
0.0000000001
 40
0.0
 40
0.0
 40
0.0
 40
55.0
 40
55.0
 40
55.0
 10
-4115.10163283564
 20
4239.033759202686
 30
0.0
 10
-4115.10163283564
 20
4211.533759202686
 30
0.0
 10
-4115.10163283564
 20
4184.033759202686
 30
0.0
  0
SPLINE
  5
18C
330
1F
100
AcDbEntity
  8
Predefinito
100
AcDbSpline
210
0.0
220
0.0
230
1.0
 70
    24
 71
     2
 72
     6
 73
     3
 74
     0
 42
0.0000000001
 43
0.0000000001
 40
0.0
 40
0.0
 40
0.0
 40
55.0
 40
55.0
 40
55.0
 10
-4120.301632835641
 20
4184.033759202686
 30
0.0
 10
-4120.301632835641
 20
4211.533759202686
 30
0.0
 10
-4120.301632835641
 20
4239.033759202686
 30
0.0
  0
SPLINE
  5
18D
330
1F
100
AcDbEntity
  8
Predefinito
100
AcDbSpline
210
0.0
220
0.0
230
1.0
 70
    24
 71
     2
 72
     6
 73
     3
 74
     0
 42
0.0000000001
 43
0.0000000001
 40
0.0
 40
0.0
 40
0.0
 40
3.310272439174696
 40
3.310272439174696
 40
3.310272439174696
 10
-4115.101632835641
 20
4249.011554051211
 30
0.0
 10
-4115.101632835641
 20
4247.356417831623
 30
0.0
 10
-4115.101632835641
 20
4245.701281612036
 30
0.0
  0
SPLINE
  5
18E
330
1F
100
AcDbEntity
  8
Predefinito
100
AcDbSpline
210
0.0
220
0.0
230
1.0
 70
    24
 71
     2
 72
     6
 73
     3
 74
     0
 42
0.0000000001
 43
0.0000000001
 40
0.0
 40
0.0
 40
0.0
 40
3.308142012941971
 40
3.308142012941971
 40
3.308142012941971
 10
-4120.301632835641
 20
4245.709012182269
 30
0.0
 10
-4120.301632835641
 20
4247.36308318874
 30
0.0
 10
-4120.301632835641
 20
4249.017154195211
 30
0.0
  0
SPLINE
  5
18F
330
1F
100
AcDbEntity
  8
Predefinito
100
AcDbSpline
210
0.0
220
0.0
230
1.0
 70
    24
 71
     2
 72
     6
 73
     3
 74
     0
 42
0.0000000001
 43
0.0000000001
 40
0.0
 40
0.0
 40
0.0
 40
3.301074815178254
 40
3.301074815178254
 40
3.301074815178254
 10
-4115.101632835641
 20
4252.31822901039
 30
0.0
 10
-4115.101632835641
 20
4250.667691602801
 30
0.0
 10
-4115.101632835641
 20
4249.017154195211
 30
0.0
  0
SPLINE
  5
190
330
1F
100
AcDbEntity
  8
Predefinito
100
AcDbSpline
210
0.0
220
0.0
230
1.0
 70
    24
 71
     2
 72
     6
 73
     3
 74
     0
 42
0.0000000001
 43
0.0000000001
 40
0.0
 40
0.0
 40
0.0
 40
3.297007390510771
 40
3.297007390510771
 40
3.297007390510771
 10
-4120.301632835641
 20
4249.028351247272
 30
0.0
 10
-4120.301632835641
 20
4250.676854942527
 30
0.0
 10
-4120.301632835641
 20
4252.325358637782
 30
0.0
  0
SPLINE
  5
191
330
1F
100
AcDbEntity
  8
Predefinito
100
AcDbSpline
210
0.0
220
0.0
230
1.0
 70
    24
 71
     2
 72
     6
 73
     3
 74
     0
 42
0.0000000001
 43
0.0000000001
 40
0.0
 40
0.0
 40
0.0
 40
5.462432705688116
 40
5.462432705688116
 40
5.462432705688116
 10
-4115.101632835641
 20
4257.78779134347
 30
0.0
 10
-4115.101632835641
 20
4255.056574990625
 30
0.0
 10
-4115.101632835641
 20
4252.325358637781
 30
0.0
  0
SPLINE
  5
192
330
1F
100
AcDbEntity
  8
Predefinito
100
AcDbSpline
210
0.0
220
0.0
230
1.0
 70
    24
 71
     2
 72
     6
 73
     3
 74
     0
 42
0.0000000001
 43
0.0000000001
 40
0.0
 40
0.0
 40
0.0
 40
5.457610630212002
 40
5.457610630212002
 40
5.457610630212002
 10
-4120.301632835641
 20
4252.339613771169
 30
0.0
 10
-4120.301632835641
 20
4255.068419086275
 30
0.0
 10
-4120.301632835641
 20
4257.797224401381
 30
0.0
  0
SPLINE
  5
193
330
1F
100
AcDbEntity
  8
Predefinito
100
AcDbSpline
210
0.0
220
0.0
230
1.0
 70
    24
 71
     2
 72
     6
 73
     3
 74
     0
 42
0.0000000001
 43
0.0000000001
 40
0.0
 40
0.0
 40
0.0
 40
5.43438213673744
 40
5.43438213673744
 40
5.43438213673744
 10
-4115.101632835641
 20
4263.231606538117
 30
0.0
 10
-4115.101632835641
 20
4260.514415469748
 30
0.0
 10
-4115.101632835641
 20
4257.79722440138
 30
0.0
  0
SPLINE
  5
194
330
1F
100
AcDbEntity
  8
Predefinito
100
AcDbSpline
210
0.0
220
0.0
230
1.0
 70
    24
 71
     2
 72
     6
 73
     3
 74
     0
 42
0.0000000001
 43
0.0000000001
 40
0.0
 40
0.0
 40
0.0
 40
5.426679605871868
 40
5.426679605871868
 40
5.426679605871868
 10
-4120.301632835641
 20
4257.816085065778
 30
0.0
 10
-4120.301632835641
 20
4260.529424868713
 30
0.0
 10
-4120.301632835641
 20
4263.24276467165
 30
0.0
  0
SPLINE
  5
195
330
1F
100
AcDbEntity
  8
Predefinito
100
AcDbSpline
210
0.0
220
0.0
230
1.0
 70
    24
 71
     2
 72
     6
 73
     3
 74
     0
 42
0.0000000001
 43
0.0000000001
 40
0.0
 40
0.0
 40
0.0
 40
5.423973323115206
 40
5.423973323115206
 40
5.423973323115206
 10
-4115.101632835641
 20
4268.666737994765
 30
0.0
 10
-4115.101632835641
 20
4265.954751333207
 30
0.0
 10
-4115.101632835641
 20
4263.24276467165
 30
0.0
  0
SPLINE
  5
196
330
1F
100
AcDbEntity
  8
Predefinito
100
AcDbSpline
210
0.0
220
0.0
230
1.0
 70
    24
 71
     2
 72
     6
 73
     3
 74
     0
 42
0.0000000001
 43
0.0000000001
 40
0.0
 40
0.0
 40
0.0
 40
5.41426034901815
 40
5.41426034901815
 40
5.41426034901815
 10
-4120.301632835641
 20
4263.265074494357
 30
0.0
 10
-4120.301632835641
 20
4265.972204668866
 30
0.0
 10
-4120.301632835641
 20
4268.679334843375
 30
0.0
  0
SPLINE
  5
197
330
1F
100
AcDbEntity
  8
Predefinito
100
AcDbSpline
210
0.0
220
0.0
230
1.0
 70
    24
 71
     2
 72
     6
 73
     3
 74
     0
 42
0.0000000001
 43
0.0000000001
 40
0.0
 40
0.0
 40
0.0
 40
5.40249487894107
 40
5.40249487894107
 40
5.40249487894107
 10
-4115.101632835641
 20
4274.081829722315
 30
0.0
 10
-4115.101632835641
 20
4271.380582282844
 30
0.0
 10
-4115.101632835641
 20
4268.679334843374
 30
0.0
  0
SPLINE
  5
198
330
1F
100
AcDbEntity
  8
Predefinito
100
AcDbSpline
210
0.0
220
0.0
230
1.0
 70
    24
 71
     2
 72
     6
 73
     3
 74
     0
 42
0.0000000001
 43
0.0000000001
 40
0.0
 40
0.0
 40
0.0
 40
5.39078059800886
 40
5.39078059800886
 40
5.39078059800886
 10
-4120.301632835641
 20
4268.704521258215
 30
0.0
 10
-4120.301632835641
 20
4271.39991155722
 30
0.0
 10
-4120.301632835641
 20
4274.095301856224
 30
0.0
  0
SPLINE
  5
199
330
1F
100
AcDbEntity
  8
Predefinito
100
AcDbSpline
210
0.0
220
0.0
230
1.0
 70
    24
 71
     2
 72
     6
 73
     3
 74
     0
 42
0.0000000001
 43
0.0000000001
 40
0.0
 40
0.0
 40
0.0
 40
5.400131093925665
 40
5.400131093925665
 40
5.400131093925665
 10
-4115.101632835642
 20
4279.495432950149
 30
0.0
 10
-4115.101632835642
 20
4276.795367403186
 30
0.0
 10
-4115.101632835642
 20
4274.095301856223
 30
0.0
  0
SPLINE
  5
19A
330
1F
100
AcDbEntity
  8
Predefinito
100
AcDbSpline
210
0.0
220
0.0
230
1.0
 70
    24
 71
     2
 72
     6
 73
     3
 74
     0
 42
0.0000000001
 43
0.0000000001
 40
0.0
 40
0.0
 40
0.0
 40
5.387266310973246
 40
5.387266310973246
 40
5.387266310973246
 10
-4120.301632835642
 20
4274.122238348099
 30
0.0
 10
-4120.301632835642
 20
4276.815871503586
 30
0.0
 10
-4120.301632835642
 20
4279.509504659072
 30
0.0
  0
SPLINE
  5
19B
330
1F
100
AcDbEntity
  8
Predefinito
100
AcDbSpline
210
0.0
220
0.0
230
1.0
 70
    24
 71
     2
 72
     6
 73
     3
 74
     0
 42
0.0000000001
 43
0.0000000001
 40
0.0
 40
0.0
 40
0.0
 40
5.407653169231708
 40
5.407653169231708
 40
5.407653169231708
 10
-4115.101632834932
 20
4284.917157828306
 30
0.0
 10
-4115.101632834932
 20
4282.21333124369
 30
0.0
 10
-4115.101632834932
 20
4279.509504659074
 30
0.0
  0
SPLINE
  5
19C
330
1F
100
AcDbEntity
  8
Predefinito
100
AcDbSpline
210
0.0
220
0.0
230
1.0
 70
    24
 71
     2
 72
     6
 73
     3
 74
     0
 42
0.0000000001
 43
0.0000000001
 40
0.0
 40
0.0
 40
0.0
 40
5.379517879821833
 40
5.379517879821833
 40
5.379517879821833
 10
-4120.301632834932
 20
4279.537639948484
 30
0.0
 10
-4120.301632834932
 20
4282.227398888395
 30
0.0
 10
-4120.301632834932
 20
4284.917157828306
 30
0.0
  0
SPLINE
  5
19D
330
1F
100
AcDbEntity
  8
Predefinito
100
AcDbSpline
210
0.0
220
0.0
230
1.0
 70
    24
 71
     2
 72
     6
 73
     3
 74
     0
 42
0.0000000001
 43
0.0000000001
 40
0.0
 40
0.0
 40
0.0
 40
5.379535777060482
 40
5.379535777060482
 40
5.379535777060482
 10
-4120.301632835808
 20
4284.945397467719
 30
0.0
 10
-4120.301632835808
 20
4287.635165356249
 30
0.0
 10
-4120.301632835808
 20
4290.324933244779
 30
0.0
  0
SPLINE
  5
19E
330
1F
100
AcDbEntity
  8
Predefinito
100
AcDbSpline
210
0.0
220
0.0
230
1.0
 70
    24
 71
     2
 72
     6
 73
     3
 74
     0
 42
0.0000000001
 43
0.0000000001
 40
0.0
 40
0.0
 40
0.0
 40
5.3008743569535
 40
5.3008743569535
 40
5.3008743569535
 10
-4115.101632835807
 20
4290.324933244779
 30
0.0
 10
-4115.101632835807
 20
4287.674496066303
 30
0.0
 10
-4115.101632835807
 20
4285.024058887826
 30
0.0
  0
SPLINE
  5
19F
330
1F
100
AcDbEntity
  8
Predefinito
100
AcDbSpline
210
0.0
220
0.0
230
1.0
 70
    24
 71
     2
 72
     6
 73
     3
 74
     0
 42
0.0000000001
 43
0.0000000001
 40
0.0
 40
0.0
 40
0.0
 40
5.310065936645515
 40
5.310065936645515
 40
5.310065936645515
 10
-4120.301632835688
 20
4290.432454288007
 30
0.0
 10
-4120.301632835688
 20
4293.087487256329
 30
0.0
 10
-4120.301632835688
 20
4295.742520224652
 30
0.0
  0
SPLINE
  5
1A0
330
1F
100
AcDbEntity
  8
Predefinito
100
AcDbSpline
210
0.0
220
0.0
230
1.0
 70
    24
 71
     2
 72
     6
 73
     3
 74
     0
 42
0.0000000001
 43
0.0000000001
 40
0.0
 40
0.0
 40
0.0
 40
5.396340496247831
 40
5.396340496247831
 40
5.396340496247831
 10
-4115.101632835688
 20
4295.742520224652
 30
0.0
 10
-4115.101632835688
 20
4293.044349976528
 30
0.0
 10
-4115.101632835688
 20
4290.346179728404
 30
0.0
  0
SPLINE
  5
1A1
330
1F
100
AcDbEntity
  8
Predefinito
100
AcDbSpline
210
0.0
220
0.0
230
1.0
 70
    24
 71
     2
 72
     6
 73
     3
 74
     0
 42
0.0000000001
 43
0.0000000001
 40
0.0
 40
0.0
 40
0.0
 40
5.318626214306278
 40
5.318626214306278
 40
5.318626214306278
 10
-4120.301632835675
 20
4295.844091290676
 30
0.0
 10
-4120.301632835675
 20
4298.503404397829
 30
0.0
 10
-4120.301632835675
 20
4301.162717504983
 30
0.0
  0
SPLINE
  5
1A2
330
1F
100
AcDbEntity
  8
Predefinito
100
AcDbSpline
210
0.0
220
0.0
230
1.0
 70
    24
 71
     2
 72
     6
 73
     3
 74
     0
 42
0.0000000001
 43
0.0000000001
 40
0.0
 40
0.0
 40
0.0
 40
5.400126528300461
 40
5.400126528300461
 40
5.400126528300461
 10
-4115.101632835675
 20
4301.162717504983
 30
0.0
 10
-4115.101632835675
 20
4298.462654240833
 30
0.0
 10
-4115.101632835675
 20
4295.762590976683
 30
0.0
  0
SPLINE
  5
1A3
330
1F
100
AcDbEntity
  8
Predefinito
100
AcDbSpline
210
0.0
220
0.0
230
1.0
 70
    24
 71
     2
 72
     6
 73
     3
 74
     0
 42
0.0000000001
 43
0.0000000001
 40
0.0
 40
0.0
 40
0.0
 40
5.349383908190248
 40
5.349383908190248
 40
5.349383908190248
 10
-4120.301632835639
 20
4301.256192773894
 30
0.0
 10
-4120.301632835639
 20
4303.93088472799
 30
0.0
 10
-4120.301632835639
 20
4306.605576682085
 30
0.0
  0
SPLINE
  5
1A4
330
1F
100
AcDbEntity
  8
Predefinito
100
AcDbSpline
210
0.0
220
0.0
230
1.0
 70
    24
 71
     2
 72
     6
 73
     3
 74
     0
 42
0.0000000001
 43
0.0000000001
 40
0.0
 40
0.0
 40
0.0
 40
5.42438817891798
 40
5.42438817891798
 40
5.42438817891798
 10
-4115.101632835639
 20
4306.605576682085
 30
0.0
 10
-4115.101632835639
 20
4303.893382592625
 30
0.0
 10
-4115.101632835639
 20
4301.181188503167
 30
0.0
  0
SPLINE
  5
1A5
330
1F
100
AcDbEntity
  8
Predefinito
100
AcDbSpline
210
0.0
220
0.0
230
1.0
 70
    24
 71
     2
 72
     6
 73
     3
 74
     0
 42
0.0000000001
 43
0.0000000001
 40
0.0
 40
0.0
 40
0.0
 40
5.373533887946905
 40
5.373533887946905
 40
5.373533887946905
 10
-4120.301632835639
 20
4306.686566640165
 30
0.0
 10
-4120.301632835639
 20
4309.373333584138
 30
0.0
 10
-4120.301632835639
 20
4312.060100528111
 30
0.0
  0
SPLINE
  5
1A6
330
1F
100
AcDbEntity
  8
Predefinito
100
AcDbSpline
210
0.0
220
0.0
230
1.0
 70
    24
 71
     2
 72
     6
 73
     3
 74
     0
 42
0.0000000001
 43
0.0000000001
 40
0.0
 40
0.0
 40
0.0
 40
5.438519988096232
 40
5.438519988096232
 40
5.438519988096232
 10
-4115.101632835639
 20
4312.060100528111
 30
0.0
 10
-4115.101632835639
 20
4309.340840534062
 30
0.0
 10
-4115.101632835639
 20
4306.621580540014
 30
0.0
  0
SPLINE
  5
1A7
330
1F
100
AcDbEntity
  8
Predefinito
100
AcDbSpline
210
0.0
220
0.0
230
1.0
 70
    24
 71
     2
 72
     6
 73
     3
 74
     0
 42
0.0000000001
 43
0.0000000001
 40
0.0
 40
0.0
 40
0.0
 40
5.414143380297901
 40
5.414143380297901
 40
5.414143380297901
 10
-4120.301632835639
 20
4312.126371457083
 30
0.0
 10
-4120.301632835639
 20
4314.833443147232
 30
0.0
 10
-4120.301632835639
 20
4317.540514837381
 30
0.0
  0
SPLINE
  5
1A8
330
1F
100
AcDbEntity
  8
Predefinito
100
AcDbSpline
210
0.0
220
0.0
230
1.0
 70
    24
 71
     2
 72
     6
 73
     3
 74
     0
 42
0.0000000001
 43
0.0000000001
 40
0.0
 40
0.0
 40
0.0
 40
5.406889103303911
 40
5.406889103303911
 40
5.406889103303911
 10
-4115.101632835639
 20
4317.525755336667
 30
0.0
 10
-4115.101632835639
 20
4314.822310785015
 30
0.0
 10
-4115.101632835639
 20
4312.118866233363
 30
0.0
  0
SPLINE
  5
1A9
330
1F
100
AcDbEntity
  8
Predefinito
100
AcDbSpline
210
0.0
220
0.0
230
1.0
 70
    24
 71
     2
 72
     6
 73
     3
 74
     0
 42
0.0000000001
 43
0.0000000001
 40
0.0
 40
0.0
 40
0.0
 40
5.466844460912398
 40
5.466844460912398
 40
5.466844460912398
 10
-4120.301632835639
 20
4317.587598727328
 30
0.0
 10
-4120.301632835639
 20
4320.321020957785
 30
0.0
 10
-4120.301632835639
 20
4323.054443188241
 30
0.0
  0
SPLINE
  5
1AA
330
1F
100
AcDbEntity
  8
Predefinito
100
AcDbSpline
210
0.0
220
0.0
230
1.0
 70
    24
 71
     2
 72
     6
 73
     3
 74
     0
 42
0.0000000001
 43
0.0000000001
 40
0.0
 40
0.0
 40
0.0
 40
5.416542796592694
 40
5.416542796592694
 40
5.416542796592694
 10
-4115.101632835639
 20
4323.037461769537
 30
0.0
 10
-4115.101632835639
 20
4320.329190371241
 30
0.0
 10
-4115.101632835639
 20
4317.620918972944
 30
0.0
  0
SPLINE
  5
1AB
330
1F
100
AcDbEntity
  8
Predefinito
100
AcDbSpline
210
0.0
220
0.0
230
1.0
 70
    24
 71
     2
 72
     6
 73
     3
 74
     0
 42
0.0000000001
 43
0.0000000001
 40
0.0
 40
0.0
 40
0.0
 40
5.527079139099442
 40
5.527079139099442
 40
5.527079139099442
 10
-4120.301632835639
 20
4323.054443188241
 30
0.0
 10
-4120.301632835639
 20
4325.817982757791
 30
0.0
 10
-4120.301632835639
 20
4328.58152232734
 30
0.0
  0
SPLINE
  5
1AC
330
1F
100
AcDbEntity
  8
Predefinito
100
AcDbSpline
210
0.0
220
0.0
230
1.0
 70
    24
 71
     2
 72
     6
 73
     3
 74
     0
 42
0.0000000001
 43
0.0000000001
 40
0.0
 40
0.0
 40
0.0
 40
5.48319867612463
 40
5.48319867612463
 40
5.48319867612463
 10
-4115.101632835639
 20
4328.58152232734
 30
0.0
 10
-4115.101632835639
 20
4325.839922989278
 30
0.0
 10
-4115.101632835639
 20
4323.098323651216
 30
0.0
  0
SPLINE
  5
1AD
330
1F
100
AcDbEntity
  8
Predefinito
100
AcDbSpline
210
0.0
220
0.0
230
1.0
 70
    24
 71
     2
 72
     6
 73
     3
 74
     0
 42
0.0000000001
 43
0.0000000001
 40
0.0
 40
0.0
 40
0.0
 40
18.0
 40
18.0
 40
18.0
 10
-4115.10163283564
 20
4346.58152232734
 30
0.0
 10
-4115.10163283564
 20
4337.58152232734
 30
0.0
 10
-4115.10163283564
 20
4328.58152232734
 30
0.0
  0
SPLINE
  5
1AE
330
1F
100
AcDbEntity
  8
Predefinito
100
AcDbSpline
210
0.0
220
0.0
230
1.0
 70
    24
 71
     2
 72
     6
 73
     3
 74
     0
 42
0.0000000001
 43
0.0000000001
 40
0.0
 40
0.0
 40
0.0
 40
18.0
 40
18.0
 40
18.0
 10
-4120.30163283564
 20
4328.58152232734
 30
0.0
 10
-4120.30163283564
 20
4337.58152232734
 30
0.0
 10
-4120.30163283564
 20
4346.58152232734
 30
0.0
  0
SPLINE
  5
1AF
330
1F
100
AcDbEntity
  8
Predefinito
100
AcDbSpline
210
0.0
220
0.0
230
1.0
 70
    12
 71
     2
 72
     6
 73
     3
 74
     0
 42
0.0000000001
 43
0.0000000001
 40
0.0
 40
0.0
 40
0.0
 40
0.001650720369987
 40
0.001650720369987
 40
0.001650720369987
 10
-4114.68692639801
 20
3940.088014854886
 30
0.0
 41
1.0
 10
-4114.686910690528
 20
3940.087189617678
 30
0.0
 41
0.999951844992033
 10
-4114.686911182468
 20
3940.08636423114
 30
0.0
 41
1.0
  0
SPLINE
  5
1B0
330
1F
100
AcDbEntity
  8
Predefinito
100
AcDbSpline
210
0.0
220
0.0
230
1.0
 70
    12
 71
     3
 72
    10
 73
     6
 74
     0
 42
0.0000000001
 43
0.0000000001
 40
0.0
 40
0.0
 40
0.0
 40
0.0
 40
0.5230282459666628
 40
0.5230282459666628
 40
1.0
 40
1.0
 40
1.0
 40
1.0
 10
-4115.029526972549
 20
3940.026220776948
 30
0.0
 41
1.0
 10
-4114.955021048529
 20
3939.975810038649
 30
0.0
 41
1.0
 10
-4114.884821859518
 20
3939.934466415992
 30
0.0
 41
1.0
 10
-4114.754818483669
 20
3939.91979070492
 30
0.0
 41
1.0
 10
-4114.68692639801
 20
3939.935694204756
 30
0.0
 41
1.0
 10
-4114.68692639801
 20
3940.088014854886
 30
0.0
 41
1.0
  0
SPLINE
  5
1B1
330
1F
100
AcDbEntity
  8
Predefinito
100
AcDbSpline
210
0.0
220
0.0
230
1.0
 70
     8
 71
     3
 72
    11
 73
     7
 74
     0
 42
0.0000000001
 43
0.0000000001
 40
0.0
 40
0.0
 40
0.0
 40
0.0
 40
0.6429580247426444
 40
1.334357968472401
 40
2.850784314836015
 40
5.702674667742927
 40
5.702674667742927
 40
5.702674667742927
 40
5.702674667742927
 10
-4120.480610315999
 20
3940.026220776904
 30
0.0
 10
-4120.301807078524
 20
3940.14775713329
 30
0.0
 10
-4119.909873277132
 20
3940.351302712825
 30
0.0
 10
-4118.99360550141
 20
3940.646172107399
 30
0.0
 10
-4117.321993955366
 20
3940.805772071398
 30
0.0
 10
-4115.834272153736
 20
3940.549377919114
 30
0.0
 10
-4115.029526972549
 20
3940.026220776948
 30
0.0
  0
SPLINE
  5
1B2
330
1F
100
AcDbEntity
  8
Predefinito
100
AcDbSpline
210
0.0
220
0.0
230
1.0
 70
    12
 71
     3
 72
    10
 73
     6
 74
     0
 42
0.0000000001
 43
0.0000000001
 40
0.0
 40
0.0
 40
0.0
 40
0.0
 40
0.4836130155633231
 40
0.4836130155633231
 40
1.0
 40
1.0
 40
1.0
 40
1.0
 10
-4120.823210890539
 20
3940.088014854852
 30
0.0
 41
1.0
 10
-4120.823210890539
 20
3939.931473716103
 30
0.0
 41
1.0
 10
-4120.75685629002
 20
3939.919525813143
 30
0.0
 41
1.0
 10
-4120.625728530986
 20
3939.934055840455
 30
0.0
 41
1.0
 10
-4120.555222914696
 20
3939.975737862474
 30
0.0
 41
1.0
 10
-4120.480610315999
 20
3940.026220776904
 30
0.0
 41
1.0
  0
SPLINE
  5
1B3
330
1F
100
AcDbEntity
  8
Predefinito
100
AcDbSpline
210
0.0
220
0.0
230
1.0
 70
    24
 71
     2
 72
     6
 73
     3
 74
     0
 42
0.0000000001
 43
0.0000000001
 40
0.0
 40
0.0
 40
0.0
 40
2.591868948014053
 40
2.591868948014053
 40
2.591868948014053
 10
-4120.823210890539
 20
3942.679883802866
 30
0.0
 10
-4120.823210890539
 20
3941.383949328859
 30
0.0
 10
-4120.823210890539
 20
3940.088014854852
 30
0.0
  0
SPLINE
  5
1B4
330
1F
100
AcDbEntity
  8
Predefinito
100
AcDbSpline
210
0.0
220
0.0
230
1.0
 70
    12
 71
     2
 72
    10
 73
     7
 74
     0
 42
0.0000000001
 43
0.0000000001
 40
0.0
 40
0.0
 40
0.0
 40
0.0414087380690944
 40
0.0414087380690944
 40
1.612205064863991
 40
1.612205064863991
 40
3.170729545355802
 40
3.170729545355802
 40
3.170729545355802
 10
-4109.372392654419
 20
2636.517212402748
 30
0.0
 41
1.0
 10
-4109.372392654419
 20
2636.496508033713
 30
0.0
 41
1.0
 10
-4109.372392654419
 20
2636.475803664679
 30
0.0
 41
1.0
 10
-4109.372392683366
 20
2636.475803664679
 30
0.0
 41
0.7071067811865476
 10
-4109.372392683366
 20
3311.835970190407
 30
0.0
 41
1.0
 10
-4109.372392683366
 20
3979.758459215403
 30
0.0
 41
0.7093950094585276
 10
-4109.372392683366
 20
3987.154727978068
 30
0.0
 41
0.9954592970227896
  0
SPLINE
  5
1B5
330
1F
100
AcDbEntity
  8
Predefinito
100
AcDbSpline
210
0.0
220
0.0
230
1.0
 70
    24
 71
     2
 72
     6
 73
     3
 74
     0
 42
0.0000000001
 43
0.0000000001
 40
0.0
 40
0.0
 40
0.0
 40
0.71445891072932
 40
0.71445891072932
 40
0.71445891072932
 10
-4117.699317358899
 20
4093.583759202686
 30
0.0
 10
-4117.342087903535
 20
4093.583759202686
 30
0.0
 10
-4116.98485844817
 20
4093.583759202686
 30
0.0
  0
SPLINE
  5
1B6
330
1F
100
AcDbEntity
  8
Predefinito
100
AcDbSpline
210
0.0
220
0.0
230
1.0
 70
    28
 71
     2
 72
     8
 73
     5
 74
     0
 42
0.0000000001
 43
0.0000000001
 40
-41.2374941938004
 40
-41.2374941938004
 40
-41.2374941938004
 40
-40.42618879931866
 40
-40.42618879931866
 40
-27.44530248761083
 40
-27.44530248761083
 40
-27.44530248761083
 10
-4126.193302782847
 20
4093.583759202687
 30
0.0
 41
0.9674645268038774
 10
-4126.209849980216
 20
4093.583759202686
 30
0.0
 41
0.9826477476287346
 10
-4126.193542719086
 20
4093.583759202686
 30
0.0
 41
1.0
 10
-4125.838612644805
 20
4093.583759202684
 30
0.0
 41
0.7223639620597548
 10
-4117.70163283564
 20
4093.583759202685
 30
0.0
 41
1.0
  0
SPLINE
  5
1B7
330
1F
100
AcDbEntity
  8
Predefinito
100
AcDbSpline
210
0.0
220
0.0
230
1.0
 70
    24
 71
     2
 72
     6
 73
     3
 74
     0
 42
0.0000000001
 43
0.0000000001
 40
0.0
 40
0.0
 40
0.0
 40
7.720269303307418
 40
7.720269303307418
 40
7.720269303307418
 10
-4116.960809022285
 20
4093.583759202686
 30
0.0
 10
-4113.100674370631
 20
4093.583759202686
 30
0.0
 10
-4109.240539718978
 20
4093.583759202686
 30
0.0
  0
SPLINE
  5
1B8
330
1F
100
AcDbEntity
  8
Predefinito
100
AcDbSpline
210
0.0
220
0.0
230
1.0
 70
    24
 71
     2
 72
     6
 73
     3
 74
     0
 42
0.0000000001
 43
0.0000000001
 40
0.0
 40
0.0
 40
0.0
 40
7.720269303307418
 40
7.720269303307418
 40
7.720269303307418
 10
-4116.960809022285
 20
4154.583759202686
 30
0.0
 10
-4113.100674370631
 20
4154.583759202686
 30
0.0
 10
-4109.240539718978
 20
4154.583759202686
 30
0.0
  0
SPLINE
  5
1B9
330
1F
100
AcDbEntity
  8
Predefinito
100
AcDbSpline
210
0.0
220
0.0
230
1.0
 70
    24
 71
     2
 72
     6
 73
     3
 74
     0
 42
0.0000000001
 43
0.0000000001
 40
0.0
 40
0.0
 40
0.0
 40
0.7163974347178765
 40
0.7163974347178765
 40
0.7163974347178765
 10
-4117.701255882887
 20
4154.583759202685
 30
0.0
 10
-4117.343057165528
 20
4154.583759202686
 30
0.0
 10
-4116.98485844817
 20
4154.583759202686
 30
0.0
  0
SPLINE
  5
1BA
330
1F
100
AcDbEntity
  8
Predefinito
100
AcDbSpline
210
0.0
220
0.0
230
1.0
 70
    24
 71
     2
 72
     6
 73
     3
 74
     0
 42
0.0000000001
 43
0.0000000001
 40
0.0
 40
0.0
 40
0.0
 40
8.491909883445828
 40
8.491909883445828
 40
8.491909883445828
 10
-4117.70163283564
 20
4154.583759202686
 30
0.0
 10
-4121.947587777363
 20
4154.583759202686
 30
0.0
 10
-4126.193542719086
 20
4154.583759202686
 30
0.0
  0
SPLINE
  5
1BB
330
1F
100
AcDbEntity
  8
Predefinito
100
AcDbSpline
210
0.0
220
0.0
230
1.0
 70
    24
 71
     2
 72
     6
 73
     3
 74
     0
 42
0.0000000001
 43
0.0000000001
 40
0.0
 40
0.0
 40
0.0
 40
70.53928262856749
 40
70.53928262856749
 40
70.53928262856749
 10
-4165.086011687261
 20
4346.58152232734
 30
0.0
 10
-4200.355653001545
 20
4346.58152232734
 30
0.0
 10
-4235.625294315829
 20
4346.58152232734
 30
0.0
  0
SPLINE
  5
1BC
330
1F
100
AcDbEntity
  8
Predefinito
100
AcDbSpline
210
0.0
220
0.0
230
1.0
 70
    24
 71
     2
 72
     6
 73
     3
 74
     0
 42
0.0000000001
 43
0.0000000001
 40
0.0
 40
0.0
 40
0.0
 40
165.3003433462706
 40
165.3003433462706
 40
165.3003433462706
 10
-4165.086011687261
 20
4346.58152232734
 30
0.0
 10
-4082.435840014126
 20
4346.58152232734
 30
0.0
 10
-3999.785668340991
 20
4346.58152232734
 30
0.0
  0
SPLINE
  5
1BD
330
1F
100
AcDbEntity
  8
Predefinito
100
AcDbSpline
210
0.0
220
0.0
230
1.0
 70
    28
 71
     3
 72
    12
 73
     8
 74
     0
 42
0.0000000001
 43
0.0000000001
 40
-139.7296516077452
 40
-139.7296516077452
 40
-139.7296516077452
 40
-139.7296516077452
 40
-129.936543296623
 40
-75.2406915109794
 40
-23.5934620786015
 40
-11.7967310393008
 40
0.0
 40
0.0
 40
0.0
 40
0.0
 10
-4235.952811555616
 20
4389.58152232734
 30
0.0
 41
1.0
 10
-4236.045474808774
 20
4389.58152232734
 30
0.0
 41
1.0
 10
-4235.758448827532
 20
4389.58152232734
 30
0.0
 41
1.0
 10
-4224.448870606464
 20
4389.58152232734
 30
0.0
 41
1.0
 10
-4197.224795910897
 20
4389.58152232734
 30
0.0
 41
1.0
 10
-4175.913241939767
 20
4389.58152232734
 30
0.0
 41
1.0
 10
-4168.84872317908
 20
4389.58152232734
 30
0.0
 41
1.0
 10
-4165.236796226638
 20
4389.58152232734
 30
0.0
 41
1.0
  0
SPLINE
  5
1BE
330
1F
100
AcDbEntity
  8
Predefinito
100
AcDbSpline
210
0.0
220
0.0
230
1.0
 70
    24
 71
     2
 72
     6
 73
     3
 74
     0
 42
0.0000000001
 43
0.0000000001
 40
0.0
 40
0.0
 40
0.0
 40
165.8263553599351
 40
165.8263553599351
 40
165.8263553599351
 10
-4165.236796226638
 20
4389.58152232734
 30
0.0
 10
-4082.32361854667
 20
4389.58152232734
 30
0.0
 10
-3999.410440866703
 20
4389.58152232734
 30
0.0
  0
SPLINE
  5
1BF
330
1F
100
AcDbEntity
  8
Predefinito
100
AcDbSpline
210
0.0
220
0.0
230
1.0
 70
    12
 71
     2
 72
     6
 73
     3
 74
     0
 42
0.0000000001
 43
0.0000000001
 40
0.0
 40
0.0
 40
0.0
 40
0.4568771678893734
 40
0.4568771678893734
 40
0.4568771678893734
 10
-4118.096579378304
 20
3946.564934782979
 30
0.0
 41
1.0
 10
-4117.966623461747
 20
3946.333174023182
 30
0.0
 41
0.8022856493489073
 10
-4117.707295767909
 20
3946.391059576119
 30
0.0
 41
1.0
  0
SPLINE
  5
1C0
330
1F
100
AcDbEntity
  8
Predefinito
100
AcDbSpline
210
0.0
220
0.0
230
1.0
 70
    12
 71
     2
 72
     6
 73
     3
 74
     0
 42
0.0000000001
 43
0.0000000001
 40
0.0
 40
0.0
 40
0.0
 40
0.4783216104795784
 40
0.4783216104795784
 40
0.4783216104795784
 10
-4117.696579378965
 20
3946.391001234074
 30
0.0
 41
1.0
 10
-4117.418684641212
 20
3946.314181832936
 30
0.0
 41
0.7628275990922747
 10
-4117.297380485038
 20
3946.57573872418
 30
0.0
 41
1.0
  0
SPLINE
  5
1C1
330
1F
100
AcDbEntity
  8
Predefinito
100
AcDbSpline
210
0.0
220
0.0
230
1.0
 70
    12
 71
     2
 72
     6
 73
     3
 74
     0
 42
0.0000000001
 43
0.0000000001
 40
0.0
 40
0.0
 40
0.0
 40
1.552122167584218
 40
1.552122167584218
 40
1.552122167584218
 10
-1597.692723217805
 20
3941.564789544974
 30
0.0
 41
1.0
 10
-1598.066705942732
 20
3942.471829316501
 30
0.0
 41
0.7140636867231596
 10
-1597.167238614031
 20
3942.863674630719
 30
0.0
 41
1.0
  0
SPLINE
  5
1C2
330
1F
100
AcDbEntity
  8
Predefinito
100
AcDbSpline
210
0.0
220
0.0
230
1.0
 70
    12
 71
     2
 72
     6
 73
     3
 74
     0
 42
0.0000000001
 43
0.0000000001
 40
0.0
 40
0.0
 40
0.0
 40
1.552221274056987
 40
1.552221274056987
 40
1.552221274056987
 10
-1587.50637094932
 20
3947.064339444195
 30
0.0
 41
1.0
 10
-1586.606242243794
 20
3947.455228741894
 30
0.0
 41
0.7139005971553506
 10
-1586.1980460176
 20
3946.562815177178
 30
0.0
 41
1.0
  0
SPLINE
  5
1C3
330
1F
100
AcDbEntity
  8
Predefinito
100
AcDbSpline
210
0.0
220
0.0
230
1.0
 70
    24
 71
     2
 72
     6
 73
     3
 74
     0
 42
0.0000000001
 43
0.0000000001
 40
0.0
 40
0.0
 40
0.0
 40
0.9158466991354061
 40
0.9158466991354061
 40
0.9158466991354061
 10
-1597.341888926613
 20
3940.717799448378
 30
0.0
 10
-1597.517128605786
 20
3941.140865458502
 30
0.0
 10
-1597.692368284958
 20
3941.563931468627
 30
0.0
  0
SPLINE
  5
1C4
330
1F
100
AcDbEntity
  8
Predefinito
100
AcDbSpline
210
0.0
220
0.0
230
1.0
 70
    24
 71
     2
 72
     6
 73
     3
 74
     0
 42
0.0000000001
 43
0.0000000001
 40
0.0
 40
0.0
 40
0.0
 40
0.9158466991358366
 40
0.9158466991358366
 40
0.9158466991358366
 10
-1586.197661402178
 20
3946.561972267809
 30
0.0
 10
-1586.007763683458
 20
3946.145279754672
 30
0.0
 10
-1585.817865964738
 20
3945.728587241535
 30
0.0
  0
SPLINE
  5
1C5
330
1F
100
AcDbEntity
  8
Predefinito
100
AcDbSpline
210
0.0
220
0.0
230
1.0
 70
    12
 71
     2
 72
     6
 73
     3
 74
     0
 42
0.0000000001
 43
0.0000000001
 40
0.0
 40
0.0
 40
0.0
 40
1.552221278712167
 40
1.552221278712167
 40
1.552221278712167
 10
-1028.526144120363
 20
3942.863674630717
 30
0.0
 41
1.0
 10
-1027.626379470383
 20
3942.471948035726
 30
0.0
 41
0.7139005893686008
 10
-1028.000660291635
 20
3941.564787621345
 30
0.0
 41
1.0
  0
SPLINE
  5
1C6
330
1F
100
AcDbEntity
  8
Predefinito
100
AcDbSpline
210
0.0
220
0.0
230
1.0
 70
    12
 71
     2
 72
     6
 73
     3
 74
     0
 42
0.0000000001
 43
0.0000000001
 40
0.0
 40
0.0
 40
0.0
 40
1.552122167582363
 40
1.552122167582363
 40
1.552122167582363
 10
-1039.495335838522
 20
3946.562817055921
 30
0.0
 41
1.0
 10
-1039.087024549191
 20
3947.454930342827
 30
0.0
 41
0.7140636867252067
 10
-1038.187011785073
 20
3947.064339444193
 30
0.0
 41
1.0
  0
SPLINE
  5
1C7
330
1F
100
AcDbEntity
  8
Predefinito
100
AcDbSpline
210
0.0
220
0.0
230
1.0
 70
    24
 71
     2
 72
     6
 73
     3
 74
     0
 42
0.0000000001
 43
0.0000000001
 40
0.0
 40
0.0
 40
0.0
 40
0.9158466991343918
 40
0.9158466991343918
 40
0.9158466991343918
 10
-1028.001014449437
 20
3941.563931468625
 30
0.0
 10
-1028.176254128609
 20
3941.140865458501
 30
0.0
 10
-1028.351493807782
 20
3940.717799448377
 30
0.0
  0
SPLINE
  5
1C8
330
1F
100
AcDbEntity
  8
Predefinito
100
AcDbSpline
210
0.0
220
0.0
230
1.0
 70
    24
 71
     2
 72
     6
 73
     3
 74
     0
 42
0.0000000001
 43
0.0000000001
 40
0.0
 40
0.0
 40
0.0
 40
0.9158466991362137
 40
0.9158466991362137
 40
0.9158466991362137
 10
-1039.875516769657
 20
3945.728587241534
 30
0.0
 10
-1039.685619050937
 20
3946.145279754671
 30
0.0
 10
-1039.495721332216
 20
3946.561972267808
 30
0.0
  0
SPLINE
  5
1C9
330
1F
100
AcDbEntity
  8
Predefinito
100
AcDbSpline
210
0.0
220
0.0
230
1.0
 70
    12
 71
     2
 72
    12
 73
     9
 74
     0
 42
0.0000000001
 43
0.0000000001
 40
0.0
 40
0.0
 40
0.0
 40
739.7075248367202
 40
739.7075248367202
 40
1479.41504967344
 40
1479.41504967344
 40
2219.122574510161
 40
2219.122574510161
 40
2958.830099346881
 40
2958.830099346881
 40
2958.830099346881
 10
-1028.558241010682
 20
3940.61800129684
 30
0.0
 41
1.0
 10
-655.082935449937
 20
3771.760256639924
 30
0.0
 41
0.8597731171786861
 10
-624.6842980804713
 20
3363.015024691719
 30
0.0
 41
1.0
 10
-594.2856607110064
 20
2954.269792743514
 30
0.0
 41
0.8597731171786861
 10
-938.6743568265179
 20
2732.024055366685
 30
0.0
 41
1.0
 10
-1283.063052942029
 20
2509.778317989857
 30
0.0
 41
0.8597731171786861
 10
-1642.986312731812
 20
2705.870104805645
 30
0.0
 41
1.0
 10
-2002.909572521595
 20
2901.961891621433
 30
0.0
 41
0.8597731171786861
 10
-2002.909579114078
 20
3311.835947636584
 30
0.0
 41
1.0
  0
SPLINE
  5
1CA
330
1F
100
AcDbEntity
  8
Predefinito
100
AcDbSpline
210
0.0
220
0.0
230
1.0
 70
    12
 71
     2
 72
     6
 73
     3
 74
     0
 42
0.0000000001
 43
0.0000000001
 40
0.0
 40
0.0
 40
0.0
 40
15.31768257122802
 40
15.31768257122802
 40
15.31768257122802
 10
-1053.959862942188
 20
3951.495553462204
 30
0.0
 41
1.0
 10
-1046.860143470661
 20
3948.622114630173
 30
0.0
 41
0.9999384088592218
 10
-1039.825951320249
 20
3945.59179978071
 30
0.0
 41
1.0
  0
SPLINE
  5
1CB
330
1F
100
AcDbEntity
  8
Predefinito
100
AcDbSpline
210
0.0
220
0.0
230
1.0
 70
    12
 71
     2
 72
     6
 73
     3
 74
     0
 42
0.0000000001
 43
0.0000000001
 40
0.0
 40
0.0
 40
0.0
 40
540.4209892066459
 40
540.4209892066459
 40
540.4209892066459
 10
-1585.867425214797
 20
3945.591785410929
 30
0.0
 41
1.0
 10
-1324.192332733686
 20
4058.320833127392
 30
0.0
 41
0.9243096676116732
 10
-1059.212214626356
 20
3953.59629334858
 30
0.0
 41
1.0
  0
SPLINE
  5
1CC
330
1F
100
AcDbEntity
  8
Predefinito
100
AcDbSpline
210
0.0
220
0.0
230
1.0
 70
    12
 71
     2
 72
     6
 73
     3
 74
     0
 42
0.0000000001
 43
0.0000000001
 40
0.0
 40
0.0
 40
0.0
 40
790.972371550063
 40
790.972371550063
 40
790.972371550063
 10
-2002.909579114076
 20
3311.835947636584
 30
0.0
 41
1.0
 10
-2002.909680058222
 20
3757.184468614039
 30
0.0
 41
0.840215199643914
 10
-1597.099873063992
 20
3940.633932184045
 30
0.0
 41
1.0
  0
SPLINE
  5
1CD
330
1F
100
AcDbEntity
  8
Predefinito
100
AcDbSpline
210
0.0
220
0.0
230
1.0
 70
    24
 71
     2
 72
     6
 73
     3
 74
     0
 42
0.0000000001
 43
0.0000000001
 40
0.0
 40
0.0
 40
0.0
 40
61.00000000000045
 40
61.00000000000045
 40
61.00000000000045
 10
-1051.878909928846
 20
4093.583736648863
 30
0.0
 10
-1051.878909928846
 20
4124.083736648863
 30
0.0
 10
-1051.878909928846
 20
4154.583736648863
 30
0.0
  0
SPLINE
  5
1CE
330
1F
100
AcDbEntity
  8
Predefinito
100
AcDbSpline
210
0.0
220
0.0
230
1.0
 70
    24
 71
     2
 72
     6
 73
     3
 74
     0
 42
0.0000000001
 43
0.0000000001
 40
0.0
 40
0.0
 40
0.0
 40
43.00153800222994
 40
43.00153800222994
 40
43.00153800222994
 10
-1155.026033836868
 20
4346.58159648148
 30
0.0
 10
-1155.213641682144
 20
4368.0815469683
 30
0.0
 10
-1155.401249527421
 20
4389.581497455119
 30
0.0
  0
SPLINE
  5
1CF
330
1F
100
AcDbEntity
  8
Predefinito
100
AcDbSpline
210
0.0
220
0.0
230
1.0
 70
    24
 71
     2
 72
     6
 73
     3
 74
     0
 42
0.0000000001
 43
0.0000000001
 40
0.0
 40
0.0
 40
0.0
 40
43.00160552778377
 40
43.00160552778377
 40
43.00160552778377
 10
-918.811127873892
 20
4389.581467867121
 30
0.0
 10
-918.9987591054394
 20
4368.08148382032
 30
0.0
 10
-919.1863903369867
 20
4346.581499773518
 30
0.0
  0
SPLINE
  5
1D0
330
1F
100
AcDbEntity
  8
Predefinito
100
AcDbSpline
210
0.0
220
0.0
230
1.0
 70
    24
 71
     2
 72
     6
 73
     3
 74
     0
 42
0.0000000001
 43
0.0000000001
 40
0.0
 40
0.0
 40
0.0
 40
50.00000000000091
 40
50.00000000000091
 40
50.00000000000091
 10
-1045.975093183631
 20
4032.033736648861
 30
0.0
 10
-1045.975093183631
 20
4057.033736648862
 30
0.0
 10
-1045.975093183631
 20
4082.033736648862
 30
0.0
  0
SPLINE
  5
1D1
330
1F
100
AcDbEntity
  8
Predefinito
100
AcDbSpline
210
0.0
220
0.0
230
1.0
 70
    24
 71
     2
 72
     6
 73
     3
 74
     0
 42
0.0000000001
 43
0.0000000001
 40
0.0
 40
0.0
 40
0.0
 40
50.00000000000091
 40
50.00000000000091
 40
50.00000000000091
 10
-1040.77509318363
 20
4082.033736648862
 30
0.0
 10
-1040.77509318363
 20
4057.033736648862
 30
0.0
 10
-1040.77509318363
 20
4032.033736648861
 30
0.0
  0
SPLINE
  5
1D2
330
1F
100
AcDbEntity
  8
Predefinito
100
AcDbSpline
210
0.0
220
0.0
230
1.0
 70
    12
 71
     2
 72
     6
 73
     3
 74
     0
 42
0.0000000001
 43
0.0000000001
 40
0.0
 40
0.0
 40
0.0
 40
9.249238330248815
 40
9.249238330248815
 40
9.249238330248815
 10
-1040.77509318363
 20
4032.033736648908
 30
0.0
 41
1.0
 10
-1040.775138422313
 20
4027.408356584288
 30
0.0
 41
0.999753260256784
 10
-1040.569746925945
 20
4022.787539007554
 30
0.0
 41
1.0
  0
SPLINE
  5
1D3
330
1F
100
AcDbEntity
  8
Predefinito
100
AcDbSpline
210
0.0
220
0.0
230
1.0
 70
    12
 71
     2
 72
     6
 73
     3
 74
     0
 42
0.0000000001
 43
0.0000000001
 40
0.0
 40
0.0
 40
0.0
 40
9.5016754836459
 40
9.5016754836459
 40
9.5016754836459
 10
-1045.763663626922
 20
4022.535199276635
 30
0.0
 41
1.0
 10
-1045.975155491051
 20
4027.282113452652
 30
0.0
 41
0.9997520648046692
 10
-1045.975093183631
 20
4032.033736648908
 30
0.0
 41
1.0
  0
SPLINE
  5
1D4
330
1F
100
AcDbEntity
  8
Predefinito
100
AcDbSpline
210
0.0
220
0.0
230
1.0
 70
    12
 71
     2
 72
     6
 73
     3
 74
     0
 42
0.0000000001
 43
0.0000000001
 40
0.0
 40
0.0
 40
0.0
 40
9.308019547202942
 40
9.308019547202942
 40
9.308019547202942
 10
-1040.568819380641
 20
4022.766701451299
 30
0.0
 41
1.0
 10
-1040.361655103061
 20
4018.11718745956
 30
0.0
 41
0.9999622444358364
 10
-1040.073720031793
 20
4013.471975861365
 30
0.0
 41
1.0
  0
SPLINE
  5
1D5
330
1F
100
AcDbEntity
  8
Predefinito
100
AcDbSpline
210
0.0
220
0.0
230
1.0
 70
    12
 71
     2
 72
     6
 73
     3
 74
     0
 42
0.0000000001
 43
0.0000000001
 40
0.0
 40
0.0
 40
0.0
 40
9.36018917707071
 40
9.36018917707071
 40
9.36018917707071
 10
-1045.265379577196
 20
4013.176417416905
 30
0.0
 41
1.0
 10
-1045.554701604059
 20
4017.847677615498
 30
0.0
 41
0.9999625512587746
 10
-1045.76313079347
 20
4022.523245639937
 30
0.0
 41
1.0
  0
SPLINE
  5
1D6
330
1F
100
AcDbEntity
  8
Predefinito
100
AcDbSpline
210
0.0
220
0.0
230
1.0
 70
    12
 71
     2
 72
     6
 73
     3
 74
     0
 42
0.0000000001
 43
0.0000000001
 40
0.0
 40
0.0
 40
0.0
 40
8.782682885819582
 40
8.782682885819582
 40
8.782682885819582
 10
-1040.072687580552
 20
4013.455327719728
 30
0.0
 41
1.0
 10
-1039.800808703415
 20
4009.072410641184
 30
0.0
 41
0.9999999777140615
 10
-1039.527079203036
 20
4004.68960875177
 30
0.0
 41
1.0
  0
SPLINE
  5
1D7
330
1F
100
AcDbEntity
  8
Predefinito
100
AcDbSpline
210
0.0
220
0.0
230
1.0
 70
    12
 71
     2
 72
     6
 73
     3
 74
     0
 42
0.0000000001
 43
0.0000000001
 40
0.0
 40
0.0
 40
0.0
 40
8.790796617755511
 40
8.790796617755511
 40
8.790796617755511
 10
-1044.715290353957
 20
4004.338626883668
 30
0.0
 41
1.0
 10
-1044.989278060465
 20
4008.72547741734
 30
0.0
 41
0.9999999777006989
 10
-1045.261412878954
 20
4013.112443283252
 30
0.0
 41
1.0
  0
SPLINE
  5
1D8
330
1F
100
AcDbEntity
  8
Predefinito
100
AcDbSpline
210
0.0
220
0.0
230
1.0
 70
    12
 71
     2
 72
     6
 73
     3
 74
     0
 42
0.0000000001
 43
0.0000000001
 40
0.0
 40
0.0
 40
0.0
 40
8.851509770977026
 40
8.851509770977026
 40
8.851509770977026
 10
-1039.523856128568
 20
4004.638002386031
 30
0.0
 41
1.0
 10
-1039.247974258085
 20
4000.220241226641
 30
0.0
 41
0.9997925939701612
 10
-1039.152227102513
 20
3995.794909945248
 30
0.0
 41
1.0
  0
SPLINE
  5
1D9
330
1F
100
AcDbEntity
  8
Predefinito
100
AcDbSpline
210
0.0
220
0.0
230
1.0
 70
    12
 71
     2
 72
     6
 73
     3
 74
     0
 42
0.0000000001
 43
0.0000000001
 40
0.0
 40
0.0
 40
0.0
 40
8.687715844799058
 40
8.687715844799058
 40
8.687715844799058
 10
-1044.350118860494
 20
3995.640962202599
 30
0.0
 41
1.0
 10
-1044.44324233311
 20
3999.984429433473
 30
0.0
 41
0.9997902730895795
 10
-1044.714154436985
 20
4004.320439834613
 30
0.0
 41
1.0
  0
SPLINE
  5
1DA
330
1F
100
AcDbEntity
  8
Predefinito
100
AcDbSpline
210
0.0
220
0.0
230
1.0
 70
    12
 71
     2
 72
     6
 73
     3
 74
     0
 42
0.0000000001
 43
0.0000000001
 40
0.0
 40
0.0
 40
0.0
 40
7.866769420207775
 40
7.866769420207775
 40
7.866769420207775
 10
-1039.150778915798
 20
3995.727349262447
 30
0.0
 41
1.0
 10
-1039.067176627202
 20
3991.793734663409
 30
0.0
 41
0.9995737487441525
 10
-1039.213299040251
 20
3987.861946088618
 30
0.0
 41
1.0
  0
SPLINE
  5
1DB
330
1F
100
AcDbEntity
  8
Predefinito
100
AcDbSpline
210
0.0
220
0.0
230
1.0
 70
    12
 71
     2
 72
     6
 73
     3
 74
     0
 42
0.0000000001
 43
0.0000000001
 40
0.0
 40
0.0
 40
0.0
 40
7.625735962114541
 40
7.625735962114541
 40
7.625735962114541
 10
-1044.411353786496
 20
3988.011123732681
 30
0.0
 41
1.0
 10
-1044.268336359561
 20
3991.822412788958
 30
0.0
 41
0.9995660705543984
 10
-1044.35000224315
 20
3995.635509816095
 30
0.0
 41
1.0
  0
SPLINE
  5
1DC
330
1F
100
AcDbEntity
  8
Predefinito
100
AcDbSpline
210
0.0
220
0.0
230
1.0
 70
    12
 71
     2
 72
     6
 73
     3
 74
     0
 42
0.0000000001
 43
0.0000000001
 40
0.0
 40
0.0
 40
0.0
 40
7.434994534647027
 40
7.434994534647027
 40
7.434994534647027
 10
-1045.099232863069
 20
3980.581563893406
 30
0.0
 41
1.0
 10
-1044.553021132211
 20
3984.262477273687
 30
0.0
 41
0.9985004829282097
 10
-1044.412486622434
 20
3987.981041596057
 30
0.0
 41
1.0
  0
SPLINE
  5
1DD
330
1F
100
AcDbEntity
  8
Predefinito
100
AcDbSpline
210
0.0
220
0.0
230
1.0
 70
    12
 71
     2
 72
     6
 73
     3
 74
     0
 42
0.0000000001
 43
0.0000000001
 40
0.0
 40
0.0
 40
0.0
 40
8.044126296799766
 40
8.044126296799766
 40
8.044126296799766
 10
-1039.216192866843
 20
3987.7847479242
 30
0.0
 41
1.0
 10
-1039.368277909091
 20
3983.76149324321
 30
0.0
 41
0.9984861953246887
 10
-1039.961354016056
 20
3979.77928671673
 30
0.0
 41
1.0
  0
SPLINE
  5
1DE
330
1F
100
AcDbEntity
  8
Predefinito
100
AcDbSpline
210
0.0
220
0.0
230
1.0
 70
    12
 71
     2
 72
     6
 73
     3
 74
     0
 42
0.0000000001
 43
0.0000000001
 40
0.0
 40
0.0
 40
0.0
 40
7.066590272155953
 40
7.066590272155953
 40
7.066590272155953
 10
-1046.614108687107
 20
3973.607286841304
 30
0.0
 41
1.0
 10
-1045.633821976822
 20
3977.007240605978
 30
0.0
 41
0.9978150617543355
 10
-1045.11037432397
 20
3980.506762029116
 30
0.0
 41
1.0
  0
SPLINE
  5
1DF
330
1F
100
AcDbEntity
  8
Predefinito
100
AcDbSpline
210
0.0
220
0.0
230
1.0
 70
    12
 71
     2
 72
     6
 73
     3
 74
     0
 42
0.0000000001
 43
0.0000000001
 40
0.0
 40
0.0
 40
0.0
 40
7.806362411901966
 40
7.806362411901966
 40
7.806362411901966
 10
-1039.967538620887
 20
3979.737840101285
 30
0.0
 41
1.0
 10
-1040.545858556232
 20
3975.871905488317
 30
0.0
 41
0.9977870837925017
 10
-1041.632020292352
 20
3972.116887903494
 30
0.0
 41
1.0
  0
SPLINE
  5
1E0
330
1F
100
AcDbEntity
  8
Predefinito
100
AcDbSpline
210
0.0
220
0.0
230
1.0
 70
    12
 71
     2
 72
     6
 73
     3
 74
     0
 42
0.0000000001
 43
0.0000000001
 40
0.0
 40
0.0
 40
0.0
 40
7.027324233765063
 40
7.027324233765063
 40
7.027324233765063
 10
-1049.145615199564
 20
3966.99893338124
 30
0.0
 41
1.0
 10
-1047.610189321455
 20
3970.168693175291
 30
0.0
 41
0.996427095512556
 10
-1046.63017396167
 20
3973.551662237183
 30
0.0
 41
1.0
  0
SPLINE
  5
1E1
330
1F
100
AcDbEntity
  8
Predefinito
100
AcDbSpline
210
0.0
220
0.0
230
1.0
 70
    12
 71
     2
 72
     6
 73
     3
 74
     0
 42
0.0000000001
 43
0.0000000001
 40
0.0
 40
0.0
 40
0.0
 40
7.893028865219704
 40
7.893028865219704
 40
7.893028865219704
 10
-1041.63434753416
 20
3972.108843117484
 30
0.0
 41
1.0
 10
-1042.734690876699
 20
3968.309036888043
 30
0.0
 41
0.9964383868039484
 10
-1044.457933673374
 20
3964.748177846114
 30
0.0
 41
1.0
  0
SPLINE
  5
1E2
330
1F
100
AcDbEntity
  8
Predefinito
100
AcDbSpline
210
0.0
220
0.0
230
1.0
 70
    12
 71
     2
 72
     6
 73
     3
 74
     0
 42
0.0000000001
 43
0.0000000001
 40
0.0
 40
0.0
 40
0.0
 40
7.381907255803391
 40
7.381907255803391
 40
7.381907255803391
 10
-1052.943239880613
 20
3960.680433981391
 30
0.0
 41
1.0
 10
-1050.759133827722
 20
3963.668212834383
 30
0.0
 41
0.9959473400189757
 10
-1049.145615199564
 20
3966.99893338124
 30
0.0
 41
1.0
  0
SPLINE
  5
1E3
330
1F
100
AcDbEntity
  8
Predefinito
100
AcDbSpline
210
0.0
220
0.0
230
1.0
 70
    12
 71
     2
 72
     6
 73
     3
 74
     0
 42
0.0000000001
 43
0.0000000001
 40
0.0
 40
0.0
 40
0.0
 40
8.316703298082935
 40
8.316703298082935
 40
8.316703298082935
 10
-1044.465363373617
 20
3964.732825959753
 30
0.0
 41
1.0
 10
-1046.28307857294
 20
3960.98026493685
 30
0.0
 41
0.9959481095345036
 10
-1048.743591850367
 20
3957.61400927394
 30
0.0
 41
1.0
  0
SPLINE
  5
1E4
330
1F
100
AcDbEntity
  8
Predefinito
100
AcDbSpline
210
0.0
220
0.0
230
1.0
 70
    12
 71
     2
 72
     6
 73
     3
 74
     0
 42
0.0000000001
 43
0.0000000001
 40
0.0
 40
0.0
 40
0.0
 40
7.483819533932789
 40
7.483819533932789
 40
7.483819533932789
 10
-1057.812687069418
 20
3954.99582090552
 30
0.0
 41
1.0
 10
-1055.16160559366
 20
3957.647072164502
 30
0.0
 41
0.9970398237795288
 10
-1052.948354275772
 20
3960.67343711824
 30
0.0
 41
1.0
  0
SPLINE
  5
1E5
330
1F
100
AcDbEntity
  8
Predefinito
100
AcDbSpline
210
0.0
220
0.0
230
1.0
 70
    12
 71
     2
 72
     6
 73
     3
 74
     0
 42
0.0000000001
 43
0.0000000001
 40
0.0
 40
0.0
 40
0.0
 40
8.285096277954873
 40
8.285096277954873
 40
8.285096277954873
 10
-1048.750617070466
 20
3957.60439779702
 30
0.0
 41
1.0
 10
-1051.200799794269
 20
3954.253977819373
 30
0.0
 41
0.9970393421056053
 10
-1054.135731807248
 20
3951.318865643349
 30
0.0
 41
1.0
  0
SPLINE
  5
1E6
330
1F
100
AcDbEntity
  8
Predefinito
100
AcDbSpline
210
0.0
220
0.0
230
1.0
 70
    24
 71
     2
 72
     6
 73
     3
 74
     0
 42
0.0000000001
 43
0.0000000001
 40
0.0
 40
0.0
 40
0.0
 40
2.599999999999603
 40
2.599999999999603
 40
2.599999999999603
 10
-1059.651164700502
 20
3953.157343274434
 30
0.0
 10
-1058.73192588496
 20
3954.076582089977
 30
0.0
 10
-1057.812687069418
 20
3954.995820905519
 30
0.0
  0
SPLINE
  5
1E7
330
1F
100
AcDbEntity
  8
Predefinito
100
AcDbSpline
210
0.0
220
0.0
230
1.0
 70
    12
 71
     2
 72
     6
 73
     3
 74
     0
 42
0.0000000001
 43
0.0000000001
 40
0.0
 40
0.0
 40
0.0
 40
0.9116263994554547
 40
0.9116263994554547
 40
0.9116263994554547
 10
-1060.310921302309
 20
3952.52835512031
 30
0.0
 41
1.0
 10
-1059.97353478224
 20
3952.834973695855
 30
0.0
 41
0.9997151387707559
 10
-1059.651164700503
 20
3953.157343274434
 30
0.0
 41
1.0
  0
SPLINE
  5
1E8
330
1F
100
AcDbEntity
  8
Predefinito
100
AcDbSpline
210
0.0
220
0.0
230
1.0
 70
    12
 71
     2
 72
     6
 73
     3
 74
     0
 42
0.0000000001
 43
0.0000000001
 40
0.0
 40
0.0
 40
0.0
 40
1.177626948534193
 40
1.177626948534193
 40
1.177626948534193
 10
-1055.974209438332
 20
3949.480388012265
 30
0.0
 41
1.0
 10
-1056.390646447405
 20
3949.063953994886
 30
0.0
 41
0.9997064171850337
 10
-1056.82676872985
 20
3948.668183318726
 30
0.0
 41
1.0
  0
SPLINE
  5
1E9
330
1F
100
AcDbEntity
  8
Predefinito
100
AcDbSpline
210
0.0
220
0.0
230
1.0
 70
    12
 71
     2
 72
     6
 73
     3
 74
     0
 42
0.0000000001
 43
0.0000000001
 40
0.0
 40
0.0
 40
0.0
 40
0.9208214792856917
 40
0.9208214792856917
 40
0.9208214792856917
 10
-1061.028364911287
 20
3951.904552819339
 30
0.0
 41
1.0
 10
-1060.674327170104
 20
3952.19899994022
 30
0.0
 41
0.9997744060263002
 10
-1060.333114152393
 20
3952.508217510422
 30
0.0
 41
1.0
  0
SPLINE
  5
1EA
330
1F
100
AcDbEntity
  8
Predefinito
100
AcDbSpline
210
0.0
220
0.0
230
1.0
 70
    12
 71
     2
 72
     6
 73
     3
 74
     0
 42
0.0000000001
 43
0.0000000001
 40
0.0
 40
0.0
 40
0.0
 40
1.185544009274592
 40
1.185544009274592
 40
1.185544009274592
 10
-1061.972800640658
 20
3951.157681530414
 30
0.0
 41
1.0
 10
-1061.498754460742
 20
3951.513770469556
 30
0.0
 41
0.9997003039322117
 10
-1061.042705828436
 20
3951.892635561962
 30
0.0
 41
1.0
  0
SPLINE
  5
1EB
330
1F
100
AcDbEntity
  8
Predefinito
100
AcDbSpline
210
0.0
220
0.0
230
1.0
 70
    12
 71
     2
 72
     6
 73
     3
 74
     0
 42
0.0000000001
 43
0.0000000001
 40
0.0
 40
0.0
 40
0.0
 40
1.470425343029161
 40
1.470425343029161
 40
1.470425343029161
 10
-1057.718494208862
 20
3947.893932741658
 30
0.0
 41
1.0
 10
-1058.284132014298
 20
3947.424022238238
 30
0.0
 41
0.9996888583145406
 10
-1058.872501244244
 20
3946.982905861964
 30
0.0
 41
1.0
  0
SPLINE
  5
1EC
330
1F
100
AcDbEntity
  8
Predefinito
100
AcDbSpline
210
0.0
220
0.0
230
1.0
 70
    12
 71
     2
 72
     6
 73
     3
 74
     0
 42
0.0000000001
 43
0.0000000001
 40
0.0
 40
0.0
 40
0.0
 40
1.32536112875031
 40
1.32536112875031
 40
1.32536112875031
 10
-1063.052372182729
 20
3950.338445427683
 30
0.0
 41
1.0
 10
-1062.527272762254
 20
3950.7427099356
 30
0.0
 41
0.9999766656043566
 10
-1061.996699083417
 20
3951.139762532955
 30
0.0
 41
1.0
  0
SPLINE
  5
1ED
330
1F
100
AcDbEntity
  8
Predefinito
100
AcDbSpline
210
0.0
220
0.0
230
1.0
 70
    12
 71
     2
 72
     6
 73
     3
 74
     0
 42
0.0000000001
 43
0.0000000001
 40
0.0
 40
0.0
 40
0.0
 40
1.170557852102057
 40
1.170557852102057
 40
1.170557852102057
 10
-1058.946548401409
 20
3946.927414965409
 30
0.0
 41
1.0
 10
-1059.414856146963
 20
3946.576347078035
 30
0.0
 41
0.9999794529520107
 10
-1059.878624500452
 20
3946.219304054867
 30
0.0
 41
1.0
  0
SPLINE
  5
1EE
330
1F
100
AcDbEntity
  8
Predefinito
100
AcDbSpline
210
0.0
220
0.0
230
1.0
 70
    12
 71
     2
 72
     6
 73
     3
 74
     0
 42
0.0000000001
 43
0.0000000001
 40
0.0
 40
0.0
 40
0.0
 40
1.094791740150077
 40
1.094791740150077
 40
1.094791740150077
 10
-1063.975916400324
 20
3949.55321102938
 30
0.0
 41
1.0
 10
-1063.578360915709
 20
3949.930145730742
 30
0.0
 41
0.9987807444923589
 10
-1063.145572822841
 20
3950.266039462615
 30
0.0
 41
1.0
  0
SPLINE
  5
1EF
330
1F
100
AcDbEntity
  8
Predefinito
100
AcDbSpline
210
0.0
220
0.0
230
1.0
 70
    12
 71
     2
 72
     6
 73
     3
 74
     0
 42
0.0000000001
 43
0.0000000001
 40
0.0
 40
0.0
 40
0.0
 40
0.5585439768037055
 40
0.5585439768037055
 40
0.5585439768037055
 10
-1059.944883227662
 20
3946.167739828392
 30
0.0
 41
1.0
 10
-1060.165508533036
 20
3945.996228222946
 30
0.0
 41
0.9990500039894893
 10
-1060.370361612754
 20
3945.806157257499
 30
0.0
 41
1.0
  0
SPLINE
  5
1F0
330
1F
100
AcDbEntity
  8
Predefinito
100
AcDbSpline
210
0.0
220
0.0
230
1.0
 70
    12
 71
     2
 72
     6
 73
     3
 74
     0
 42
0.0000000001
 43
0.0000000001
 40
0.0
 40
0.0
 40
0.0
 40
1.401648168064981
 40
1.401648168064981
 40
1.401648168064981
 10
-1064.952291585827
 20
3948.209337219123
 30
0.0
 41
1.0
 10
-1064.659818838379
 20
3948.853939076534
 30
0.0
 41
0.9851773623429154
 10
-1064.16668796987
 20
3949.361751846268
 30
0.0
 41
1.0
  0
SPLINE
  5
1F1
330
1F
100
AcDbEntity
  8
Predefinito
100
AcDbSpline
210
0.0
220
0.0
230
1.0
 70
    24
 71
     2
 72
     6
 73
     3
 74
     0
 42
0.0000000001
 43
0.0000000001
 40
0.0
 40
0.0
 40
0.0
 40
55.0
 40
55.0
 40
55.0
 10
-1040.778909928858
 20
4239.033736648864
 30
0.0
 10
-1040.778909928858
 20
4211.533736648864
 30
0.0
 10
-1040.778909928858
 20
4184.033736648864
 30
0.0
  0
SPLINE
  5
1F2
330
1F
100
AcDbEntity
  8
Predefinito
100
AcDbSpline
210
0.0
220
0.0
230
1.0
 70
    12
 71
     2
 72
     6
 73
     3
 74
     0
 42
0.0000000001
 43
0.0000000001
 40
0.0
 40
0.0
 40
0.0
 40
3.251642253972343
 40
3.251642253972343
 40
3.251642253972343
 10
-1045.978909928857
 20
4239.033736648818
 30
0.0
 41
1.0
 10
-1045.978920286785
 20
4240.659700109753
 30
0.0
 41
0.9998686978110171
 10
-1046.031619702174
 20
4242.284809320858
 30
0.0
 41
1.0
  0
SPLINE
  5
1F3
330
1F
100
AcDbEntity
  8
Predefinito
100
AcDbSpline
210
0.0
220
0.0
230
1.0
 70
    12
 71
     2
 72
     6
 73
     3
 74
     0
 42
0.0000000001
 43
0.0000000001
 40
0.0
 40
0.0
 40
0.0
 40
3.259367064301969
 40
3.259367064301969
 40
3.259367064301969
 10
-1046.031619702174
 20
4242.284809320858
 30
0.0
 41
1.0
 10
-1046.084462609492
 20
4243.913753851214
 30
0.0
 41
0.9998915081777828
 10
-1046.185265971988
 20
4245.5404349318
 30
0.0
 41
1.0
  0
SPLINE
  5
1F4
330
1F
100
AcDbEntity
  8
Predefinito
100
AcDbSpline
210
0.0
220
0.0
230
1.0
 70
    12
 71
     2
 72
     6
 73
     3
 74
     0
 42
0.0000000001
 43
0.0000000001
 40
0.0
 40
0.0
 40
0.0
 40
3.253203603409643
 40
3.253203603409643
 40
3.253203603409643
 10
-1046.185265971988
 20
4245.540434931798
 30
0.0
 41
1.0
 10
-1046.285926106069
 20
4247.164023867887
 30
0.0
 41
0.9999036129614112
 10
-1046.431626826515
 20
4248.78419200609
 30
0.0
 41
1.0
  0
SPLINE
  5
1F5
330
1F
100
AcDbEntity
  8
Predefinito
100
AcDbSpline
210
0.0
220
0.0
230
1.0
 70
    12
 71
     2
 72
     6
 73
     3
 74
     0
 42
0.0000000001
 43
0.0000000001
 40
0.0
 40
0.0
 40
0.0
 40
3.261622540367151
 40
3.261622540367151
 40
3.261622540367151
 10
-1046.431626826516
 20
4248.784192006091
 30
0.0
 41
1.0
 10
-1046.577793194911
 20
4250.408521907724
 30
0.0
 41
0.999924758324564
 10
-1046.763763673308
 20
4252.028777201733
 30
0.0
 41
1.0
  0
SPLINE
  5
1F6
330
1F
100
AcDbEntity
  8
Predefinito
100
AcDbSpline
210
0.0
220
0.0
230
1.0
 70
    12
 71
     2
 72
     6
 73
     3
 74
     0
 42
0.0000000001
 43
0.0000000001
 40
0.0
 40
0.0
 40
0.0
 40
5.424195452023164
 40
5.424195452023164
 40
5.424195452023164
 10
-1046.763763673307
 20
4252.028777201732
 30
0.0
 41
1.0
 10
-1047.073144249641
 20
4254.723485492106
 30
0.0
 41
0.9998272047104291
 10
-1047.482478980311
 20
4257.404831085179
 30
0.0
 41
1.0
  0
SPLINE
  5
1F7
330
1F
100
AcDbEntity
  8
Predefinito
100
AcDbSpline
210
0.0
220
0.0
230
1.0
 70
    12
 71
     2
 72
     6
 73
     3
 74
     0
 42
0.0000000001
 43
0.0000000001
 40
0.0
 40
0.0
 40
0.0
 40
5.448389737297195
 40
5.448389737297195
 40
5.448389737297195
 10
-1047.482478980311
 20
4257.404831085178
 30
0.0
 41
1.0
 10
-1047.89363218531
 20
4260.097999955909
 30
0.0
 41
0.9999022010667893
 10
-1048.379946678343
 20
4262.7786162541
 30
0.0
 41
1.0
  0
SPLINE
  5
1F8
330
1F
100
AcDbEntity
  8
Predefinito
100
AcDbSpline
210
0.0
220
0.0
230
1.0
 70
    12
 71
     2
 72
     6
 73
     3
 74
     0
 42
0.0000000001
 43
0.0000000001
 40
0.0
 40
0.0
 40
0.0
 40
5.476644920270911
 40
5.476644920270911
 40
5.476644920270911
 10
-1048.379946678344
 20
4262.7786162541
 30
0.0
 41
1.0
 10
-1048.868799187135
 20
4265.47307715536
 30
0.0
 41
0.9999313487640474
 10
-1049.42065734472
 20
4268.155342783079
 30
0.0
 41
1.0
  0
SPLINE
  5
1F9
330
1F
100
AcDbEntity
  8
Predefinito
100
AcDbSpline
210
0.0
220
0.0
230
1.0
 70
    12
 71
     2
 72
     6
 73
     3
 74
     0
 42
0.0000000001
 43
0.0000000001
 40
0.0
 40
0.0
 40
0.0
 40
5.500532892193189
 40
5.500532892193189
 40
5.500532892193189
 10
-1049.42065734472
 20
4268.155342783079
 30
0.0
 41
1.0
 10
-1049.974960037738
 20
4270.849219431756
 30
0.0
 41
0.9999744835519826
 10
-1050.567693590069
 20
4273.534901804955
 30
0.0
 41
1.0
  0
SPLINE
  5
1FA
330
1F
100
AcDbEntity
  8
Predefinito
100
AcDbSpline
210
0.0
220
0.0
230
1.0
 70
    12
 71
     2
 72
     6
 73
     3
 74
     0
 42
0.0000000001
 43
0.0000000001
 40
0.0
 40
0.0
 40
0.0
 40
5.525059401012244
 40
5.525059401012244
 40
5.525059401012244
 10
-1050.567693590068
 20
4273.534901804954
 30
0.0
 41
1.0
 10
-1051.163124801641
 20
4276.232521991025
 30
0.0
 41
0.9999879466565825
 10
-1051.785016760329
 20
4278.924165241484
 30
0.0
 41
1.0
  0
SPLINE
  5
1FB
330
1F
100
AcDbEntity
  8
Predefinito
100
AcDbSpline
210
0.0
220
0.0
230
1.0
 70
    12
 71
     2
 72
     6
 73
     3
 74
     0
 42
0.0000000001
 43
0.0000000001
 40
0.0
 40
0.0
 40
0.0
 40
5.548443357024652
 40
5.548443357024652
 40
5.548443357024652
 10
-1051.785016760324
 20
4278.924165241491
 30
0.0
 41
1.0
 10
-1052.409554914687
 20
4281.62717448254
 30
0.0
 41
0.999999908210275
 10
-1053.036409111484
 20
4284.329647549826
 30
0.0
 41
1.0
  0
SPLINE
  5
1FC
330
1F
100
AcDbEntity
  8
Predefinito
100
AcDbSpline
210
0.0
220
0.0
230
1.0
 70
    12
 71
     2
 72
     6
 73
     3
 74
     0
 42
0.0000000001
 43
0.0000000001
 40
0.0
 40
0.0
 40
0.0
 40
5.539650051999466
 40
5.539650051999466
 40
5.539650051999466
 10
-1049.212872823724
 20
4290.903250652977
 30
0.0
 41
1.0
 10
-1048.596759100327
 20
4288.202815273653
 30
0.0
 41
0.9999983690508246
 10
-1047.97089505135
 20
4285.504622999138
 30
0.0
 41
1.0
  0
SPLINE
  5
1FD
330
1F
100
AcDbEntity
  8
Predefinito
100
AcDbSpline
210
0.0
220
0.0
230
1.0
 70
    12
 71
     2
 72
     6
 73
     3
 74
     0
 42
0.0000000001
 43
0.0000000001
 40
0.0
 40
0.0
 40
0.0
 40
5.516189231745288
 40
5.516189231745288
 40
5.516189231745288
 10
-1050.405951077325
 20
4296.288833572553
 30
0.0
 41
1.0
 10
-1049.826418278586
 20
4293.592274669114
 30
0.0
 41
0.9999800578179884
 10
-1049.212872823723
 20
4290.903250652977
 30
0.0
 41
1.0
  0
SPLINE
  5
1FE
330
1F
100
AcDbEntity
  8
Predefinito
100
AcDbSpline
210
0.0
220
0.0
230
1.0
 70
    12
 71
     2
 72
     6
 73
     3
 74
     0
 42
0.0000000001
 43
0.0000000001
 40
0.0
 40
0.0
 40
0.0
 40
5.48961359464878
 40
5.48961359464878
 40
5.48961359464878
 10
-1051.513534673986
 20
4301.66548475041
 30
0.0
 41
1.0
 10
-1050.982787679922
 20
4298.972411959859
 30
0.0
 41
0.9999632609107465
 10
-1050.405951077325
 20
4296.288833572551
 30
0.0
 41
1.0
  0
SPLINE
  5
1FF
330
1F
100
AcDbEntity
  8
Predefinito
100
AcDbSpline
210
0.0
220
0.0
230
1.0
 70
    12
 71
     2
 72
     6
 73
     3
 74
     0
 42
0.0000000001
 43
0.0000000001
 40
0.0
 40
0.0
 40
0.0
 40
5.465611226736919
 40
5.465611226736919
 40
5.465611226736919
 10
-1052.499948001609
 20
4307.041187204264
 30
0.0
 41
1.0
 10
-1052.042048529492
 20
4304.346857292038
 30
0.0
 41
0.9999137359779887
 10
-1051.513534673985
 20
4301.665484750409
 30
0.0
 41
1.0
  0
SPLINE
  5
200
330
1F
100
AcDbEntity
  8
Predefinito
100
AcDbSpline
210
0.0
220
0.0
230
1.0
 70
    12
 71
     2
 72
     6
 73
     3
 74
     0
 42
0.0000000001
 43
0.0000000001
 40
0.0
 40
0.0
 40
0.0
 40
5.439052365692164
 40
5.439052365692164
 40
5.439052365692164
 10
-1053.328522103314
 20
4312.41653960648
 30
0.0
 41
1.0
 10
-1052.955660064827
 20
4309.722478020781
 30
0.0
 41
0.999881241682302
 10
-1052.499948001609
 20
4307.041187204265
 30
0.0
 41
1.0
  0
SPLINE
  5
201
330
1F
100
AcDbEntity
  8
Predefinito
100
AcDbSpline
210
0.0
220
0.0
230
1.0
 70
    12
 71
     2
 72
     6
 73
     3
 74
     0
 42
0.0000000001
 43
0.0000000001
 40
0.0
 40
0.0
 40
0.0
 40
5.414934813148625
 40
5.414934813148625
 40
5.414934813148625
 10
-1053.963527578528
 20
4317.793749633043
 30
0.0
 41
1.0
 10
-1053.699735813422
 20
4315.098801783706
 30
0.0
 41
0.9998005141666506
 10
-1053.328522103315
 20
4312.416539606479
 30
0.0
 41
1.0
  0
SPLINE
  5
202
330
1F
100
AcDbEntity
  8
Predefinito
100
AcDbSpline
210
0.0
220
0.0
230
1.0
 70
    12
 71
     2
 72
     6
 73
     3
 74
     0
 42
0.0000000001
 43
0.0000000001
 40
0.0
 40
0.0
 40
0.0
 40
5.414143697446913
 40
5.414143697446913
 40
5.414143697446913
 10
-1054.370646646033
 20
4323.192114990089
 30
0.0
 41
1.0
 10
-1054.227281569621
 20
4320.488392731579
 30
0.0
 41
0.9997514255427791
 10
-1053.963527578527
 20
4317.793749633044
 30
0.0
 41
1.0
  0
SPLINE
  5
203
330
1F
100
AcDbEntity
  8
Predefinito
100
AcDbSpline
210
0.0
220
0.0
230
1.0
 70
    12
 71
     2
 72
     6
 73
     3
 74
     0
 42
0.0000000001
 43
0.0000000001
 40
0.0
 40
0.0
 40
0.0
 40
5.391907657873818
 40
5.391907657873818
 40
5.391907657873818
 10
-1054.513456055388
 20
4328.581499773518
 30
0.0
 41
1.0
 10
-1054.513480202004
 20
4325.884914640336
 30
0.0
 41
0.9996488682062334
 10
-1054.370646646033
 20
4323.192114990089
 30
0.0
 41
1.0
  0
SPLINE
  5
204
330
1F
100
AcDbEntity
  8
Predefinito
100
AcDbSpline
210
0.0
220
0.0
230
1.0
 70
    24
 71
     2
 72
     6
 73
     3
 74
     0
 42
0.0000000001
 43
0.0000000001
 40
0.0
 40
0.0
 40
0.0
 40
18.0
 40
18.0
 40
18.0
 10
-1054.513456055388
 20
4346.581499773518
 30
0.0
 10
-1054.513456055388
 20
4337.581499773518
 30
0.0
 10
-1054.513456055388
 20
4328.581499773518
 30
0.0
  0
SPLINE
  5
205
330
1F
100
AcDbEntity
  8
Predefinito
100
AcDbSpline
210
0.0
220
0.0
230
1.0
 70
    24
 71
     2
 72
     6
 73
     3
 74
     0
 42
0.0000000001
 43
0.0000000001
 40
0.0
 40
0.0
 40
0.0
 40
29.44999999999982
 40
29.44999999999982
 40
29.44999999999982
 10
-1045.97509318365
 20
4154.583736648862
 30
0.0
 10
-1045.975093183654
 20
4169.308736648862
 30
0.0
 10
-1045.975093183658
 20
4184.033736648862
 30
0.0
  0
SPLINE
  5
206
330
1F
100
AcDbEntity
  8
Predefinito
100
AcDbSpline
210
0.0
220
0.0
230
1.0
 70
    24
 71
     2
 72
     6
 73
     3
 74
     0
 42
0.0000000001
 43
0.0000000001
 40
0.0
 40
0.0
 40
0.0
 40
11.55000000000109
 40
11.55000000000109
 40
11.55000000000109
 10
-1045.975093183631
 20
4082.033736648861
 30
0.0
 10
-1045.975093183632
 20
4087.808736648862
 30
0.0
 10
-1045.975093183633
 20
4093.583736648862
 30
0.0
  0
SPLINE
  5
207
330
1F
100
AcDbEntity
  8
Predefinito
100
AcDbSpline
210
0.0
220
0.0
230
1.0
 70
    24
 71
     2
 72
     6
 73
     3
 74
     0
 42
0.0000000001
 43
0.0000000001
 40
0.0
 40
0.0
 40
0.0
 40
11.54999999999973
 40
11.54999999999973
 40
11.54999999999973
 10
-1040.775093183633
 20
4093.583736648862
 30
0.0
 10
-1040.775093183632
 20
4087.808736648863
 30
0.0
 10
-1040.77509318363
 20
4082.033736648862
 30
0.0
  0
SPLINE
  5
208
330
1F
100
AcDbEntity
  8
Predefinito
100
AcDbSpline
210
0.0
220
0.0
230
1.0
 70
    24
 71
     2
 72
     6
 73
     3
 74
     0
 42
0.0000000001
 43
0.0000000001
 40
0.0
 40
0.0
 40
0.0
 40
29.45000000000164
 40
29.45000000000164
 40
29.45000000000164
 10
-1040.775093183658
 20
4184.033736648864
 30
0.0
 10
-1040.775093183654
 20
4169.308736648863
 30
0.0
 10
-1040.775093183649
 20
4154.583736648862
 30
0.0
  0
SPLINE
  5
209
330
1F
100
AcDbEntity
  8
Predefinito
100
AcDbSpline
210
0.0
220
0.0
230
1.0
 70
    12
 71
     2
 72
     6
 73
     3
 74
     0
 42
0.0000000001
 43
0.0000000001
 40
0.0
 40
0.0
 40
0.0
 40
1.517908609311027
 40
1.517908609311027
 40
1.517908609311027
 10
-1595.247651149356
 20
3940.026198223126
 30
0.0
 41
1.0
 10
-1594.49309082788
 20
3939.791704457731
 30
0.0
 41
0.9418046425168242
 10
-1593.760586821988
 20
3940.087992301064
 30
0.0
 41
1.0
  0
SPLINE
  5
20A
330
1F
100
AcDbEntity
  8
Predefinito
100
AcDbSpline
210
0.0
220
0.0
230
1.0
 70
    12
 71
     2
 72
     6
 73
     3
 74
     0
 42
0.0000000001
 43
0.0000000001
 40
0.0
 40
0.0
 40
0.0
 40
2.205531297322667
 40
2.205531297322667
 40
2.205531297322667
 10
-1597.341888860462
 20
3940.717799423956
 30
0.0
 41
1.0
 10
-1596.301692035663
 20
3940.35118892557
 30
0.0
 41
0.9998023174421782
 10
-1595.247742034563
 20
3940.026224178202
 30
0.0
 41
1.0
  0
SPLINE
  5
20B
330
1F
100
AcDbEntity
  8
Predefinito
100
AcDbSpline
210
0.0
220
0.0
230
1.0
 70
    12
 71
     2
 72
     6
 73
     3
 74
     0
 42
0.0000000001
 43
0.0000000001
 40
0.0
 40
0.0
 40
0.0
 40
2.205530080464548
 40
2.205530080464548
 40
2.205530080464548
 10
-1586.740284577083
 20
3943.725371960123
 30
0.0
 41
1.0
 10
-1586.259240161704
 20
3944.717846108366
 30
0.0
 41
0.9998039725690506
 10
-1585.817865991991
 20
3945.7285871765
 30
0.0
 41
1.0
  0
SPLINE
  5
20C
330
1F
100
AcDbEntity
  8
Predefinito
100
AcDbSpline
210
0.0
220
0.0
230
1.0
 70
    12
 71
     2
 72
     6
 73
     3
 74
     0
 42
0.0000000001
 43
0.0000000001
 40
0.0
 40
0.0
 40
0.0
 40
1.518050643092635
 40
1.518050643092635
 40
1.518050643092635
 10
-1587.799696338486
 20
3942.679861249078
 30
0.0
 41
1.0
 10
-1587.082960322802
 20
3943.013028289567
 30
0.0
 41
0.9415315881088648
 10
-1586.740327578275
 20
3943.725287789629
 30
0.0
 41
1.0
  0
SPLINE
  5
20D
330
1F
100
AcDbEntity
  8
Predefinito
100
AcDbSpline
210
0.0
220
0.0
230
1.0
 70
    24
 71
     2
 72
     6
 73
     3
 74
     0
 42
0.0000000001
 43
0.0000000001
 40
0.0
 40
0.0
 40
0.0
 40
1.983624610901056
 40
1.983624610901056
 40
1.983624610901056
 10
-1589.356359539924
 20
3946.259941511464
 30
0.0
 10
-1588.446808073312
 20
3946.655425744811
 30
0.0
 10
-1587.537256606699
 20
3947.050909978158
 30
0.0
  0
SPLINE
  5
20E
330
1F
100
AcDbEntity
  8
Predefinito
100
AcDbSpline
210
0.0
220
0.0
230
1.0
 70
    24
 71
     2
 72
     6
 73
     3
 74
     0
 42
0.0000000001
 43
0.0000000001
 40
0.0
 40
0.0
 40
0.0
 40
6.499999999999824
 40
6.499999999999824
 40
6.499999999999824
 10
-1595.317250023427
 20
3943.66807256345
 30
0.0
 10
-1592.336804781676
 20
3944.964007037457
 30
0.0
 10
-1589.356359539924
 20
3946.259941511464
 30
0.0
  0
SPLINE
  5
20F
330
1F
100
AcDbEntity
  8
Predefinito
100
AcDbSpline
210
0.0
220
0.0
230
1.0
 70
    12
 71
     2
 72
     8
 73
     5
 74
     0
 42
0.0000000001
 43
0.0000000001
 40
0.0
 40
0.0
 40
0.0
 40
0.0336780970683321
 40
0.0336780970683321
 40
2.05102203541901
 40
2.05102203541901
 40
2.05102203541901
 10
-1597.136352956295
 20
3942.877104043961
 30
0.0
 41
1.0
 10
-1597.151795375396
 20
3942.870389489035
 30
0.0
 41
1.0
 10
-1597.167237794497
 20
3942.863674934111
 30
0.0
 41
1.0
 10
-1596.242223537043
 20
3943.265732399186
 30
0.0
 41
1.0
 10
-1595.317210745962
 20
3943.667939407746
 30
0.0
 41
1.0
  0
SPLINE
  5
210
330
1F
100
AcDbEntity
  8
Predefinito
100
AcDbSpline
210
0.0
220
0.0
230
1.0
 70
    24
 71
     2
 72
     6
 73
     3
 74
     0
 42
0.0000000001
 43
0.0000000001
 40
0.0
 40
0.0
 40
0.0
 40
6.499999999999408
 40
6.499999999999408
 40
6.499999999999408
 10
-1593.760586821988
 20
3940.087992301064
 30
0.0
 10
-1590.780141580237
 20
3941.383926775071
 30
0.0
 10
-1587.799696338486
 20
3942.679861249078
 30
0.0
  0
SPLINE
  5
211
330
1F
100
AcDbEntity
  8
Predefinito
100
AcDbSpline
210
0.0
220
0.0
230
1.0
 70
    12
 71
     2
 72
     6
 73
     3
 74
     0
 42
0.0000000001
 43
0.0000000001
 40
0.0
 40
0.0
 40
0.0
 40
2.20553008050032
 40
2.20553008050032
 40
2.20553008050032
 10
-1030.445640699912
 20
3940.02622417814
 30
0.0
 41
1.0
 10
-1029.391719555303
 20
3940.351276305493
 30
0.0
 41
0.9998039725625278
 10
-1028.351493873932
 20
3940.717799423955
 30
0.0
 41
1.0
  0
SPLINE
  5
212
330
1F
100
AcDbEntity
  8
Predefinito
100
AcDbSpline
210
0.0
220
0.0
230
1.0
 70
    12
 71
     2
 72
     6
 73
     3
 74
     0
 42
0.0000000001
 43
0.0000000001
 40
0.0
 40
0.0
 40
0.0
 40
1.518050643089529
 40
1.518050643089529
 40
1.518050643089529
 10
-1031.93279591242
 20
3940.08799230103
 30
0.0
 41
1.0
 10
-1031.200320176809
 20
3939.791024138112
 30
0.0
 41
0.941531588108491
 10
-1030.445731585055
 20
3940.026198223081
 30
0.0
 41
1.0
  0
SPLINE
  5
213
330
1F
100
AcDbEntity
  8
Predefinito
100
AcDbSpline
210
0.0
220
0.0
230
1.0
 70
    12
 71
     2
 72
     6
 73
     3
 74
     0
 42
0.0000000001
 43
0.0000000001
 40
0.0
 40
0.0
 40
0.0
 40
1.517908609306908
 40
1.517908609306908
 40
1.517908609306908
 10
-1038.953055156138
 20
3943.725287789584
 30
0.0
 41
1.0
 10
-1038.609944137647
 20
3943.013512941939
 30
0.0
 41
0.94180464251716
 10
-1037.893686395924
 20
3942.679861249043
 30
0.0
 41
1.0
  0
SPLINE
  5
214
330
1F
100
AcDbEntity
  8
Predefinito
100
AcDbSpline
210
0.0
220
0.0
230
1.0
 70
    12
 71
     2
 72
     6
 73
     3
 74
     0
 42
0.0000000001
 43
0.0000000001
 40
0.0
 40
0.0
 40
0.0
 40
2.205531297294133
 40
2.205531297294133
 40
2.205531297294133
 10
-1039.875516742403
 20
3945.728587176498
 30
0.0
 41
1.0
 10
-1039.434226158824
 20
3944.717807619592
 30
0.0
 41
0.9998023174420835
 10
-1038.953098157387
 20
3943.725371960189
 30
0.0
 41
1.0
  0
SPLINE
  5
215
330
1F
100
AcDbEntity
  8
Predefinito
100
AcDbSpline
210
0.0
220
0.0
230
1.0
 70
    24
 71
     2
 72
     6
 73
     3
 74
     0
 42
0.0000000001
 43
0.0000000001
 40
0.0
 40
0.0
 40
0.0
 40
6.500000000000005
 40
6.500000000000005
 40
6.500000000000005
 10
-1036.33702319447
 20
3946.259941511464
 30
0.0
 10
-1033.356577952718
 20
3944.964007037456
 30
0.0
 10
-1030.376132710966
 20
3943.668072563449
 30
0.0
  0
SPLINE
  5
216
330
1F
100
AcDbEntity
  8
Predefinito
100
AcDbSpline
210
0.0
220
0.0
230
1.0
 70
    12
 71
     2
 72
     8
 73
     5
 74
     0
 42
0.0000000001
 43
0.0000000001
 40
0.0
 40
0.0
 40
0.0
 40
0.0336781115911435
 40
0.0336781115911435
 40
3.202449840722303
 40
3.202449840722303
 40
3.202449840722303
 10
-1038.156126141548
 20
3947.050909996033
 30
0.0
 41
1.0
 10
-1038.171568567308
 20
3947.057624553854
 30
0.0
 41
1.0
 10
-1038.187010993069
 20
3947.064339111674
 30
0.0
 41
1.0
 10
-1038.187010992413
 20
3947.064339099536
 30
0.0
 41
0.707106781186548
 10
-1036.33702319447
 20
3946.259941511464
 30
0.0
 41
1.0
  0
SPLINE
  5
217
330
1F
100
AcDbEntity
  8
Predefinito
100
AcDbSpline
210
0.0
220
0.0
230
1.0
 70
    24
 71
     2
 72
     6
 73
     3
 74
     0
 42
0.0000000001
 43
0.0000000001
 40
0.0
 40
0.0
 40
0.0
 40
1.98362461089879
 40
1.98362461089879
 40
1.98362461089879
 10
-1030.376132710966
 20
3943.668072563449
 30
0.0
 10
-1029.466581244355
 20
3943.272588330103
 30
0.0
 10
-1028.557029777744
 20
3942.877104096756
 30
0.0
  0
SPLINE
  5
218
330
1F
100
AcDbEntity
  8
Predefinito
100
AcDbSpline
210
0.0
220
0.0
230
1.0
 70
    24
 71
     2
 72
     6
 73
     3
 74
     0
 42
0.0000000001
 43
0.0000000001
 40
0.0
 40
0.0
 40
0.0
 40
6.500000000000477
 40
6.500000000000477
 40
6.500000000000477
 10
-1037.893686395924
 20
3942.679861249043
 30
0.0
 10
-1034.913241154172
 20
3941.383926775036
 30
0.0
 10
-1031.93279591242
 20
3940.08799230103
 30
0.0
  0
SPLINE
  5
219
330
1F
100
AcDbEntity
  8
Predefinito
100
AcDbSpline
210
0.0
220
0.0
230
1.0
 70
    15
 71
     2
 72
    12
 73
     9
 74
     0
 42
0.0000000001
 43
0.0000000001
 40
0.0
 40
0.0
 40
0.0
 40
1060.853268842198
 40
1060.853268842198
 40
2121.706537684397
 40
2121.706537684397
 40
3182.559806526594
 40
3182.559806526594
 40
4243.413075368791
 40
4243.413075368791
 40
4243.413075368791
 10
-1988.206857907973
 20
3311.835947636584
 30
0.0
 41
1.0
 10
-1988.206857907973
 20
3987.196114162309
 30
0.0
 41
0.7071067811865476
 10
-1312.846691382248
 20
3987.196114162309
 30
0.0
 41
1.0
 10
-637.4865248565238
 20
3987.196114162309
 30
0.0
 41
0.7071067811865471
 10
-637.4865248565234
 20
3311.835947636584
 30
0.0
 41
1.0
 10
-637.4865248565231
 20
2636.475781110859
 30
0.0
 41
0.7071067811865471
 10
-1312.846691382248
 20
2636.47578111086
 30
0.0
 41
1.0
 10
-1988.206857907971
 20
2636.47578111086
 30
0.0
 41
0.7071067811865487
 10
-1988.206857907973
 20
3311.835947636584
 30
0.0
 41
1.0
  0
SPLINE
  5
21A
330
1F
100
AcDbEntity
  8
Predefinito
100
AcDbSpline
210
0.0
220
0.0
230
1.0
 70
    15
 71
     2
 72
    12
 73
     9
 74
     0
 42
0.0000000001
 43
0.0000000001
 40
0.0
 40
0.0
 40
0.0
 40
1057.761971364247
 40
1057.761971364247
 40
2115.523942728495
 40
2115.523942728495
 40
3173.285914092742
 40
3173.285914092742
 40
4231.047885456989
 40
4231.047885456989
 40
4231.047885456989
 10
-1986.23887681124
 20
3311.835947636584
 30
0.0
 41
1.0
 10
-1986.238876811239
 20
3985.228133065576
 30
0.0
 41
0.7071067811865474
 10
-1312.846691382248
 20
3985.228133065575
 30
0.0
 41
1.0
 10
-639.4545059532567
 20
3985.228133065576
 30
0.0
 41
0.7071067811865468
 10
-639.454505953257
 20
3311.835947636584
 30
0.0
 41
1.0
 10
-639.4545059532558
 20
2638.443762207592
 30
0.0
 41
0.7071067811865464
 10
-1312.846691382248
 20
2638.443762207592
 30
0.0
 41
1.0
 10
-1986.238876811239
 20
2638.443762207592
 30
0.0
 41
0.7071067811865471
 10
-1986.238876811239
 20
3311.835947636584
 30
0.0
 41
1.0
  0
SPLINE
  5
21B
330
1F
100
AcDbEntity
  8
Predefinito
100
AcDbSpline
210
0.0
220
0.0
230
1.0
 70
    15
 71
     2
 72
    12
 73
     9
 74
     0
 42
0.0000000001
 43
0.0000000001
 40
0.0
 40
0.0
 40
0.0
 40
1055.494788905482
 40
1055.494788905482
 40
2110.989577810963
 40
2110.989577810963
 40
3166.484366716444
 40
3166.484366716444
 40
4221.979155621925
 40
4221.979155621925
 40
4221.979155621925
 10
-1984.795543630424
 20
3311.835947636584
 30
0.0
 41
1.0
 10
-1984.795543630424
 20
3983.784799884761
 30
0.0
 41
0.7071067811865476
 10
-1312.846691382248
 20
3983.784799884761
 30
0.0
 41
1.0
 10
-640.8978391340721
 20
3983.78479988476
 30
0.0
 41
0.7071067811865474
 10
-640.8978391340725
 20
3311.835947636584
 30
0.0
 41
1.0
 10
-640.897839134072
 20
2639.887095388408
 30
0.0
 41
0.7071067811865476
 10
-1312.846691382248
 20
2639.887095388408
 30
0.0
 41
1.0
 10
-1984.795543630423
 20
2639.887095388409
 30
0.0
 41
0.7071067811865482
 10
-1984.795543630424
 20
3311.835947636584
 30
0.0
 41
1.0
  0
SPLINE
  5
21C
330
1F
100
AcDbEntity
  8
Predefinito
100
AcDbSpline
210
0.0
220
0.0
230
1.0
 70
    15
 71
     2
 72
    12
 73
     9
 74
     0
 42
0.0000000001
 43
0.0000000001
 40
0.0
 40
0.0
 40
0.0
 40
1056.429203649563
 40
1056.429203649563
 40
2112.858407299126
 40
2112.858407299126
 40
3169.287610948689
 40
3169.287610948689
 40
4225.716814598252
 40
4225.716814598252
 40
4225.716814598252
 10
-1985.390410532098
 20
3311.835947633358
 30
0.0
 41
1.0
 10
-1985.390410535324
 20
3984.379666783207
 30
0.0
 41
0.7071067811865487
 10
-1312.846691385475
 20
3984.379666786434
 30
0.0
 41
1.0
 10
-640.3029722356239
 20
3984.379666789662
 30
0.0
 41
0.7071067811865468
 10
-640.3029722323981
 20
3311.835947639811
 30
0.0
 41
1.0
 10
-640.3029722291723
 20
2639.292228489962
 30
0.0
 41
0.7071067811865485
 10
-1312.846691379021
 20
2639.292228486734
 30
0.0
 41
1.0
 10
-1985.39041052887
 20
2639.292228483507
 30
0.0
 41
0.7071067811865478
 10
-1985.390410532098
 20
3311.835947633357
 30
0.0
 41
1.0
  0
SPLINE
  5
21D
330
1F
100
AcDbEntity
  8
Predefinito
100
AcDbSpline
210
0.0
220
0.0
230
1.0
 70
    15
 71
     2
 72
    12
 73
     9
 74
     0
 42
0.0000000001
 43
0.0000000001
 40
0.0
 40
0.0
 40
0.0
 40
1033.0492903472
 40
1033.0492903472
 40
2066.098580694401
 40
2066.098580694401
 40
3099.1478710416
 40
3099.1478710416
 40
4132.197161388799
 40
4132.197161388799
 40
4132.197161388799
 10
-1970.506295447574
 20
3311.835947636584
 30
0.0
 41
1.0
 10
-1970.506295447574
 20
3969.49555170191
 30
0.0
 41
0.7071067811865474
 10
-1312.846691382248
 20
3969.49555170191
 30
0.0
 41
1.0
 10
-655.1870873169206
 20
3969.495551701912
 30
0.0
 41
0.707106781186546
 10
-655.1870873169223
 20
3311.835947636584
 30
0.0
 41
1.0
 10
-655.187087316923
 20
2654.176343571259
 30
0.0
 41
0.707106781186548
 10
-1312.846691382248
 20
2654.176343571259
 30
0.0
 41
1.0
 10
-1970.506295447572
 20
2654.176343571259
 30
0.0
 41
0.7071067811865487
 10
-1970.506295447574
 20
3311.835947636584
 30
0.0
 41
1.0
  0
SPLINE
  5
21E
330
1F
100
AcDbEntity
  8
Predefinito
100
AcDbSpline
210
0.0
220
0.0
230
1.0
 70
    24
 71
     2
 72
     6
 73
     3
 74
     0
 42
0.0000000001
 43
0.0000000001
 40
0.0
 40
0.0
 40
0.0
 40
61.0
 40
61.0
 40
61.0
 10
-1034.878909928846
 20
4093.583736648862
 30
0.0
 10
-1034.878909928846
 20
4124.083736648862
 30
0.0
 10
-1034.878909928846
 20
4154.583736648862
 30
0.0
  0
SPLINE
  5
21F
330
1F
100
AcDbEntity
  8
Predefinito
100
AcDbSpline
210
0.0
220
0.0
230
1.0
 70
    24
 71
     2
 72
     6
 73
     3
 74
     0
 42
0.0000000001
 43
0.0000000001
 40
0.0
 40
0.0
 40
0.0
 40
16.92874805263637
 40
16.92874805263637
 40
16.92874805263637
 10
-1051.840003046536
 20
4093.583736648863
 30
0.0
 10
-1043.375629020218
 20
4093.583736648862
 30
0.0
 10
-1034.9112549939
 20
4093.583736648862
 30
0.0
  0
SPLINE
  5
220
330
1F
100
AcDbEntity
  8
Predefinito
100
AcDbSpline
210
0.0
220
0.0
230
1.0
 70
    24
 71
     2
 72
     6
 73
     3
 74
     0
 42
0.0000000001
 43
0.0000000001
 40
0.0
 40
0.0
 40
0.0
 40
16.96765493377961
 40
16.96765493377961
 40
16.96765493377961
 10
-1034.878909928846
 20
4154.583736648862
 30
0.0
 10
-1043.362737395735
 20
4154.583736648863
 30
0.0
 10
-1051.846564862625
 20
4154.583736648863
 30
0.0
  0
SPLINE
  5
221
330
1F
100
AcDbEntity
  8
Predefinito
100
AcDbSpline
210
0.0
220
0.0
230
1.0
 70
    24
 71
     2
 72
     6
 73
     3
 74
     0
 42
0.0000000001
 43
0.0000000001
 40
0.0
 40
0.0
 40
0.0
 40
402.908383871044
 40
402.908383871044
 40
402.908383871044
 10
-1588.406123495294
 20
4349.581499773847
 30
0.0
 10
-1588.406123495294
 20
4148.127307838326
 30
0.0
 10
-1588.406123495294
 20
3946.673115902803
 30
0.0
  0
SPLINE
  5
222
330
1F
100
AcDbEntity
  8
Predefinito
100
AcDbSpline
210
0.0
220
0.0
230
1.0
 70
    24
 71
     2
 72
     6
 73
     3
 74
     0
 42
0.0000000001
 43
0.0000000001
 40
0.0
 40
0.0
 40
0.0
 40
403.2562337701311
 40
403.2562337701311
 40
403.2562337701311
 10
-1589.206123495293
 20
3946.325266003716
 30
0.0
 10
-1589.206123495293
 20
4147.953382888782
 30
0.0
 10
-1589.206123495293
 20
4349.581499773847
 30
0.0
  0
SPLINE
  5
223
330
1F
100
AcDbEntity
  8
Predefinito
100
AcDbSpline
210
0.0
220
0.0
230
1.0
 70
    24
 71
     2
 72
     6
 73
     3
 74
     0
 42
0.0000000001
 43
0.0000000001
 40
0.0
 40
0.0
 40
0.0
 40
26.79999999999927
 40
26.79999999999927
 40
26.79999999999927
 10
-1582.806123495294
 20
4388.581499773847
 30
0.0
 10
-1582.806123495294
 20
4375.181499773847
 30
0.0
 10
-1582.806123495294
 20
4361.781499773848
 30
0.0
  0
SPLINE
  5
224
330
1F
100
AcDbEntity
  8
Predefinito
100
AcDbSpline
210
0.0
220
0.0
230
1.0
 70
    24
 71
     2
 72
     6
 73
     3
 74
     0
 42
0.0000000001
 43
0.0000000001
 40
0.0
 40
0.0
 40
0.0
 40
5.94991610524994
 40
5.94991610524994
 40
5.94991610524994
 10
-1591.756039600544
 20
4349.581499773847
 30
0.0
 10
-1588.781081547919
 20
4349.581499773847
 30
0.0
 10
-1585.806123495294
 20
4349.581499773847
 30
0.0
  0
SPLINE
  5
225
330
1F
100
AcDbEntity
  8
Predefinito
100
AcDbSpline
210
0.0
220
0.0
230
1.0
 70
    24
 71
     2
 72
     6
 73
     3
 74
     0
 42
0.0000000001
 43
0.0000000001
 40
0.0
 40
0.0
 40
0.0
 40
12.0
 40
12.0
 40
12.0
 10
-1594.806123495294
 20
4359.581499773847
 30
0.0
 10
-1588.806123495294
 20
4359.581499773847
 30
0.0
 10
-1582.806123495294
 20
4359.581499773847
 30
0.0
  0
SPLINE
  5
226
330
1F
100
AcDbEntity
  8
Predefinito
100
AcDbSpline
210
0.0
220
0.0
230
1.0
 70
    24
 71
     2
 72
     6
 73
     3
 74
     0
 42
0.0000000001
 43
0.0000000001
 40
0.0
 40
0.0
 40
0.0
 40
15.96763926891799
 40
15.96763926891799
 40
15.96763926891799
 10
-1596.773762764212
 20
4388.581499773847
 30
0.0
 10
-1588.789943129753
 20
4388.581499773847
 30
0.0
 10
-1580.806123495294
 20
4388.581499773847
 30
0.0
  0
SPLINE
  5
227
330
1F
100
AcDbEntity
  8
Predefinito
100
AcDbSpline
210
0.0
220
0.0
230
1.0
 70
    24
 71
     2
 72
     6
 73
     3
 74
     0
 42
0.0000000001
 43
0.0000000001
 40
0.0
 40
0.0
 40
0.0
 40
26.79999999999927
 40
26.79999999999927
 40
26.79999999999927
 10
-1594.806123495294
 20
4388.581499773847
 30
0.0
 10
-1594.806123495294
 20
4375.181499773847
 30
0.0
 10
-1594.806123495294
 20
4361.781499773848
 30
0.0
  0
SPLINE
  5
228
330
1F
100
AcDbEntity
  8
Predefinito
100
AcDbSpline
210
0.0
220
0.0
230
1.0
 70
    24
 71
     2
 72
     6
 73
     3
 74
     0
 42
0.0000000001
 43
0.0000000001
 40
0.0
 40
0.0
 40
0.0
 40
10.0
 40
10.0
 40
10.0
 10
-1591.806123495294
 20
4349.581499773847
 30
0.0
 10
-1591.806123495294
 20
4354.581499773847
 30
0.0
 10
-1591.806123495294
 20
4359.581499773847
 30
0.0
  0
SPLINE
  5
229
330
1F
100
AcDbEntity
  8
Predefinito
100
AcDbSpline
210
0.0
220
0.0
230
1.0
 70
    24
 71
     2
 72
     6
 73
     3
 74
     0
 42
0.0000000001
 43
0.0000000001
 40
0.0
 40
0.0
 40
0.0
 40
10.0
 40
10.0
 40
10.0
 10
-1585.806123495294
 20
4359.581499773847
 30
0.0
 10
-1585.806123495294
 20
4354.581499773847
 30
0.0
 10
-1585.806123495294
 20
4349.581499773847
 30
0.0
  0
SPLINE
  5
22A
330
1F
100
AcDbEntity
  8
Predefinito
100
AcDbSpline
210
0.0
220
0.0
230
1.0
 70
    24
 71
     2
 72
     6
 73
     3
 74
     0
 42
0.0000000001
 43
0.0000000001
 40
0.0
 40
0.0
 40
0.0
 40
2.0
 40
2.0
 40
2.0
 10
-1594.806123495294
 20
4359.581499773847
 30
0.0
 10
-1594.806123495294
 20
4360.581499773847
 30
0.0
 10
-1594.806123495294
 20
4361.581499773847
 30
0.0
  0
SPLINE
  5
22B
330
1F
100
AcDbEntity
  8
Predefinito
100
AcDbSpline
210
0.0
220
0.0
230
1.0
 70
    24
 71
     2
 72
     6
 73
     3
 74
     0
 42
0.0000000001
 43
0.0000000001
 40
0.0
 40
0.0
 40
0.0
 40
2.0
 40
2.0
 40
2.0
 10
-1582.806123495294
 20
4361.581499773847
 30
0.0
 10
-1582.806123495294
 20
4360.581499773847
 30
0.0
 10
-1582.806123495294
 20
4359.581499773847
 30
0.0
  0
SPLINE
  5
22C
330
1F
100
AcDbEntity
  8
Predefinito
100
AcDbSpline
210
0.0
220
0.0
230
1.0
 70
    24
 71
     2
 72
     6
 73
     3
 74
     0
 42
0.0000000001
 43
0.0000000001
 40
0.0
 40
0.0
 40
0.0
 40
12.0
 40
12.0
 40
12.0
 10
-1594.806123495294
 20
4361.581499773847
 30
0.0
 10
-1588.806123495294
 20
4361.581499773847
 30
0.0
 10
-1582.806123495294
 20
4361.581499773847
 30
0.0
  0
SPLINE
  5
22D
330
1F
100
AcDbEntity
  8
Predefinito
100
AcDbSpline
210
0.0
220
0.0
230
1.0
 70
    24
 71
     2
 72
     6
 73
     3
 74
     0
 42
0.0000000001
 43
0.0000000001
 40
0.0
 40
0.0
 40
0.0
 40
0.2000000000007276
 40
0.2000000000007276
 40
0.2000000000007276
 10
-1594.506123495294
 20
4361.581499773847
 30
0.0
 10
-1594.506123495294
 20
4361.681499773847
 30
0.0
 10
-1594.506123495294
 20
4361.781499773848
 30
0.0
  0
SPLINE
  5
22E
330
1F
100
AcDbEntity
  8
Predefinito
100
AcDbSpline
210
0.0
220
0.0
230
1.0
 70
    24
 71
     2
 72
     6
 73
     3
 74
     0
 42
0.0000000001
 43
0.0000000001
 40
0.0
 40
0.0
 40
0.0
 40
0.2000000000007276
 40
0.2000000000007276
 40
0.2000000000007276
 10
-1583.106123495294
 20
4361.781499773848
 30
0.0
 10
-1583.106123495294
 20
4361.681499773847
 30
0.0
 10
-1583.106123495294
 20
4361.581499773847
 30
0.0
  0
SPLINE
  5
22F
330
1F
100
AcDbEntity
  8
Predefinito
100
AcDbSpline
210
0.0
220
0.0
230
1.0
 70
    24
 71
     2
 72
     6
 73
     3
 74
     0
 42
0.0000000001
 43
0.0000000001
 40
0.0
 40
0.0
 40
0.0
 40
12.0
 40
12.0
 40
12.0
 10
-1582.806123495294
 20
4361.781499773848
 30
0.0
 10
-1588.806123495294
 20
4361.781499773848
 30
0.0
 10
-1594.806123495294
 20
4361.781499773848
 30
0.0
  0
SPLINE
  5
230
330
1F
100
AcDbEntity
  8
Predefinito
100
AcDbSpline
210
0.0
220
0.0
230
1.0
 70
    24
 71
     2
 72
     6
 73
     3
 74
     0
 42
0.0000000001
 43
0.0000000001
 40
0.0
 40
0.0
 40
0.0
 40
2.0
 40
2.0
 40
2.0
 10
-1596.806123495294
 20
4388.581499773847
 30
0.0
 10
-1596.806123495294
 20
4389.581499773847
 30
0.0
 10
-1596.806123495294
 20
4390.581499773847
 30
0.0
  0
SPLINE
  5
231
330
1F
100
AcDbEntity
  8
Predefinito
100
AcDbSpline
210
0.0
220
0.0
230
1.0
 70
    24
 71
     2
 72
     6
 73
     3
 74
     0
 42
0.0000000001
 43
0.0000000001
 40
0.0
 40
0.0
 40
0.0
 40
2.0
 40
2.0
 40
2.0
 10
-1580.806123495294
 20
4390.581499773847
 30
0.0
 10
-1580.806123495294
 20
4389.581499773847
 30
0.0
 10
-1580.806123495294
 20
4388.581499773847
 30
0.0
  0
SPLINE
  5
232
330
1F
100
AcDbEntity
  8
Predefinito
100
AcDbSpline
210
0.0
220
0.0
230
1.0
 70
    24
 71
     2
 72
     6
 73
     3
 74
     0
 42
0.0000000001
 43
0.0000000001
 40
0.0
 40
0.0
 40
0.0
 40
15.96763926891799
 40
15.96763926891799
 40
15.96763926891799
 10
-1596.773762764212
 20
4390.581499773847
 30
0.0
 10
-1588.789943129753
 20
4390.581499773847
 30
0.0
 10
-1580.806123495294
 20
4390.581499773847
 30
0.0
  0
SPLINE
  5
233
330
1F
100
AcDbEntity
  8
Predefinito
100
AcDbSpline
210
0.0
220
0.0
230
1.0
 70
    24
 71
     2
 72
     6
 73
     3
 74
     0
 42
0.0000000001
 43
0.0000000001
 40
0.0
 40
0.0
 40
0.0
 40
166.9483390492596
 40
166.9483390492596
 40
166.9483390492596
 10
-929.1275021202373
 20
4346.581499773518
 30
0.0
 10
-1012.601671644867
 20
4346.581499773518
 30
0.0
 10
-1096.075841169497
 20
4346.581499773518
 30
0.0
  0
SPLINE
  5
234
330
1F
100
AcDbEntity
  8
Predefinito
100
AcDbSpline
210
0.0
220
0.0
230
1.0
 70
    24
 71
     2
 72
     6
 73
     3
 74
     0
 42
0.0000000001
 43
0.0000000001
 40
0.0
 40
0.0
 40
0.0
 40
58.96127544693354
 40
58.96127544693354
 40
58.96127544693354
 10
-1096.075841169497
 20
4346.581499773518
 30
0.0
 10
-1125.556478892964
 20
4346.581499773518
 30
0.0
 10
-1155.03711661643
 20
4346.581499773518
 30
0.0
  0
SPLINE
  5
235
330
1F
100
AcDbEntity
  8
Predefinito
100
AcDbSpline
210
0.0
220
0.0
230
1.0
 70
    24
 71
     2
 72
     6
 73
     3
 74
     0
 42
0.0000000001
 43
0.0000000001
 40
0.0
 40
0.0
 40
0.0
 40
9.93746706437787
 40
9.93746706437787
 40
9.93746706437787
 10
-929.1275021202373
 20
4346.581499773518
 30
0.0
 10
-924.1587685880484
 20
4346.581499773518
 30
0.0
 10
-919.1900350558594
 20
4346.581499773518
 30
0.0
  0
SPLINE
  5
236
330
1F
100
AcDbEntity
  8
Predefinito
100
AcDbSpline
210
0.0
220
0.0
230
1.0
 70
    24
 71
     3
 72
     8
 73
     4
 74
     0
 42
0.0000000001
 43
0.0000000001
 40
0.0
 40
0.0
 40
0.0
 40
0.0
 40
226.6171102585718
 40
226.6171102585718
 40
226.6171102585718
 40
226.6171102585718
 10
-1155.400983837905
 20
4389.581499773518
 30
0.0
 10
-1079.861947085051
 20
4389.581499773522
 30
0.0
 10
-1004.322910332196
 20
4389.581499773517
 30
0.0
 10
-928.7838735793334
 20
4389.581499773519
 30
0.0
  0
SPLINE
  5
237
330
1F
100
AcDbEntity
  8
Predefinito
100
AcDbSpline
210
0.0
220
0.0
230
1.0
 70
    24
 71
     2
 72
     6
 73
     3
 74
     0
 42
0.0000000001
 43
0.0000000001
 40
0.0
 40
0.0
 40
0.0
 40
9.969089666941727
 40
9.969089666941727
 40
9.969089666941727
 10
-928.7838735793334
 20
4389.581499773518
 30
0.0
 10
-923.7993287458626
 20
4389.581499773518
 30
0.0
 10
-918.8147839123917
 20
4389.581499773518
 30
0.0
  0
SPLINE
  5
238
330
1F
100
AcDbEntity
  8
Predefinito
100
AcDbSpline
210
0.0
220
0.0
230
1.0
 70
    24
 71
     2
 72
     6
 73
     3
 74
     0
 42
0.0000000001
 43
0.0000000001
 40
0.0
 40
0.0
 40
0.0
 40
138.9405935951522
 40
138.9405935951522
 40
138.9405935951522
 10
-1036.638388050515
 20
4085.331572275404
 30
0.0
 10
-1036.638388050515
 20
4015.861275477828
 30
0.0
 10
-1036.638388050515
 20
3946.390978680251
 30
0.0
  0
SPLINE
  5
239
330
1F
100
AcDbEntity
  8
Predefinito
100
AcDbSpline
210
0.0
220
0.0
230
1.0
 70
    24
 71
     2
 72
     6
 73
     3
 74
     0
 42
0.0000000001
 43
0.0000000001
 40
0.0
 40
0.0
 40
0.0
 40
138.5927436951838
 40
138.5927436951838
 40
138.5927436951838
 10
-1037.438388050516
 20
3946.73882858022
 30
0.0
 10
-1037.438388050516
 20
4016.035200427812
 30
0.0
 10
-1037.438388050516
 20
4085.331572275404
 30
0.0
  0
SPLINE
  5
23A
330
1F
100
AcDbEntity
  8
Predefinito
100
AcDbSpline
210
0.0
220
0.0
230
1.0
 70
    24
 71
     2
 72
     6
 73
     3
 74
     0
 42
0.0000000001
 43
0.0000000001
 40
0.0
 40
0.0
 40
0.0
 40
191.9977631246556
 40
191.9977631246556
 40
191.9977631246556
 10
-1037.438388050516
 20
4154.583736648862
 30
0.0
 10
-1037.438388050516
 20
4250.58261821119
 30
0.0
 10
-1037.438388050516
 20
4346.581499773518
 30
0.0
  0
SPLINE
  5
23B
330
1F
100
AcDbEntity
  8
Predefinito
100
AcDbSpline
210
0.0
220
0.0
230
1.0
 70
    24
 71
     2
 72
     6
 73
     3
 74
     0
 42
0.0000000001
 43
0.0000000001
 40
0.0
 40
0.0
 40
0.0
 40
8.252164373458527
 40
8.252164373458527
 40
8.252164373458527
 10
-1037.438388050516
 20
4085.331572275404
 30
0.0
 10
-1037.438388050516
 20
4089.457654462133
 30
0.0
 10
-1037.438388050516
 20
4093.583736648862
 30
0.0
  0
SPLINE
  5
23C
330
1F
100
AcDbEntity
  8
Predefinito
100
AcDbSpline
210
0.0
220
0.0
230
1.0
 70
    24
 71
     2
 72
     6
 73
     3
 74
     0
 42
0.0000000001
 43
0.0000000001
 40
0.0
 40
0.0
 40
0.0
 40
8.252164373458527
 40
8.252164373458527
 40
8.252164373458527
 10
-1036.638388050515
 20
4093.583736648862
 30
0.0
 10
-1036.638388050515
 20
4089.457654462133
 30
0.0
 10
-1036.638388050515
 20
4085.331572275404
 30
0.0
  0
SPLINE
  5
23D
330
1F
100
AcDbEntity
  8
Predefinito
100
AcDbSpline
210
0.0
220
0.0
230
1.0
 70
    24
 71
     2
 72
     6
 73
     3
 74
     0
 42
0.0000000001
 43
0.0000000001
 40
0.0
 40
0.0
 40
0.0
 40
191.9977631246556
 40
191.9977631246556
 40
191.9977631246556
 10
-1036.638388050515
 20
4346.581499773518
 30
0.0
 10
-1036.638388050515
 20
4250.58261821119
 30
0.0
 10
-1036.638388050515
 20
4154.583736648862
 30
0.0
  0
SPLINE
  5
23E
330
1F
100
AcDbEntity
  8
Predefinito
100
AcDbSpline
210
0.0
220
0.0
230
1.0
 70
    12
 71
     2
 72
     6
 73
     3
 74
     0
 42
0.0000000001
 43
0.0000000001
 40
0.0
 40
0.0
 40
0.0
 40
0.0916260082595349
 40
0.0916260082595349
 40
0.0916260082595349
 10
-1039.216890840911
 20
3995.662409792102
 30
0.0
 41
1.0
 10
-1039.174901926292
 20
3995.6844922785
 30
0.0
 41
0.9492939811243516
 10
-1039.15439442147
 20
3995.727272500595
 30
0.0
 41
1.0
  0
SPLINE
  5
23F
330
1F
100
AcDbEntity
  8
Predefinito
100
AcDbSpline
210
0.0
220
0.0
230
1.0
 70
    12
 71
     2
 72
     6
 73
     3
 74
     0
 42
0.0000000001
 43
0.0000000001
 40
0.0
 40
0.0
 40
0.0
 40
0.05853644457748
 40
0.05853644457748
 40
0.05853644457748
 10
-1041.639672562781
 20
3972.16515486932
 30
0.0
 41
1.0
 10
-1041.622686872146
 20
3972.138309006089
 30
0.0
 41
0.8860355284928065
 10
-1041.635058590266
 20
3972.109048885621
 30
0.0
 41
1.0
  0
SPLINE
  5
240
330
1F
100
AcDbEntity
  8
Predefinito
100
AcDbSpline
210
0.0
220
0.0
230
1.0
 70
    24
 71
     2
 72
     6
 73
     3
 74
     0
 42
0.0000000001
 43
0.0000000001
 40
0.0
 40
0.0
 40
0.0
 40
2.599999999998639
 40
2.599999999998639
 40
2.599999999998639
 10
-1055.974209438332
 20
3949.480388012265
 30
0.0
 10
-1055.05497062279
 20
3950.399626827807
 30
0.0
 10
-1054.135731807248
 20
3951.318865643349
 30
0.0
  0
SPLINE
  5
241
330
1F
100
AcDbEntity
  8
Predefinito
100
AcDbSpline
210
0.0
220
0.0
230
1.0
 70
    12
 71
     2
 72
     6
 73
     3
 74
     0
 42
0.0000000001
 43
0.0000000001
 40
0.0
 40
0.0
 40
0.0
 40
2.158652221786354
 40
2.158652221786354
 40
2.158652221786354
 10
-1060.609477257422
 20
3945.493117980844
 30
0.0
 41
1.0
 10
-1061.422543196394
 20
3944.674835722967
 30
0.0
 41
0.9062283690354198
 10
-1062.571976005778
 20
3944.772130591195
 30
0.0
 41
1.0
  0
SPLINE
  5
242
330
1F
100
AcDbEntity
  8
Predefinito
100
AcDbSpline
210
0.0
220
0.0
230
1.0
 70
    12
 71
     2
 72
     6
 73
     3
 74
     0
 42
0.0000000001
 43
0.0000000001
 40
0.0
 40
0.0
 40
0.0
 40
1.862954872998015
 40
1.862954872998015
 40
1.862954872998015
 10
-1064.952478312528
 20
3948.208912168086
 30
0.0
 41
1.0
 10
-1065.341652825365
 20
3947.300024655119
 30
0.0
 41
0.9153999649267938
 10
-1064.93486918308
 20
3946.39888072597
 30
0.0
 41
1.0
  0
SPLINE
  5
243
330
1F
100
AcDbEntity
  8
Predefinito
100
AcDbSpline
210
0.0
220
0.0
230
1.0
 70
    12
 71
     2
 72
     6
 73
     3
 74
     0
 42
0.0000000001
 43
0.0000000001
 40
0.0
 40
0.0
 40
0.0
 40
3.012256842632052
 40
3.012256842632052
 40
3.012256842632052
 10
-1062.571976005778
 20
3944.772130591195
 30
0.0
 41
1.0
 10
-1064.239421666634
 20
3944.879580472326
 30
0.0
 41
0.8584348095935314
 10
-1064.93486918308
 20
3946.39888072597
 30
0.0
 41
1.0
  0
SPLINE
  5
244
330
1F
100
AcDbEntity
  8
Predefinito
100
AcDbSpline
210
0.0
220
0.0
230
1.0
 70
    24
 71
     2
 72
     6
 73
     3
 74
     0
 42
0.0000000001
 43
0.0000000001
 40
0.0
 40
0.0
 40
0.0
 40
55.0
 40
55.0
 40
55.0
 10
-1045.978909928857
 20
4239.033736648864
 30
0.0
 10
-1045.978909928857
 20
4211.533736648864
 30
0.0
 10
-1045.978909928857
 20
4184.033736648864
 30
0.0
  0
SPLINE
  5
245
330
1F
100
AcDbEntity
  8
Predefinito
100
AcDbSpline
210
0.0
220
0.0
230
1.0
 70
    12
 71
     2
 72
     6
 73
     3
 74
     0
 42
0.0000000001
 43
0.0000000001
 40
0.0
 40
0.0
 40
0.0
 40
3.420243216496988
 40
3.420243216496988
 40
3.420243216496988
 10
-1040.834352755695
 20
4242.453380632281
 30
0.0
 41
1.0
 10
-1040.778909928858
 20
4240.744008088949
 30
0.0
 41
0.9998685945624207
 10
-1040.778909928858
 20
4239.033736648818
 30
0.0
 41
1.0
  0
SPLINE
  5
246
330
1F
100
AcDbEntity
  8
Predefinito
100
AcDbSpline
210
0.0
220
0.0
230
1.0
 70
    12
 71
     2
 72
     6
 73
     3
 74
     0
 42
0.0000000001
 43
0.0000000001
 40
0.0
 40
0.0
 40
0.0
 40
3.412620015627335
 40
3.412620015627335
 40
3.412620015627335
 10
-1040.9952233516
 20
4245.862083184628
 30
0.0
 41
1.0
 10
-1040.889671166665
 20
4244.158917276936
 30
0.0
 41
0.9998914292907544
 10
-1040.834352755695
 20
4242.453380632281
 30
0.0
 41
1.0
  0
SPLINE
  5
247
330
1F
100
AcDbEntity
  8
Predefinito
100
AcDbSpline
210
0.0
220
0.0
230
1.0
 70
    12
 71
     2
 72
     6
 73
     3
 74
     0
 42
0.0000000001
 43
0.0000000001
 40
0.0
 40
0.0
 40
0.0
 40
3.397855036420018
 40
3.397855036420018
 40
3.397855036420018
 10
-1041.252538440976
 20
4249.250071276687
 30
0.0
 41
1.0
 10
-1041.10031802634
 20
4247.557866812504
 30
0.0
 41
0.9999032748073731
 10
-1040.9952233516
 20
4245.862083184628
 30
0.0
 41
1.0
  0
SPLINE
  5
248
330
1F
100
AcDbEntity
  8
Predefinito
100
AcDbSpline
210
0.0
220
0.0
230
1.0
 70
    12
 71
     2
 72
     6
 73
     3
 74
     0
 42
0.0000000001
 43
0.0000000001
 40
0.0
 40
0.0
 40
0.0
 40
3.389529601429002
 40
3.389529601429002
 40
3.389529601429002
 10
-1041.597700247692
 20
4252.621894966185
 30
0.0
 41
1.0
 10
-1041.40438374878
 20
4250.938105751882
 30
0.0
 41
0.9999243717523383
 10
-1041.252538440976
 20
4249.250071276687
 30
0.0
 41
1.0
  0
SPLINE
  5
249
330
1F
100
AcDbEntity
  8
Predefinito
100
AcDbSpline
210
0.0
220
0.0
230
1.0
 70
    12
 71
     2
 72
     6
 73
     3
 74
     0
 42
0.0000000001
 43
0.0000000001
 40
0.0
 40
0.0
 40
0.0
 40
5.617535168468131
 40
5.617535168468131
 40
5.617535168468131
 10
-1042.342033402414
 20
4258.189572609936
 30
0.0
 41
1.0
 10
-1041.918108304011
 20
4255.412653294846
 30
0.0
 41
0.9998272042847889
 10
-1041.597700247691
 20
4252.621894966185
 30
0.0
 41
1.0
  0
SPLINE
  5
24A
330
1F
100
AcDbEntity
  8
Predefinito
100
AcDbSpline
210
0.0
220
0.0
230
1.0
 70
    12
 71
     2
 72
     6
 73
     3
 74
     0
 42
0.0000000001
 43
0.0000000001
 40
0.0
 40
0.0
 40
0.0
 40
5.593892427845433
 40
5.593892427845433
 40
5.593892427845433
 10
-1043.2634685214
 20
4263.706867981553
 30
0.0
 41
1.0
 10
-1042.764153220635
 20
4260.954666445883
 30
0.0
 41
0.9999021327130979
 10
-1042.342033402414
 20
4258.189572609936
 30
0.0
 41
1.0
  0
SPLINE
  5
24B
330
1F
100
AcDbEntity
  8
Predefinito
100
AcDbSpline
210
0.0
220
0.0
230
1.0
 70
    12
 71
     2
 72
     6
 73
     3
 74
     0
 42
0.0000000001
 43
0.0000000001
 40
0.0
 40
0.0
 40
0.0
 40
5.598556514436828
 40
5.598556514436828
 40
5.598556514436828
 10
-1044.327345669087
 20
4269.203281796025
 30
0.0
 41
1.0
 10
-1043.763190425743
 20
4266.461310696283
 30
0.0
 41
0.999931295105768
 10
-1043.2634685214
 20
4263.706867981553
 30
0.0
 41
1.0
  0
SPLINE
  5
24C
330
1F
100
AcDbEntity
  8
Predefinito
100
AcDbSpline
210
0.0
220
0.0
230
1.0
 70
    12
 71
     2
 72
     6
 73
     3
 74
     0
 42
0.0000000001
 43
0.0000000001
 40
0.0
 40
0.0
 40
0.0
 40
5.574986540088731
 40
5.574986540088731
 40
5.574986540088731
 10
-1045.489907828398
 20
4274.655656799849
 30
0.0
 41
1.0
 10
-1044.889109678815
 20
4271.933630751791
 30
0.0
 41
0.999974374573521
 10
-1044.327345669087
 20
4269.203281796025
 30
0.0
 41
1.0
  0
SPLINE
  5
24D
330
1F
100
AcDbEntity
  8
Predefinito
100
AcDbSpline
210
0.0
220
0.0
230
1.0
 70
    12
 71
     2
 72
     6
 73
     3
 74
     0
 42
0.0000000001
 43
0.0000000001
 40
0.0
 40
0.0
 40
0.0
 40
5.576195017110218
 40
5.576195017110218
 40
5.576195017110218
 10
-1046.718497572958
 20
4280.094798969018
 30
0.0
 41
1.0
 10
-1046.090830788094
 20
4277.37824832298
 30
0.0
 41
0.9999879121696124
 10
-1045.489907828398
 20
4274.655656799849
 30
0.0
 41
1.0
  0
SPLINE
  5
24E
330
1F
100
AcDbEntity
  8
Predefinito
100
AcDbSpline
210
0.0
220
0.0
230
1.0
 70
    12
 71
     2
 72
     6
 73
     3
 74
     0
 42
0.0000000001
 43
0.0000000001
 40
0.0
 40
0.0
 40
0.0
 40
5.552899906182847
 40
5.552899906182847
 40
5.552899906182847
 10
-1047.97089505134
 20
4285.504622999141
 30
0.0
 41
1.0
 10
-1047.343537218501
 20
4282.799979319234
 30
0.0
 41
0.9999999081877333
 10
-1046.718497572957
 20
4280.094798969018
 30
0.0
 41
1.0
  0
SPLINE
  5
24F
330
1F
100
AcDbEntity
  8
Predefinito
100
AcDbSpline
210
0.0
220
0.0
230
1.0
 70
    12
 71
     2
 72
     6
 73
     3
 74
     0
 42
0.0000000001
 43
0.0000000001
 40
0.0
 40
0.0
 40
0.0
 40
5.558423487996638
 40
5.558423487996638
 40
5.558423487996638
 10
-1054.28259584903
 20
4289.746570728938
 30
0.0
 41
1.0
 10
-1053.664391633526
 20
4287.0369843684
 30
0.0
 41
0.9999983707381639
 10
-1053.036409111489
 20
4284.32964754981
 30
0.0
 41
1.0
  0
SPLINE
  5
250
330
1F
100
AcDbEntity
  8
Predefinito
100
AcDbSpline
210
0.0
220
0.0
230
1.0
 70
    12
 71
     2
 72
     6
 73
     3
 74
     0
 42
0.0000000001
 43
0.0000000001
 40
0.0
 40
0.0
 40
0.0
 40
5.581749484291811
 40
5.581749484291811
 40
5.581749484291811
 10
-1055.489853941262
 20
4295.196161769107
 30
0.0
 41
1.0
 10
-1054.903401915666
 20
4292.46756099155
 30
0.0
 41
0.9999801305934427
 10
-1054.28259584903
 20
4289.746570728938
 30
0.0
 41
1.0
  0
SPLINE
  5
251
330
1F
100
AcDbEntity
  8
Predefinito
100
AcDbSpline
210
0.0
220
0.0
230
1.0
 70
    12
 71
     2
 72
     6
 73
     3
 74
     0
 42
0.0000000001
 43
0.0000000001
 40
0.0
 40
0.0
 40
0.0
 40
5.57853524355863
 40
5.57853524355863
 40
5.57853524355863
 10
-1056.61537842611
 20
4300.659905151911
 30
0.0
 41
1.0
 10
-1056.075974778612
 20
4297.923221618391
 30
0.0
 41
0.999963447336616
 10
-1055.489853941262
 20
4295.196161769107
 30
0.0
 41
1.0
  0
SPLINE
  5
252
330
1F
100
AcDbEntity
  8
Predefinito
100
AcDbSpline
210
0.0
220
0.0
230
1.0
 70
    12
 71
     2
 72
     6
 73
     3
 74
     0
 42
0.0000000001
 43
0.0000000001
 40
0.0
 40
0.0
 40
0.0
 40
5.602170963071207
 40
5.602170963071207
 40
5.602170963071207
 10
-1057.626437569761
 20
4306.169921052258
 30
0.0
 41
1.0
 10
-1057.157085408399
 20
4303.408274736188
 30
0.0
 41
0.9999137928903262
 10
-1056.61537842611
 20
4300.659905151911
 30
0.0
 41
1.0
  0
SPLINE
  5
253
330
1F
100
AcDbEntity
  8
Predefinito
100
AcDbSpline
210
0.0
220
0.0
230
1.0
 70
    12
 71
     2
 72
     6
 73
     3
 74
     0
 42
0.0000000001
 43
0.0000000001
 40
0.0
 40
0.0
 40
0.0
 40
5.599271503283823
 40
5.599271503283823
 40
5.599271503283823
 10
-1058.479419153256
 20
4311.703616342096
 30
0.0
 41
1.0
 10
-1058.095556965646
 20
4308.930197787076
 30
0.0
 41
0.9998813345123729
 10
-1057.626437569761
 20
4306.169921052258
 30
0.0
 41
1.0
  0
SPLINE
  5
254
330
1F
100
AcDbEntity
  8
Predefinito
100
AcDbSpline
210
0.0
220
0.0
230
1.0
 70
    12
 71
     2
 72
     6
 73
     3
 74
     0
 42
0.0000000001
 43
0.0000000001
 40
0.0
 40
0.0
 40
0.0
 40
5.622791909930544
 40
5.622791909930544
 40
5.622791909930544
 10
-1059.138799828344
 20
4317.287234934072
 30
0.0
 41
1.0
 10
-1058.864914633537
 20
4314.488835497285
 30
0.0
 41
0.999800282172492
 10
-1058.479419153256
 20
4311.703616342096
 30
0.0
 41
1.0
  0
SPLINE
  5
255
330
1F
100
AcDbEntity
  8
Predefinito
100
AcDbSpline
210
0.0
220
0.0
230
1.0
 70
    12
 71
     2
 72
     6
 73
     3
 74
     0
 42
0.0000000001
 43
0.0000000001
 40
0.0
 40
0.0
 40
0.0
 40
5.645944855356797
 40
5.645944855356797
 40
5.645944855356797
 10
-1059.563349319754
 20
4322.916726278747
 30
0.0
 41
1.0
 10
-1059.413821723635
 20
4320.0972485145
 30
0.0
 41
0.9997516192929552
 10
-1059.138799828344
 20
4317.287234934072
 30
0.0
 41
1.0
  0
SPLINE
  5
256
330
1F
100
AcDbEntity
  8
Predefinito
100
AcDbSpline
210
0.0
220
0.0
230
1.0
 70
    12
 71
     2
 72
     6
 73
     3
 74
     0
 42
0.0000000001
 43
0.0000000001
 40
0.0
 40
0.0
 40
0.0
 40
5.66742483571084
 40
5.66742483571084
 40
5.66742483571084
 10
-1059.713456055389
 20
4328.581499773518
 30
0.0
 41
1.0
 10
-1059.713456055388
 20
4325.747124241226
 30
0.0
 41
0.9996491054423016
 10
-1059.563349319754
 20
4322.916726278747
 30
0.0
 41
1.0
  0
SPLINE
  5
257
330
1F
100
AcDbEntity
  8
Predefinito
100
AcDbSpline
210
0.0
220
0.0
230
1.0
 70
    24
 71
     2
 72
     6
 73
     3
 74
     0
 42
0.0000000001
 43
0.0000000001
 40
0.0
 40
0.0
 40
0.0
 40
18.0
 40
18.0
 40
18.0
 10
-1059.713456055389
 20
4346.581499773518
 30
0.0
 10
-1059.713456055389
 20
4337.581499773518
 30
0.0
 10
-1059.713456055389
 20
4328.581499773518
 30
0.0
  0
SPLINE
  5
258
330
1F
100
AcDbEntity
  8
Predefinito
100
AcDbSpline
210
0.0
220
0.0
230
1.0
 70
    12
 71
     2
 72
     8
 73
     5
 74
     0
 42
0.0000000001
 43
0.0000000001
 40
0.0
 40
0.0
 40
0.0
 40
3.029850195478301
 40
3.029850195478301
 40
6.059700390956602
 40
6.059700390956602
 40
6.059700390956602
 10
-1596.374210962966
 20
115.7052894405336
 30
0.0
 41
1.0
 10
-1597.747452848936
 20
116.6146488168988
 30
0.0
 41
0.8839137087312127
 10
-1597.768258469182
 20
118.2615534525509
 30
0.0
 41
1.0
 10
-1597.789064089429
 20
119.908458088203
 30
0.0
 41
0.8839137087312127
 10
-1596.439232974018
 20
120.8522184988133
 30
0.0
 41
1.0
  0
SPLINE
  5
259
330
1F
100
AcDbEntity
  8
Predefinito
100
AcDbSpline
210
0.0
220
0.0
230
1.0
 70
    24
 71
     2
 72
     6
 73
     3
 74
     0
 42
0.0000000001
 43
0.0000000001
 40
0.0
 40
0.0
 40
0.0
 40
0.3126695828605079
 40
0.3126695828605079
 40
0.3126695828605079
 10
-918.8046488231898
 20
109.7858080604919
 30
0.0
 10
-918.9609836146201
 20
109.7858080604919
 30
0.0
 10
-919.1173184060503
 20
109.7858080604919
 30
0.0
  0
SPLINE
  5
25A
330
1F
100
AcDbEntity
  8
Predefinito
100
AcDbSpline
210
0.0
220
0.0
230
1.0
 70
    24
 71
     2
 72
     6
 73
     3
 74
     0
 42
0.0000000001
 43
0.0000000001
 40
0.0
 40
0.0
 40
0.0
 40
2.127081155390897
 40
2.127081155390897
 40
2.127081155390897
 10
-899.9097629666858
 20
109.7858080604919
 30
0.0
 10
-900.9733035443812
 20
109.7858080604919
 30
0.0
 10
-902.0368441220767
 20
109.7858080604919
 30
0.0
  0
SPLINE
  5
25B
330
1F
100
AcDbEntity
  8
Predefinito
100
AcDbSpline
210
0.0
220
0.0
230
1.0
 70
    24
 71
     2
 72
     6
 73
     3
 74
     0
 42
0.0000000001
 43
0.0000000001
 40
0.0
 40
0.0
 40
0.0
 40
0.7406706172132544
 40
0.7406706172132544
 40
0.7406706172132544
 10
-892.8419112635106
 20
109.7858080604919
 30
0.0
 10
-893.2122465721172
 20
109.7858080604919
 30
0.0
 10
-893.5825818807239
 20
109.7858080604919
 30
0.0
  0
SPLINE
  5
25C
330
1F
100
AcDbEntity
  8
Predefinito
100
AcDbSpline
210
0.0
220
0.0
230
1.0
 70
    24
 71
     2
 72
     6
 73
     3
 74
     0
 42
0.0000000001
 43
0.0000000001
 40
0.0
 40
0.0
 40
0.0
 40
1.110129941038849
 40
1.110129941038849
 40
1.110129941038849
 10
-874.9686252142928
 20
109.7858080604919
 30
0.0
 10
-875.5236901848123
 20
109.7858080604919
 30
0.0
 10
-876.0787551553317
 20
109.7858080604919
 30
0.0
  0
SPLINE
  5
25D
330
1F
100
AcDbEntity
  8
Predefinito
100
AcDbSpline
210
0.0
220
0.0
230
1.0
 70
    24
 71
     2
 72
     6
 73
     3
 74
     0
 42
0.0000000001
 43
0.0000000001
 40
0.0
 40
0.0
 40
0.0
 40
0.6020557963765896
 40
0.6020557963765896
 40
0.6020557963765896
 10
-867.8659418226548
 20
109.7858080604919
 30
0.0
 10
-868.1669697208431
 20
109.7858080604919
 30
0.0
 10
-868.4679976190314
 20
109.7858080604919
 30
0.0
  0
SPLINE
  5
25E
330
1F
100
AcDbEntity
  8
Predefinito
100
AcDbSpline
210
0.0
220
0.0
230
1.0
 70
    24
 71
     2
 72
     6
 73
     3
 74
     0
 42
0.0000000001
 43
0.0000000001
 40
0.0
 40
0.0
 40
0.0
 40
6.57261156209097
 40
6.57261156209097
 40
6.57261156209097
 10
-848.9563125004174
 20
109.7858080604919
 30
0.0
 10
-852.2426182814629
 20
109.7858080604919
 30
0.0
 10
-855.5289240625084
 20
109.7858080604919
 30
0.0
  0
SPLINE
  5
25F
330
1F
100
AcDbEntity
  8
Predefinito
100
AcDbSpline
210
0.0
220
0.0
230
1.0
 70
    24
 71
     2
 72
     6
 73
     3
 74
     0
 42
0.0000000001
 43
0.0000000001
 40
0.0
 40
0.0
 40
0.0
 40
1.437645199321196
 40
1.437645199321196
 40
1.437645199321196
 10
-836.6865106341124
 20
109.7858080604919
 30
0.0
 10
-837.405333233773
 20
109.7858080604919
 30
0.0
 10
-838.1241558334336
 20
109.7858080604919
 30
0.0
  0
SPLINE
  5
260
330
1F
100
AcDbEntity
  8
Predefinito
100
AcDbSpline
210
0.0
220
0.0
230
1.0
 70
    24
 71
     2
 72
     6
 73
     3
 74
     0
 42
0.0000000001
 43
0.0000000001
 40
0.0
 40
0.0
 40
0.0
 40
0.7518859745014197
 40
0.7518859745014197
 40
0.7518859745014197
 10
-831.6277997965271
 20
109.7858080604919
 30
0.0
 10
-832.0037427837779
 20
109.7858080604919
 30
0.0
 10
-832.3796857710286
 20
109.7858080604919
 30
0.0
  0
SPLINE
  5
261
330
1F
100
AcDbEntity
  8
Predefinito
100
AcDbSpline
210
0.0
220
0.0
230
1.0
 70
    24
 71
     2
 72
     6
 73
     3
 74
     0
 42
0.0000000001
 43
0.0000000001
 40
0.0
 40
0.0
 40
0.0
 40
0.7750815303124909
 40
0.7750815303124909
 40
0.7750815303124909
 10
-821.1024957691093
 20
109.7858080604919
 30
0.0
 10
-821.4900365342655
 20
109.7858080604919
 30
0.0
 10
-821.8775772994218
 20
109.7858080604919
 30
0.0
  0
SPLINE
  5
262
330
1F
100
AcDbEntity
  8
Predefinito
100
AcDbSpline
210
0.0
220
0.0
230
1.0
 70
    24
 71
     2
 72
     6
 73
     3
 74
     0
 42
0.0000000001
 43
0.0000000001
 40
0.0
 40
0.0
 40
0.0
 40
1.058057209872914
 40
1.058057209872914
 40
1.058057209872914
 10
-812.6868461187496
 20
109.7858080604919
 30
0.0
 10
-813.215874723686
 20
109.7858080604919
 30
0.0
 10
-813.7449033286225
 20
109.7858080604919
 30
0.0
  0
SPLINE
  5
263
330
1F
100
AcDbEntity
  8
Predefinito
100
AcDbSpline
210
0.0
220
0.0
230
1.0
 70
    24
 71
     2
 72
     6
 73
     3
 74
     0
 42
0.0000000001
 43
0.0000000001
 40
0.0
 40
0.0
 40
0.0
 40
0.574366051749621
 40
0.574366051749621
 40
0.574366051749621
 10
-806.3231066077792
 20
109.7858080604919
 30
0.0
 10
-806.610289633654
 20
109.7858080604919
 30
0.0
 10
-806.8974726595288
 20
109.7858080604919
 30
0.0
  0
SPLINE
  5
264
330
1F
100
AcDbEntity
  8
Predefinito
100
AcDbSpline
210
0.0
220
0.0
230
1.0
 70
    24
 71
     2
 72
     6
 73
     3
 74
     0
 42
0.0000000001
 43
0.0000000001
 40
0.0
 40
0.0
 40
0.0
 40
1.631626484658227
 40
1.631626484658227
 40
1.631626484658227
 10
-799.4199184633767
 20
109.7858080604919
 30
0.0
 10
-800.2357317057058
 20
109.7858080604919
 30
0.0
 10
-801.0515449480349
 20
109.7858080604919
 30
0.0
  0
SPLINE
  5
265
330
1F
100
AcDbEntity
  8
Predefinito
100
AcDbSpline
210
0.0
220
0.0
230
1.0
 70
    24
 71
     2
 72
     6
 73
     3
 74
     0
 42
0.0000000001
 43
0.0000000001
 40
0.0
 40
0.0
 40
0.0
 40
1.728066669035343
 40
1.728066669035343
 40
1.728066669035343
 10
-790.7285297857698
 20
109.7858080604919
 30
0.0
 10
-791.5925631202874
 20
109.7858080604919
 30
0.0
 10
-792.4565964548051
 20
109.7858080604919
 30
0.0
  0
SPLINE
  5
266
330
1F
100
AcDbEntity
  8
Predefinito
100
AcDbSpline
210
0.0
220
0.0
230
1.0
 70
    24
 71
     2
 72
     6
 73
     3
 74
     0
 42
0.0000000001
 43
0.0000000001
 40
0.0
 40
0.0
 40
0.0
 40
1.054548539015741
 40
1.054548539015741
 40
1.054548539015741
 10
-784.622804773714
 20
109.7858080604919
 30
0.0
 10
-785.1500790432219
 20
109.7858080604919
 30
0.0
 10
-785.6773533127298
 20
109.7858080604919
 30
0.0
  0
SPLINE
  5
267
330
1F
100
AcDbEntity
  8
Predefinito
100
AcDbSpline
210
0.0
220
0.0
230
1.0
 70
    24
 71
     2
 72
     6
 73
     3
 74
     0
 42
0.0000000001
 43
0.0000000001
 40
0.0
 40
0.0
 40
0.0
 40
0.3436706380371106
 40
0.3436706380371106
 40
0.3436706380371106
 10
-778.9373689347008
 20
109.7858080604919
 30
0.0
 10
-779.1092042537193
 20
109.7858080604919
 30
0.0
 10
-779.2810395727379
 20
109.7858080604919
 30
0.0
  0
SPLINE
  5
268
330
1F
100
AcDbEntity
  8
Predefinito
100
AcDbSpline
210
0.0
220
0.0
230
1.0
 70
    24
 71
     2
 72
     6
 73
     3
 74
     0
 42
0.0000000001
 43
0.0000000001
 40
0.0
 40
0.0
 40
0.0
 40
1.412608640096096
 40
1.412608640096096
 40
1.412608640096096
 10
-770.9748681651067
 20
109.7858080604919
 30
0.0
 10
-771.6811724851548
 20
109.7858080604919
 30
0.0
 10
-772.3874768052028
 20
109.7858080604919
 30
0.0
  0
SPLINE
  5
269
330
1F
100
AcDbEntity
  8
Predefinito
100
AcDbSpline
210
0.0
220
0.0
230
1.0
 70
    24
 71
     2
 72
     6
 73
     3
 74
     0
 42
0.0000000001
 43
0.0000000001
 40
0.0
 40
0.0
 40
0.0
 40
0.2541377745246791
 40
0.2541377745246791
 40
0.2541377745246791
 10
-765.9738221835232
 20
109.7858080604919
 30
0.0
 10
-766.1008910707856
 20
109.7858080604919
 30
0.0
 10
-766.2279599580479
 20
109.7858080604919
 30
0.0
  0
SPLINE
  5
26A
330
1F
100
AcDbEntity
  8
Predefinito
100
AcDbSpline
210
0.0
220
0.0
230
1.0
 70
    24
 71
     2
 72
     6
 73
     3
 74
     0
 42
0.0000000001
 43
0.0000000001
 40
0.0
 40
0.0
 40
0.0
 40
1.534749411115172
 40
1.534749411115172
 40
1.534749411115172
 10
-752.4540759409092
 20
109.7858080604919
 30
0.0
 10
-753.2214506464668
 20
109.7858080604919
 30
0.0
 10
-753.9888253520244
 20
109.7858080604919
 30
0.0
  0
SPLINE
  5
26B
330
1F
100
AcDbEntity
  8
Predefinito
100
AcDbSpline
210
0.0
220
0.0
230
1.0
 70
    24
 71
     2
 72
     6
 73
     3
 74
     0
 42
0.0000000001
 43
0.0000000001
 40
0.0
 40
0.0
 40
0.0
 40
0.4254549580573439
 40
0.4254549580573439
 40
0.4254549580573439
 10
-747.5965024985508
 20
109.7858080604919
 30
0.0
 10
-747.8092299775794
 20
109.7858080604919
 30
0.0
 10
-748.0219574566081
 20
109.7858080604919
 30
0.0
  0
SPLINE
  5
26C
330
1F
100
AcDbEntity
  8
Predefinito
100
AcDbSpline
210
0.0
220
0.0
230
1.0
 70
    24
 71
     2
 72
     6
 73
     3
 74
     0
 42
0.0000000001
 43
0.0000000001
 40
0.0
 40
0.0
 40
0.0
 40
0.8674281961421002
 40
0.8674281961421002
 40
0.8674281961421002
 10
-735.2084524792917
 20
109.7858080604919
 30
0.0
 10
-735.6421665773628
 20
109.7858080604919
 30
0.0
 10
-736.0758806754338
 20
109.7858080604919
 30
0.0
  0
SPLINE
  5
26D
330
1F
100
AcDbEntity
  8
Predefinito
100
AcDbSpline
210
0.0
220
0.0
230
1.0
 70
    24
 71
     2
 72
     6
 73
     3
 74
     0
 42
0.0000000001
 43
0.0000000001
 40
0.0
 40
0.0
 40
0.0
 40
0.6023433054806446
 40
0.6023433054806446
 40
0.6023433054806446
 10
-730.5388764857271
 20
109.7858080604919
 30
0.0
 10
-730.8400481384674
 20
109.7858080604919
 30
0.0
 10
-731.1412197912077
 20
109.7858080604919
 30
0.0
  0
SPLINE
  5
26E
330
1F
100
AcDbEntity
  8
Predefinito
100
AcDbSpline
210
0.0
220
0.0
230
1.0
 70
    24
 71
     2
 72
     6
 73
     3
 74
     0
 42
0.0000000001
 43
0.0000000001
 40
0.0
 40
0.0
 40
0.0
 40
0.6413654606981254
 40
0.6413654606981254
 40
0.6413654606981254
 10
-719.2782854735574
 20
109.7858080604919
 30
0.0
 10
-719.5989682039065
 20
109.7858080604919
 30
0.0
 10
-719.9196509342555
 20
109.7858080604919
 30
0.0
  0
SPLINE
  5
26F
330
1F
100
AcDbEntity
  8
Predefinito
100
AcDbSpline
210
0.0
220
0.0
230
1.0
 70
    24
 71
     2
 72
     6
 73
     3
 74
     0
 42
0.0000000001
 43
0.0000000001
 40
0.0
 40
0.0
 40
0.0
 40
0.8240095161140744
 40
0.8240095161140744
 40
0.8240095161140744
 10
-714.6831827391093
 20
109.7858080604919
 30
0.0
 10
-715.0951874971663
 20
109.7858080604919
 30
0.0
 10
-715.5071922552233
 20
109.7858080604919
 30
0.0
  0
SPLINE
  5
270
330
1F
100
AcDbEntity
  8
Predefinito
100
AcDbSpline
210
0.0
220
0.0
230
1.0
 70
    24
 71
     2
 72
     6
 73
     3
 74
     0
 42
0.0000000001
 43
0.0000000001
 40
0.0
 40
0.0
 40
0.0
 40
0.4451888881067134
 40
0.4451888881067134
 40
0.4451888881067134
 10
-704.7013032455211
 20
109.7858080604919
 30
0.0
 10
-704.9238976895745
 20
109.7858080604919
 30
0.0
 10
-705.1464921336278
 20
109.7858080604919
 30
0.0
  0
SPLINE
  5
271
330
1F
100
AcDbEntity
  8
Predefinito
100
AcDbSpline
210
0.0
220
0.0
230
1.0
 70
    24
 71
     2
 72
     6
 73
     3
 74
     0
 42
0.0000000001
 43
0.0000000001
 40
0.0
 40
0.0
 40
0.0
 40
0.7362349226063998
 40
0.7362349226063998
 40
0.7362349226063998
 10
-700.5356591480613
 20
109.7858080604919
 30
0.0
 10
-700.9037766093645
 20
109.7858080604919
 30
0.0
 10
-701.2718940706677
 20
109.7858080604919
 30
0.0
  0
SPLINE
  5
272
330
1F
100
AcDbEntity
  8
Predefinito
100
AcDbSpline
210
0.0
220
0.0
230
1.0
 70
    24
 71
     2
 72
     6
 73
     3
 74
     0
 42
0.0000000001
 43
0.0000000001
 40
0.0
 40
0.0
 40
0.0
 40
0.3515208329340567
 40
0.3515208329340567
 40
0.3515208329340567
 10
-696.0823537274914
 20
109.7858080604919
 30
0.0
 10
-696.2581141439584
 20
109.7858080604919
 30
0.0
 10
-696.4338745604255
 20
109.7858080604919
 30
0.0
  0
SPLINE
  5
273
330
1F
100
AcDbEntity
  8
Predefinito
100
AcDbSpline
210
0.0
220
0.0
230
1.0
 70
    24
 71
     2
 72
     6
 73
     3
 74
     0
 42
0.0000000001
 43
0.0000000001
 40
0.0
 40
0.0
 40
0.0
 40
0.281499544737926
 40
0.281499544737926
 40
0.281499544737926
 10
-691.5080480564575
 20
109.7858080604919
 30
0.0
 10
-691.6487978288264
 20
109.7858080604919
 30
0.0
 10
-691.7895476011954
 20
109.7858080604919
 30
0.0
  0
SPLINE
  5
274
330
1F
100
AcDbEntity
  8
Predefinito
100
AcDbSpline
210
0.0
220
0.0
230
1.0
 70
    24
 71
     2
 72
     6
 73
     3
 74
     0
 42
0.0000000001
 43
0.0000000001
 40
0.0
 40
0.0
 40
0.0
 40
0.7723424125006204
 40
0.7723424125006204
 40
0.7723424125006204
 10
-687.6576226080742
 20
109.7858080604919
 30
0.0
 10
-688.0437938143245
 20
109.7858080604919
 30
0.0
 10
-688.4299650205749
 20
109.7858080604919
 30
0.0
  0
SPLINE
  5
275
330
1F
100
AcDbEntity
  8
Predefinito
100
AcDbSpline
210
0.0
220
0.0
230
1.0
 70
    24
 71
     2
 72
     6
 73
     3
 74
     0
 42
0.0000000001
 43
0.0000000001
 40
0.0
 40
0.0
 40
0.0
 40
1.168955291598195
 40
1.168955291598195
 40
1.168955291598195
 10
-682.5411917496485
 20
109.7858080604919
 30
0.0
 10
-683.1256693954476
 20
109.7858080604919
 30
0.0
 10
-683.7101470412467
 20
109.7858080604919
 30
0.0
  0
SPLINE
  5
276
330
1F
100
AcDbEntity
  8
Predefinito
100
AcDbSpline
210
0.0
220
0.0
230
1.0
 70
    24
 71
     2
 72
     6
 73
     3
 74
     0
 42
0.0000000001
 43
0.0000000001
 40
0.0
 40
0.0
 40
0.0
 40
1.058687795858077
 40
1.058687795858077
 40
1.058687795858077
 10
-679.731361415877
 20
109.7858080604919
 30
0.0
 10
-680.260705313806
 20
109.7858080604919
 30
0.0
 10
-680.7900492117351
 20
109.7858080604919
 30
0.0
  0
SPLINE
  5
277
330
1F
100
AcDbEntity
  8
Predefinito
100
AcDbSpline
210
0.0
220
0.0
230
1.0
 70
    24
 71
     2
 72
     6
 73
     3
 74
     0
 42
0.0000000001
 43
0.0000000001
 40
0.0
 40
0.0
 40
0.0
 40
1.13326863893235
 40
1.13326863893235
 40
1.13326863893235
 10
-675.8785188554289
 20
109.7858080604919
 30
0.0
 10
-676.445153174895
 20
109.7858080604919
 30
0.0
 10
-677.0117874943612
 20
109.7858080604919
 30
0.0
  0
SPLINE
  5
278
330
1F
100
AcDbEntity
  8
Predefinito
100
AcDbSpline
210
0.0
220
0.0
230
1.0
 70
    24
 71
     2
 72
     6
 73
     3
 74
     0
 42
0.0000000001
 43
0.0000000001
 40
0.0
 40
0.0
 40
0.0
 40
6.664269801493447
 40
6.664269801493447
 40
6.664269801493447
 10
-666.0930788007113
 20
109.7858080604919
 30
0.0
 10
-669.425213701458
 20
109.7858080604919
 30
0.0
 10
-672.7573486022047
 20
109.7858080604919
 30
0.0
  0
SPLINE
  5
279
330
1F
100
AcDbEntity
  8
Predefinito
100
AcDbSpline
210
0.0
220
0.0
230
1.0
 70
    24
 71
     2
 72
     6
 73
     3
 74
     0
 42
0.0000000001
 43
0.0000000001
 40
0.0
 40
0.0
 40
0.0
 40
0.0647158667648
 40
0.0647158667648
 40
0.0647158667648
 10
-663.2514672792972
 20
109.7858080604919
 30
0.0
 10
-663.2838252126796
 20
109.7858080604919
 30
0.0
 10
-663.316183146062
 20
109.7858080604919
 30
0.0
  0
SPLINE
  5
27A
330
1F
100
AcDbEntity
  8
Predefinito
100
AcDbSpline
210
0.0
220
0.0
230
1.0
 70
    24
 71
     2
 72
     6
 73
     3
 74
     0
 42
0.0000000001
 43
0.0000000001
 40
0.0
 40
0.0
 40
0.0
 40
0.0819811193414353
 40
0.0819811193414353
 40
0.0819811193414353
 10
-657.7772914228185
 20
109.7858080604919
 30
0.0
 10
-657.8182819824892
 20
109.7858080604919
 30
0.0
 10
-657.8592725421599
 20
109.7858080604919
 30
0.0
  0
SPLINE
  5
27B
330
1F
100
AcDbEntity
  8
Predefinito
100
AcDbSpline
210
0.0
220
0.0
230
1.0
 70
    24
 71
     2
 72
     6
 73
     3
 74
     0
 42
0.0000000001
 43
0.0000000001
 40
0.0
 40
0.0
 40
0.0
 40
0.5882708093454312
 40
0.5882708093454312
 40
0.5882708093454312
 10
-654.890043873399
 20
109.7858080604919
 30
0.0
 10
-655.1841792780717
 20
109.7858080604919
 30
0.0
 10
-655.4783146827444
 20
109.7858080604919
 30
0.0
  0
SPLINE
  5
27C
330
1F
100
AcDbEntity
  8
Predefinito
100
AcDbSpline
210
0.0
220
0.0
230
1.0
 70
    24
 71
     2
 72
     6
 73
     3
 74
     0
 42
0.0000000001
 43
0.0000000001
 40
0.0
 40
0.0
 40
0.0
 40
0.1111422996277724
 40
0.1111422996277724
 40
0.1111422996277724
 10
-653.0798545097132
 20
109.7858080604919
 30
0.0
 10
-653.1354256595271
 20
109.7858080604919
 30
0.0
 10
-653.190996809341
 20
109.7858080604919
 30
0.0
  0
SPLINE
  5
27D
330
1F
100
AcDbEntity
  8
Predefinito
100
AcDbSpline
210
0.0
220
0.0
230
1.0
 70
    24
 71
     2
 72
     6
 73
     3
 74
     0
 42
0.0000000001
 43
0.0000000001
 40
0.0
 40
0.0
 40
0.0
 40
0.3245055833335755
 40
0.3245055833335755
 40
0.3245055833335755
 10
-648.6565123063278
 20
109.7858080604919
 30
0.0
 10
-648.8187650979946
 20
109.7858080604919
 30
0.0
 10
-648.9810178896614
 20
109.7858080604919
 30
0.0
  0
SPLINE
  5
27E
330
1F
100
AcDbEntity
  8
Predefinito
100
AcDbSpline
210
0.0
220
0.0
230
1.0
 70
    24
 71
     2
 72
     6
 73
     3
 74
     0
 42
0.0000000001
 43
0.0000000001
 40
0.0
 40
0.0
 40
0.0
 40
0.5193515792307153
 40
0.5193515792307153
 40
0.5193515792307153
 10
-646.8138962108819
 20
109.7858080604919
 30
0.0
 10
-647.0735720004973
 20
109.7858080604919
 30
0.0
 10
-647.3332477901126
 20
109.7858080604919
 30
0.0
  0
SPLINE
  5
27F
330
1F
100
AcDbEntity
  8
Predefinito
100
AcDbSpline
210
0.0
220
0.0
230
1.0
 70
    24
 71
     2
 72
     6
 73
     3
 74
     0
 42
0.0000000001
 43
0.0000000001
 40
0.0
 40
0.0
 40
0.0
 40
0.1891595991723989
 40
0.1891595991723989
 40
0.1891595991723989
 10
-643.9315458349042
 20
109.7858080604919
 30
0.0
 10
-644.0261256344904
 20
109.7858080604919
 30
0.0
 10
-644.1207054340766
 20
109.7858080604919
 30
0.0
  0
SPLINE
  5
280
330
1F
100
AcDbEntity
  8
Predefinito
100
AcDbSpline
210
0.0
220
0.0
230
1.0
 70
    24
 71
     2
 72
     6
 73
     3
 74
     0
 42
0.0000000001
 43
0.0000000001
 40
0.0
 40
0.0
 40
0.0
 40
0.3637602142066498
 40
0.3637602142066498
 40
0.3637602142066498
 10
-642.6233479153184
 20
109.7858080604919
 30
0.0
 10
-642.8052280224217
 20
109.7858080604919
 30
0.0
 10
-642.987108129525
 20
109.7858080604919
 30
0.0
  0
SPLINE
  5
281
330
1F
100
AcDbEntity
  8
Predefinito
100
AcDbSpline
210
0.0
220
0.0
230
1.0
 70
    24
 71
     2
 72
     6
 73
     3
 74
     0
 42
0.0000000001
 43
0.0000000001
 40
0.0
 40
0.0
 40
0.0
 40
0.1259563654789417
 40
0.1259563654789417
 40
0.1259563654789417
 10
-640.6845024499389
 20
109.7858080604919
 30
0.0
 10
-640.7474806326784
 20
109.7858080604919
 30
0.0
 10
-640.8104588154179
 20
109.7858080604919
 30
0.0
  0
SPLINE
  5
282
330
1F
100
AcDbEntity
  8
Predefinito
100
AcDbSpline
210
0.0
220
0.0
230
1.0
 70
    24
 71
     2
 72
     6
 73
     3
 74
     0
 42
0.0000000001
 43
0.0000000001
 40
0.0
 40
0.0
 40
0.0
 40
0.2068758373320634
 40
0.2068758373320634
 40
0.2068758373320634
 10
-639.953149565697
 20
109.7858080604919
 30
0.0
 10
-640.056587484363
 20
109.7858080604919
 30
0.0
 10
-640.1600254030291
 20
109.7858080604919
 30
0.0
  0
SPLINE
  5
283
330
1F
100
AcDbEntity
  8
Predefinito
100
AcDbSpline
210
0.0
220
0.0
230
1.0
 70
    24
 71
     2
 72
     6
 73
     3
 74
     0
 42
0.0000000001
 43
0.0000000001
 40
0.0
 40
0.0
 40
0.0
 40
0.1807695559018612
 40
0.1807695559018612
 40
0.1807695559018612
 10
-639.3150244719168
 20
109.7858080604919
 30
0.0
 10
-639.4054092498677
 20
109.7858080604919
 30
0.0
 10
-639.4957940278186
 20
109.7858080604919
 30
0.0
  0
SPLINE
  5
284
330
1F
100
AcDbEntity
  8
Predefinito
100
AcDbSpline
210
0.0
220
0.0
230
1.0
 70
    24
 71
     2
 72
     6
 73
     3
 74
     0
 42
0.0000000001
 43
0.0000000001
 40
0.0
 40
0.0
 40
0.0
 40
0.0873066225517505
 40
0.0873066225517505
 40
0.0873066225517505
 10
-638.951186281557
 20
109.7858080604919
 30
0.0
 10
-638.9948395928329
 20
109.7858080604919
 30
0.0
 10
-639.0384929041088
 20
109.7858080604919
 30
0.0
  0
SPLINE
  5
285
330
1F
100
AcDbEntity
  8
Predefinito
100
AcDbSpline
210
0.0
220
0.0
230
1.0
 70
    28
 71
     2
 72
     6
 73
     3
 74
     0
 42
0.0000000001
 43
0.0000000001
 40
0.0
 40
0.0
 40
0.0
 40
0.0949385242060998
 40
0.0949385242060998
 40
0.0949385242060998
 10
-638.7611799147353
 20
109.7858047485352
 30
0.0
 41
1.0
 10
-638.8086491768381
 20
109.7858047485351
 30
0.0
 41
1.0
 10
-638.8561184389414
 20
109.7858047485351
 30
0.0
 41
1.0
  0
SPLINE
  5
286
330
1F
100
AcDbEntity
  8
Predefinito
100
AcDbSpline
210
0.0
220
0.0
230
1.0
 70
    24
 71
     2
 72
     6
 73
     3
 74
     0
 42
0.0000000001
 43
0.0000000001
 40
0.0
 40
0.0
 40
0.0
 40
16.76780471264919
 40
16.76780471264919
 40
16.76780471264919
 10
-902.0368441140185
 20
109.7858080604919
 30
0.0
 10
-910.4207464703431
 20
109.7858080604919
 30
0.0
 10
-918.8046488266677
 20
109.7858080604919
 30
0.0
  0
SPLINE
  5
287
330
1F
100
AcDbEntity
  8
Predefinito
100
AcDbSpline
210
0.0
220
0.0
230
1.0
 70
    24
 71
     2
 72
     6
 73
     3
 74
     0
 42
0.0000000001
 43
0.0000000001
 40
0.0
 40
0.0
 40
0.0
 40
6.327181097401535
 40
6.327181097401535
 40
6.327181097401535
 10
-893.5825818807239
 20
109.7858080604919
 30
0.0
 10
-896.7461724294246
 20
109.7858080604919
 30
0.0
 10
-899.9097629781254
 20
109.7858080604919
 30
0.0
  0
SPLINE
  5
288
330
1F
100
AcDbEntity
  8
Predefinito
100
AcDbSpline
210
0.0
220
0.0
230
1.0
 70
    24
 71
     2
 72
     6
 73
     3
 74
     0
 42
0.0000000001
 43
0.0000000001
 40
0.0
 40
0.0
 40
0.0
 40
16.76315609751191
 40
16.76315609751191
 40
16.76315609751191
 10
-876.0787551655781
 20
109.7858080604919
 30
0.0
 10
-884.460333214334
 20
109.7858080604919
 30
0.0
 10
-892.84191126309
 20
109.7858080604919
 30
0.0
  0
SPLINE
  5
289
330
1F
100
AcDbEntity
  8
Predefinito
100
AcDbSpline
210
0.0
220
0.0
230
1.0
 70
    24
 71
     2
 72
     6
 73
     3
 74
     0
 42
0.0000000001
 43
0.0000000001
 40
0.0
 40
0.0
 40
0.0
 40
6.500627677746706
 40
6.500627677746706
 40
6.500627677746706
 10
-868.467997551506
 20
109.7858080604919
 30
0.0
 10
-871.7183113903793
 20
109.7858080604919
 30
0.0
 10
-874.9686252292527
 20
109.7858080604919
 30
0.0
  0
SPLINE
  5
28A
330
1F
100
AcDbEntity
  8
Predefinito
100
AcDbSpline
210
0.0
220
0.0
230
1.0
 70
    24
 71
     2
 72
     6
 73
     3
 74
     0
 42
0.0000000001
 43
0.0000000001
 40
0.0
 40
0.0
 40
0.0
 40
12.33701764588704
 40
12.33701764588704
 40
12.33701764588704
 10
-855.5289241257597
 20
109.7858080604919
 30
0.0
 10
-861.6974329487032
 20
109.7858080604919
 30
0.0
 10
-867.8659417716467
 20
109.7858080604919
 30
0.0
  0
SPLINE
  5
28B
330
1F
100
AcDbEntity
  8
Predefinito
100
AcDbSpline
210
0.0
220
0.0
230
1.0
 70
    24
 71
     2
 72
     6
 73
     3
 74
     0
 42
0.0000000001
 43
0.0000000001
 40
0.0
 40
0.0
 40
0.0
 40
10.83215666130309
 40
10.83215666130309
 40
10.83215666130309
 10
-838.1241558429319
 20
109.7858080604919
 30
0.0
 10
-843.5402341735835
 20
109.7858080604919
 30
0.0
 10
-848.956312504235
 20
109.7858080604919
 30
0.0
  0
SPLINE
  5
28C
330
1F
100
AcDbEntity
  8
Predefinito
100
AcDbSpline
210
0.0
220
0.0
230
1.0
 70
    24
 71
     2
 72
     6
 73
     3
 74
     0
 42
0.0000000001
 43
0.0000000001
 40
0.0
 40
0.0
 40
0.0
 40
4.306824864142072
 40
4.306824864142072
 40
4.306824864142072
 10
-832.379685731597
 20
109.7858080604919
 30
0.0
 10
-834.533098163668
 20
109.7858080604919
 30
0.0
 10
-836.686510595739
 20
109.7858080604919
 30
0.0
  0
SPLINE
  5
28D
330
1F
100
AcDbEntity
  8
Predefinito
100
AcDbSpline
210
0.0
220
0.0
230
1.0
 70
    24
 71
     2
 72
     6
 73
     3
 74
     0
 42
0.0000000001
 43
0.0000000001
 40
0.0
 40
0.0
 40
0.0
 40
9.750222517482598
 40
9.750222517482598
 40
9.750222517482598
 10
-821.8775772067561
 20
109.7858080604919
 30
0.0
 10
-826.7526884654974
 20
109.7858080604919
 30
0.0
 10
-831.6277997242387
 20
109.7858080604919
 30
0.0
  0
SPLINE
  5
28E
330
1F
100
AcDbEntity
  8
Predefinito
100
AcDbSpline
210
0.0
220
0.0
230
1.0
 70
    24
 71
     2
 72
     6
 73
     3
 74
     0
 42
0.0000000001
 43
0.0000000001
 40
0.0
 40
0.0
 40
0.0
 40
7.357592531585397
 40
7.357592531585397
 40
7.357592531585397
 10
-813.7449033577323
 20
109.7858080604919
 30
0.0
 10
-817.423699623525
 20
109.7858080604919
 30
0.0
 10
-821.1024958893177
 20
109.7858080604919
 30
0.0
  0
SPLINE
  5
28F
330
1F
100
AcDbEntity
  8
Predefinito
100
AcDbSpline
210
0.0
220
0.0
230
1.0
 70
    24
 71
     2
 72
     6
 73
     3
 74
     0
 42
0.0000000001
 43
0.0000000001
 40
0.0
 40
0.0
 40
0.0
 40
5.789373488975343
 40
5.789373488975343
 40
5.789373488975343
 10
-806.8974726595293
 20
109.7858080604919
 30
0.0
 10
-809.792159404017
 20
109.7858080604919
 30
0.0
 10
-812.6868461485046
 20
109.7858080604919
 30
0.0
  0
SPLINE
  5
290
330
1F
100
AcDbEntity
  8
Predefinito
100
AcDbSpline
210
0.0
220
0.0
230
1.0
 70
    24
 71
     2
 72
     6
 73
     3
 74
     0
 42
0.0000000001
 43
0.0000000001
 40
0.0
 40
0.0
 40
0.0
 40
5.271561659917552
 40
5.271561659917552
 40
5.271561659917552
 10
-801.0515449480345
 20
109.7858080604919
 30
0.0
 10
-803.6873257779932
 20
109.7858080604919
 30
0.0
 10
-806.323106607952
 20
109.7858080604919
 30
0.0
  0
SPLINE
  5
291
330
1F
100
AcDbEntity
  8
Predefinito
100
AcDbSpline
210
0.0
220
0.0
230
1.0
 70
    24
 71
     2
 72
     6
 73
     3
 74
     0
 42
0.0000000001
 43
0.0000000001
 40
0.0
 40
0.0
 40
0.0
 40
6.963322076475379
 40
6.963322076475379
 40
6.963322076475379
 10
-792.4565964286339
 20
109.7858080604919
 30
0.0
 10
-795.9382574668716
 20
109.7858080604919
 30
0.0
 10
-799.4199185051093
 20
109.7858080604919
 30
0.0
  0
SPLINE
  5
292
330
1F
100
AcDbEntity
  8
Predefinito
100
AcDbSpline
210
0.0
220
0.0
230
1.0
 70
    24
 71
     2
 72
     6
 73
     3
 74
     0
 42
0.0000000001
 43
0.0000000001
 40
0.0
 40
0.0
 40
0.0
 40
5.051176473040414
 40
5.051176473040414
 40
5.051176473040414
 10
-785.6773533127293
 20
109.7858080604919
 30
0.0
 10
-788.2029415492495
 20
109.7858080604919
 30
0.0
 10
-790.7285297857698
 20
109.7858080604919
 30
0.0
  0
SPLINE
  5
293
330
1F
100
AcDbEntity
  8
Predefinito
100
AcDbSpline
210
0.0
220
0.0
230
1.0
 70
    24
 71
     2
 72
     6
 73
     3
 74
     0
 42
0.0000000001
 43
0.0000000001
 40
0.0
 40
0.0
 40
0.0
 40
5.341765190089063
 40
5.341765190089063
 40
5.341765190089063
 10
-779.2810395727383
 20
109.7858080604919
 30
0.0
 10
-781.9519221677829
 20
109.7858080604919
 30
0.0
 10
-784.6228047628274
 20
109.7858080604919
 30
0.0
  0
SPLINE
  5
294
330
1F
100
AcDbEntity
  8
Predefinito
100
AcDbSpline
210
0.0
220
0.0
230
1.0
 70
    24
 71
     2
 72
     6
 73
     3
 74
     0
 42
0.0000000001
 43
0.0000000001
 40
0.0
 40
0.0
 40
0.0
 40
6.549892131435627
 40
6.549892131435627
 40
6.549892131435627
 10
-772.3874768034248
 20
109.7858080604919
 30
0.0
 10
-775.6624228691426
 20
109.7858080604919
 30
0.0
 10
-778.9373689348604
 20
109.7858080604919
 30
0.0
  0
SPLINE
  5
295
330
1F
100
AcDbEntity
  8
Predefinito
100
AcDbSpline
210
0.0
220
0.0
230
1.0
 70
    24
 71
     2
 72
     6
 73
     3
 74
     0
 42
0.0000000001
 43
0.0000000001
 40
0.0
 40
0.0
 40
0.0
 40
4.746908207058823
 40
4.746908207058823
 40
4.746908207058823
 10
-766.2279599580479
 20
109.7858080604919
 30
0.0
 10
-768.6014140615773
 20
109.7858080604919
 30
0.0
 10
-770.9748681651067
 20
109.7858080604919
 30
0.0
  0
SPLINE
  5
296
330
1F
100
AcDbEntity
  8
Predefinito
100
AcDbSpline
210
0.0
220
0.0
230
1.0
 70
    24
 71
     2
 72
     6
 73
     3
 74
     0
 42
0.0000000001
 43
0.0000000001
 40
0.0
 40
0.0
 40
0.0
 40
11.98499682366628
 40
11.98499682366628
 40
11.98499682366628
 10
-753.9888253520235
 20
109.7858080604919
 30
0.0
 10
-759.9813237638566
 20
109.7858080604919
 30
0.0
 10
-765.9738221756897
 20
109.7858080604919
 30
0.0
  0
SPLINE
  5
297
330
1F
100
AcDbEntity
  8
Predefinito
100
AcDbSpline
210
0.0
220
0.0
230
1.0
 70
    24
 71
     2
 72
     6
 73
     3
 74
     0
 42
0.0000000001
 43
0.0000000001
 40
0.0
 40
0.0
 40
0.0
 40
4.432118484302009
 40
4.432118484302009
 40
4.432118484302009
 10
-748.0219574566077
 20
109.7858080604919
 30
0.0
 10
-750.2380166987587
 20
109.7858080604919
 30
0.0
 10
-752.4540759409097
 20
109.7858080604919
 30
0.0
  0
SPLINE
  5
298
330
1F
100
AcDbEntity
  8
Predefinito
100
AcDbSpline
210
0.0
220
0.0
230
1.0
 70
    24
 71
     2
 72
     6
 73
     3
 74
     0
 42
0.0000000001
 43
0.0000000001
 40
0.0
 40
0.0
 40
0.0
 40
11.52062182151349
 40
11.52062182151349
 40
11.52062182151349
 10
-736.0758806754347
 20
109.7858080604919
 30
0.0
 10
-741.8361915861915
 20
109.7858080604919
 30
0.0
 10
-747.5965024969482
 20
109.7858080604919
 30
0.0
  0
SPLINE
  5
299
330
1F
100
AcDbEntity
  8
Predefinito
100
AcDbSpline
210
0.0
220
0.0
230
1.0
 70
    24
 71
     2
 72
     6
 73
     3
 74
     0
 42
0.0000000001
 43
0.0000000001
 40
0.0
 40
0.0
 40
0.0
 40
4.067232688085369
 40
4.067232688085369
 40
4.067232688085369
 10
-731.1412197912068
 20
109.7858080604919
 30
0.0
 10
-733.1748361352495
 20
109.7858080604919
 30
0.0
 10
-735.2084524792922
 20
109.7858080604919
 30
0.0
  0
SPLINE
  5
29A
330
1F
100
AcDbEntity
  8
Predefinito
100
AcDbSpline
210
0.0
220
0.0
230
1.0
 70
    24
 71
     2
 72
     6
 73
     3
 74
     0
 42
0.0000000001
 43
0.0000000001
 40
0.0
 40
0.0
 40
0.0
 40
10.61922555409046
 40
10.61922555409046
 40
10.61922555409046
 10
-719.9196509316116
 20
109.7858080604919
 30
0.0
 10
-725.2292637086568
 20
109.7858080604919
 30
0.0
 10
-730.5388764857021
 20
109.7858080604919
 30
0.0
  0
SPLINE
  5
29B
330
1F
100
AcDbEntity
  8
Predefinito
100
AcDbSpline
210
0.0
220
0.0
230
1.0
 70
    24
 71
     2
 72
     6
 73
     3
 74
     0
 42
0.0000000001
 43
0.0000000001
 40
0.0
 40
0.0
 40
0.0
 40
3.771093218337228
 40
3.771093218337228
 40
3.771093218337228
 10
-715.5071922552206
 20
109.7858080604919
 30
0.0
 10
-717.3927388643892
 20
109.7858080604919
 30
0.0
 10
-719.2782854735578
 20
109.7858080604919
 30
0.0
  0
SPLINE
  5
29C
330
1F
100
AcDbEntity
  8
Predefinito
100
AcDbSpline
210
0.0
220
0.0
230
1.0
 70
    24
 71
     2
 72
     6
 73
     3
 74
     0
 42
0.0000000001
 43
0.0000000001
 40
0.0
 40
0.0
 40
0.0
 40
9.536690618866942
 40
9.536690618866942
 40
9.536690618866942
 10
-705.1464921226739
 20
109.7858080604919
 30
0.0
 10
-709.9148374321073
 20
109.7858080604919
 30
0.0
 10
-714.6831827415408
 20
109.7858080604919
 30
0.0
  0
SPLINE
  5
29D
330
1F
100
AcDbEntity
  8
Predefinito
100
AcDbSpline
210
0.0
220
0.0
230
1.0
 70
    24
 71
     2
 72
     6
 73
     3
 74
     0
 42
0.0000000001
 43
0.0000000001
 40
0.0
 40
0.0
 40
0.0
 40
3.429409174860211
 40
3.429409174860211
 40
3.429409174860211
 10
-701.2718940706618
 20
109.7858080604919
 30
0.0
 10
-702.9865986580919
 20
109.7858080604919
 30
0.0
 10
-704.701303245522
 20
109.7858080604919
 30
0.0
  0
SPLINE
  5
29E
330
1F
100
AcDbEntity
  8
Predefinito
100
AcDbSpline
210
0.0
220
0.0
230
1.0
 70
    24
 71
     2
 72
     6
 73
     3
 74
     0
 42
0.0000000001
 43
0.0000000001
 40
0.0
 40
0.0
 40
0.0
 40
4.101784587688599
 40
4.101784587688599
 40
4.101784587688599
 10
-696.4338745603741
 20
109.7858080604918
 30
0.0
 10
-698.4847668542184
 20
109.7858080604919
 30
0.0
 10
-700.5356591480627
 20
109.7858080604919
 30
0.0
  0
SPLINE
  5
29F
330
1F
100
AcDbEntity
  8
Predefinito
100
AcDbSpline
210
0.0
220
0.0
230
1.0
 70
    24
 71
     2
 72
     6
 73
     3
 74
     0
 42
0.0000000001
 43
0.0000000001
 40
0.0
 40
0.0
 40
0.0
 40
4.292806126617961
 40
4.292806126617961
 40
4.292806126617961
 10
-691.7895476012454
 20
109.7858080604918
 30
0.0
 10
-693.9359506645544
 20
109.7858080604918
 30
0.0
 10
-696.0823537278634
 20
109.7858080604918
 30
0.0
  0
SPLINE
  5
2A0
330
1F
100
AcDbEntity
  8
Predefinito
100
AcDbSpline
210
0.0
220
0.0
230
1.0
 70
    24
 71
     2
 72
     6
 73
     3
 74
     0
 42
0.0000000001
 43
0.0000000001
 40
0.0
 40
0.0
 40
0.0
 40
3.078083032310133
 40
3.078083032310133
 40
3.078083032310133
 10
-688.4299650205608
 20
109.7858080604919
 30
0.0
 10
-689.9690065367158
 20
109.7858080604919
 30
0.0
 10
-691.5080480528709
 20
109.7858080604918
 30
0.0
  0
SPLINE
  5
2A1
330
1F
100
AcDbEntity
  8
Predefinito
100
AcDbSpline
210
0.0
220
0.0
230
1.0
 70
    24
 71
     2
 72
     6
 73
     3
 74
     0
 42
0.0000000001
 43
0.0000000001
 40
0.0
 40
0.0
 40
0.0
 40
3.947475559615668
 40
3.947475559615668
 40
3.947475559615668
 10
-683.7101470484608
 20
109.7858080604919
 30
0.0
 10
-685.6838848282687
 20
109.7858080604919
 30
0.0
 10
-687.6576226080765
 20
109.7858080604919
 30
0.0
  0
SPLINE
  5
2A2
330
1F
100
AcDbEntity
  8
Predefinito
100
AcDbSpline
210
0.0
220
0.0
230
1.0
 70
    24
 71
     2
 72
     6
 73
     3
 74
     0
 42
0.0000000001
 43
0.0000000001
 40
0.0
 40
0.0
 40
0.0
 40
1.75114253794618
 40
1.75114253794618
 40
1.75114253794618
 10
-680.7900492117005
 20
109.7858080604918
 30
0.0
 10
-681.6656204806736
 20
109.7858080604919
 30
0.0
 10
-682.5411917496467
 20
109.7858080604919
 30
0.0
  0
SPLINE
  5
2A3
330
1F
100
AcDbEntity
  8
Predefinito
100
AcDbSpline
210
0.0
220
0.0
230
1.0
 70
    24
 71
     2
 72
     6
 73
     3
 74
     0
 42
0.0000000001
 43
0.0000000001
 40
0.0
 40
0.0
 40
0.0
 40
2.719573929326543
 40
2.719573929326543
 40
2.719573929326543
 10
-677.0117874943248
 20
109.7858080604919
 30
0.0
 10
-678.3715744589881
 20
109.7858080604919
 30
0.0
 10
-679.7313614236514
 20
109.7858080604919
 30
0.0
  0
SPLINE
  5
2A4
330
1F
100
AcDbEntity
  8
Predefinito
100
AcDbSpline
210
0.0
220
0.0
230
1.0
 70
    24
 71
     2
 72
     6
 73
     3
 74
     0
 42
0.0000000001
 43
0.0000000001
 40
0.0
 40
0.0
 40
0.0
 40
3.121170253223227
 40
3.121170253223227
 40
3.121170253223227
 10
-672.7573486022056
 20
109.7858080604918
 30
0.0
 10
-674.3179337288173
 20
109.7858080604919
 30
0.0
 10
-675.8785188554289
 20
109.7858080604919
 30
0.0
  0
SPLINE
  5
2A5
330
1F
100
AcDbEntity
  8
Predefinito
100
AcDbSpline
210
0.0
220
0.0
230
1.0
 70
    24
 71
     2
 72
     6
 73
     3
 74
     0
 42
0.0000000001
 43
0.0000000001
 40
0.0
 40
0.0
 40
0.0
 40
2.776895654646523
 40
2.776895654646523
 40
2.776895654646523
 10
-663.3161831460648
 20
109.7858080604919
 30
0.0
 10
-664.704630973388
 20
109.7858080604919
 30
0.0
 10
-666.0930788007113
 20
109.7858080604918
 30
0.0
  0
SPLINE
  5
2A6
330
1F
100
AcDbEntity
  8
Predefinito
100
AcDbSpline
210
0.0
220
0.0
230
1.0
 70
    24
 71
     2
 72
     6
 73
     3
 74
     0
 42
0.0000000001
 43
0.0000000001
 40
0.0
 40
0.0
 40
0.0
 40
5.392194741665207
 40
5.392194741665207
 40
5.392194741665207
 10
-657.8592725421631
 20
109.7858080604918
 30
0.0
 10
-660.5553699129957
 20
109.7858080604919
 30
0.0
 10
-663.2514672838283
 20
109.7858080604919
 30
0.0
  0
SPLINE
  5
2A7
330
1F
100
AcDbEntity
  8
Predefinito
100
AcDbSpline
210
0.0
220
0.0
230
1.0
 70
    24
 71
     2
 72
     6
 73
     3
 74
     0
 42
0.0000000001
 43
0.0000000001
 40
0.0
 40
0.0
 40
0.0
 40
2.298976730821323
 40
2.298976730821323
 40
2.298976730821323
 10
-655.4783146827363
 20
109.7858080604918
 30
0.0
 10
-656.6278030481469
 20
109.7858080604918
 30
0.0
 10
-657.7772914135576
 20
109.7858080604918
 30
0.0
  0
SPLINE
  5
2A8
330
1F
100
AcDbEntity
  8
Predefinito
100
AcDbSpline
210
0.0
220
0.0
230
1.0
 70
    24
 71
     2
 72
     6
 73
     3
 74
     0
 42
0.0000000001
 43
0.0000000001
 40
0.0
 40
0.0
 40
0.0
 40
1.699047064076694
 40
1.699047064076694
 40
1.699047064076694
 10
-653.1909968093773
 20
109.7858080604918
 30
0.0
 10
-654.0405203414157
 20
109.7858080604918
 30
0.0
 10
-654.890043873454
 20
109.7858080604918
 30
0.0
  0
SPLINE
  5
2A9
330
1F
100
AcDbEntity
  8
Predefinito
100
AcDbSpline
210
0.0
220
0.0
230
1.0
 70
    24
 71
     2
 72
     6
 73
     3
 74
     0
 42
0.0000000001
 43
0.0000000001
 40
0.0
 40
0.0
 40
0.0
 40
4.098836613980438
 40
4.098836613980438
 40
4.098836613980438
 10
-648.9810178958396
 20
109.7858080604918
 30
0.0
 10
-651.0304362028298
 20
109.7858080604918
 30
0.0
 10
-653.07985450982
 20
109.7858080604918
 30
0.0
  0
SPLINE
  5
2AA
330
1F
100
AcDbEntity
  8
Predefinito
100
AcDbSpline
210
0.0
220
0.0
230
1.0
 70
    24
 71
     2
 72
     6
 73
     3
 74
     0
 42
0.0000000001
 43
0.0000000001
 40
0.0
 40
0.0
 40
0.0
 40
1.323264516697236
 40
1.323264516697236
 40
1.323264516697236
 10
-647.3332477898571
 20
109.7858080604918
 30
0.0
 10
-647.9948800482057
 20
109.7858080604918
 30
0.0
 10
-648.6565123065543
 20
109.7858080604918
 30
0.0
  0
SPLINE
  5
2AB
330
1F
100
AcDbEntity
  8
Predefinito
100
AcDbSpline
210
0.0
220
0.0
230
1.0
 70
    24
 71
     2
 72
     6
 73
     3
 74
     0
 42
0.0000000001
 43
0.0000000001
 40
0.0
 40
0.0
 40
0.0
 40
2.693190776127267
 40
2.693190776127267
 40
2.693190776127267
 10
-644.1207054346119
 20
109.7858080604918
 30
0.0
 10
-645.4673008226755
 20
109.7858080604918
 30
0.0
 10
-646.8138962107391
 20
109.7858080604918
 30
0.0
  0
SPLINE
  5
2AC
330
1F
100
AcDbEntity
  8
Predefinito
100
AcDbSpline
210
0.0
220
0.0
230
1.0
 70
    24
 71
     2
 72
     6
 73
     3
 74
     0
 42
0.0000000001
 43
0.0000000001
 40
0.0
 40
0.0
 40
0.0
 40
0.944437700240087
 40
0.944437700240087
 40
0.944437700240087
 10
-642.9871081356964
 20
109.7858080604918
 30
0.0
 10
-643.4593269858165
 20
109.7858080604918
 30
0.0
 10
-643.9315458359365
 20
109.7858080604918
 30
0.0
  0
SPLINE
  5
2AD
330
1F
100
AcDbEntity
  8
Predefinito
100
AcDbSpline
210
0.0
220
0.0
230
1.0
 70
    24
 71
     2
 72
     6
 73
     3
 74
     0
 42
0.0000000001
 43
0.0000000001
 40
0.0
 40
0.0
 40
0.0
 40
1.812889101057863
 40
1.812889101057863
 40
1.812889101057863
 10
-640.8104588139277
 20
109.7858080604918
 30
0.0
 10
-641.7169033644566
 20
109.7858080604918
 30
0.0
 10
-642.6233479149855
 20
109.7858080604918
 30
0.0
  0
SPLINE
  5
2AE
330
1F
100
AcDbEntity
  8
Predefinito
100
AcDbSpline
210
0.0
220
0.0
230
1.0
 70
    24
 71
     2
 72
     6
 73
     3
 74
     0
 42
0.0000000001
 43
0.0000000001
 40
0.0
 40
0.0
 40
0.0
 40
0.5244770464664725
 40
0.5244770464664725
 40
0.5244770464664725
 10
-640.160025403035
 20
109.7858080604918
 30
0.0
 10
-640.4222639262682
 20
109.7858080604918
 30
0.0
 10
-640.6845024495015
 20
109.7858080604918
 30
0.0
  0
SPLINE
  5
2AF
330
1F
100
AcDbEntity
  8
Predefinito
100
AcDbSpline
210
0.0
220
0.0
230
1.0
 70
    24
 71
     2
 72
     6
 73
     3
 74
     0
 42
0.0000000001
 43
0.0000000001
 40
0.0
 40
0.0
 40
0.0
 40
0.4573555367451263
 40
0.4573555367451263
 40
0.4573555367451263
 10
-639.4957940274116
 20
109.7858080604918
 30
0.0
 10
-639.7244717957842
 20
109.7858080604918
 30
0.0
 10
-639.9531495641568
 20
109.7858080604918
 30
0.0
  0
SPLINE
  5
2B0
330
1F
100
AcDbEntity
  8
Predefinito
100
AcDbSpline
210
0.0
220
0.0
230
1.0
 70
    24
 71
     2
 72
     6
 73
     3
 74
     0
 42
0.0000000001
 43
0.0000000001
 40
0.0
 40
0.0
 40
0.0
 40
0.2765315684696361
 40
0.2765315684696361
 40
0.2765315684696361
 10
-639.0384929034021
 20
109.7858080604918
 30
0.0
 10
-639.176758687637
 20
109.7858080604918
 30
0.0
 10
-639.3150244718718
 20
109.7858080604918
 30
0.0
  0
SPLINE
  5
2B1
330
1F
100
AcDbEntity
  8
Predefinito
100
AcDbSpline
210
0.0
220
0.0
230
1.0
 70
    24
 71
     2
 72
     6
 73
     3
 74
     0
 42
0.0000000001
 43
0.0000000001
 40
0.0
 40
0.0
 40
0.0
 40
0.0950678425738261
 40
0.0950678425738261
 40
0.0950678425738261
 10
-638.8561184389828
 20
109.7858080604918
 30
0.0
 10
-638.9036523602697
 20
109.7858080604918
 30
0.0
 10
-638.9511862815566
 20
109.7858080604918
 30
0.0
  0
SPLINE
  5
2B2
330
1F
100
AcDbEntity
  8
Predefinito
100
AcDbSpline
210
0.0
220
0.0
230
1.0
 70
    12
 71
     2
 72
     6
 73
     3
 74
     0
 42
0.0000000001
 43
0.0000000001
 40
0.0
 40
0.0
 40
0.0
 40
1.126102900384356
 40
1.126102900384356
 40
1.126102900384356
 10
-637.6444210387222
 20
109.9123161296243
 30
0.0
 41
1.0
 10
-638.1959210672771
 20
109.7883336255263
 30
0.0
 41
0.9941377569752826
 10
-638.7611799144784
 20
109.7858080604918
 30
0.0
 41
1.0
  0
SPLINE
  5
2B3
330
1F
100
AcDbEntity
  8
Predefinito
100
AcDbSpline
210
0.0
220
0.0
230
1.0
 70
     8
 71
     3
 72
    17
 73
    13
 74
     0
 42
0.0000000001
 43
0.0000000001
 40
0.0
 40
0.0
 40
0.0
 40
0.0
 40
6.005175211251879
 40
11.87737350596635
 40
14.58389417976351
 40
15.31483263663403
 40
17.60850562017334
 40
19.85296832568415
 40
20.24877664672291
 40
20.64448831814289
 40
23.42129695238222
 40
35.23950411135457
 40
35.23950411135457
 40
35.23950411135457
 40
35.23950411135457
 10
-637.4865248565197
 20
126.6276073165583
 30
0.0
 10
-635.5530912316963
 20
126.1225304609303
 30
0.0
 10
-631.7660095359743
 20
124.9120455534549
 30
0.0
 10
-627.3973367941608
 20
122.7673574270039
 30
0.0
 10
-624.7172831497228
 20
121.1970978408843
 30
0.0
 10
-623.1573396670606
 20
120.0906246851543
 30
0.0
 10
-622.5005291585353
 20
118.2677589017423
 30
0.0
 10
-623.1234864428789
 20
116.6776404334259
 30
0.0
 10
-623.8712455339032
 20
115.952788358567
 30
0.0
 10
-624.8727334896835
 20
115.3223769707188
 30
0.0
 10
-629.1495909071828
 20
112.7266319990423
 30
0.0
 10
-633.7087340670091
 20
110.9165781579667
 30
0.0
 10
-637.5254956953172
 20
109.9403847121765
 30
0.0
  0
SPLINE
  5
2B4
330
1F
100
AcDbEntity
  8
Predefinito
100
AcDbSpline
210
0.0
220
0.0
230
1.0
 70
    12
 71
     2
 72
     6
 73
     3
 74
     0
 42
0.0000000001
 43
0.0000000001
 40
0.0
 40
0.0
 40
0.0
 40
0.6068571265305862
 40
0.6068571265305862
 40
0.6068571265305862
 10
-1596.427508631249
 20
120.8337099233169
 30
0.0
 41
1.0
 10
-1596.676306055646
 20
120.6579815097761
 30
0.0
 41
0.9942454643447606
 10
-1596.881959636205
 20
120.433287854959
 30
0.0
 41
1.0
  0
SPLINE
  5
2B5
330
1F
100
AcDbEntity
  8
Predefinito
100
AcDbSpline
210
0.0
220
0.0
230
1.0
 70
    12
 71
     2
 72
     8
 73
     5
 74
     0
 42
0.0000000001
 43
0.0000000001
 40
0.0
 40
0.0
 40
0.0
 40
1.461306729093752
 40
1.461306729093752
 40
2.921614641305878
 40
2.921614641305878
 40
2.921614641305878
 10
-1596.690937074207
 20
119.6510366660132
 30
0.0
 41
1.0
 10
-1597.170970076063
 20
119.0607028444201
 30
0.0
 41
0.9414778587820184
 10
-1597.167237821372
 20
118.2998403246032
 30
0.0
 41
1.0
 10
-1597.170959727288
 20
117.5395440007497
 30
0.0
 41
0.9415622782936006
 10
-1596.691573727475
 20
116.9494140016543
 30
0.0
 41
1.0
  0
SPLINE
  5
2B6
330
1F
100
AcDbEntity
  8
Predefinito
100
AcDbSpline
210
0.0
220
0.0
230
1.0
 70
    24
 71
     2
 72
     6
 73
     3
 74
     0
 42
0.0000000001
 43
0.0000000001
 40
0.0
 40
0.0
 40
0.0
 40
833.1040987139854
 40
833.1040987139854
 40
833.1040987139854
 10
-1988.206857907969
 20
109.9502092234258
 30
0.0
 10
-1571.654808550976
 20
109.9502092234258
 30
0.0
 10
-1155.102759193984
 20
109.9502092234258
 30
0.0
  0
SPLINE
  5
2B7
330
1F
100
AcDbEntity
  8
Predefinito
100
AcDbSpline
210
0.0
220
0.0
230
1.0
 70
    24
 71
     2
 72
     6
 73
     3
 74
     0
 42
0.0000000001
 43
0.0000000001
 40
0.0
 40
0.0
 40
0.0
 40
833.0922165921597
 40
833.0922165921597
 40
833.0922165921597
 10
-1155.114641315817
 20
126.6276073165584
 30
0.0
 10
-1571.660749611897
 20
126.6276073165584
 30
0.0
 10
-1988.206857907977
 20
126.6276073165584
 30
0.0
  0
SPLINE
  5
2B8
330
1F
100
AcDbEntity
  8
Predefinito
100
AcDbSpline
210
0.0
220
0.0
230
1.0
 70
    12
 71
     2
 72
     8
 73
     5
 74
     0
 42
0.0000000001
 43
0.0000000001
 40
0.0
 40
0.0
 40
0.0
 40
0.0414087380690944
 40
0.0414087380690944
 40
0.981664478034936
 40
0.981664478034936
 40
0.981664478034936
 10
-637.5279335945893
 20
126.6276073455811
 30
0.0
 41
1.0
 10
-637.5072292255545
 20
126.627607345581
 30
0.0
 41
1.0
 10
-637.4865248565202
 20
126.627607345581
 30
0.0
 41
1.0
 10
-637.4865248565197
 20
126.6276073165583
 30
0.0
 41
0.8246783968814444
 10
-919.1106163313939
 20
126.6276073165583
 30
0.0
 41
0.8592466959230174
  0
SPLINE
  5
2B9
330
1F
100
AcDbEntity
  8
Predefinito
100
AcDbSpline
210
0.0
220
0.0
230
1.0
 70
    12
 71
     2
 72
    16
 73
    13
 74
     0
 42
0.0000000001
 43
0.0000000001
 40
0.0
 40
0.0
 40
0.0
 40
7.27557199087211
 40
7.27557199087211
 40
14.54778348021613
 40
14.54778348021613
 40
17.59932181635905
 40
17.59932181635905
 40
20.65257847516988
 40
20.65257847516988
 40
27.9264020744457
 40
27.9264020744457
 40
35.20080123640636
 40
35.20080123640636
 40
35.20080123640636
 10
-1988.20685790797
 20
109.9502092234244
 30
0.0
 41
1.0
 10
-1991.7391165613
 20
110.8527318249432
 30
0.0
 41
0.9967318531940006
 10
-1995.079937615406
 20
112.3122909791792
 30
0.0
 41
1.0
 10
-1998.416759429601
 20
113.7752386729146
 30
0.0
 41
0.9969865643443656
 10
-2001.487129992543
 20
115.7367229018873
 30
0.0
 41
1.0
 10
-2002.90931997495
 20
116.6165621820559
 30
0.0
 41
0.873568122489669
 10
-2002.909579114076
 20
118.2889082699913
 30
0.0
 41
1.0
 10
-2002.908955994262
 20
119.9609370320371
 30
0.0
 41
0.8745209545678974
 10
-2001.490304420598
 20
120.8458710871662
 30
0.0
 41
1.0
 10
-1998.41664413422
 20
122.8034966577585
 30
0.0
 41
0.9970313735726641
 10
-1995.078862689033
 20
124.265994676514
 30
0.0
 41
1.0
 10
-1991.738544834725
 20
125.7252313280932
 30
0.0
 41
0.9967328898171951
 10
-1988.206857907977
 20
126.6276073165584
 30
0.0
 41
1.0
  0
SPLINE
  5
2BA
330
1F
100
AcDbEntity
  8
Predefinito
100
AcDbSpline
210
0.0
220
0.0
230
1.0
 70
    12
 71
     2
 72
     8
 73
     5
 74
     0
 42
0.0000000001
 43
0.0000000001
 40
0.0
 40
0.0
 40
0.0
 40
12.56637061435909
 40
12.56637061435909
 40
25.13274122871861
 40
25.13274122871861
 40
25.13274122871861
 10
-1596.806123495294
 20
118.2983671642853
 30
0.0
 41
1.0
 10
-1596.806123495293
 20
110.2983671642859
 30
0.0
 41
0.7071067811866141
 10
-1588.806123495294
 20
110.298367164285
 30
0.0
 41
1.0
 10
-1580.806123495293
 20
110.2983671642847
 30
0.0
 41
0.7071067811865048
 10
-1580.806123495294
 20
118.2983671642853
 30
0.0
 41
1.0
  0
SPLINE
  5
2BB
330
1F
100
AcDbEntity
  8
Predefinito
100
AcDbSpline
210
0.0
220
0.0
230
1.0
 70
    12
 71
     2
 72
     8
 73
     5
 74
     0
 42
0.0000000001
 43
0.0000000001
 40
0.0
 40
0.0
 40
0.0
 40
12.56637061435947
 40
12.56637061435947
 40
25.13274122871805
 40
25.13274122871805
 40
25.13274122871805
 10
-1580.806123495294
 20
118.2983671642853
 30
0.0
 41
1.0
 10
-1580.806123495293
 20
126.2983671642858
 30
0.0
 41
0.7071067811865029
 10
-1588.806123495294
 20
126.2983671642854
 30
0.0
 41
1.0
 10
-1596.806123495293
 20
126.2983671642844
 30
0.0
 41
0.7071067811866122
 10
-1596.806123495293
 20
118.2983671642853
 30
0.0
 41
1.0
  0
SPLINE
  5
2BC
330
1F
100
AcDbEntity
  8
Predefinito
100
AcDbSpline
210
0.0
220
0.0
230
1.0
 70
    12
 71
     2
 72
    12
 73
     9
 74
     0
 42
0.0000000001
 43
0.0000000001
 40
0.0
 40
0.0
 40
0.0
 40
97.48561642305884
 40
97.48561642305884
 40
194.9712328461177
 40
194.9712328461177
 40
292.4568492691765
 40
292.4568492691765
 40
389.9424656922354
 40
389.9424656922354
 40
389.9424656922354
 10
-1136.825721914869
 20
181.956532142302
 30
0.0
 41
1.0
 10
-1164.645854919311
 20
138.377151848704
 30
0.0
 41
0.9163105686564638
 10
-1151.55947734672
 20
88.35846624835587
 30
0.0
 41
1.0
 10
-1138.473099774129
 20
38.33978064800768
 30
0.0
 41
0.9163105686564638
 10
-1092.875119789164
 20
13.96876490287387
 30
0.0
 41
1.0
 10
-1047.277139804199
 20
-10.40225084225997
 30
0.0
 41
0.9163105686564638
 10
-998.4186509462525
 20
6.508404191677592
 30
0.0
 41
1.0
 10
-949.5601620883061
 20
23.41905922561511
 30
0.0
 41
0.9163105686564638
 10
-928.7838735793334
 20
70.76320377328648
 30
0.0
 41
1.0
  0
SPLINE
  5
2BD
330
1F
100
AcDbEntity
  8
Predefinito
100
AcDbSpline
210
0.0
220
0.0
230
1.0
 70
    12
 71
     2
 72
     8
 73
     5
 74
     0
 42
0.0000000001
 43
0.0000000001
 40
0.0
 40
0.0
 40
0.0
 40
176.6712248038118
 40
176.6712248038118
 40
353.3424496076235
 40
353.3424496076235
 40
353.3424496076235
 10
-928.7838735793334
 20
70.76320377328648
 30
0.0
 41
1.0
 10
-884.7957321906684
 20
171.0202655700683
 30
0.0
 41
0.7339301823362702
 10
-981.3521657284905
 20
222.6273403312775
 30
0.0
 41
1.0
 10
-1077.908599266313
 20
274.2344150924865
 30
0.0
 41
0.7339301823362702
 10
-1136.825721914869
 20
181.956532142302
 30
0.0
 41
1.0
  0
VIEWPORT
  5
2C7
330
2C3
100
AcDbEntity
 67
     1
  8
0
100
AcDbViewport
 10
6.0
 20
4.5
 30
0.0
 40
12.696
 41
9.522
 68
     1
 69
     1
 12
6.0
 22
4.5
 13
0.0
 23
0.0
 14
0.5
 24
0.5
 15
0.5
 25
0.5
 16
0.0
 26
0.0
 36
1.0
 17
0.0
 27
0.0
 37
0.0
 42
50.0
 43
0.0
 44
0.0
 45
9.522
 50
0.0
 51
0.0
 72
   100
 90
   557152
  1

281
     0
 71
     1
 74
     0
110
0.0
120
0.0
130
0.0
111
1.0
121
0.0
131
0.0
112
0.0
122
1.0
132
0.0
 79
     0
146
0.0
170
     0
  0
ENDSEC
  0
SECTION
  2
OBJECTS
  0
DICTIONARY
  5
C
330
0
100
AcDbDictionary
281
     1
  3
ACAD_GROUP
350
D
  3
ACAD_LAYOUT
350
1A
  3
ACAD_MLEADERSTYLE
350
2ED
  3
ACAD_MLINESTYLE
350
17
  3
ACAD_PLOTSETTINGS
350
19
  3
ACAD_PLOTSTYLENAME
350
E
  3
ACAD_SCALELIST
350
2C8
  3
ACAD_TABLESTYLE
350
2EC
  3
ACAD_VISUALSTYLE
350
2A
  3
AcDbVariableDictionary
350
2EA
  0
DICTIONARY
  5
D
102
{ACAD_REACTORS
330
C
102
}
330
C
100
AcDbDictionary
281
     1
  0
DICTIONARY
  5
1A
102
{ACAD_REACTORS
330
C
102
}
330
C
100
AcDbDictionary
281
     1
  3
Layout1
350
2BF
  3
Layout2
350
2C4
  3
Model
350
22
  0
DICTIONARY
  5
2ED
102
{ACAD_REACTORS
330
C
102
}
330
C
100
AcDbDictionary
281
     1
  0
DICTIONARY
  5
17
102
{ACAD_REACTORS
330
C
102
}
330
C
100
AcDbDictionary
281
     1
  3
Standard
350
18
  0
DICTIONARY
  5
19
102
{ACAD_REACTORS
330
C
102
}
330
C
100
AcDbDictionary
281
     1
  0
ACDBDICTIONARYWDFLT
  5
E
102
{ACAD_REACTORS
330
C
102
}
330
C
100
AcDbDictionary
281
     1
  3
Normal
350
F
100
AcDbDictionaryWithDefault
340
F
  0
DICTIONARY
  5
2C8
102
{ACAD_REACTORS
330
C
102
}
330
C
100
AcDbDictionary
281
     1
  3
A0
350
2C9
  3
A1
350
2CA
  3
A2
350
2CB
  3
A3
350
2CC
  3
A4
350
2CD
  3
A5
350
2CE
  3
A6
350
2CF
  3
A7
350
2D0
  3
A8
350
2D1
  3
A9
350
2D2
  3
B0
350
2D3
  3
B1
350
2D4
  3
B2
350
2D5
  3
B3
350
2D6
  3
B4
350
2D7
  3
B5
350
2D8
  3
B6
350
2D9
  3
B7
350
2DA
  3
B8
350
2DB
  3
B9
350
2DC
  3
C0
350
2DD
  3
C1
350
2DE
  3
C2
350
2DF
  3
C3
350
2E0
  3
C4
350
2E1
  3
C5
350
2E2
  3
C6
350
2E3
  3
C7
350
2E4
  3
C8
350
2E5
  3
C9
350
2E6
  3
D0
350
2E7
  3
D1
350
2E8
  3
D2
350
2E9
  0
DICTIONARY
  5
2EC
102
{ACAD_REACTORS
330
C
102
}
330
C
100
AcDbDictionary
281
     1
  0
DICTIONARY
  5
2A
102
{ACAD_REACTORS
330
C
102
}
330
C
100
AcDbDictionary
281
     1
  3
2dWireframe
350
2F
  3
3D Hidden
350
31
  3
3dWireframe
350
30
  3
Basic
350
32
  3
Brighten
350
36
  3
ColorChange
350
3A
  3
Conceptual
350
34
  3
Dim
350
35
  3
Facepattern
350
39
  3
Flat
350
2B
  3
FlatWithEdges
350
2C
  3
Gouraud
350
2D
  3
GouraudWithEdges
350
2E
  3
Linepattern
350
38
  3
Realistic
350
33
  3
Thicken
350
37
  0
DICTIONARY
  5
2EA
102
{ACAD_REACTORS
330
C
102
}
330
C
100
AcDbDictionary
281
     1
  3
CANNOSCALE
350
2EB
  0
LAYOUT
  5
2BF
102
{ACAD_REACTORS
330
1A
102
}
330
1A
100
AcDbPlotSettings
  1

  2
none_device
  4
Letter_(8.50_x_11.00_Inches)
  6

 40
6.35
 41
6.35
 42
6.35000508
 43
6.35000508
 44
215.9
 45
279.4
 46
0.0
 47
0.0
 48
0.0
 49
0.0
140
0.0
141
0.0
142
1.0
143
1.0
 70
   688
 72
     0
 73
     1
 74
     5
  7

 75
    16
 76
     0
 77
     2
 78
   300
147
1.0
148
0.0
149
0.0
100
AcDbLayout
  1
Layout1
 70
     1
 71
     1
 10
0.0
 20
0.0
 11
0.0
 21
0.0
 12
0.0
 22
0.0
 32
0.0
 14
0.0
 24
0.0
 34
0.0
 15
0.0
 25
0.0
 35
0.0
146
0.0
 13
0.0
 23
0.0
 33
0.0
 16
1.0
 26
0.0
 36
0.0
 17
0.0
 27
1.0
 37
0.0
 76
     0
330
2BE
331
2C2
  0
LAYOUT
  5
2C4
102
{ACAD_REACTORS
330
1A
102
}
330
1A
100
AcDbPlotSettings
  1

  2
none_device
  4
Letter_(8.50_x_11.00_Inches)
  6

 40
6.35
 41
6.35
 42
6.35000508
 43
6.35000508
 44
215.9
 45
279.4
 46
0.0
 47
0.0
 48
0.0
 49
0.0
140
0.0
141
0.0
142
1.0
143
1.0
 70
   688
 72
     0
 73
     1
 74
     5
  7

 75
    16
 76
     0
 77
     2
 78
   300
147
1.0
148
0.0
149
0.0
100
AcDbLayout
  1
Layout2
 70
     1
 71
     2
 10
0.0
 20
0.0
 11
0.0
 21
0.0
 12
0.0
 22
0.0
 32
0.0
 14
0.0
 24
0.0
 34
0.0
 15
0.0
 25
0.0
 35
0.0
146
0.0
 13
0.0
 23
0.0
 33
0.0
 16
1.0
 26
0.0
 36
0.0
 17
0.0
 27
1.0
 37
0.0
 76
     0
330
2C3
331
2C7
  0
LAYOUT
  5
22
102
{ACAD_REACTORS
330
1A
102
}
330
1A
100
AcDbPlotSettings
  1

  2
none_device
  4

  6

 40
0.0
 41
0.0
 42
0.0
 43
0.0
 44
0.0
 45
0.0
 46
0.0
 47
0.0
 48
0.0
 49
0.0
140
0.0
141
0.0
142
1.0
143
1.0
 70
  1712
 72
     0
 73
     0
 74
     0
  7

 75
     0
 76
     0
 77
     2
 78
   300
147
1.0
148
0.0
149
0.0
100
AcDbLayout
  1
Model
 70
     1
 71
     0
 10
0.0
 20
0.0
 11
12.0
 21
9.0
 12
0.0
 22
0.0
 32
0.0
 14
-4235.999996406586
 24
0.0403032184931634
 34
0.0
 15
-622.7852718690481
 25
4390.581499773847
 35
0.0
146
0.0
 13
0.0
 23
0.0
 33
0.0
 16
1.0
 26
0.0
 36
0.0
 17
0.0
 27
1.0
 37
0.0
 76
     0
330
1F
331
29
  0
MLINESTYLE
  5
18
102
{ACAD_REACTORS
330
17
102
}
330
17
100
AcDbMlineStyle
  2
Standard
 70
     0
  3

 62
   256
 51
90.0
 52
90.0
 71
     2
 49
0.5
 62
   256
  6
BYLAYER
 49
-0.5
 62
   256
  6
BYLAYER
  0
ACDBPLACEHOLDER
  5
F
102
{ACAD_REACTORS
330
E
102
}
330
E
  0
SCALE
  5
2C9
102
{ACAD_REACTORS
330
2C8
102
}
330
2C8
100
AcDbScale
 70
     0
300
1:1
140
1.0
141
1.0
290
     1
  0
SCALE
  5
2CA
102
{ACAD_REACTORS
330
2C8
102
}
330
2C8
100
AcDbScale
 70
     0
300
1:2
140
1.0
141
2.0
290
     0
  0
SCALE
  5
2CB
102
{ACAD_REACTORS
330
2C8
102
}
330
2C8
100
AcDbScale
 70
     0
300
1:4
140
1.0
141
4.0
290
     0
  0
SCALE
  5
2CC
102
{ACAD_REACTORS
330
2C8
102
}
330
2C8
100
AcDbScale
 70
     0
300
1:5
140
1.0
141
5.0
290
     0
  0
SCALE
  5
2CD
102
{ACAD_REACTORS
330
2C8
102
}
330
2C8
100
AcDbScale
 70
     0
300
1:8
140
1.0
141
8.0
290
     0
  0
SCALE
  5
2CE
102
{ACAD_REACTORS
330
2C8
102
}
330
2C8
100
AcDbScale
 70
     0
300
1:10
140
1.0
141
10.0
290
     0
  0
SCALE
  5
2CF
102
{ACAD_REACTORS
330
2C8
102
}
330
2C8
100
AcDbScale
 70
     0
300
1:16
140
1.0
141
16.0
290
     0
  0
SCALE
  5
2D0
102
{ACAD_REACTORS
330
2C8
102
}
330
2C8
100
AcDbScale
 70
     0
300
1:20
140
1.0
141
20.0
290
     0
  0
SCALE
  5
2D1
102
{ACAD_REACTORS
330
2C8
102
}
330
2C8
100
AcDbScale
 70
     0
300
1:30
140
1.0
141
30.0
290
     0
  0
SCALE
  5
2D2
102
{ACAD_REACTORS
330
2C8
102
}
330
2C8
100
AcDbScale
 70
     0
300
1:40
140
1.0
141
40.0
290
     0
  0
SCALE
  5
2D3
102
{ACAD_REACTORS
330
2C8
102
}
330
2C8
100
AcDbScale
 70
     0
300
1:50
140
1.0
141
50.0
290
     0
  0
SCALE
  5
2D4
102
{ACAD_REACTORS
330
2C8
102
}
330
2C8
100
AcDbScale
 70
     0
300
1:100
140
1.0
141
100.0
290
     0
  0
SCALE
  5
2D5
102
{ACAD_REACTORS
330
2C8
102
}
330
2C8
100
AcDbScale
 70
     0
300
2:1
140
2.0
141
1.0
290
     0
  0
SCALE
  5
2D6
102
{ACAD_REACTORS
330
2C8
102
}
330
2C8
100
AcDbScale
 70
     0
300
4:1
140
4.0
141
1.0
290
     0
  0
SCALE
  5
2D7
102
{ACAD_REACTORS
330
2C8
102
}
330
2C8
100
AcDbScale
 70
     0
300
8:1
140
8.0
141
1.0
290
     0
  0
SCALE
  5
2D8
102
{ACAD_REACTORS
330
2C8
102
}
330
2C8
100
AcDbScale
 70
     0
300
10:1
140
10.0
141
1.0
290
     0
  0
SCALE
  5
2D9
102
{ACAD_REACTORS
330
2C8
102
}
330
2C8
100
AcDbScale
 70
     0
300
100:1
140
100.0
141
1.0
290
     0
  0
SCALE
  5
2DA
102
{ACAD_REACTORS
330
2C8
102
}
330
2C8
100
AcDbScale
 70
     0
300
1/128" = 1'-0"
140
0.0078125
141
12.0
290
     0
  0
SCALE
  5
2DB
102
{ACAD_REACTORS
330
2C8
102
}
330
2C8
100
AcDbScale
 70
     0
300
1/64" = 1'-0"
140
0.015625
141
12.0
290
     0
  0
SCALE
  5
2DC
102
{ACAD_REACTORS
330
2C8
102
}
330
2C8
100
AcDbScale
 70
     0
300
1/32" = 1'-0"
140
0.03125
141
12.0
290
     0
  0
SCALE
  5
2DD
102
{ACAD_REACTORS
330
2C8
102
}
330
2C8
100
AcDbScale
 70
     0
300
1/16" = 1'-0"
140
0.0625
141
12.0
290
     0
  0
SCALE
  5
2DE
102
{ACAD_REACTORS
330
2C8
102
}
330
2C8
100
AcDbScale
 70
     0
300
3/32" = 1'-0"
140
0.09375
141
12.0
290
     0
  0
SCALE
  5
2DF
102
{ACAD_REACTORS
330
2C8
102
}
330
2C8
100
AcDbScale
 70
     0
300
1/8" = 1'-0"
140
0.125
141
12.0
290
     0
  0
SCALE
  5
2E0
102
{ACAD_REACTORS
330
2C8
102
}
330
2C8
100
AcDbScale
 70
     0
300
3/16" = 1'-0"
140
0.1875
141
12.0
290
     0
  0
SCALE
  5
2E1
102
{ACAD_REACTORS
330
2C8
102
}
330
2C8
100
AcDbScale
 70
     0
300
1/4" = 1'-0"
140
0.25
141
12.0
290
     0
  0
SCALE
  5
2E2
102
{ACAD_REACTORS
330
2C8
102
}
330
2C8
100
AcDbScale
 70
     0
300
3/8" = 1'-0"
140
0.375
141
12.0
290
     0
  0
SCALE
  5
2E3
102
{ACAD_REACTORS
330
2C8
102
}
330
2C8
100
AcDbScale
 70
     0
300
1/2" = 1'-0"
140
0.5
141
12.0
290
     0
  0
SCALE
  5
2E4
102
{ACAD_REACTORS
330
2C8
102
}
330
2C8
100
AcDbScale
 70
     0
300
3/4" = 1'-0"
140
0.75
141
12.0
290
     0
  0
SCALE
  5
2E5
102
{ACAD_REACTORS
330
2C8
102
}
330
2C8
100
AcDbScale
 70
     0
300
1" = 1'-0"
140
1.0
141
12.0
290
     0
  0
SCALE
  5
2E6
102
{ACAD_REACTORS
330
2C8
102
}
330
2C8
100
AcDbScale
 70
     0
300
1-1/2" = 1'-0"
140
1.5
141
12.0
290
     0
  0
SCALE
  5
2E7
102
{ACAD_REACTORS
330
2C8
102
}
330
2C8
100
AcDbScale
 70
     0
300
3" = 1'-0"
140
3.0
141
12.0
290
     0
  0
SCALE
  5
2E8
102
{ACAD_REACTORS
330
2C8
102
}
330
2C8
100
AcDbScale
 70
     0
300
6" = 1'-0"
140
6.0
141
12.0
290
     0
  0
SCALE
  5
2E9
102
{ACAD_REACTORS
330
2C8
102
}
330
2C8
100
AcDbScale
 70
     0
300
1'-0" = 1'-0"
140
12.0
141
12.0
290
     0
  0
VISUALSTYLE
  5
2F
102
{ACAD_REACTORS
330
2A
102
}
330
2A
100
AcDbVisualStyle
  2
2dWireframe
 70
     4
 71
     0
 72
     2
 73
     0
 90
        0
 40
-0.6
 41
-30.0
 62
     5
 63
     7
421
 16777215
 74
     1
 91
        4
 64
     7
 65
   257
 75
     1
175
     1
 42
1.0
 92
        0
 66
   257
 43
1.0
 76
     1
 77
     6
 78
     2
 67
     7
 79
     5
170
     0
171
     0
290
     0
174
     0
 93
        1
 44
0.0
173
     0
291
     0
 45
0.0
1001
ACAD
1000
AcDbSavedByObjectVersion
1070
     0
  0
VISUALSTYLE
  5
31
102
{ACAD_REACTORS
330
2A
102
}
330
2A
100
AcDbVisualStyle
  2
3D Hidden
 70
     6
 71
     1
 72
     2
 73
     2
 90
        0
 40
-0.6
 41
-30.0
 62
     5
 63
     7
421
 16777215
 74
     2
 91
        2
 64
     7
 65
   257
 75
     2
175
     1
 42
40.0
 92
        0
 66
   257
 43
1.0
 76
     1
 77
     6
 78
     2
 67
     7
 79
     3
170
     0
171
     0
290
     0
174
     0
 93
        1
 44
0.0
173
     0
291
     0
 45
0.0
1001
ACAD
1000
AcDbSavedByObjectVersion
1070
     0
  0
VISUALSTYLE
  5
30
102
{ACAD_REACTORS
330
2A
102
}
330
2A
100
AcDbVisualStyle
  2
3dWireframe
 70
     5
 71
     0
 72
     2
 73
     0
 90
        0
 40
-0.6
 41
-30.0
 62
     5
 63
     7
421
 16777215
 74
     1
 91
        4
 64
     7
 65
   257
 75
     1
175
     1
 42
1.0
 92
        0
 66
   257
 43
1.0
 76
     1
 77
     6
 78
     2
 67
     7
 79
     5
170
     0
171
     0
290
     0
174
     0
 93
        1
 44
0.0
173
     0
291
     0
 45
0.0
1001
ACAD
1000
AcDbSavedByObjectVersion
1070
     0
  0
VISUALSTYLE
  5
32
102
{ACAD_REACTORS
330
2A
102
}
330
2A
100
AcDbVisualStyle
  2
Basic
 70
     7
 71
     1
 72
     0
 73
     1
 90
        0
 40
-0.6
 41
-30.0
 62
     5
 63
     7
421
 16777215
 74
     0
 91
        4
 64
     7
 65
   257
 75
     1
175
     1
 42
1.0
 92
        8
 66
     7
 43
1.0
 76
     1
 77
     6
 78
     2
 67
     7
 79
     5
170
     0
171
     0
290
     0
174
     0
 93
        1
 44
0.0
173
     0
291
     1
 45
0.0
1001
ACAD
1000
AcDbSavedByObjectVersion
1070
     0
  0
VISUALSTYLE
  5
36
102
{ACAD_REACTORS
330
2A
102
}
330
2A
100
AcDbVisualStyle
  2
Brighten
 70
    12
 71
     2
 72
     2
 73
     0
 90
        0
 40
-0.6
 41
-30.0
 62
     5
 63
     7
421
 16777215
 74
     1
 91
        4
 64
     7
 65
   257
 75
     1
175
     1
 42
1.0
 92
        8
 66
     7
 43
1.0
 76
     1
 77
     6
 78
     2
 67
     7
 79
     5
170
     0
171
     0
290
     0
174
     0
 93
        1
 44
50.0
173
     0
291
     1
 45
0.0
1001
ACAD
1000
AcDbSavedByObjectVersion
1070
     0
  0
VISUALSTYLE
  5
3A
102
{ACAD_REACTORS
330
2A
102
}
330
2A
100
AcDbVisualStyle
  2
ColorChange
 70
    16
 71
     2
 72
     2
 73
     3
 90
        0
 40
-0.6
 41
-30.0
 62
     5
 63
     8
421
  8421504
 74
     1
 91
        4
 64
     7
 65
   257
 75
     1
175
     1
 42
1.0
 92
        8
 66
     8
424
  8421504
 43
1.0
 76
     1
 77
     6
 78
     2
 67
     7
 79
     5
170
     0
171
     0
290
     0
174
     0
 93
        1
 44
0.0
173
     0
291
     1
 45
0.0
1001
ACAD
1000
AcDbSavedByObjectVersion
1070
     0
  0
VISUALSTYLE
  5
34
102
{ACAD_REACTORS
330
2A
102
}
330
2A
100
AcDbVisualStyle
  2
Conceptual
 70
     9
 71
     3
 72
     2
 73
     0
 90
        0
 40
-0.6
 41
-30.0
 62
     5
 63
     7
421
 16777215
 74
     2
 91
        2
 64
     7
 65
   257
 75
     1
175
     1
 42
40.0
 92
        8
 66
     7
 43
1.0
 76
     1
 77
     6
 78
     2
 67
     7
 79
     3
170
     0
171
     0
290
     0
174
     0
 93
        1
 44
0.0
173
     0
291
     0
 45
0.0
1001
ACAD
1000
AcDbSavedByObjectVersion
1070
     0
  0
VISUALSTYLE
  5
35
102
{ACAD_REACTORS
330
2A
102
}
330
2A
100
AcDbVisualStyle
  2
Dim
 70
    11
 71
     2
 72
     2
 73
     0
 90
        0
 40
-0.6
 41
-30.0
 62
     5
 63
     7
421
 16777215
 74
     1
 91
        4
 64
     7
 65
   257
 75
     1
175
     1
 42
1.0
 92
        8
 66
     7
 43
1.0
 76
     1
 77
     6
 78
     2
 67
     7
 79
     5
170
     0
171
     0
290
     0
174
     0
 93
        1
 44
-50.0
173
     0
291
     1
 45
0.0
1001
ACAD
1000
AcDbSavedByObjectVersion
1070
     0
  0
VISUALSTYLE
  5
39
102
{ACAD_REACTORS
330
2A
102
}
330
2A
100
AcDbVisualStyle
  2
Facepattern
 70
    15
 71
     2
 72
     2
 73
     0
 90
        0
 40
-0.6
 41
-30.0
 62
     5
 63
     7
421
 16777215
 74
     1
 91
        4
 64
     7
 65
   257
 75
     1
175
     1
 42
1.0
 92
        8
 66
     7
 43
1.0
 76
     1
 77
     6
 78
     2
 67
     7
 79
     5
170
     0
171
     0
290
     0
174
     0
 93
        1
 44
0.0
173
     0
291
     1
 45
0.0
1001
ACAD
1000
AcDbSavedByObjectVersion
1070
     0
  0
VISUALSTYLE
  5
2B
102
{ACAD_REACTORS
330
2A
102
}
330
2A
100
AcDbVisualStyle
  2
Flat
 70
     0
 71
     2
 72
     1
 73
     1
 90
        2
 40
-0.6
 41
30.0
 62
     5
 63
     7
421
 16777215
 74
     0
 91
        4
 64
     7
 65
   257
 75
     1
175
     1
 42
1.0
 92
        8
 66
     7
 43
1.0
 76
     1
 77
     6
 78
     2
 67
     7
 79
     5
170
     0
171
     0
290
     0
174
     0
 93
       13
 44
0.0
173
     0
291
     1
 45
0.0
1001
ACAD
1000
AcDbSavedByObjectVersion
1070
     0
  0
VISUALSTYLE
  5
2C
102
{ACAD_REACTORS
330
2A
102
}
330
2A
100
AcDbVisualStyle
  2
FlatWithEdges
 70
     1
 71
     2
 72
     1
 73
     1
 90
        2
 40
-0.6
 41
30.0
 62
     5
 63
     7
421
 16777215
 74
     1
 91
        4
 64
     7
 65
   257
 75
     1
175
     1
 42
1.0
 92
        0
 66
   257
 43
1.0
 76
     1
 77
     6
 78
     2
 67
     7
 79
     5
170
     0
171
     0
290
     0
174
     0
 93
       13
 44
0.0
173
     0
291
     1
 45
0.0
1001
ACAD
1000
AcDbSavedByObjectVersion
1070
     0
  0
VISUALSTYLE
  5
2D
102
{ACAD_REACTORS
330
2A
102
}
330
2A
100
AcDbVisualStyle
  2
Gouraud
 70
     2
 71
     2
 72
     2
 73
     1
 90
        2
 40
-0.6
 41
30.0
 62
     5
 63
     7
421
 16777215
 74
     0
 91
        4
 64
     7
 65
   257
 75
     1
175
     1
 42
1.0
 92
        0
 66
     7
 43
1.0
 76
     1
 77
     6
 78
     2
 67
     7
 79
     5
170
     0
171
     0
290
     0
174
     0
 93
       13
 44
0.0
173
     0
291
     1
 45
0.0
1001
ACAD
1000
AcDbSavedByObjectVersion
1070
     0
  0
VISUALSTYLE
  5
2E
102
{ACAD_REACTORS
330
2A
102
}
330
2A
100
AcDbVisualStyle
  2
GouraudWithEdges
 70
     3
 71
     2
 72
     2
 73
     1
 90
        2
 40
-0.6
 41
30.0
 62
     5
 63
     7
421
 16777215
 74
     1
 91
        4
 64
     7
 65
   257
 75
     1
175
     1
 42
1.0
 92
        0
 66
   257
 43
1.0
 76
     1
 77
     6
 78
     2
 67
     7
 79
     5
170
     0
171
     0
290
     0
174
     0
 93
       13
 44
0.0
173
     0
291
     1
 45
0.0
1001
ACAD
1000
AcDbSavedByObjectVersion
1070
     0
  0
VISUALSTYLE
  5
38
102
{ACAD_REACTORS
330
2A
102
}
330
2A
100
AcDbVisualStyle
  2
Linepattern
 70
    14
 71
     2
 72
     2
 73
     0
 90
        0
 40
-0.6
 41
-30.0
 62
     5
 63
     7
421
 16777215
 74
     1
 91
        4
 64
     7
 65
   257
 75
     7
175
     7
 42
1.0
 92
        8
 66
     7
 43
1.0
 76
     1
 77
     6
 78
     2
 67
     7
 79
     5
170
     0
171
     0
290
     0
174
     0
 93
        1
 44
0.0
173
     0
291
     1
 45
0.0
1001
ACAD
1000
AcDbSavedByObjectVersion
1070
     0
  0
VISUALSTYLE
  5
33
102
{ACAD_REACTORS
330
2A
102
}
330
2A
100
AcDbVisualStyle
  2
Realistic
 70
     8
 71
     2
 72
     2
 73
     0
 90
        0
 40
-0.6
 41
-30.0
 62
     5
 63
     7
421
 16777215
 74
     1
 91
        0
 64
     7
 65
   257
 75
     1
175
     1
 42
1.0
 92
        8
 66
     8
424
  7895160
 43
1.0
 76
     1
 77
     6
 78
     2
 67
     7
 79
     5
170
     0
171
     0
290
     0
174
     0
 93
       13
 44
0.0
173
     0
291
     0
 45
0.0
1001
ACAD
1000
AcDbSavedByObjectVersion
1070
     0
  0
VISUALSTYLE
  5
37
102
{ACAD_REACTORS
330
2A
102
}
330
2A
100
AcDbVisualStyle
  2
Thicken
 70
    13
 71
     2
 72
     2
 73
     0
 90
        0
 40
-0.6
 41
-30.0
 62
     5
 63
     7
421
 16777215
 74
     1
 91
        4
 64
     7
 65
   257
 75
     1
175
     1
 42
1.0
 92
       12
 66
     7
 43
1.0
 76
     1
 77
     6
 78
     2
 67
     7
 79
     5
170
     0
171
     0
290
     0
174
     0
 93
        1
 44
0.0
173
     0
291
     1
 45
0.0
1001
ACAD
1000
AcDbSavedByObjectVersion
1070
     0
  0
DICTIONARYVAR
  5
2EB
102
{ACAD_REACTORS
330
2EA
102
}
330
2EA
100
DictionaryVariables
280
     0
  1
1:1
  0
ENDSEC
  0
EOF
