  0
SECTION
  2
HEADER
  9
$ACADVER
  1
AC1018
  9
$ACADMAINTVER
 70
     0
  9
$DWGCODEPAGE
  3
ANSI_1252
  9
$INSBASE
 10
0.0
 20
0.0
 30
0.0
  9
$EXTMIN
 10
0.0246012514344329
 20
0.0403032184933117
 30
-0.0000000000000006
  9
$EXTMAX
 10
2606.534222862064
 20
3523.752254198613
 30
0.000000000000001
  9
$LIMMIN
 10
0.0
 20
0.0
  9
$LIMMAX
 10
12.0
 20
9.0
  9
$ORTHOMODE
 70
     0
  9
$REGENMODE
 70
     1
  9
$FILLMODE
 70
     1
  9
$QTEXTMODE
 70
     0
  9
$MIRRTEXT
 70
     1
  9
$LTSCALE
 40
1.0
  9
$ATTMODE
 70
     1
  9
$TEXTSIZE
 40
0.2
  9
$TRACEWID
 40
0.05
  9
$TEXTSTYLE
  7
Standard
  9
$CLAYER
  8
Predefinito
  9
$CELTYPE
  6
ByLayer
  9
$CECOLOR
 62
   256
  9
$CELTSCALE
 40
1.0
  9
$DISPSILH
 70
     0
  9
$DIMSCALE
 40
1.0
  9
$DIMASZ
 40
0.18
  9
$DIMEXO
 40
0.0625
  9
$DIMDLI
 40
0.38
  9
$DIMRND
 40
0.0
  9
$DIMDLE
 40
0.0
  9
$DIMEXE
 40
0.18
  9
$DIMTP
 40
0.0
  9
$DIMTM
 40
0.0
  9
$DIMTXT
 40
0.18
  9
$DIMCEN
 40
0.09
  9
$DIMTSZ
 40
0.0
  9
$DIMTOL
 70
     0
  9
$DIMLIM
 70
     0
  9
$DIMTIH
 70
     1
  9
$DIMTOH
 70
     1
  9
$DIMSE1
 70
     0
  9
$DIMSE2
 70
     0
  9
$DIMTAD
 70
     0
  9
$DIMZIN
 70
     0
  9
$DIMBLK
  1

  9
$DIMASO
 70
     1
  9
$DIMSHO
 70
     1
  9
$DIMPOST
  1

  9
$DIMAPOST
  1

  9
$DIMALT
 70
     0
  9
$DIMALTD
 70
     2
  9
$DIMALTF
 40
25.4
  9
$DIMLFAC
 40
1.0
  9
$DIMTOFL
 70
     0
  9
$DIMTVP
 40
0.0
  9
$DIMTIX
 70
     0
  9
$DIMSOXD
 70
     0
  9
$DIMSAH
 70
     0
  9
$DIMBLK1
  1

  9
$DIMBLK2
  1

  9
$DIMSTYLE
  2
Standard
  9
$DIMCLRD
 70
     0
  9
$DIMCLRE
 70
     0
  9
$DIMCLRT
 70
     0
  9
$DIMTFAC
 40
1.0
  9
$DIMGAP
 40
0.09
  9
$DIMJUST
 70
     0
  9
$DIMSD1
 70
     0
  9
$DIMSD2
 70
     0
  9
$DIMTOLJ
 70
     1
  9
$DIMTZIN
 70
     0
  9
$DIMALTZ
 70
     0
  9
$DIMALTTZ
 70
     0
  9
$DIMUPT
 70
     0
  9
$DIMDEC
 70
     4
  9
$DIMTDEC
 70
     4
  9
$DIMALTU
 70
     2
  9
$DIMALTTD
 70
     2
  9
$DIMTXSTY
  7
Standard
  9
$DIMAUNIT
 70
     0
  9
$DIMADEC
 70
     0
  9
$DIMALTRND
 40
0.0
  9
$DIMAZIN
 70
     0
  9
$DIMDSEP
 70
    46
  9
$DIMATFIT
 70
     3
  9
$DIMFRAC
 70
     0
  9
$DIMLDRBLK
  1

  9
$DIMLUNIT
 70
     2
  9
$DIMLWD
 70
    -2
  9
$DIMLWE
 70
    -2
  9
$DIMTMOVE
 70
     2
  9
$LUNITS
 70
     2
  9
$LUPREC
 70
     3
  9
$SKETCHINC
 40
0.1
  9
$FILLETRAD
 40
0.5
  9
$AUNITS
 70
     0
  9
$AUPREC
 70
     0
  9
$MENU
  1
.
  9
$ELEVATION
 40
0.0
  9
$PELEVATION
 40
0.0
  9
$THICKNESS
 40
0.0
  9
$LIMCHECK
 70
     0
  9
$CHAMFERA
 40
0.5
  9
$CHAMFERB
 40
0.5
  9
$CHAMFERC
 40
1.0
  9
$CHAMFERD
 40
0.0
  9
$SKPOLY
 70
     0
  9
$TDCREATE
 40
2458323.386687547
  9
$TDUCREATE
 40
2458323.303354213
  9
$TDUPDATE
 40
2458323.386687558
  9
$TDUUPDATE
 40
2458323.303354225
  9
$TDINDWG
 40
0.0000000116
  9
$TDUSRTIMER
 40
0.0000000116
  9
$USRTIMER
 70
     1
  9
$ANGBASE
 50
0.0
  9
$ANGDIR
 70
     0
  9
$PDMODE
 70
     0
  9
$PDSIZE
 40
0.0
  9
$PLINEWID
 40
0.0
  9
$SPLFRAME
 70
     0
  9
$SPLINETYPE
 70
     6
  9
$SPLINESEGS
 70
     8
  9
$HANDSEED
  5
187
  9
$SURFTAB1
 70
     6
  9
$SURFTAB2
 70
     6
  9
$SURFTYPE
 70
     6
  9
$SURFU
 70
     6
  9
$SURFV
 70
     6
  9
$UCSBASE
  2

  9
$UCSNAME
  2

  9
$UCSORG
 10
0.0
 20
0.0
 30
0.0
  9
$UCSXDIR
 10
1.0
 20
0.0
 30
0.0
  9
$UCSYDIR
 10
0.0
 20
1.0
 30
0.0
  9
$UCSORTHOREF
  2

  9
$UCSORTHOVIEW
 70
     0
  9
$UCSORGTOP
 10
0.0
 20
0.0
 30
0.0
  9
$UCSORGBOTTOM
 10
0.0
 20
0.0
 30
0.0
  9
$UCSORGLEFT
 10
0.0
 20
0.0
 30
0.0
  9
$UCSORGRIGHT
 10
0.0
 20
0.0
 30
0.0
  9
$UCSORGFRONT
 10
0.0
 20
0.0
 30
0.0
  9
$UCSORGBACK
 10
0.0
 20
0.0
 30
0.0
  9
$PUCSBASE
  2

  9
$PUCSNAME
  2

  9
$PUCSORG
 10
0.0
 20
0.0
 30
0.0
  9
$PUCSXDIR
 10
1.0
 20
0.0
 30
0.0
  9
$PUCSYDIR
 10
0.0
 20
1.0
 30
0.0
  9
$PUCSORTHOREF
  2

  9
$PUCSORTHOVIEW
 70
     0
  9
$PUCSORGTOP
 10
0.0
 20
0.0
 30
0.0
  9
$PUCSORGBOTTOM
 10
0.0
 20
0.0
 30
0.0
  9
$PUCSORGLEFT
 10
0.0
 20
0.0
 30
0.0
  9
$PUCSORGRIGHT
 10
0.0
 20
0.0
 30
0.0
  9
$PUCSORGFRONT
 10
0.0
 20
0.0
 30
0.0
  9
$PUCSORGBACK
 10
0.0
 20
0.0
 30
0.0
  9
$USERI1
 70
     0
  9
$USERI2
 70
     0
  9
$USERI3
 70
     0
  9
$USERI4
 70
     0
  9
$USERI5
 70
     0
  9
$USERR1
 40
0.0
  9
$USERR2
 40
0.0
  9
$USERR3
 40
0.0
  9
$USERR4
 40
0.0
  9
$USERR5
 40
0.0
  9
$WORLDVIEW
 70
     1
  9
$SHADEDGE
 70
     3
  9
$SHADEDIF
 70
    70
  9
$TILEMODE
 70
     0
  9
$MAXACTVP
 70
    64
  9
$PINSBASE
 10
0.0
 20
0.0
 30
0.0
  9
$PLIMCHECK
 70
     0
  9
$PEXTMIN
 10
0.0
 20
0.0
 30
0.0
  9
$PEXTMAX
 10
0.0
 20
0.0
 30
0.0
  9
$PLIMMIN
 10
0.0
 20
0.0
  9
$PLIMMAX
 10
12.0
 20
9.0
  9
$UNITMODE
 70
     0
  9
$VISRETAIN
 70
     1
  9
$PLINEGEN
 70
     0
  9
$PSLTSCALE
 70
     1
  9
$TREEDEPTH
 70
  3020
  9
$CMLSTYLE
  2
Standard
  9
$CMLJUST
 70
     0
  9
$CMLSCALE
 40
1.0
  9
$PROXYGRAPHICS
 70
     1
  9
$MEASUREMENT
 70
     0
  9
$CELWEIGHT
370
    -1
  9
$ENDCAPS
280
     0
  9
$JOINSTYLE
280
     0
  9
$LWDISPLAY
290
     0
  9
$INSUNITS
 70
     4
  9
$HYPERLINKBASE
  1

  9
$STYLESHEET
  1

  9
$XEDIT
290
     1
  9
$CEPSNTYPE
380
     0
  9
$PSTYLEMODE
290
     1
  9
$FINGERPRINTGUID
  2
{A0CEC14A-D209-41D5-8237-5135657A5B33}
  9
$VERSIONGUID
  2
{FAEB1C32-E019-11D5-929B-00C0DF256EC4}
  9
$EXTNAMES
290
     1
  9
$PSVPSCALE
 40
0.0
  9
$OLESTARTUP
290
     0
  9
$SORTENTS
280
   127
  9
$INDEXCTL
280
     0
  9
$HIDETEXT
280
     1
  9
$XCLIPFRAME
290
     0
  9
$HALOGAP
280
     0
  9
$OBSCOLOR
 70
   257
  9
$OBSLTYPE
280
     0
  9
$INTERSECTIONDISPLAY
280
     0
  9
$INTERSECTIONCOLOR
 70
   257
  9
$DIMASSOC
280
     2
  9
$PROJECTNAME
  1

  0
ENDSEC
  0
SECTION
  2
CLASSES
  0
CLASS
  1
ACDBDICTIONARYWDFLT
  2
AcDbDictionaryWithDefault
  3
ObjectDBX Classes
 90
        0
 91
        4
280
     0
281
     0
  0
CLASS
  1
VISUALSTYLE
  2
AcDbVisualStyle
  3
ObjectDBX Classes
 90
     4095
 91
        4
280
     0
281
     0
  0
CLASS
  1
SCALE
  2
AcDbScale
  3
ObjectDBX Classes
 90
     1153
 91
        4
280
     0
281
     0
  0
CLASS
  1
DICTIONARYVAR
  2
AcDbDictionaryVar
  3
ObjectDBX Classes
 90
        0
 91
        4
280
     0
281
     0
  0
ENDSEC
  0
SECTION
  2
TABLES
  0
TABLE
  2
VPORT
  5
8
330
0
100
AcDbSymbolTable
 70
     1
  0
VPORT
  5
29
330
8
100
AcDbSymbolTableRecord
100
AcDbViewportTableRecord
  2
*Active
 70
     0
 10
0.0
 20
0.0
 11
1.0
 21
1.0
 12
1303.279412056749
 22
1761.896278708553
 13
0.0
 23
0.0
 14
0.5
 24
0.5
 15
0.5
 25
0.5
 16
0.0
 26
0.0
 36
1.0
 17
0.0
 27
0.0
 37
0.0
 40
3594.186189999723
 41
0.7397056450331103
 42
50.0
 43
0.0
 44
0.0
 50
0.0
 51
0.0
 71
     0
 72
   100
 73
     1
 74
     3
 75
     0
 76
     0
 77
     0
 78
     0
281
     0
 65
     1
110
0.0
120
0.0
130
0.0
111
1.0
121
0.0
131
0.0
112
0.0
122
1.0
132
0.0
 79
     0
146
0.0
  0
ENDTAB
  0
TABLE
  2
LTYPE
  5
5
330
0
100
AcDbSymbolTable
 70
     1
  0
LTYPE
  5
14
330
5
100
AcDbSymbolTableRecord
100
AcDbLinetypeTableRecord
  2
ByBlock
 70
     0
  3

 72
    65
 73
     0
 40
0.0
  0
LTYPE
  5
15
330
5
100
AcDbSymbolTableRecord
100
AcDbLinetypeTableRecord
  2
ByLayer
 70
     0
  3

 72
    65
 73
     0
 40
0.0
  0
LTYPE
  5
16
330
5
100
AcDbSymbolTableRecord
100
AcDbLinetypeTableRecord
  2
Continuous
 70
     0
  3
Solid line
 72
    65
 73
     0
 40
0.0
  0
ENDTAB
  0
TABLE
  2
LAYER
  5
2
330
0
100
AcDbSymbolTable
 70
     2
  0
LAYER
  5
10
330
2
100
AcDbSymbolTableRecord
100
AcDbLayerTableRecord
  2
0
 70
     0
 62
     7
  6
Continuous
370
    -3
390
F
  0
LAYER
  5
3B
330
2
100
AcDbSymbolTableRecord
100
AcDbLayerTableRecord
  2
Predefinito
 70
     0
 62
     7
  6
Continuous
370
    -3
390
F
  0
ENDTAB
  0
TABLE
  2
STYLE
  5
3
330
0
100
AcDbSymbolTable
 70
     1
  0
STYLE
  5
11
330
3
100
AcDbSymbolTableRecord
100
AcDbTextStyleTableRecord
  2
Standard
 70
     0
 40
0.0
 41
1.0
 50
0.0
 71
     0
 42
0.2
  3
txt
  4

  0
ENDTAB
  0
TABLE
  2
VIEW
  5
6
330
0
100
AcDbSymbolTable
 70
     0
  0
ENDTAB
  0
TABLE
  2
UCS
  5
7
330
0
100
AcDbSymbolTable
 70
     0
  0
ENDTAB
  0
TABLE
  2
APPID
  5
9
330
0
100
AcDbSymbolTable
 70
     1
  0
APPID
  5
12
330
9
100
AcDbSymbolTableRecord
100
AcDbRegAppTableRecord
  2
ACAD
 70
     0
  0
ENDTAB
  0
TABLE
  2
DIMSTYLE
  5
A
330
0
100
AcDbSymbolTable
 70
     1
100
AcDbDimStyleTable
  0
DIMSTYLE
105
27
330
A
100
AcDbSymbolTableRecord
100
AcDbDimStyleTableRecord
  2
Standard
 70
     0
340
11
  0
ENDTAB
  0
TABLE
  2
BLOCK_RECORD
  5
1
330
0
100
AcDbSymbolTable
 70
     3
  0
BLOCK_RECORD
  5
1F
330
1
100
AcDbSymbolTableRecord
100
AcDbBlockTableRecord
  2
*Model_Space
340
22
  0
BLOCK_RECORD
  5
15C
330
1
100
AcDbSymbolTableRecord
100
AcDbBlockTableRecord
  2
*Paper_Space
340
15D
  0
BLOCK_RECORD
  5
23
330
1
100
AcDbSymbolTableRecord
100
AcDbBlockTableRecord
  2
*Paper_Space0
340
26
  0
BLOCK_RECORD
  5
1B
330
1
100
AcDbSymbolTableRecord
100
AcDbBlockTableRecord
  2
*Paper_Space1
340
1E
  0
BLOCK_RECORD
  5
157
330
1
100
AcDbSymbolTableRecord
100
AcDbBlockTableRecord
  2
*Paper_Space2
340
158
  0
ENDTAB
  0
ENDSEC
  0
SECTION
  2
BLOCKS
  0
BLOCK
  5
20
330
1F
100
AcDbEntity
  8
0
100
AcDbBlockBegin
  2
*Model_Space
 70
     0
 10
0.0
 20
0.0
 30
0.0
  3
*Model_Space
  1

  0
ENDBLK
  5
21
330
1F
100
AcDbEntity
  8
0
100
AcDbBlockEnd
  0
BLOCK
  5
15E
330
15C
100
AcDbEntity
 67
     1
  8
0
100
AcDbBlockBegin
  2
*Paper_Space
 70
     0
 10
0.0
 20
0.0
 30
0.0
  3
*Paper_Space
  1

  0
ENDBLK
  5
15F
330
15C
100
AcDbEntity
 67
     1
  8
0
100
AcDbBlockEnd
  0
BLOCK
  5
24
330
23
100
AcDbEntity
  8
0
100
AcDbBlockBegin
  2
*Paper_Space0
 70
     0
 10
0.0
 20
0.0
 30
0.0
  3
*Paper_Space0
  1

  0
ENDBLK
  5
25
330
23
100
AcDbEntity
  8
0
100
AcDbBlockEnd
  0
BLOCK
  5
1C
330
1B
100
AcDbEntity
  8
0
100
AcDbBlockBegin
  2
*Paper_Space1
 70
     0
 10
0.0
 20
0.0
 30
0.0
  3
*Paper_Space1
  1

  0
ENDBLK
  5
1D
330
1B
100
AcDbEntity
  8
0
100
AcDbBlockEnd
  0
BLOCK
  5
159
330
157
100
AcDbEntity
  8
0
100
AcDbBlockBegin
  2
*Paper_Space2
 70
     0
 10
0.0
 20
0.0
 30
0.0
  3
*Paper_Space2
  1

  0
VIEWPORT
  5
15B
330
157
100
AcDbEntity
  8
0
100
AcDbViewport
 10
6.0
 20
4.5
 30
0.0
 40
12.696
 41
9.522
 68
     1
 69
     1
 12
6.0
 22
4.5
 13
0.0
 23
0.0
 14
0.5
 24
0.5
 15
0.5
 25
0.5
 16
0.0
 26
0.0
 36
1.0
 17
0.0
 27
0.0
 37
0.0
 42
50.0
 43
0.0
 44
0.0
 45
9.522
 50
0.0
 51
0.0
 72
   100
 90
   557152
  1

281
     0
 71
     1
 74
     0
110
0.0
120
0.0
130
0.0
111
1.0
121
0.0
131
0.0
112
0.0
122
1.0
132
0.0
 79
     0
146
0.0
170
     0
  0
ENDBLK
  5
15A
330
157
100
AcDbEntity
  8
0
100
AcDbBlockEnd
  0
ENDSEC
  0
SECTION
  2
ENTITIES
  0
LINE
  5
3C
330
1F
100
AcDbEntity
  8
Predefinito
100
AcDbLine
 10
109.7843349001306
 20
3008.364548092221
 30
0.0
 11
109.7843349001306
 21
3045.244174700166
 31
0.0
  0
LINE
  5
3D
330
1F
100
AcDbEntity
  8
Predefinito
100
AcDbLine
 10
109.7843349001306
 20
2085.550247744952
 30
0.0
 11
109.7843349001306
 21
3005.342361621678
 31
0.0
  0
SPLINE
  5
3E
330
1F
100
AcDbEntity
  8
Predefinito
100
AcDbSpline
210
0.0
220
0.0
230
1.0
 70
    12
 71
     2
 72
     6
 73
     3
 74
     0
 42
0.0000000001
 43
0.0000000001
 40
392.7943778171218
 40
392.7943778171218
 40
392.7943778171218
 40
403.5801183547732
 40
403.5801183547732
 40
403.5801183547732
 10
2295.333312438896
 20
3028.845575160623
 30
0.0
 41
0.9957841612518332
 10
2300.20771514667
 20
3026.874685556093
 30
0.0
 41
0.9978341992693415
 10
2305.039402234482
 20
3024.801280753296
 30
0.0
 41
1.0
  0
SPLINE
  5
3F
330
1F
100
AcDbEntity
  8
Predefinito
100
AcDbSpline
210
0.0
220
0.0
230
1.0
 70
    12
 71
     2
 72
     6
 73
     3
 74
     0
 42
0.0000000001
 43
0.0000000001
 40
0.0
 40
0.0
 40
0.0
 40
389.7987046304402
 40
389.7987046304402
 40
389.7987046304402
 10
1912.421364828013
 20
3024.801240769225
 30
0.0
 41
1.0
 10
2101.457574510643
 20
3105.921726890666
 30
0.0
 41
0.9217275516362267
 10
2292.615309931437
 20
3029.93526738275
 30
0.0
 41
0.9946543204431622
  0
SPLINE
  5
40
330
1F
100
AcDbEntity
  8
Predefinito
100
AcDbSpline
210
0.0
220
0.0
230
1.0
 70
    12
 71
     2
 72
    16
 73
    13
 74
     0
 42
0.0000000001
 43
0.0000000001
 40
11.72532758804374
 40
11.72532758804374
 40
11.72532758804374
 40
15.87460961324599
 40
15.87460961324599
 40
18.92523073329724
 40
18.92523073329724
 40
21.97585185329304
 40
21.97585185329304
 40
29.25019152897293
 40
29.25019152897293
 40
36.52460134833743
 40
36.52460134833743
 40
37.81287228098724
 40
37.81287228098724
 40
37.81287228098724
 10
113.6585767024676
 20
3060.130848953589
 30
0.0
 41
0.998496786715883
 10
114.6170261879832
 20
3061.972527585617
 30
0.0
 41
0.9982505295535126
 10
115.7360321145876
 20
3063.721307542095
 30
0.0
 41
1.0
 10
116.6155102713928
 20
3065.143225555351
 30
0.0
 41
0.8735065337234396
 10
118.2874351096308
 20
3065.143225555351
 30
0.0
 41
1.0
 10
119.9593599478331
 20
3065.143225555351
 30
0.0
 41
0.8735065337278842
 10
120.8388381046453
 20
3063.721307542142
 30
0.0
 41
1.0
 10
122.8032305221295
 20
3060.65137532249
 30
0.0
 41
0.9969328507948153
 10
124.2645172517279
 20
3057.312518857017
 30
0.0
 41
1.0
 10
125.7237575083276
 20
3053.972196682811
 30
0.0
 41
0.9967328646258194
 10
126.6261341561968
 20
3050.440504349189
 30
0.0
 41
1.0
 10
126.7894228845348
 20
3049.813830220611
 30
0.0
 41
0.9919982732950786
 10
126.790535304449
 20
3049.166232787978
 30
0.0
 41
1.0
  0
SPLINE
  5
41
330
1F
100
AcDbEntity
  8
Predefinito
100
AcDbSpline
210
0.0
220
0.0
230
1.0
 70
    12
 71
     2
 72
     8
 73
     5
 74
     0
 42
0.0000000001
 43
0.0000000001
 40
0.0
 40
0.0
 40
0.0
 40
12.56637061435914
 40
12.56637061435914
 40
25.13274122871834
 40
25.13274122871834
 40
25.13274122871834
 10
1917.453768607738
 20
118.2983671642854
 30
0.0
 41
1.0
 10
1917.453768607738
 20
126.2983671642855
 30
0.0
 41
0.7071067811865331
 10
1909.453768607738
 20
126.2983671642853
 30
0.0
 41
1.0
 10
1901.453768607737
 20
126.2983671642854
 30
0.0
 41
0.7071067811865462
 10
1901.453768607738
 20
118.2983671642854
 30
0.0
 41
1.0
  0
SPLINE
  5
42
330
1F
100
AcDbEntity
  8
Predefinito
100
AcDbSpline
210
0.0
220
0.0
230
1.0
 70
    12
 71
     2
 72
     8
 73
     5
 74
     0
 42
0.0000000001
 43
0.0000000001
 40
0.0
 40
0.0
 40
0.0
 40
12.56637061435924
 40
12.56637061435924
 40
25.13274122871831
 40
25.13274122871831
 40
25.13274122871831
 10
1901.453768607738
 20
118.2983671642854
 30
0.0
 41
1.0
 10
1901.453768607737
 20
110.2983671642852
 30
0.0
 41
0.7071067811865287
 10
1909.453768607738
 20
110.2983671642854
 30
0.0
 41
1.0
 10
1917.453768607738
 20
110.2983671642856
 30
0.0
 41
0.7071067811865639
 10
1917.453768607738
 20
118.2983671642854
 30
0.0
 41
1.0
  0
SPLINE
  5
43
330
1F
100
AcDbEntity
  8
Predefinito
100
AcDbSpline
210
0.0
220
0.0
230
1.0
 70
    12
 71
     2
 72
     8
 73
     5
 74
     0
 42
0.0000000001
 43
0.0000000001
 40
0.0
 40
0.0
 40
0.0
 40
176.6712248038113
 40
176.6712248038113
 40
353.3424496076225
 40
353.3424496076225
 40
353.3424496076225
 10
2416.336576659261
 20
70.76320377328659
 30
0.0
 41
1.0
 10
2460.324718047926
 20
171.0202655700681
 30
0.0
 41
0.7339301823362697
 10
2363.768284510104
 20
222.6273403312771
 30
0.0
 41
1.0
 10
2267.211850972283
 20
274.2344150924861
 30
0.0
 41
0.7339301823362697
 10
2208.294728323727
 20
181.9565321423017
 30
0.0
 41
1.0
  0
SPLINE
  5
44
330
1F
100
AcDbEntity
  8
Predefinito
100
AcDbSpline
210
0.0
220
0.0
230
1.0
 70
    12
 71
     2
 72
    12
 73
     9
 74
     0
 42
0.0000000001
 43
0.0000000001
 40
0.0
 40
0.0
 40
0.0
 40
97.48561642305884
 40
97.48561642305884
 40
194.9712328461177
 40
194.9712328461177
 40
292.4568492691765
 40
292.4568492691765
 40
389.9424656922354
 40
389.9424656922354
 40
389.9424656922354
 10
2208.294728323726
 20
181.9565321423021
 30
0.0
 41
1.0
 10
2180.474595319284
 20
138.3771518487042
 30
0.0
 41
0.9163105686564634
 10
2193.560972891875
 20
88.35846624835602
 30
0.0
 41
1.0
 10
2206.647350464465
 20
38.3397806480078
 30
0.0
 41
0.9163105686564634
 10
2252.245330449431
 20
13.96876490287399
 30
0.0
 41
1.0
 10
2297.843310434396
 20
-10.40225084225985
 30
0.0
 41
0.9163105686564634
 10
2346.701799292342
 20
6.508404191677776
 30
0.0
 41
1.0
 10
2395.560288150288
 20
23.41905922561541
 30
0.0
 41
0.9163105686564634
 10
2416.336576659261
 20
70.76320377328685
 30
0.0
 41
1.0
  0
SPLINE
  5
45
330
1F
100
AcDbEntity
  8
Predefinito
100
AcDbSpline
210
0.0
220
0.0
230
1.0
 70
    12
 71
     2
 72
    20
 73
    17
 74
     0
 42
0.0000000001
 43
0.0000000001
 40
0.0
 40
0.0
 40
0.0
 40
1.325861077756491
 40
1.325861077756491
 40
8.600023397156967
 40
8.600023397156967
 40
15.87460961324599
 40
15.87460961324599
 40
18.92523073329724
 40
18.92523073329724
 40
21.97585185329304
 40
21.97585185329304
 40
29.25019152897293
 40
29.25019152897293
 40
36.52460134833743
 40
36.52460134833743
 40
37.81287228098724
 40
37.81287228098724
 40
37.81287228098724
 10
1626.941245051665
 20
109.7844729185111
 30
0.0
 41
1.0
 10
1626.274539022869
 20
109.780539392733
 30
0.0
 41
0.9915014288772787
 10
1625.629386109542
 20
109.9487360629874
 30
0.0
 41
1.0
 10
1622.097815934046
 20
110.8510867636651
 30
0.0
 41
0.9967331755912031
 10
1618.757598910221
 20
112.3102560222563
 30
0.0
 41
1.0
 10
1615.418623889182
 20
113.7715802516691
 30
0.0
 41
0.9969328010199904
 10
1612.348582916629
 20
115.7360321145126
 30
0.0
 41
1.0
 10
1610.926664903373
 20
116.6155102713175
 30
0.0
 41
0.8735065337234396
 10
1610.926664903372
 20
118.2874351095559
 30
0.0
 41
1.0
 10
1610.926664903373
 20
119.9593599477581
 30
0.0
 41
0.8735065337278842
 10
1612.348582916581
 20
120.8388381045701
 30
0.0
 41
1.0
 10
1615.418515136233
 20
122.8032305220545
 30
0.0
 41
0.9969328507948153
 10
1618.757371601706
 20
124.2645172516525
 30
0.0
 41
1.0
 10
1622.097693775914
 20
125.7237575082523
 30
0.0
 41
0.9967328646258194
 10
1625.629386109535
 20
126.6261341561217
 30
0.0
 41
1.0
 10
1626.256060238113
 20
126.7894228844599
 30
0.0
 41
0.9919982732950786
 10
1626.903657670746
 20
126.7905353043736
 30
0.0
 41
1.0
  0
SPLINE
  5
46
330
1F
100
AcDbEntity
  8
Predefinito
100
AcDbSpline
210
0.0
220
0.0
230
1.0
 70
    12
 71
     2
 72
     8
 73
     5
 74
     0
 42
0.0000000001
 43
0.0000000001
 40
0.0
 40
0.0
 40
0.0
 40
1.460806934841618
 40
1.460806934841618
 40
2.921613869763462
 40
2.921613869763462
 40
2.921613869763462
 10
1901.568636434256
 20
119.6491782392262
 30
0.0
 41
1.0
 10
1901.088927234999
 20
119.0589463536687
 30
0.0
 41
0.9415201098331577
 10
1901.092654308552
 20
118.2983671641669
 30
0.0
 41
1.0
 10
1901.088927234999
 20
117.5377879746198
 30
0.0
 41
0.9415201098266235
 10
1901.568636434307
 20
116.9475560890456
 30
0.0
 41
1.0
  0
SPLINE
  5
47
330
1F
100
AcDbEntity
  8
Predefinito
100
AcDbSpline
210
0.0
220
0.0
230
1.0
 70
    24
 71
     2
 72
     6
 73
     3
 74
     0
 42
0.0000000001
 43
0.0000000001
 40
0.0
 40
0.0
 40
0.0
 40
164.5536871130321
 40
164.5536871130321
 40
164.5536871130321
 10
2590.55671235958
 20
109.7843349000553
 30
0.0
 10
2508.279868803063
 20
109.7843349000553
 30
0.0
 10
2426.003025246548
 20
109.7843349000553
 30
0.0
  0
SPLINE
  5
48
330
1F
100
AcDbEntity
  8
Predefinito
100
AcDbSpline
210
0.0
220
0.0
230
1.0
 70
    24
 71
     2
 72
     6
 73
     3
 74
     0
 42
0.0000000001
 43
0.0000000001
 40
0.0
 40
0.0
 40
0.0
 40
563.0883434431616
 40
563.0883434431616
 40
563.0883434431616
 10
2190.029559330961
 20
109.7843349000553
 30
0.0
 10
1908.48538760938
 20
109.7843349000553
 30
0.0
 10
1626.941215887799
 20
109.7843349000553
 30
0.0
  0
SPLINE
  5
49
330
1F
100
AcDbEntity
  8
Predefinito
100
AcDbSpline
210
0.0
220
0.0
230
1.0
 70
    24
 71
     2
 72
     6
 73
     3
 74
     0
 42
0.0000000001
 43
0.0000000001
 40
0.0
 40
0.0
 40
0.0
 40
563.1132371314532
 40
563.1132371314532
 40
563.1132371314532
 10
1626.904041167729
 20
126.7905353190575
 30
0.0
 10
1908.460659733455
 20
126.7905353190574
 30
0.0
 10
2190.017278299182
 20
126.7905353190574
 30
0.0
  0
SPLINE
  5
4A
330
1F
100
AcDbEntity
  8
Predefinito
100
AcDbSpline
210
0.0
220
0.0
230
1.0
 70
    24
 71
     2
 72
     6
 73
     3
 74
     0
 42
0.0000000001
 43
0.0000000001
 40
0.0
 40
0.0
 40
0.0
 40
164.558628075773
 40
164.558628075773
 40
164.558628075773
 10
2425.998084278536
 20
126.7905353190574
 30
0.0
 10
2508.277398316422
 20
126.7905353190574
 30
0.0
 10
2590.556712354309
 20
126.7905353190574
 30
0.0
  0
SPLINE
  5
4B
330
1F
100
AcDbEntity
  8
Predefinito
100
AcDbSpline
210
0.0
220
0.0
230
1.0
 70
    12
 71
     2
 72
     8
 73
     5
 74
     0
 42
0.0000000001
 43
0.0000000001
 40
0.0
 40
0.0
 40
0.0
 40
3.068967700637545
 40
3.068967700637545
 40
6.13793540127509
 40
6.13793540127509
 40
6.13793540127509
 10
1901.886324653638
 20
115.7034120584505
 30
0.0
 41
1.0
 10
1900.491426517573
 20
116.6259241143758
 30
0.0
 41
0.880804455907487
 10
1900.491409979277
 20
118.298278533466
 30
0.0
 41
1.0
 10
1900.491393440981
 20
119.9706329525562
 30
0.0
 41
0.880804455907487
 10
1901.886273330907
 20
120.893172597235
 30
0.0
 41
1.0
  0
SPLINE
  5
4C
330
1F
100
AcDbEntity
  8
Predefinito
100
AcDbSpline
210
0.0
220
0.0
230
1.0
 70
    15
 71
     2
 72
    12
 73
     9
 74
     0
 42
0.0000000001
 43
0.0000000001
 40
0.0
 40
0.0
 40
0.0
 40
731.0492832367274
 40
731.0492832367274
 40
1462.098566473455
 40
1462.098566473455
 40
2193.147849710183
 40
2193.147849710183
 40
2924.197132946911
 40
2924.197132946911
 40
2924.197132946911
 10
1643.329948480095
 20
2567.339449976541
 30
0.0
 41
1.0
 10
1643.329948480095
 20
3032.73987826019
 30
0.0
 41
0.7071067811865471
 10
2108.730376763744
 20
3032.739878260189
 30
0.0
 41
1.0
 10
2574.130805047393
 20
3032.73987826019
 30
0.0
 41
0.7071067811865468
 10
2574.130805047393
 20
2567.33944997654
 30
0.0
 41
1.0
 10
2574.130805047394
 20
2101.939021692891
 30
0.0
 41
0.7071067811865471
 10
2108.730376763744
 20
2101.939021692891
 30
0.0
 41
1.0
 10
1643.329948480095
 20
2101.939021692892
 30
0.0
 41
0.7071067811865479
 10
1643.329948480095
 20
2567.33944997654
 30
0.0
 41
1.0
  0
SPLINE
  5
4D
330
1F
100
AcDbEntity
  8
Predefinito
100
AcDbSpline
210
0.0
220
0.0
230
1.0
 70
    15
 71
     2
 72
    12
 73
     9
 74
     0
 42
0.0000000001
 43
0.0000000001
 40
0.0
 40
0.0
 40
0.0
 40
753.4947817950091
 40
753.4947817950091
 40
1506.989563590018
 40
1506.989563590018
 40
2260.484345385028
 40
2260.484345385028
 40
3013.979127180037
 40
3013.979127180037
 40
3013.979127180037
 10
1629.040700297245
 20
2567.339449865241
 30
0.0
 41
1.0
 10
1629.040700185945
 20
3047.029126331739
 30
0.0
 41
0.7071067811865479
 10
2108.730376652444
 20
3047.02912644304
 30
0.0
 41
1.0
 10
2588.420053118943
 20
3047.029126554341
 30
0.0
 41
0.7071067811865466
 10
2588.420053230243
 20
2567.339450087841
 30
0.0
 41
1.0
 10
2588.420053341542
 20
2087.649773621343
 30
0.0
 41
0.7071067811865489
 10
2108.730376875044
 20
2087.649773510042
 30
0.0
 41
1.0
 10
1629.040700408545
 20
2087.649773398742
 30
0.0
 41
0.7071067811865481
 10
1629.040700297245
 20
2567.339449865241
 30
0.0
 41
1.0
  0
SPLINE
  5
4E
330
1F
100
AcDbEntity
  8
Predefinito
100
AcDbSpline
210
0.0
220
0.0
230
1.0
 70
    15
 71
     2
 72
    12
 73
     9
 74
     0
 42
0.0000000001
 43
0.0000000001
 40
0.0
 40
0.0
 40
0.0
 40
754.4291963979676
 40
754.4291963979676
 40
1508.858392795936
 40
1508.858392795936
 40
2263.287589193903
 40
2263.287589193903
 40
3017.716785591871
 40
3017.716785591871
 40
3017.716785591871
 10
1628.445833485413
 20
2567.339449976541
 30
0.0
 41
1.0
 10
1628.445833485412
 20
3047.623993254873
 30
0.0
 41
0.7071067811865466
 10
2108.730376763744
 20
3047.623993254872
 30
0.0
 41
1.0
 10
2589.014920042077
 20
3047.623993254874
 30
0.0
 41
0.7071067811865441
 10
2589.014920042076
 20
2567.33944997654
 30
0.0
 41
1.0
 10
2589.014920042076
 20
2087.054906698208
 30
0.0
 41
0.7071067811865468
 10
2108.730376763744
 20
2087.05490669821
 30
0.0
 41
1.0
 10
1628.445833485413
 20
2087.054906698209
 30
0.0
 41
0.7071067811865479
 10
1628.445833485413
 20
2567.33944997654
 30
0.0
 41
1.0
  0
SPLINE
  5
4F
330
1F
100
AcDbEntity
  8
Predefinito
100
AcDbSpline
210
0.0
220
0.0
230
1.0
 70
    12
 71
     2
 72
     6
 73
     3
 74
     0
 42
0.0000000001
 43
0.0000000001
 40
0.0
 40
0.0
 40
0.0
 40
567.8045510617222
 40
567.8045510617222
 40
567.8045510617222
 10
1610.926664903372
 20
2567.339449976541
 30
0.0
 41
1.0
 10
1610.926673191717
 20
2886.63351260981
 30
0.0
 41
0.8417338203368995
 10
1901.130484652398
 20
3019.789234404074
 30
0.0
 41
1.0
  0
SPLINE
  5
50
330
1F
100
AcDbEntity
  8
Predefinito
100
AcDbSpline
210
0.0
220
0.0
230
1.0
 70
    12
 71
     2
 72
    12
 73
     9
 74
     0
 42
0.0000000001
 43
0.0000000001
 40
0.0
 40
0.0
 40
0.0
 40
532.909151800797
 40
532.909151800797
 40
1065.818303601594
 40
1065.818303601594
 40
1598.727455402391
 40
1598.727455402391
 40
2131.636607203188
 40
2131.636607203188
 40
2131.636607203188
 10
2316.38886868483
 20
3019.762356525902
 30
0.0
 41
1.0
 10
2584.677965490852
 20
2896.619813709553
 30
0.0
 41
0.860135878989689
 10
2605.316047246749
 20
2602.141979403294
 30
0.0
 41
1.0
 10
2625.954129002647
 20
2307.664145097035
 30
0.0
 41
0.860135878989689
 10
2377.463864733729
 20
2148.303817914164
 30
0.0
 41
1.0
 10
2128.973600464813
 20
1988.943490731293
 30
0.0
 41
0.860135878989689
 10
1869.950130592315
 20
2130.541398100997
 30
0.0
 41
1.0
 10
1610.926660719819
 20
2272.139305470704
 30
0.0
 41
0.860135878989689
 10
1610.926664903372
 20
2567.339449976541
 30
0.0
 41
1.0
  0
SPLINE
  5
51
330
1F
100
AcDbEntity
  8
Predefinito
100
AcDbSpline
210
0.0
220
0.0
230
1.0
 70
    24
 71
     2
 72
     6
 73
     3
 74
     0
 42
0.0000000001
 43
0.0000000001
 40
0.0
 40
0.0
 40
0.0
 40
58.90985717715239
 40
58.90985717715239
 40
58.90985717715239
 10
2249.04467641158
 20
3480.252254244443
 30
0.0
 10
2219.579664161417
 20
3480.252254244443
 30
0.0
 10
2190.114651911254
 20
3480.252254244443
 30
0.0
  0
SPLINE
  5
52
330
1F
100
AcDbEntity
  8
Predefinito
100
AcDbSpline
210
0.0
220
0.0
230
1.0
 70
    24
 71
     2
 72
     6
 73
     3
 74
     0
 42
0.0000000001
 43
0.0000000001
 40
0.0
 40
0.0
 40
0.0
 40
166.9483390492592
 40
166.9483390492592
 40
166.9483390492592
 10
2415.99301546084
 20
3480.252254244443
 30
0.0
 10
2332.518845936211
 20
3480.252254244443
 30
0.0
 10
2249.04467641158
 20
3480.252254244443
 30
0.0
  0
SPLINE
  5
53
330
1F
100
AcDbEntity
  8
Predefinito
100
AcDbSpline
210
0.0
220
0.0
230
1.0
 70
    24
 71
     2
 72
     6
 73
     3
 74
     0
 42
0.0000000001
 43
0.0000000001
 40
-9.937467064378325
 40
-9.937467064378325
 40
-9.937467064378325
 40
0.0
 40
0.0
 40
0.0
 10
2425.932304884655
 20
3480.252254244443
 30
0.0
 10
2420.962660172747
 20
3480.252254244443
 30
0.0
 10
2415.99301546084
 20
3480.252254244443
 30
0.0
  0
SPLINE
  5
54
330
1F
100
AcDbEntity
  8
Predefinito
100
AcDbSpline
210
0.0
220
0.0
230
1.0
 70
    24
 71
     2
 72
     6
 73
     3
 74
     0
 42
0.0000000001
 43
0.0000000001
 40
0.0
 40
0.0
 40
0.0
 40
43.00160552778422
 40
43.00160552778422
 40
43.00160552778422
 10
2426.307561687935
 20
3523.252238291245
 30
0.0
 10
2426.119933286294
 20
3501.752246267844
 30
0.0
 10
2425.932304884655
 20
3480.252254244443
 30
0.0
  0
SPLINE
  5
55
330
1F
100
AcDbEntity
  8
Predefinito
100
AcDbSpline
210
0.0
220
0.0
230
1.0
 70
    24
 71
     2
 72
     6
 73
     3
 74
     0
 42
0.0000000001
 43
0.0000000001
 40
0.0
 40
0.0
 40
0.0
 40
9.969089666941727
 40
9.969089666941727
 40
9.969089666941727
 10
2416.336644001743
 20
3523.252254244443
 30
0.0
 10
2421.32210284484
 20
3523.252246267844
 30
0.0
 10
2426.307561687935
 20
3523.252238291245
 30
0.0
  0
SPLINE
  5
56
330
1F
100
AcDbEntity
  8
Predefinito
100
AcDbSpline
210
0.0
220
0.0
230
1.0
 70
     8
 71
     3
 72
     8
 73
     4
 74
     0
 42
0.0000000001
 43
0.0000000001
 40
0.0
 40
0.0
 40
0.0
 40
0.0
 40
226.617110258572
 40
226.617110258572
 40
226.617110258572
 40
226.617110258572
 10
2189.719400898414
 20
3523.252253085244
 30
0.0
 10
2265.258570496029
 20
3523.252254244442
 30
0.0
 10
2340.797607248887
 20
3523.252254244444
 30
0.0
 10
2416.336644001743
 20
3523.252254244443
 30
0.0
  0
SPLINE
  5
57
330
1F
100
AcDbEntity
  8
Predefinito
100
AcDbSpline
210
0.0
220
0.0
230
1.0
 70
    24
 71
     2
 72
     6
 73
     3
 74
     0
 42
0.0000000001
 43
0.0000000001
 40
0.0
 40
0.0
 40
0.0
 40
43.00163471387392
 40
43.00163471387392
 40
43.00163471387392
 10
2190.114651911254
 20
3480.252254244443
 30
0.0
 10
2189.917026404833
 20
3501.752253664843
 30
0.0
 10
2189.719400898414
 20
3523.252253085244
 30
0.0
  0
SPLINE
  5
58
330
1F
100
AcDbEntity
  8
Predefinito
100
AcDbSpline
210
0.0
220
0.0
230
1.0
 70
    24
 71
     2
 72
     6
 73
     3
 74
     0
 42
0.0000000001
 43
0.0000000001
 40
0.0
 40
0.0
 40
0.0
 40
2.0
 40
2.0
 40
2.0
 10
1915.45376860773
 20
3494.752254198613
 30
0.0
 10
1915.45376860773
 20
3493.752254198613
 30
0.0
 10
1915.45376860773
 20
3492.752254198613
 30
0.0
  0
SPLINE
  5
59
330
1F
100
AcDbEntity
  8
Predefinito
100
AcDbSpline
210
0.0
220
0.0
230
1.0
 70
    24
 71
     2
 72
     6
 73
     3
 74
     0
 42
0.0000000001
 43
0.0000000001
 40
0.0
 40
0.0
 40
0.0
 40
12.0
 40
12.0
 40
12.0
 10
1903.45376860773
 20
3494.752254198613
 30
0.0
 10
1909.45376860773
 20
3494.752254198613
 30
0.0
 10
1915.45376860773
 20
3494.752254198613
 30
0.0
  0
SPLINE
  5
5A
330
1F
100
AcDbEntity
  8
Predefinito
100
AcDbSpline
210
0.0
220
0.0
230
1.0
 70
    24
 71
     2
 72
     6
 73
     3
 74
     0
 42
0.0000000001
 43
0.0000000001
 40
0.0
 40
0.0
 40
0.0
 40
2.0
 40
2.0
 40
2.0
 10
1903.45376860773
 20
3492.752254198613
 30
0.0
 10
1903.45376860773
 20
3493.752254198613
 30
0.0
 10
1903.45376860773
 20
3494.752254198613
 30
0.0
  0
SPLINE
  5
5B
330
1F
100
AcDbEntity
  8
Predefinito
100
AcDbSpline
210
0.0
220
0.0
230
1.0
 70
    24
 71
     2
 72
     6
 73
     3
 74
     0
 42
0.0000000001
 43
0.0000000001
 40
-12.0
 40
-12.0
 40
-12.0
 40
0.0
 40
0.0
 40
0.0
 10
1915.45376860773
 20
3492.752254198613
 30
0.0
 10
1909.45376860773
 20
3492.752254198613
 30
0.0
 10
1903.45376860773
 20
3492.752254198613
 30
0.0
  0
SPLINE
  5
5C
330
1F
100
AcDbEntity
  8
Predefinito
100
AcDbSpline
210
0.0
220
0.0
230
1.0
 70
    24
 71
     2
 72
     6
 73
     3
 74
     0
 42
0.0000000001
 43
0.0000000001
 40
0.0
 40
0.0
 40
0.0
 40
13.39947309394347
 40
13.39947309394347
 40
13.39947309394347
 10
2304.957048758108
 20
3237.707027892107
 30
0.0
 10
2304.957048758108
 20
3231.007291345135
 30
0.0
 10
2304.957048758108
 20
3224.307554798163
 30
0.0
  0
SPLINE
  5
5D
330
1F
100
AcDbEntity
  8
Predefinito
100
AcDbSpline
210
0.0
220
0.0
230
1.0
 70
    24
 71
     2
 72
     6
 73
     3
 74
     0
 42
0.0000000001
 43
0.0000000001
 40
0.0
 40
0.0
 40
0.0
 40
8.609004778265898
 40
8.609004778265898
 40
8.609004778265898
 10
2304.957048623396
 20
3246.316033861339
 30
0.0
 10
2304.957048690752
 20
3242.011530876722
 30
0.0
 10
2304.957048758108
 20
3237.707027892107
 30
0.0
  0
SPLINE
  5
5E
330
1F
100
AcDbEntity
  8
Predefinito
100
AcDbSpline
210
0.0
220
0.0
230
1.0
 70
    12
 71
     2
 72
     6
 73
     3
 74
     0
 42
0.0000000001
 43
0.0000000001
 40
0.0
 40
0.0
 40
0.0
 40
40.51150846450876
 40
40.51150846450876
 40
40.51150846450876
 10
2304.960932707107
 20
3286.827543576964
 30
0.0
 41
1.0
 10
2304.957048488724
 20
3266.571789346624
 30
0.0
 41
0.9999999954039074
 10
2304.957048623396
 20
3246.316033861339
 30
0.0
 41
1.0
  0
SPLINE
  5
5F
330
1F
100
AcDbEntity
  8
Predefinito
100
AcDbSpline
210
0.0
220
0.0
230
1.0
 70
    12
 71
     2
 72
     6
 73
     3
 74
     0
 42
0.0000000001
 43
0.0000000001
 40
0.0
 40
0.0
 40
0.0
 40
40.51121044528357
 40
40.51121044528357
 40
40.51121044528357
 10
2304.977065416856
 20
3327.33875180327
 30
0.0
 41
1.0
 10
2304.964816897376
 20
3307.08314902347
 30
0.0
 41
0.9999999786844406
 10
2304.960932707107
 20
3286.827543576964
 30
0.0
 41
1.0
  0
SPLINE
  5
60
330
1F
100
AcDbEntity
  8
Predefinito
100
AcDbSpline
210
0.0
220
0.0
230
1.0
 70
    12
 71
     2
 72
     6
 73
     3
 74
     0
 42
0.0000000001
 43
0.0000000001
 40
0.0
 40
0.0
 40
0.0
 40
21.60673119512192
 40
21.60673119512192
 40
21.60673119512192
 10
2304.993598235071
 20
3348.945479041988
 30
0.0
 41
1.0
 10
2304.983598187459
 20
3338.142116491038
 30
0.0
 41
0.9999999871243535
 10
2304.977065416856
 20
3327.33875180327
 30
0.0
 41
1.0
  0
SPLINE
  5
61
330
1F
100
AcDbEntity
  8
Predefinito
100
AcDbSpline
210
0.0
220
0.0
230
1.0
 70
    12
 71
     2
 72
     6
 73
     3
 74
     0
 42
0.0000000001
 43
0.0000000001
 40
0.0
 40
0.0
 40
0.0
 40
21.60632265392769
 40
21.60632265392769
 40
21.60632265392769
 10
2305.020314151957
 20
3370.551788808787
 30
0.0
 41
1.0
 10
2305.003598094442
 20
3359.748637577645
 30
0.0
 41
0.9999999516879633
 10
2304.993598235071
 20
3348.945479041988
 30
0.0
 41
1.0
  0
SPLINE
  5
62
330
1F
100
AcDbEntity
  8
Predefinito
100
AcDbSpline
210
0.0
220
0.0
230
1.0
 70
    12
 71
     2
 72
     6
 73
     3
 74
     0
 42
0.0000000001
 43
0.0000000001
 40
0.0
 40
0.0
 40
0.0
 40
19.09950109679981
 40
19.09950109679981
 40
19.09950109679981
 10
2305.055702743156
 20
3389.651262784068
 30
0.0
 41
1.0
 10
2305.035090771099
 20
3380.101530711037
 30
0.0
 41
0.9999999533274615
 10
2305.020314151957
 20
3370.551788808787
 30
0.0
 41
1.0
  0
SPLINE
  5
63
330
1F
100
AcDbEntity
  8
Predefinito
100
AcDbSpline
210
0.0
220
0.0
230
1.0
 70
    12
 71
     2
 72
     6
 73
     3
 74
     0
 42
0.0000000001
 43
0.0000000001
 40
0.0
 40
0.0
 40
0.0
 40
19.10323997213998
 40
19.10323997213998
 40
19.10323997213998
 10
2305.07591687604
 20
3408.75449139618
 30
0.0
 41
1.0
 10
2305.076318756635
 20
3399.20286770137
 30
0.0
 41
0.9999994176752315
 10
2305.055702743156
 20
3389.651262784068
 30
0.0
 41
1.0
  0
SPLINE
  5
64
330
1F
100
AcDbEntity
  8
Predefinito
100
AcDbSpline
210
0.0
220
0.0
230
1.0
 70
    24
 71
     2
 72
     6
 73
     3
 74
     0
 42
0.0000000001
 43
0.0000000001
 40
0.0
 40
0.0
 40
0.0
 40
15.00000002281755
 40
15.00000002281755
 40
15.00000002281755
 10
2305.076318759326
 20
3423.754491398104
 30
0.0
 10
2305.076117817683
 20
3416.254491397142
 30
0.0
 10
2305.07591687604
 20
3408.75449139618
 30
0.0
  0
SPLINE
  5
65
330
1F
100
AcDbEntity
  8
Predefinito
100
AcDbSpline
210
0.0
220
0.0
230
1.0
 70
    12
 71
     2
 72
     6
 73
     3
 74
     0
 42
0.0000000001
 43
0.0000000001
 40
-2.489394601357576
 40
-2.489394601357576
 40
-2.489394601357576
 40
0.0
 40
0.0
 40
0.0
 10
2304.92702357969
 20
3426.237906877818
 30
0.0
 41
1.0
 10
2305.076318759324
 20
3425.000686717837
 30
0.0
 41
0.9981978639035336
 10
2305.076318759326
 20
3423.754491398104
 30
0.0
 41
1.0
  0
SPLINE
  5
66
330
1F
100
AcDbEntity
  8
Predefinito
100
AcDbSpline
210
0.0
220
0.0
230
1.0
 70
    12
 71
     2
 72
     6
 73
     3
 74
     0
 42
0.0000000001
 43
0.0000000001
 40
-2.476670559585191
 40
-2.476670559585191
 40
-2.476670559585191
 40
0.0
 40
0.0
 40
0.0
 10
2304.495400997085
 20
3428.675401111425
 30
0.0
 41
1.0
 10
2304.778519337461
 20
3427.468572481216
 30
0.0
 41
0.9984785003620451
 10
2304.92702357969
 20
3426.237906877818
 30
0.0
 41
1.0
  0
SPLINE
  5
67
330
1F
100
AcDbEntity
  8
Predefinito
100
AcDbSpline
210
0.0
220
0.0
230
1.0
 70
    12
 71
     2
 72
     6
 73
     3
 74
     0
 42
0.0000000001
 43
0.0000000001
 40
-2.368418137550998
 40
-2.368418137550998
 40
-2.368418137550998
 40
0.0
 40
0.0
 40
0.0
 10
2303.843166655423
 20
3430.951267078939
 30
0.0
 41
1.0
 10
2304.224718363118
 20
3429.829220930862
 30
0.0
 41
0.998815526549904
 10
2304.495400997085
 20
3428.675401111425
 30
0.0
 41
1.0
  0
SPLINE
  5
68
330
1F
100
AcDbEntity
  8
Predefinito
100
AcDbSpline
210
0.0
220
0.0
230
1.0
 70
    12
 71
     2
 72
     6
 73
     3
 74
     0
 42
0.0000000001
 43
0.0000000001
 40
-2.342289097157112
 40
-2.342289097157112
 40
-2.342289097157112
 40
0.0
 40
0.0
 40
0.0
 10
2303.003923873641
 20
3433.137415051234
 30
0.0
 41
1.0
 10
2303.465933480575
 20
3432.060613524593
 30
0.0
 41
0.9992489451028338
 10
2303.843166655423
 20
3430.951267078939
 30
0.0
 41
1.0
  0
SPLINE
  5
69
330
1F
100
AcDbEntity
  8
Predefinito
100
AcDbSpline
210
0.0
220
0.0
230
1.0
 70
    12
 71
     2
 72
     6
 73
     3
 74
     0
 42
0.0000000001
 43
0.0000000001
 40
-2.360301368282427
 40
-2.360301368282427
 40
-2.360301368282427
 40
0.0
 40
0.0
 40
0.0
 10
2302.000609270307
 20
3435.273359003174
 30
0.0
 41
1.0
 10
2302.538416891839
 20
3434.222367877195
 30
0.0
 41
0.9994275974391007
 10
2303.003923873641
 20
3433.137415051234
 30
0.0
 41
1.0
  0
SPLINE
  5
6A
330
1F
100
AcDbEntity
  8
Predefinito
100
AcDbSpline
210
0.0
220
0.0
230
1.0
 70
    12
 71
     2
 72
     6
 73
     3
 74
     0
 42
0.0000000001
 43
0.0000000001
 40
-2.332672232249903
 40
-2.332672232249903
 40
-2.332672232249903
 40
0.0
 40
0.0
 40
0.0
 10
2300.889720479217
 20
3437.324283097423
 30
0.0
 41
1.0
 10
2301.469202659981
 20
3436.311841184119
 30
0.0
 41
0.9997253745441369
 10
2302.000609270307
 20
3435.273359003174
 30
0.0
 41
1.0
  0
SPLINE
  5
6B
330
1F
100
AcDbEntity
  8
Predefinito
100
AcDbSpline
210
0.0
220
0.0
230
1.0
 70
    12
 71
     2
 72
     6
 73
     3
 74
     0
 42
0.0000000001
 43
0.0000000001
 40
-2.438568025913374
 40
-2.438568025913374
 40
-2.438568025913374
 40
0.0
 40
0.0
 40
0.0
 10
2299.637609676357
 20
3439.416670815778
 30
0.0
 41
1.0
 10
2300.283966579461
 20
3438.382625627391
 30
0.0
 41
0.9998117741070371
 10
2300.889720479217
 20
3437.324283097423
 30
0.0
 41
1.0
  0
SPLINE
  5
6C
330
1F
100
AcDbEntity
  8
Predefinito
100
AcDbSpline
210
0.0
220
0.0
230
1.0
 70
    12
 71
     2
 72
     6
 73
     3
 74
     0
 42
0.0000000001
 43
0.0000000001
 40
-2.411900190385612
 40
-2.411900190385612
 40
-2.411900190385612
 40
0.0
 40
0.0
 40
0.0
 10
2298.339960824213
 20
3441.449697414221
 30
0.0
 41
1.0
 10
2298.998382473791
 20
3440.43930987158
 30
0.0
 41
0.9999554337533958
 10
2299.637609676357
 20
3439.416670815778
 30
0.0
 41
1.0
  0
SPLINE
  5
6D
330
1F
100
AcDbEntity
  8
Predefinito
100
AcDbSpline
210
0.0
220
0.0
230
1.0
 70
    12
 71
     2
 72
     6
 73
     3
 74
     0
 42
0.0000000001
 43
0.0000000001
 40
-2.496048127053525
 40
-2.496048127053525
 40
-2.496048127053525
 40
0.0
 40
0.0
 40
0.0
 10
2296.967036807041
 20
3443.53423249157
 30
0.0
 41
1.0
 10
2297.658582575056
 20
3442.495313236881
 30
0.0
 41
0.9999881047434471
 10
2298.339960824213
 20
3441.449697414221
 30
0.0
 41
1.0
  0
SPLINE
  5
6E
330
1F
100
AcDbEntity
  8
Predefinito
100
AcDbSpline
210
0.0
220
0.0
230
1.0
 70
    12
 71
     2
 72
     6
 73
     3
 74
     0
 42
0.0000000001
 43
0.0000000001
 40
0.0
 40
0.0
 40
0.0
 40
2.469063975054027
 40
2.469063975054027
 40
2.469063975054027
 10
2295.609447052776
 20
3445.596554917522
 30
0.0
 41
1.0
 10
2296.282966624359
 20
3444.5619210658
 30
0.0
 41
0.9999869141004963
 10
2296.967036807041
 20
3443.53423249157
 30
0.0
 41
1.0
  0
SPLINE
  5
6F
330
1F
100
AcDbEntity
  8
Predefinito
100
AcDbSpline
210
0.0
220
0.0
230
1.0
 70
    12
 71
     2
 72
     6
 73
     3
 74
     0
 42
0.0000000001
 43
0.0000000001
 40
0.0
 40
0.0
 40
0.0
 40
2.361981173696301
 40
2.361981173696301
 40
2.361981173696301
 10
2294.340092366204
 20
3447.588418190095
 30
0.0
 41
1.0
 10
2294.965123360981
 20
3446.586339225395
 30
0.0
 41
0.9999530963879733
 10
2295.609447052776
 20
3445.596554917522
 30
0.0
 41
1.0
  0
SPLINE
  5
70
330
1F
100
AcDbEntity
  8
Predefinito
100
AcDbSpline
210
0.0
220
0.0
230
1.0
 70
    12
 71
     2
 72
     6
 73
     3
 74
     0
 42
0.0000000001
 43
0.0000000001
 40
0.0
 40
0.0
 40
0.0
 40
2.33474914540818
 40
2.33474914540818
 40
2.33474914540818
 10
2293.143790876014
 20
3449.593215505188
 30
0.0
 41
1.0
 10
2293.722207060183
 20
3448.579040851901
 30
0.0
 41
0.999806260683207
 10
2294.340092366204
 20
3447.588418190095
 30
0.0
 41
1.0
  0
SPLINE
  5
71
330
1F
100
AcDbEntity
  8
Predefinito
100
AcDbSpline
210
0.0
220
0.0
230
1.0
 70
    12
 71
     2
 72
     6
 73
     3
 74
     0
 42
0.0000000001
 43
0.0000000001
 40
0.0
 40
0.0
 40
0.0
 40
2.208871682682744
 40
2.208871682682744
 40
2.208871682682744
 10
2292.095443150776
 20
3451.537222669926
 30
0.0
 41
1.0
 10
2292.5965276513
 20
3450.552767651847
 30
0.0
 41
0.9997179835802187
 10
2293.143790876014
 20
3449.593215505188
 30
0.0
 41
1.0
  0
SPLINE
  5
72
330
1F
100
AcDbEntity
  8
Predefinito
100
AcDbSpline
210
0.0
220
0.0
230
1.0
 70
    12
 71
     2
 72
     6
 73
     3
 74
     0
 42
0.0000000001
 43
0.0000000001
 40
0.0
 40
0.0
 40
0.0
 40
2.180184608807236
 40
2.180184608807236
 40
2.180184608807236
 10
2291.173679626855
 20
3453.512495697861
 30
0.0
 41
1.0
 10
2291.600766399519
 20
3452.509088711666
 30
0.0
 41
0.9994150763501068
 10
2292.095443150776
 20
3451.537222669926
 30
0.0
 41
1.0
  0
SPLINE
  5
73
330
1F
100
AcDbEntity
  8
Predefinito
100
AcDbSpline
210
0.0
220
0.0
230
1.0
 70
    12
 71
     2
 72
     6
 73
     3
 74
     0
 42
0.0000000001
 43
0.0000000001
 40
0.0
 40
0.0
 40
0.0
 40
2.136121503267424
 40
2.136121503267424
 40
2.136121503267424
 10
2290.414870468833
 20
3455.508715204654
 30
0.0
 41
1.0
 10
2290.755173894951
 20
3454.495742199593
 30
0.0
 41
0.9992335338148977
 10
2291.173679626855
 20
3453.512495697861
 30
0.0
 41
1.0
  0
SPLINE
  5
74
330
1F
100
AcDbEntity
  8
Predefinito
100
AcDbSpline
210
0.0
220
0.0
230
1.0
 70
    12
 71
     2
 72
     6
 73
     3
 74
     0
 42
0.0000000001
 43
0.0000000001
 40
0.0
 40
0.0
 40
0.0
 40
2.108723517038255
 40
2.108723517038255
 40
2.108723517038255
 10
2289.842403936394
 20
3457.537367572608
 30
0.0
 41
1.0
 10
2290.078833835973
 20
3456.508987349085
 30
0.0
 41
0.9987967724954318
 10
2290.414870468833
 20
3455.508715204654
 30
0.0
 41
1.0
  0
SPLINE
  5
75
330
1F
100
AcDbEntity
  8
Predefinito
100
AcDbSpline
210
0.0
220
0.0
230
1.0
 70
    12
 71
     2
 72
     6
 73
     3
 74
     0
 42
0.0000000001
 43
0.0000000001
 40
0.0
 40
0.0
 40
0.0
 40
2.13247700197799
 40
2.13247700197799
 40
2.13247700197799
 10
2289.478072164313
 20
3459.637431621588
 30
0.0
 41
1.0
 10
2289.603268428626
 20
3458.577516163662
 30
0.0
 41
0.9985314319357336
 10
2289.842403936394
 20
3457.537367572608
 30
0.0
 41
1.0
  0
SPLINE
  5
76
330
1F
100
AcDbEntity
  8
Predefinito
100
AcDbSpline
210
0.0
220
0.0
230
1.0
 70
    12
 71
     2
 72
     6
 73
     3
 74
     0
 42
0.0000000001
 43
0.0000000001
 40
0.0
 40
0.0
 40
0.0
 40
2.119702945346288
 40
2.119702945346288
 40
2.119702945346288
 10
2289.353604331314
 20
3461.752254244444
 30
0.0
 41
1.0
 10
2289.353604331314
 20
3460.691180157405
 30
0.0
 41
0.9982725324959901
 10
2289.478072164313
 20
3459.637431621588
 30
0.0
 41
1.0
  0
SPLINE
  5
77
330
1F
100
AcDbEntity
  8
Predefinito
100
AcDbSpline
210
0.0
220
0.0
230
1.0
 70
    24
 71
     2
 72
     6
 73
     3
 74
     0
 42
0.0000000001
 43
0.0000000001
 40
0.0
 40
0.0
 40
0.0
 40
18.49999999999864
 40
18.49999999999864
 40
18.49999999999864
 10
2289.353604331314
 20
3480.252254244443
 30
0.0
 10
2289.353604331314
 20
3471.002254244444
 30
0.0
 10
2289.353604331314
 20
3461.752254244444
 30
0.0
  0
SPLINE
  5
78
330
1F
100
AcDbEntity
  8
Predefinito
100
AcDbSpline
210
0.0
220
0.0
230
1.0
 70
    24
 71
     2
 72
     6
 73
     3
 74
     0
 42
0.0000000001
 43
0.0000000001
 40
0.0
 40
0.0
 40
0.0
 40
2.0
 40
2.0
 40
2.0
 10
1917.45376860773
 20
3523.752254198613
 30
0.0
 10
1917.45376860773
 20
3522.752254198613
 30
0.0
 10
1917.45376860773
 20
3521.752254198613
 30
0.0
  0
SPLINE
  5
79
330
1F
100
AcDbEntity
  8
Predefinito
100
AcDbSpline
210
0.0
220
0.0
230
1.0
 70
    24
 71
     2
 72
     6
 73
     3
 74
     0
 42
0.0000000001
 43
0.0000000001
 40
0.0
 40
0.0
 40
0.0
 40
15.96763926890276
 40
15.96763926890276
 40
15.96763926890276
 10
1901.469948973278
 20
3523.752254198613
 30
0.0
 10
1909.469948973278
 20
3523.752254198613
 30
0.0
 10
1917.45376860773
 20
3523.752254198613
 30
0.0
  0
SPLINE
  5
7A
330
1F
100
AcDbEntity
  8
Predefinito
100
AcDbSpline
210
0.0
220
0.0
230
1.0
 70
     8
 71
     2
 72
     6
 73
     3
 74
     0
 42
0.0000000001
 43
0.0000000001
 40
0.0
 40
0.0
 40
0.0
 40
2.0
 40
2.0
 40
2.0
 10
1901.469948973278
 20
3521.752254198613
 30
0.0
 10
1901.45376860773
 20
3522.752254198613
 30
0.0
 10
1901.469948973278
 20
3523.752254198613
 30
0.0
  0
SPLINE
  5
7B
330
1F
100
AcDbEntity
  8
Predefinito
100
AcDbSpline
210
0.0
220
0.0
230
1.0
 70
    24
 71
     2
 72
     6
 73
     3
 74
     0
 42
0.0000000001
 43
0.0000000001
 40
-15.96763926890276
 40
-15.96763926890276
 40
-15.96763926890276
 40
0.0
 40
0.0
 40
0.0
 10
1917.45376860773
 20
3521.752254198613
 30
0.0
 10
1909.469948973278
 20
3521.752254198613
 30
0.0
 10
1901.469948973278
 20
3521.752254198613
 30
0.0
  0
SPLINE
  5
7C
330
1F
100
AcDbEntity
  8
Predefinito
100
AcDbSpline
210
0.0
220
0.0
230
1.0
 70
     8
 71
     2
 72
     6
 73
     3
 74
     0
 42
0.0000000001
 43
0.0000000001
 40
0.0
 40
0.0
 40
0.0
 40
10.0
 40
10.0
 40
10.0
 10
1906.478810555105
 20
3482.752254198613
 30
0.0
 10
1906.45376860773
 20
3487.752254198613
 30
0.0
 10
1906.45376860773
 20
3492.752254198613
 30
0.0
  0
SPLINE
  5
7D
330
1F
100
AcDbEntity
  8
Predefinito
100
AcDbSpline
210
0.0
220
0.0
230
1.0
 70
    24
 71
     2
 72
     6
 73
     3
 74
     0
 42
0.0000000001
 43
0.0000000001
 40
-5.949916105249713
 40
-5.949916105249713
 40
-5.949916105249713
 40
0.0
 40
0.0
 40
0.0
 10
1912.45376860773
 20
3482.752254198613
 30
0.0
 10
1909.478810555104
 20
3482.752254198613
 30
0.0
 10
1906.478810555105
 20
3482.752254198613
 30
0.0
  0
SPLINE
  5
7E
330
1F
100
AcDbEntity
  8
Predefinito
100
AcDbSpline
210
0.0
220
0.0
230
1.0
 70
    24
 71
     2
 72
     6
 73
     3
 74
     0
 42
0.0000000001
 43
0.0000000001
 40
0.0
 40
0.0
 40
0.0
 40
10.0
 40
10.0
 40
10.0
 10
1912.45376860773
 20
3492.752254198613
 30
0.0
 10
1912.45376860773
 20
3487.752254198613
 30
0.0
 10
1912.45376860773
 20
3482.752254198613
 30
0.0
  0
SPLINE
  5
7F
330
1F
100
AcDbEntity
  8
Predefinito
100
AcDbSpline
210
0.0
220
0.0
230
1.0
 70
    12
 71
     2
 72
     6
 73
     3
 74
     0
 42
0.0000000001
 43
0.0000000001
 40
0.0
 40
0.0
 40
0.0
 40
0.1717028957273642
 40
0.1717028957273642
 40
0.1717028957273642
 10
1909.05376860773
 20
3025.496734599347
 30
0.0
 41
1.0
 10
1909.053768607729
 20
3025.410855154452
 30
0.0
 41
0.9995110659370268
 10
1909.05913637755
 20
3025.325143626041
 30
0.0
 41
1.0
  0
SPLINE
  5
80
330
1F
100
AcDbEntity
  8
Predefinito
100
AcDbSpline
210
0.0
220
0.0
230
1.0
 70
    24
 71
     2
 72
     6
 73
     3
 74
     0
 42
0.0000000001
 43
0.0000000001
 40
-457.2555195992663
 40
-457.2555195992663
 40
-457.2555195992663
 40
0.0
 40
0.0
 40
0.0
 10
1909.05376860773
 20
3482.752254198613
 30
0.0
 10
1909.05376860773
 20
3254.12449439898
 30
0.0
 10
1909.05376860773
 20
3025.496734599347
 30
0.0
  0
SPLINE
  5
81
330
1F
100
AcDbEntity
  8
Predefinito
100
AcDbSpline
210
0.0
220
0.0
230
1.0
 70
    24
 71
     2
 72
     6
 73
     3
 74
     0
 42
0.0000000001
 43
0.0000000001
 40
-13.41514557945675
 40
-13.41514557945675
 40
-13.41514557945675
 40
0.0
 40
0.0
 40
0.0
 10
2302.257048758042
 20
3160.392409218574
 30
0.0
 10
2302.257048758048
 20
3167.099982008302
 30
0.0
 10
2302.257048758053
 20
3173.80755479803
 30
0.0
  0
SPLINE
  5
82
330
1F
100
AcDbEntity
  8
Predefinito
100
AcDbSpline
210
0.0
220
0.0
230
1.0
 70
    24
 71
     2
 72
     6
 73
     3
 74
     0
 42
0.0000000001
 43
0.0000000001
 40
0.0
 40
0.0
 40
0.0
 40
48.48518265076382
 40
48.48518265076382
 40
48.48518265076382
 10
2302.257048757977
 20
3111.907226567807
 30
0.0
 10
2302.25704875801
 20
3136.14981789319
 30
0.0
 10
2302.257048758042
 20
3160.392409218574
 30
0.0
  0
SPLINE
  5
83
330
1F
100
AcDbEntity
  8
Predefinito
100
AcDbSpline
210
0.0
220
0.0
230
1.0
 70
    12
 71
     2
 72
     6
 73
     3
 74
     0
 42
0.0000000001
 43
0.0000000001
 40
0.0
 40
0.0
 40
0.0
 40
5.825255072983518
 40
5.825255072983518
 40
5.825255072983518
 10
2302.104736536293
 20
3106.074867869333
 30
0.0
 41
1.0
 10
2302.257119362669
 20
3108.993938015344
 30
0.0
 41
0.9996596890469287
 10
2302.257048757977
 20
3111.907226567807
 30
0.0
 41
1.0
  0
SPLINE
  5
84
330
1F
100
AcDbEntity
  8
Predefinito
100
AcDbSpline
210
0.0
220
0.0
230
1.0
 70
    12
 71
     2
 72
     6
 73
     3
 74
     0
 42
0.0000000001
 43
0.0000000001
 40
0.0
 40
0.0
 40
0.0
 40
5.802352741222836
 40
5.802352741222836
 40
5.802352741222836
 10
2301.685190045496
 20
3100.261617777362
 30
0.0
 41
1.0
 10
2301.952455895304
 20
3103.167545558209
 30
0.0
 41
0.9998061289064409
 10
2302.104736536293
 20
3106.074867869333
 30
0.0
 41
1.0
  0
SPLINE
  5
85
330
1F
100
AcDbEntity
  8
Predefinito
100
AcDbSpline
210
0.0
220
0.0
230
1.0
 70
    12
 71
     2
 72
     6
 73
     3
 74
     0
 42
0.0000000001
 43
0.0000000001
 40
0.0
 40
0.0
 40
0.0
 40
5.934888114017529
 40
5.934888114017529
 40
5.934888114017529
 10
2301.03422116718
 20
3094.323926661836
 30
0.0
 41
1.0
 10
2301.41118069107
 20
3097.289844384678
 30
0.0
 41
0.9998514509076131
 10
2301.685190045496
 20
3100.261617777362
 30
0.0
 41
1.0
  0
SPLINE
  5
86
330
1F
100
AcDbEntity
  8
Predefinito
100
AcDbSpline
210
0.0
220
0.0
230
1.0
 70
    12
 71
     2
 72
     6
 73
     3
 74
     0
 42
0.0000000001
 43
0.0000000001
 40
0.0
 40
0.0
 40
0.0
 40
5.900852932123745
 40
5.900852932123745
 40
5.900852932123745
 10
2300.21449315219
 20
3088.428008751109
 30
0.0
 41
1.0
 10
2300.658560353605
 20
3091.375165524733
 30
0.0
 41
0.9999348173362327
 10
2301.03422116718
 20
3094.323926661836
 30
0.0
 41
1.0
  0
SPLINE
  5
87
330
1F
100
AcDbEntity
  8
Predefinito
100
AcDbSpline
210
0.0
220
0.0
230
1.0
 70
    12
 71
     2
 72
     6
 73
     3
 74
     0
 42
0.0000000001
 43
0.0000000001
 40
0.0
 40
0.0
 40
0.0
 40
9.847348987646635
 40
9.847348987646635
 40
9.847348987646635
 10
2298.604757259138
 20
3078.650303344095
 30
0.0
 41
1.0
 10
2299.475412054386
 20
3083.529612747674
 30
0.0
 41
0.9999100490619017
 10
2300.21449315219
 20
3088.428008751109
 30
0.0
 41
1.0
  0
SPLINE
  5
88
330
1F
100
AcDbEntity
  8
Predefinito
100
AcDbSpline
210
0.0
220
0.0
230
1.0
 70
    12
 71
     2
 72
     6
 73
     3
 74
     0
 42
0.0000000001
 43
0.0000000001
 40
0.0
 40
0.0
 40
0.0
 40
9.842257670673524
 40
9.842257670673524
 40
9.842257670673524
 10
2296.863442425688
 20
3068.89497888468
 30
0.0
 41
1.0
 10
2297.733544333134
 20
3073.773979425894
 30
0.0
 41
0.9999999875101899
 10
2298.604757259138
 20
3078.650303344095
 30
0.0
 41
1.0
  0
SPLINE
  5
89
330
1F
100
AcDbEntity
  8
Predefinito
100
AcDbSpline
210
0.0
220
0.0
230
1.0
 70
    12
 71
     2
 72
     6
 73
     3
 74
     0
 42
0.0000000001
 43
0.0000000001
 40
0.0
 40
0.0
 40
0.0
 40
9.411785200571481
 40
9.411785200571481
 40
9.411785200571481
 10
2295.256725467952
 20
3059.552998975326
 30
0.0
 41
1.0
 10
2296.031266439463
 20
3064.227787102649
 30
0.0
 41
0.9999812253835956
 10
2296.863442425688
 20
3068.89497888468
 30
0.0
 41
1.0
  0
SPLINE
  5
8A
330
1F
100
AcDbEntity
  8
Predefinito
100
AcDbSpline
210
0.0
220
0.0
230
1.0
 70
    12
 71
     2
 72
     6
 73
     3
 74
     0
 42
0.0000000001
 43
0.0000000001
 40
0.0
 40
0.0
 40
0.0
 40
9.533047789478116
 40
9.533047789478116
 40
9.533047789478116
 10
2293.873264033245
 20
3050.066458646547
 30
0.0
 41
1.0
 10
2294.473212698654
 20
3054.817706480694
 30
0.0
 41
0.999815988039837
 10
2295.256725467952
 20
3059.552998975326
 30
0.0
 41
1.0
  0
SPLINE
  5
8B
330
1F
100
AcDbEntity
  8
Predefinito
100
AcDbSpline
210
0.0
220
0.0
230
1.0
 70
    12
 71
     2
 72
     6
 73
     3
 74
     0
 42
0.0000000001
 43
0.0000000001
 40
0.0
 40
0.0
 40
0.0
 40
8.948187645906975
 40
8.948187645906975
 40
8.948187645906975
 10
2292.965108013657
 20
3041.129184236783
 30
0.0
 41
1.0
 10
2293.310826041281
 20
3045.604938675291
 30
0.0
 41
0.9997082531661365
 10
2293.873264033245
 20
3050.066458646547
 30
0.0
 41
1.0
  0
SPLINE
  5
8C
330
1F
100
AcDbEntity
  8
Predefinito
100
AcDbSpline
210
0.0
220
0.0
230
1.0
 70
    12
 71
     2
 72
     6
 73
     3
 74
     0
 42
0.0000000001
 43
0.0000000001
 40
0.0
 40
0.0
 40
0.0
 40
9.087550400495278
 40
9.087550400495278
 40
9.087550400495278
 10
2292.615197640312
 20
3032.036494868209
 30
0.0
 41
1.0
 10
2292.614847241137
 20
3036.582514128035
 30
0.0
 41
0.9992597123304172
 10
2292.965108013657
 20
3041.129184236783
 30
0.0
 41
1.0
  0
SPLINE
  5
8D
330
1F
100
AcDbEntity
  8
Predefinito
100
AcDbSpline
210
0.0
220
0.0
230
1.0
 70
    24
 71
     2
 72
     6
 73
     3
 74
     0
 42
0.0000000001
 43
0.0000000001
 40
0.0
 40
0.0
 40
0.0
 40
2.0
 40
2.0
 40
2.0
 10
2292.615197640312
 20
3030.03649486821
 30
0.0
 10
2292.615197640312
 20
3031.03649486821
 30
0.0
 10
2292.615197640312
 20
3032.036494868209
 30
0.0
  0
SPLINE
  5
8E
330
1F
100
AcDbEntity
  8
Predefinito
100
AcDbSpline
210
0.0
220
0.0
230
1.0
 70
    12
 71
     2
 72
     6
 73
     3
 74
     0
 42
0.0000000001
 43
0.0000000001
 40
0.0
 40
0.0
 40
0.0
 40
1.534898272014069
 40
1.534898272014069
 40
1.534898272014069
 10
2292.645425586704
 20
3028.445948081887
 30
0.0
 41
1.0
 10
2292.615046552291
 20
3029.268958180593
 30
0.0
 41
0.9998288772710803
 10
2292.615197640312
 20
3030.03649486821
 30
0.0
 41
1.0
  0
SPLINE
  5
8F
330
1F
100
AcDbEntity
  8
Predefinito
100
AcDbSpline
210
0.0
220
0.0
230
1.0
 70
    12
 71
     2
 72
     6
 73
     3
 74
     0
 42
0.0000000001
 43
0.0000000001
 40
0.0
 40
0.0
 40
0.0
 40
1.306336098286487
 40
1.306336098286487
 40
1.306336098286487
 10
2292.712785589053
 20
3027.069581740333
 30
0.0
 41
1.0
 10
2292.672746692408
 20
3027.737247813416
 30
0.0
 41
0.9999432196963688
 10
2292.645425586704
 20
3028.445948081887
 30
0.0
 41
1.0
  0
SPLINE
  5
90
330
1F
100
AcDbEntity
  8
Predefinito
100
AcDbSpline
210
0.0
220
0.0
230
1.0
 70
    12
 71
     2
 72
     6
 73
     3
 74
     0
 42
0.0000000001
 43
0.0000000001
 40
0.0
 40
0.0
 40
0.0
 40
1.21281622030254
 40
1.21281622030254
 40
1.21281622030254
 10
2292.796591601758
 20
3025.819320454459
 30
0.0
 41
1.0
 10
2292.750474436476
 20
3026.448635699116
 30
0.0
 41
0.9999804663080551
 10
2292.712785589053
 20
3027.069581740333
 30
0.0
 41
1.0
  0
SPLINE
  5
91
330
1F
100
AcDbEntity
  8
Predefinito
100
AcDbSpline
210
0.0
220
0.0
230
1.0
 70
    12
 71
     2
 72
     6
 73
     3
 74
     0
 42
0.0000000001
 43
0.0000000001
 40
0.0
 40
0.0
 40
0.0
 40
1.05341177961165
 40
1.05341177961165
 40
1.05341177961165
 10
2292.87106026483
 20
3024.701460486671
 30
0.0
 41
1.0
 10
2292.837758621301
 20
3025.2695556791
 30
0.0
 41
0.9999677993593964
 10
2292.796591601758
 20
3025.819320454459
 30
0.0
 41
1.0
  0
SPLINE
  5
92
330
1F
100
AcDbEntity
  8
Predefinito
100
AcDbSpline
210
0.0
220
0.0
230
1.0
 70
    12
 71
     2
 72
     6
 73
     3
 74
     0
 42
0.0000000001
 43
0.0000000001
 40
0.0
 40
0.0
 40
0.0
 40
1.407049246372992
 40
1.407049246372992
 40
1.407049246372992
 10
2292.895813437714
 20
3023.224188937628
 30
0.0
 41
1.0
 10
2292.916003703025
 20
3023.956489367857
 30
0.0
 41
0.9990457580403147
 10
2292.87106026483
 20
3024.701460486671
 30
0.0
 41
1.0
  0
SPLINE
  5
93
330
1F
100
AcDbEntity
  8
Predefinito
100
AcDbSpline
210
0.0
220
0.0
230
1.0
 70
    12
 71
     2
 72
     6
 73
     3
 74
     0
 42
0.0000000001
 43
0.0000000001
 40
0.0
 40
0.0
 40
0.0
 40
0.7033634825887669
 40
0.7033634825887669
 40
0.7033634825887669
 10
2292.75319011812
 20
3022.500328183595
 30
0.0
 41
1.0
 10
2292.883681295425
 20
3022.840766593416
 30
0.0
 41
0.9860112525343514
 10
2292.895813437714
 20
3023.224188937628
 30
0.0
 41
1.0
  0
SPLINE
  5
94
330
1F
100
AcDbEntity
  8
Predefinito
100
AcDbSpline
210
0.0
220
0.0
230
1.0
 70
    12
 71
     2
 72
     8
 73
     5
 74
     0
 42
0.0000000001
 43
0.0000000001
 40
-2.501599675926156
 40
-2.501599675926156
 40
-2.501599675926156
 40
-1.527269015275569
 40
-1.527269015275569
 40
0.0
 40
0.0
 40
0.0
 10
2294.004020770581
 20
3020.740723216962
 30
0.0
 41
1.0
 10
2293.498983027577
 20
3020.770904749813
 30
0.0
 41
0.9452589146591668
 10
2293.120123239903
 20
3021.106224460043
 30
0.0
 41
1.0
 10
2292.449462100948
 20
3021.668995698527
 30
0.0
 41
0.8189140653758044
 10
2292.75319011812
 20
3022.500328183595
 30
0.0
 41
1.0
  0
SPLINE
  5
95
330
1F
100
AcDbEntity
  8
Predefinito
100
AcDbSpline
210
0.0
220
0.0
230
1.0
 70
    12
 71
     2
 72
     6
 73
     3
 74
     0
 42
0.0000000001
 43
0.0000000001
 40
-1.095832421727457
 40
-1.095832421727457
 40
-1.095832421727457
 40
0.0
 40
0.0
 40
0.0
 10
2295.003243851934
 20
3021.105168333032
 30
0.0
 41
1.0
 10
2294.58542431253
 20
3020.69869127977
 30
0.0
 41
0.9123110751708563
 10
2294.004020770581
 20
3020.740723216962
 30
0.0
 41
1.0
  0
SPLINE
  5
96
330
1F
100
AcDbEntity
  8
Predefinito
100
AcDbSpline
210
0.0
220
0.0
230
1.0
 70
    12
 71
     2
 72
     6
 73
     3
 74
     0
 42
0.0000000001
 43
0.0000000001
 40
-0.4681372653380217
 40
-0.4681372653380217
 40
-0.4681372653380217
 40
0.0
 40
0.0
 40
0.0
 10
2295.258498700475
 20
3021.493721128299
 30
0.0
 41
0.9999999413479289
 10
2295.171115645597
 20
3021.273006696402
 30
0.0
 41
0.9791861797853636
 10
2295.003243851934
 20
3021.105168333032
 30
0.0
 41
1.0
  0
SPLINE
  5
97
330
1F
100
AcDbEntity
  8
Predefinito
100
AcDbSpline
210
0.0
220
0.0
230
1.0
 70
    12
 71
     2
 72
     6
 73
     3
 74
     0
 42
0.0000000001
 43
0.0000000001
 40
0.0
 40
0.0
 40
0.0
 40
1.473002384164126
 40
1.473002384164126
 40
1.473002384164126
 10
2295.585499920679
 20
3022.924370622981
 30
0.0
 41
1.0
 10
2295.533530965867
 20
3022.18349480237
 30
0.0
 41
0.9877582631487596
 10
2295.258498700475
 20
3021.493721128298
 30
0.0
 41
0.9999999916002136
  0
POLYLINE
  5
98
330
1F
100
AcDbEntity
  8
Predefinito
100
AcDb2dPolyline
 66
     1
 10
0.0
 20
0.0
 30
0.0
  0
VERTEX
  5
99
330
98
100
AcDbEntity
  8
Predefinito
100
AcDbVertex
100
AcDb2dVertex
 10
2295.57838234361
 20
3024.632763848162
 30
0.0
  0
VERTEX
  5
9A
330
98
100
AcDbEntity
  8
Predefinito
100
AcDbVertex
100
AcDb2dVertex
 10
2295.595399803063
 20
3023.157597715164
 30
0.0
  0
VERTEX
  5
9B
330
98
100
AcDbEntity
  8
Predefinito
100
AcDbVertex
100
AcDb2dVertex
 10
2295.585499920679
 20
3022.924370622981
 30
0.0
  0
SEQEND
  5
9C
330
98
100
AcDbEntity
  8
Predefinito
  0
LINE
  5
9D
330
1F
100
AcDbEntity
  8
Predefinito
100
AcDbLine
 10
2295.409671741671
 20
3027.202900606714
 30
0.0
 11
2295.57838234361
 21
3024.632763848162
 31
0.0
  0
SPLINE
  5
9E
330
1F
100
AcDbEntity
  8
Predefinito
100
AcDbSpline
210
0.0
220
0.0
230
1.0
 70
    12
 71
     2
 72
     6
 73
     3
 74
     0
 42
0.0000000001
 43
0.0000000001
 40
0.0
 40
0.0
 40
0.0
 40
1.343426695667409
 40
1.343426695667409
 40
1.343426695667409
 10
2295.342445595069
 20
3028.575089976758
 30
0.0
 41
1.0
 10
2295.368192415891
 20
3027.889062655816
 30
0.0
 41
0.9999347191345723
 10
2295.409671741671
 20
3027.202900606714
 30
0.0
 41
1.0
  0
SPLINE
  5
9F
330
1F
100
AcDbEntity
  8
Predefinito
100
AcDbSpline
210
0.0
220
0.0
230
1.0
 70
    12
 71
     2
 72
     6
 73
     3
 74
     0
 42
0.0000000001
 43
0.0000000001
 40
0.0
 40
0.0
 40
0.0
 40
1.44697784884194
 40
1.44697784884194
 40
1.44697784884194
 10
2295.315197640311
 20
3030.03649486821
 30
0.0
 41
1.0
 10
2295.315046234761
 20
3029.312922003692
 30
0.0
 41
0.99982596455134
 10
2295.342445595069
 20
3028.575089976758
 30
0.0
 41
1.0
  0
SPLINE
  5
A0
330
1F
100
AcDbEntity
  8
Predefinito
100
AcDbSpline
210
0.0
220
0.0
230
1.0
 70
    24
 71
     2
 72
     6
 73
     3
 74
     0
 42
0.0000000001
 43
0.0000000001
 40
0.0
 40
0.0
 40
0.0
 40
2.0
 40
2.0
 40
2.0
 10
2295.315197640311
 20
3032.036494868209
 30
0.0
 10
2295.315197640311
 20
3031.03649486821
 30
0.0
 10
2295.315197640311
 20
3030.03649486821
 30
0.0
  0
SPLINE
  5
A1
330
1F
100
AcDbEntity
  8
Predefinito
100
AcDbSpline
210
0.0
220
0.0
230
1.0
 70
    12
 71
     2
 72
     6
 73
     3
 74
     0
 42
0.0000000001
 43
0.0000000001
 40
0.0
 40
0.0
 40
0.0
 40
8.85127432853329
 40
8.85127432853329
 40
8.85127432853329
 10
2295.656219968339
 20
3040.909960803293
 30
0.0
 41
1.0
 10
2295.314857218401
 20
3036.464303451743
 30
0.0
 41
0.9992645504484123
 10
2295.315197640311
 20
3032.036494868209
 30
0.0
 41
1.0
  0
SPLINE
  5
A2
330
1F
100
AcDbEntity
  8
Predefinito
100
AcDbSpline
210
0.0
220
0.0
230
1.0
 70
    12
 71
     2
 72
     6
 73
     3
 74
     0
 42
0.0000000001
 43
0.0000000001
 40
0.0
 40
0.0
 40
0.0
 40
8.768160279960247
 40
8.768160279960247
 40
8.768160279960247
 10
2296.550041976612
 20
3049.712720704436
 30
0.0
 41
1.0
 10
2295.996434496421
 20
3045.312694318211
 30
0.0
 41
0.9997115779678956
 10
2295.656219968339
 20
3040.909960803293
 30
0.0
 41
1.0
  0
SPLINE
  5
A3
330
1F
100
AcDbEntity
  8
Predefinito
100
AcDbSpline
210
0.0
220
0.0
230
1.0
 70
    12
 71
     2
 72
     6
 73
     3
 74
     0
 42
0.0000000001
 43
0.0000000001
 40
0.0
 40
0.0
 40
0.0
 40
9.427931681436055
 40
9.427931681436055
 40
9.427931681436055
 10
2297.923041807509
 20
3059.127540267447
 30
0.0
 41
1.0
 10
2297.147132124908
 20
3054.439495060863
 30
0.0
 41
0.9998160357878842
 10
2296.550041976612
 20
3049.712720704436
 30
0.0
 41
1.0
  0
SPLINE
  5
A4
330
1F
100
AcDbEntity
  8
Predefinito
100
AcDbSpline
210
0.0
220
0.0
230
1.0
 70
    12
 71
     2
 72
     6
 73
     3
 74
     0
 42
0.0000000001
 43
0.0000000001
 40
0.0
 40
0.0
 40
0.0
 40
9.370840536264573
 40
9.370840536264573
 40
9.370840536264573
 10
2299.524763632694
 20
3068.439222812682
 30
0.0
 41
1.0
 10
2298.695132039988
 20
3063.786756868245
 30
0.0
 41
0.9999812561091065
 10
2297.923041807509
 20
3059.127540267447
 30
0.0
 41
1.0
  0
SPLINE
  5
A5
330
1F
100
AcDbEntity
  8
Predefinito
100
AcDbSpline
210
0.0
220
0.0
230
1.0
 70
    12
 71
     2
 72
     6
 73
     3
 74
     0
 42
0.0000000001
 43
0.0000000001
 40
0.0
 40
0.0
 40
0.0
 40
9.82539645170417
 40
9.82539645170417
 40
9.82539645170417
 10
2301.265505557822
 20
3078.19131900199
 30
0.0
 41
1.0
 10
2300.394359904293
 20
3073.31536599784
 30
0.0
 41
0.9999999875507742
 10
2299.524763632694
 20
3068.439222812682
 30
0.0
 41
1.0
  0
SPLINE
  5
A6
330
1F
100
AcDbEntity
  8
Predefinito
100
AcDbSpline
210
0.0
220
0.0
230
1.0
 70
    12
 71
     2
 72
     6
 73
     3
 74
     0
 42
0.0000000001
 43
0.0000000001
 40
0.0
 40
0.0
 40
0.0
 40
9.905451343508158
 40
9.905451343508158
 40
9.905451343508158
 10
2302.886235650882
 20
3088.038191776711
 30
0.0
 41
1.0
 10
2302.142362952301
 20
3083.107213389694
 30
0.0
 41
0.9999103178819402
 10
2301.265505557822
 20
3078.19131900199
 30
0.0
 41
1.0
  0
SPLINE
  5
A7
330
1F
100
AcDbEntity
  8
Predefinito
100
AcDbSpline
210
0.0
220
0.0
230
1.0
 70
    12
 71
     2
 72
     6
 73
     3
 74
     0
 42
0.0000000001
 43
0.0000000001
 40
0.0
 40
0.0
 40
0.0
 40
5.901838231079212
 40
5.901838231079212
 40
5.901838231079212
 10
2303.710553513361
 20
3093.966887246894
 30
0.0
 41
1.0
 10
2303.330768338667
 20
3090.989698388546
 30
0.0
 41
0.9999361344904052
 10
2302.886235650882
 20
3088.038191776711
 30
0.0
 41
1.0
  0
SPLINE
  5
A8
330
1F
100
AcDbEntity
  8
Predefinito
100
AcDbSpline
210
0.0
220
0.0
230
1.0
 70
    12
 71
     2
 72
     6
 73
     3
 74
     0
 42
0.0000000001
 43
0.0000000001
 40
0.0
 40
0.0
 40
0.0
 40
5.983023659193321
 40
5.983023659193321
 40
5.983023659193321
 10
2304.372563874599
 20
3100.000504110763
 30
0.0
 41
1.0
 10
2304.093921361568
 20
3096.984707935779
 30
0.0
 41
0.9998536489247949
 10
2303.710553513361
 20
3093.966887246894
 30
0.0
 41
1.0
  0
SPLINE
  5
A9
330
1F
100
AcDbEntity
  8
Predefinito
100
AcDbSpline
210
0.0
220
0.0
230
1.0
 70
    12
 71
     2
 72
     6
 73
     3
 74
     0
 42
0.0000000001
 43
0.0000000001
 40
0.0
 40
0.0
 40
0.0
 40
5.882717153388692
 40
5.882717153388692
 40
5.882717153388692
 10
2304.800011106679
 20
3105.914004240571
 30
0.0
 41
1.0
 10
2304.645243145318
 20
3102.966569424636
 30
0.0
 41
0.9998078252757359
 10
2304.372563874599
 20
3100.000504110763
 30
0.0
 41
1.0
  0
SPLINE
  5
AA
330
1F
100
AcDbEntity
  8
Predefinito
100
AcDbSpline
210
0.0
220
0.0
230
1.0
 70
    12
 71
     2
 72
     6
 73
     3
 74
     0
 42
0.0000000001
 43
0.0000000001
 40
0.0
 40
0.0
 40
0.0
 40
5.986206500552917
 40
5.986206500552917
 40
5.986206500552917
 10
2304.957048757977
 20
3111.907226567807
 30
0.0
 41
1.0
 10
2304.957121164284
 20
3108.913439422362
 30
0.0
 41
0.9996573775739365
 10
2304.800011106679
 20
3105.914004240571
 30
0.0
 41
1.0
  0
SPLINE
  5
AB
330
1F
100
AcDbEntity
  8
Predefinito
100
AcDbSpline
210
0.0
220
0.0
230
1.0
 70
    24
 71
     2
 72
     6
 73
     3
 74
     0
 42
0.0000000001
 43
0.0000000001
 40
0.0
 40
0.0
 40
0.0
 40
48.48518265076382
 40
48.48518265076382
 40
48.48518265076382
 10
2304.957048758042
 20
3160.392409218574
 30
0.0
 10
2304.957048758009
 20
3136.14981789319
 30
0.0
 10
2304.957048757977
 20
3111.907226567807
 30
0.0
  0
SPLINE
  5
AC
330
1F
100
AcDbEntity
  8
Predefinito
100
AcDbSpline
210
0.0
220
0.0
230
1.0
 70
    24
 71
     2
 72
     6
 73
     3
 74
     0
 42
0.0000000001
 43
0.0000000001
 40
0.0
 40
0.0
 40
0.0
 40
13.41514557945675
 40
13.41514557945675
 40
13.41514557945675
 10
2304.957048758108
 20
3173.80755479803
 30
0.0
 10
2304.957048758074
 20
3167.099982008302
 30
0.0
 10
2304.957048758042
 20
3160.392409218574
 30
0.0
  0
SPLINE
  5
AD
330
1F
100
AcDbEntity
  8
Predefinito
100
AcDbSpline
210
0.0
220
0.0
230
1.0
 70
    24
 71
     2
 72
     6
 73
     3
 74
     0
 42
0.0000000001
 43
0.0000000001
 40
-26.80000000000018
 40
-26.80000000000018
 40
-26.80000000000018
 40
0.0
 40
0.0
 40
0.0
 10
1903.45376860773
 20
3494.952254198613
 30
0.0
 10
1903.45376860773
 20
3508.352254198613
 30
0.0
 10
1903.45376860773
 20
3521.752254198613
 30
0.0
  0
SPLINE
  5
AE
330
1F
100
AcDbEntity
  8
Predefinito
100
AcDbSpline
210
0.0
220
0.0
230
1.0
 70
    24
 71
     2
 72
     6
 73
     3
 74
     0
 42
0.0000000001
 43
0.0000000001
 40
0.0
 40
0.0
 40
0.0
 40
12.0
 40
12.0
 40
12.0
 10
1915.45376860773
 20
3494.952254198613
 30
0.0
 10
1909.45376860773
 20
3494.952254198613
 30
0.0
 10
1903.45376860773
 20
3494.952254198613
 30
0.0
  0
SPLINE
  5
AF
330
1F
100
AcDbEntity
  8
Predefinito
100
AcDbSpline
210
0.0
220
0.0
230
1.0
 70
    24
 71
     2
 72
     6
 73
     3
 74
     0
 42
0.0000000001
 43
0.0000000001
 40
0.0
 40
0.0
 40
0.0
 40
26.80000000000018
 40
26.80000000000018
 40
26.80000000000018
 10
1915.45376860773
 20
3521.752254198613
 30
0.0
 10
1915.45376860773
 20
3508.352254198613
 30
0.0
 10
1915.45376860773
 20
3494.952254198613
 30
0.0
  0
SPLINE
  5
B0
330
1F
100
AcDbEntity
  8
Predefinito
100
AcDbSpline
210
0.0
220
0.0
230
1.0
 70
    24
 71
     2
 72
     6
 73
     3
 74
     0
 42
0.0000000001
 43
0.0000000001
 40
0.0
 40
0.0
 40
0.0
 40
1.98362461089918
 40
1.98362461089918
 40
1.98362461089918
 10
2314.518175255328
 20
3022.813159698186
 30
0.0
 10
2315.435448136285
 20
3022.41431809833
 30
0.0
 10
2316.352721017242
 20
3022.015476498473
 30
0.0
  0
SPLINE
  5
B1
330
1F
100
AcDbEntity
  8
Predefinito
100
AcDbSpline
210
0.0
220
0.0
230
1.0
 70
    24
 71
     2
 72
     6
 73
     3
 74
     0
 42
0.0000000001
 43
0.0000000001
 40
0.0
 40
0.0
 40
0.0
 40
6.500000000000005
 40
6.500000000000005
 40
6.500000000000005
 10
2308.557293324983
 20
3025.405055593795
 30
0.0
 10
2311.537734290157
 20
3024.109107645991
 30
0.0
 10
2314.518175255328
 20
3022.813159698186
 30
0.0
  0
SPLINE
  5
B2
330
1F
100
AcDbEntity
  8
Predefinito
100
AcDbSpline
210
0.0
220
0.0
230
1.0
 70
    12
 71
     2
 72
     8
 73
     5
 74
     0
 42
0.0000000001
 43
0.0000000001
 40
0.0
 40
0.0
 40
0.0
 40
0.016978017703992
 40
0.016978017703992
 40
2.050991241907468
 40
2.050991241907468
 40
2.050991241907468
 10
2306.722738999656
 20
3026.202711814968
 30
0.0
 41
1.0
 10
2306.715017973168
 20
3026.206068977428
 30
0.0
 41
1.0
 10
2306.707296959627
 20
3026.209426169663
 30
0.0
 41
1.0
 10
2307.632303216938
 20
3025.807283406103
 30
0.0
 41
1.0
 10
2308.557293324983
 20
3025.405055593795
 30
0.0
 41
1.0
  0
SPLINE
  5
B3
330
1F
100
AcDbEntity
  8
Predefinito
100
AcDbSpline
210
0.0
220
0.0
230
1.0
 70
    12
 71
     2
 72
     6
 73
     3
 74
     0
 42
0.0000000001
 43
0.0000000001
 40
0.0
 40
0.0
 40
0.0
 40
1.552122167575411
 40
1.552122167575411
 40
1.552122167575411
 10
2305.398779380926
 20
3025.707481796602
 30
0.0
 41
1.0
 10
2305.807283417114
 20
3026.600017477542
 30
0.0
 41
0.7140636867382304
 10
2306.722738999656
 20
3026.202711814968
 30
0.0
 41
1.0
  0
SPLINE
  5
B4
330
1F
100
AcDbEntity
  8
Predefinito
100
AcDbSpline
210
0.0
220
0.0
230
1.0
 70
    24
 71
     2
 72
     6
 73
     3
 74
     0
 42
0.0000000001
 43
0.0000000001
 40
0.0
 40
0.0
 40
0.0
 40
0.915846699135931
 40
0.915846699135931
 40
0.915846699135931
 10
2305.018791210266
 20
3024.873674343753
 30
0.0
 10
2305.208785295596
 20
3025.290578070177
 30
0.0
 10
2305.398779380926
 20
3025.707481796602
 30
0.0
  0
SPLINE
  5
B5
330
1F
100
AcDbEntity
  8
Predefinito
100
AcDbSpline
210
0.0
220
0.0
230
1.0
 70
    12
 71
     2
 72
     6
 73
     3
 74
     0
 42
0.0000000001
 43
0.0000000001
 40
-2.205531297293621
 40
-2.205531297293621
 40
-2.205531297293621
 40
0.0
 40
0.0
 40
0.0
 10
2305.941231309534
 20
3022.870417009624
 30
0.0
 41
1.0
 10
2305.460081807471
 20
3023.862894754328
 30
0.0
 41
0.9998023174420922
 10
2305.018791210266
 20
3024.873674343753
 30
0.0
 41
1.0
  0
SPLINE
  5
B6
330
1F
100
AcDbEntity
  8
Predefinito
100
AcDbSpline
210
0.0
220
0.0
230
1.0
 70
    12
 71
     2
 72
     6
 73
     3
 74
     0
 42
0.0000000001
 43
0.0000000001
 40
-1.517908609306868
 40
-1.517908609306868
 40
-1.517908609306868
 40
0.0
 40
0.0
 40
0.0
 10
2307.000621570372
 20
3021.824948383781
 30
0.0
 41
1.0
 10
2306.284363828649
 20
3022.158600076675
 30
0.0
 41
0.9418046425172678
 10
2305.941231309534
 20
3022.870417009624
 30
0.0
 41
1.0
  0
SPLINE
  5
B7
330
1F
100
AcDbEntity
  8
Predefinito
100
AcDbSpline
210
0.0
220
0.0
230
1.0
 70
    24
 71
     2
 72
     6
 73
     3
 74
     0
 42
0.0000000001
 43
0.0000000001
 40
-6.500000000000658
 40
-6.500000000000658
 40
-6.500000000000658
 40
0.0
 40
0.0
 40
0.0
 10
2312.961512053876
 20
3019.233079435767
 30
0.0
 10
2309.981066812124
 20
3020.529013909774
 30
0.0
 10
2307.000621570372
 20
3021.824948383781
 30
0.0
  0
SPLINE
  5
B8
330
1F
100
AcDbEntity
  8
Predefinito
100
AcDbSpline
210
0.0
220
0.0
230
1.0
 70
    12
 71
     2
 72
     6
 73
     3
 74
     0
 42
0.0000000001
 43
0.0000000001
 40
-1.51805064308941
 40
-1.51805064308941
 40
-1.51805064308941
 40
0.0
 40
0.0
 40
0.0
 10
2314.448621823812
 20
3019.171298335348
 30
0.0
 41
1.0
 10
2313.693987789487
 20
3018.936111272848
 30
0.0
 41
0.94153158810869
 10
2312.961512053876
 20
3019.233079435767
 30
0.0
 41
1.0
  0
SPLINE
  5
B9
330
1F
100
AcDbEntity
  8
Predefinito
100
AcDbSpline
210
0.0
220
0.0
230
1.0
 70
    12
 71
     2
 72
     6
 73
     3
 74
     0
 42
0.0000000001
 43
0.0000000001
 40
-2.205530080500143
 40
-2.205530080500143
 40
-2.205530080500143
 40
0.0
 40
0.0
 40
0.0
 10
2316.542814125439
 20
3019.862886570903
 30
0.0
 41
1.0
 10
2315.502588410991
 20
3019.496363440232
 30
0.0
 41
0.9998039725625734
 10
2314.448621823812
 20
3019.171298335348
 30
0.0
 41
1.0
  0
SPLINE
  5
BA
330
1F
100
AcDbEntity
  8
Predefinito
100
AcDbSpline
210
0.0
220
0.0
230
1.0
 70
    24
 71
     2
 72
     6
 73
     3
 74
     0
 42
0.0000000001
 43
0.0000000001
 40
0.0
 40
0.0
 40
0.0
 40
0.9158466991343047
 40
0.9158466991343047
 40
0.9158466991343047
 10
2316.893470595759
 20
3020.709446679722
 30
0.0
 10
2316.7181423606
 20
3020.286166625313
 30
0.0
 10
2316.542814125439
 20
3019.862886570903
 30
0.0
  0
SPLINE
  5
BB
330
1F
100
AcDbEntity
  8
Predefinito
100
AcDbSpline
210
0.0
220
0.0
230
1.0
 70
    12
 71
     2
 72
     6
 73
     3
 74
     0
 42
0.0000000001
 43
0.0000000001
 40
0.0
 40
0.0
 40
0.0
 40
1.552221276945727
 40
1.552221276945727
 40
1.552221276945727
 10
2316.352721017242
 20
3022.015476498473
 30
0.0
 41
1.0
 10
2317.267928490534
 20
3021.617035168287
 30
0.0
 41
0.713900592324401
 10
2316.893470595759
 20
3020.709446679722
 30
0.0
 41
1.0
  0
SPLINE
  5
BC
330
1F
100
AcDbEntity
  8
Predefinito
100
AcDbSpline
210
0.0
220
0.0
230
1.0
 70
    28
 71
     2
 72
     8
 73
     5
 74
     0
 42
0.0000000001
 43
0.0000000001
 40
-20.4203522483337
 40
-20.4203522483337
 40
-20.4203522483337
 40
-10.11752208627083
 40
-10.11752208627083
 40
0.0
 40
0.0
 40
0.0
 10
2297.131783218714
 20
3173.80755479803
 30
0.0
 41
1.0
 10
2297.698295546574
 20
3173.80755479803
 30
0.0
 41
0.707106781186548
 10
2304.173561084171
 20
3173.80755479803
 30
0.0
 41
1.0
 10
2310.48533826009
 20
3173.807554798031
 30
0.0
 41
0.7123747976380552
 10
2310.094681525109
 20
3173.807554797996
 30
0.0
 41
0.9896534695883425
  0
SPLINE
  5
BD
330
1F
100
AcDbEntity
  8
Predefinito
100
AcDbSpline
210
0.0
220
0.0
230
1.0
 70
    24
 71
     2
 72
     6
 73
     3
 74
     0
 42
0.0000000001
 43
0.0000000001
 40
-50.50000000013324
 40
-50.50000000013324
 40
-50.50000000013324
 40
0.0
 40
0.0
 40
0.0
 10
2297.131783218714
 20
3224.307554798164
 30
0.0
 10
2297.131783218714
 20
3199.057554798097
 30
0.0
 10
2297.131783218714
 20
3173.80755479803
 30
0.0
  0
SPLINE
  5
BE
330
1F
100
AcDbEntity
  8
Predefinito
100
AcDbSpline
210
0.0
220
0.0
230
1.0
 70
    28
 71
     2
 72
     8
 73
     5
 74
     0
 42
0.0000000001
 43
0.0000000001
 40
0.0
 40
0.0
 40
0.0
 40
10.11752208627331
 40
10.11752208627331
 40
20.4203522483337
 40
20.4203522483337
 40
20.4203522483337
 10
2310.094681525109
 20
3224.307554798162
 30
0.0
 41
0.9896534695886122
 10
2310.485338260095
 20
3224.307554798164
 30
0.0
 41
0.7123747976379153
 10
2304.173561084171
 20
3224.307554798164
 30
0.0
 41
1.0
 10
2297.698295546574
 20
3224.307554798163
 30
0.0
 41
0.707106781186548
 10
2297.131783218714
 20
3224.307554798164
 30
0.0
 41
1.0
  0
SPLINE
  5
BF
330
1F
100
AcDbEntity
  8
Predefinito
100
AcDbSpline
210
0.0
220
0.0
230
1.0
 70
    24
 71
     2
 72
     6
 73
     3
 74
     0
 42
0.0000000001
 43
0.0000000001
 40
-50.50000000020009
 40
-50.50000000020009
 40
-50.50000000020009
 40
0.0
 40
0.0
 40
0.0
 10
2310.094681525109
 20
3173.807554797997
 30
0.0
 10
2310.094681525109
 20
3199.057554798081
 30
0.0
 10
2310.094681525109
 20
3224.307554798164
 30
0.0
  0
SPLINE
  5
C0
330
1F
100
AcDbEntity
  8
Predefinito
100
AcDbSpline
210
0.0
220
0.0
230
1.0
 70
    24
 71
     2
 72
     6
 73
     3
 74
     0
 42
0.0000000001
 43
0.0000000001
 40
0.0
 40
0.0
 40
0.0
 40
18.49999999999864
 40
18.49999999999864
 40
18.49999999999864
 10
2286.653604331314
 20
3461.752254244444
 30
0.0
 10
2286.653604331314
 20
3471.002254244444
 30
0.0
 10
2286.653604331314
 20
3480.252254244443
 30
0.0
  0
SPLINE
  5
C1
330
1F
100
AcDbEntity
  8
Predefinito
100
AcDbSpline
210
0.0
220
0.0
230
1.0
 70
    12
 71
     2
 72
     6
 73
     3
 74
     0
 42
0.0000000001
 43
0.0000000001
 40
0.0
 40
0.0
 40
0.0
 40
2.437153609355465
 40
2.437153609355465
 40
2.437153609355465
 10
2286.796712698979
 20
3459.320711843772
 30
0.0
 41
1.0
 10
2286.653604331314
 20
3460.532271724393
 30
0.0
 41
0.9982725324960108
 10
2286.653604331314
 20
3461.752254244444
 30
0.0
 41
1.0
  0
SPLINE
  5
C2
330
1F
100
AcDbEntity
  8
Predefinito
100
AcDbSpline
210
0.0
220
0.0
230
1.0
 70
    12
 71
     2
 72
     6
 73
     3
 74
     0
 42
0.0000000001
 43
0.0000000001
 40
0.0
 40
0.0
 40
0.0
 40
2.425167727434738
 40
2.425167727434738
 40
2.425167727434738
 10
2287.211050417468
 20
3456.932405872636
 30
0.0
 41
1.0
 10
2286.939092635324
 20
3458.11531888526
 30
0.0
 41
0.9985314319357212
 10
2286.796712698979
 20
3459.320711843772
 30
0.0
 41
1.0
  0
SPLINE
  5
C3
330
1F
100
AcDbEntity
  8
Predefinito
100
AcDbSpline
210
0.0
220
0.0
230
1.0
 70
    12
 71
     2
 72
     6
 73
     3
 74
     0
 42
0.0000000001
 43
0.0000000001
 40
0.0
 40
0.0
 40
0.0
 40
2.373650497117807
 40
2.373650497117807
 40
2.373650497117807
 10
2287.855438104298
 20
3454.648886168528
 30
0.0
 41
1.0
 10
2287.477183907296
 20
3455.774826318432
 30
0.0
 41
0.9987967724954714
 10
2287.211050417468
 20
3456.932405872636
 30
0.0
 41
1.0
  0
SPLINE
  5
C4
330
1F
100
AcDbEntity
  8
Predefinito
100
AcDbSpline
210
0.0
220
0.0
230
1.0
 70
    12
 71
     2
 72
     6
 73
     3
 74
     0
 42
0.0000000001
 43
0.0000000001
 40
0.0
 40
0.0
 40
0.0
 40
2.347559483049648
 40
2.347559483049648
 40
2.347559483049648
 10
2288.689355852897
 20
3452.45507648764
 30
0.0
 41
1.0
 10
2288.229425508044
 20
3453.535646879252
 30
0.0
 41
0.9992335338149112
 10
2287.855438104298
 20
3454.648886168528
 30
0.0
 41
1.0
  0
SPLINE
  5
C5
330
1F
100
AcDbEntity
  8
Predefinito
100
AcDbSpline
210
0.0
220
0.0
230
1.0
 70
    12
 71
     2
 72
     6
 73
     3
 74
     0
 42
0.0000000001
 43
0.0000000001
 40
0.0
 40
0.0
 40
0.0
 40
2.364889977811542
 40
2.364889977811542
 40
2.364889977811542
 10
2289.689211237082
 20
3450.312458211952
 30
0.0
 41
1.0
 10
2289.1526254422
 20
3451.36666080223
 30
0.0
 41
0.9994150763500832
 10
2288.689355852897
 20
3452.45507648764
 30
0.0
 41
1.0
  0
SPLINE
  5
C6
330
1F
100
AcDbEntity
  8
Predefinito
100
AcDbSpline
210
0.0
220
0.0
230
1.0
 70
    12
 71
     2
 72
     6
 73
     3
 74
     0
 42
0.0000000001
 43
0.0000000001
 40
0.0
 40
0.0
 40
0.0
 40
2.337121324876459
 40
2.337121324876459
 40
2.337121324876459
 10
2290.798427242587
 20
3448.255579744976
 30
0.0
 41
1.0
 10
2290.219389282696
 20
3449.270844598009
 30
0.0
 41
0.99971798358022
 10
2289.689211237082
 20
3450.312458211952
 30
0.0
 41
1.0
  0
SPLINE
  5
C7
330
1F
100
AcDbEntity
  8
Predefinito
100
AcDbSpline
210
0.0
220
0.0
230
1.0
 70
    12
 71
     2
 72
     6
 73
     3
 74
     0
 42
0.0000000001
 43
0.0000000001
 40
0.0
 40
0.0
 40
0.0
 40
2.441047037265297
 40
2.441047037265297
 40
2.441047037265297
 10
2292.049194681155
 20
3446.159506787439
 30
0.0
 41
1.0
 10
2291.403177913746
 20
3447.195231125706
 30
0.0
 41
0.9998062606832002
 10
2290.798427242587
 20
3448.255579744976
 30
0.0
 41
1.0
  0
SPLINE
  5
C8
330
1F
100
AcDbEntity
  8
Predefinito
100
AcDbSpline
210
0.0
220
0.0
230
1.0
 70
    12
 71
     2
 72
     6
 73
     3
 74
     0
 42
0.0000000001
 43
0.0000000001
 40
0.0
 40
0.0
 40
0.0
 40
2.414282608064657
 40
2.414282608064657
 40
2.414282608064657
 10
2293.346656734363
 20
3444.123537614539
 30
0.0
 41
1.0
 10
2292.688065759807
 20
3445.135238752062
 30
0.0
 41
0.9999530963879729
 10
2292.049194681155
 20
3446.159506787439
 30
0.0
 41
1.0
  0
SPLINE
  5
C9
330
1F
100
AcDbEntity
  8
Predefinito
100
AcDbSpline
210
0.0
220
0.0
230
1.0
 70
    12
 71
     2
 72
     6
 73
     3
 74
     0
 42
0.0000000001
 43
0.0000000001
 40
0.0
 40
0.0
 40
0.0
 40
2.496689530681316
 40
2.496689530681316
 40
2.496689530681316
 10
2294.719436119859
 20
3442.038140532168
 30
0.0
 41
1.0
 10
2294.027712097879
 20
3443.077327580377
 30
0.0
 41
0.9999869141004948
 10
2293.346656734363
 20
3444.123537614539
 30
0.0
 41
1.0
  0
SPLINE
  5
CA
330
1F
100
AcDbEntity
  8
Predefinito
100
AcDbSpline
210
0.0
220
0.0
230
1.0
 70
    12
 71
     2
 72
     6
 73
     3
 74
     0
 42
0.0000000001
 43
0.0000000001
 40
-2.469709320371384
 40
-2.469709320371384
 40
-2.469709320371384
 40
0.0
 40
0.0
 40
0.0
 10
2296.07787276402
 20
3439.975601892239
 30
0.0
 41
1.0
 10
2295.403684556507
 20
3441.010184164417
 30
0.0
 41
0.999988104743446
 10
2294.719436119859
 20
3442.038140532168
 30
0.0
 41
1.0
  0
SPLINE
  5
CB
330
1F
100
AcDbEntity
  8
Predefinito
100
AcDbSpline
210
0.0
220
0.0
230
1.0
 70
    12
 71
     2
 72
     6
 73
     3
 74
     0
 42
0.0000000001
 43
0.0000000001
 40
-2.360918597554468
 40
-2.360918597554468
 40
-2.360918597554468
 40
0.0
 40
0.0
 40
0.0
 10
2297.348092535273
 20
3437.985548437821
 30
0.0
 41
1.0
 10
2296.722377011628
 20
3438.986571438297
 30
0.0
 41
0.9999554337534022
 10
2296.07787276402
 20
3439.975601892239
 30
0.0
 41
1.0
  0
SPLINE
  5
CC
330
1F
100
AcDbEntity
  8
Predefinito
100
AcDbSpline
210
0.0
220
0.0
230
1.0
 70
    12
 71
     2
 72
     6
 73
     3
 74
     0
 42
0.0000000001
 43
0.0000000001
 40
-2.33379360888021
 40
-2.33379360888021
 40
-2.33379360888021
 40
0.0
 40
0.0
 40
0.0
 10
2298.546405708527
 20
3435.983061309103
 30
0.0
 41
1.0
 10
2297.966678358385
 20
3436.995931569928
 30
0.0
 41
0.9998117741070449
 10
2297.348092535273
 20
3437.985548437821
 30
0.0
 41
1.0
  0
SPLINE
  5
CD
330
1F
100
AcDbEntity
  8
Predefinito
100
AcDbSpline
210
0.0
220
0.0
230
1.0
 70
    12
 71
     2
 72
     6
 73
     3
 74
     0
 42
0.0000000001
 43
0.0000000001
 40
-2.206114380997753
 40
-2.206114380997753
 40
-2.206114380997753
 40
0.0
 40
0.0
 40
0.0
 10
2299.597023838168
 20
3434.043408975568
 30
0.0
 41
1.0
 10
2299.094448401727
 20
3435.025548875944
 30
0.0
 41
0.9997253745441381
 10
2298.546405708527
 20
3435.983061309103
 30
0.0
 41
1.0
  0
SPLINE
  5
CE
330
1F
100
AcDbEntity
  8
Predefinito
100
AcDbSpline
210
0.0
220
0.0
230
1.0
 70
    12
 71
     2
 72
     6
 73
     3
 74
     0
 42
0.0000000001
 43
0.0000000001
 40
-2.177583819742133
 40
-2.177583819742133
 40
-2.177583819742133
 40
0.0
 40
0.0
 40
0.0
 10
2300.522669044195
 20
3432.072814435343
 30
0.0
 41
1.0
 10
2300.093198263401
 20
3433.073778020223
 30
0.0
 41
0.9994275974391038
 10
2299.597023838168
 20
3434.043408975568
 30
0.0
 41
1.0
  0
SPLINE
  5
CF
330
1F
100
AcDbEntity
  8
Predefinito
100
AcDbSpline
210
0.0
220
0.0
230
1.0
 70
    12
 71
     2
 72
     6
 73
     3
 74
     0
 42
0.0000000001
 43
0.0000000001
 40
-2.132987865451069
 40
-2.132987865451069
 40
-2.132987865451069
 40
0.0
 40
0.0
 40
0.0
 10
2301.286919141197
 20
3430.082015305276
 30
0.0
 41
1.0
 10
2300.943394601305
 20
3431.092233262584
 30
0.0
 41
0.9992489451028158
 10
2300.522669044195
 20
3432.072814435343
 30
0.0
 41
1.0
  0
SPLINE
  5
D0
330
1F
100
AcDbEntity
  8
Predefinito
100
AcDbSpline
210
0.0
220
0.0
230
1.0
 70
    12
 71
     2
 72
     6
 73
     3
 74
     0
 42
0.0000000001
 43
0.0000000001
 40
-2.10556431342216
 40
-2.10556431342216
 40
-2.10556431342216
 40
0.0
 40
0.0
 40
0.0
 10
2301.866766648704
 20
3428.058731457145
 30
0.0
 41
1.0
 10
2301.626125148241
 20
3429.084497050394
 30
0.0
 41
0.9988155265499077
 10
2301.286919141197
 20
3430.082015305276
 30
0.0
 41
1.0
  0
SPLINE
  5
D1
330
1F
100
AcDbEntity
  8
Predefinito
100
AcDbSpline
210
0.0
220
0.0
230
1.0
 70
    12
 71
     2
 72
     6
 73
     3
 74
     0
 42
0.0000000001
 43
0.0000000001
 40
-2.178750487349794
 40
-2.178750487349794
 40
-2.178750487349794
 40
0.0
 40
0.0
 40
0.0
 10
2302.246469111983
 20
3425.91444475384
 30
0.0
 41
1.0
 10
2302.115828527235
 20
3426.99707291074
 30
0.0
 41
0.9984785003620867
 10
2301.866766648704
 20
3428.058731457145
 30
0.0
 41
1.0
  0
SPLINE
  5
D2
330
1F
100
AcDbEntity
  8
Predefinito
100
AcDbSpline
210
0.0
220
0.0
230
1.0
 70
    12
 71
     2
 72
     6
 73
     3
 74
     0
 42
0.0000000001
 43
0.0000000001
 40
-2.165153703388162
 40
-2.165153703388162
 40
-2.165153703388162
 40
0.0
 40
0.0
 40
0.0
 10
2302.376318759326
 20
3423.754491398104
 30
0.0
 41
1.0
 10
2302.376318759324
 20
3424.838371153524
 30
0.0
 41
0.9981978639035517
 10
2302.246469111983
 20
3425.91444475384
 30
0.0
 41
1.0
  0
SPLINE
  5
D3
330
1F
100
AcDbEntity
  8
Predefinito
100
AcDbSpline
210
0.0
220
0.0
230
1.0
 70
    24
 71
     2
 72
     6
 73
     3
 74
     0
 42
0.0000000001
 43
0.0000000001
 40
0.0
 40
0.0
 40
0.0
 40
15.00000002281756
 40
15.00000002281756
 40
15.00000002281756
 10
2302.377122526487
 20
3408.754491396821
 30
0.0
 10
2302.376720642907
 20
3416.254491397462
 30
0.0
 10
2302.376318759326
 20
3423.754491398104
 30
0.0
  0
SPLINE
  5
D4
330
1F
100
AcDbEntity
  8
Predefinito
100
AcDbSpline
210
0.0
220
0.0
230
1.0
 70
    12
 71
     2
 72
     6
 73
     3
 74
     0
 42
0.0000000001
 43
0.0000000001
 40
-19.09740802494003
 40
-19.09740802494003
 40
-19.09740802494003
 40
0.0
 40
0.0
 40
0.0
 10
2302.357316577541
 20
3389.657097349242
 30
0.0
 41
1.0
 10
2302.37752441159
 20
3399.205783685839
 30
0.0
 41
0.999999417674841
 10
2302.377122526487
 20
3408.754491396821
 30
0.0
 41
1.0
  0
SPLINE
  5
D5
330
1F
100
AcDbEntity
  8
Predefinito
100
AcDbSpline
210
0.0
220
0.0
230
1.0
 70
    12
 71
     2
 72
     6
 73
     3
 74
     0
 42
0.0000000001
 43
0.0000000001
 40
0.0
 40
0.0
 40
0.0
 40
19.10115885537272
 40
19.10115885537272
 40
19.10115885537272
 10
2302.32192492398
 20
3370.555971578843
 30
0.0
 41
1.0
 10
2302.336702820815
 20
3380.10653987055
 30
0.0
 41
0.9999999533274253
 10
2302.357316577541
 20
3389.657097349242
 30
0.0
 41
1.0
  0
SPLINE
  5
D6
330
1F
100
AcDbEntity
  8
Predefinito
100
AcDbSpline
210
0.0
220
0.0
230
1.0
 70
    12
 71
     2
 72
     6
 73
     3
 74
     0
 42
0.0000000001
 43
0.0000000001
 40
0.0
 40
0.0
 40
0.0
 40
21.60800719097965
 40
21.60800719097965
 40
21.60800719097965
 10
2302.295206927883
 20
3348.947981254058
 30
0.0
 41
1.0
 10
2302.30520756647
 20
3359.751980569018
 30
0.0
 41
0.9999999516879386
 10
2302.32192492398
 20
3370.555971578843
 30
0.0
 41
1.0
  0
SPLINE
  5
D7
330
1F
100
AcDbEntity
  8
Predefinito
100
AcDbSpline
210
0.0
220
0.0
230
1.0
 70
    12
 71
     2
 72
     6
 73
     3
 74
     0
 42
0.0000000001
 43
0.0000000001
 40
0.0
 40
0.0
 40
0.0
 40
21.60760123886195
 40
21.60760123886195
 40
21.60760123886195
 10
2302.278673445415
 20
3327.340386433395
 30
0.0
 41
1.0
 10
2302.285206478376
 20
3338.144185170307
 30
0.0
 41
0.9999999871243498
 10
2302.295206927883
 20
3348.947981254058
 30
0.0
 41
1.0
  0
SPLINE
  5
D8
330
1F
100
AcDbEntity
  8
Predefinito
100
AcDbSpline
210
0.0
220
0.0
230
1.0
 70
    12
 71
     2
 72
     6
 73
     3
 74
     0
 42
0.0000000001
 43
0.0000000001
 40
0.0
 40
0.0
 40
0.0
 40
40.51232800978214
 40
40.51232800978214
 40
40.51232800978214
 10
2302.262540290872
 20
3286.8280619238
 30
0.0
 41
1.0
 10
2302.266424516289
 20
3307.084225844128
 30
0.0
 41
0.999999978684438
 10
2302.278673445415
 20
3327.340386433395
 30
0.0
 41
1.0
  0
SPLINE
  5
D9
330
1F
100
AcDbEntity
  8
Predefinito
100
AcDbSpline
210
0.0
220
0.0
230
1.0
 70
    12
 71
     2
 72
     6
 73
     3
 74
     0
 42
0.0000000001
 43
0.0000000001
 40
0.0
 40
0.0
 40
0.0
 40
40.51202839575984
 40
40.51202839575984
 40
40.51202839575984
 10
2302.257852390418
 20
3246.316033861339
 30
0.0
 41
1.0
 10
2302.258254277416
 20
3266.572048117297
 30
0.0
 41
0.9999999954039075
 10
2302.262540290872
 20
3286.8280619238
 30
0.0
 41
1.0
  0
SPLINE
  5
DA
330
1F
100
AcDbEntity
  8
Predefinito
100
AcDbSpline
210
0.0
220
0.0
230
1.0
 70
    24
 71
     2
 72
     6
 73
     3
 74
     0
 42
0.0000000001
 43
0.0000000001
 40
0.0
 40
0.0
 40
0.0
 40
8.609006006740609
 40
8.609006006740609
 40
8.609006006740609
 10
2302.257048758108
 20
3237.707027892107
 30
0.0
 10
2302.257450574262
 20
3242.011530876722
 30
0.0
 10
2302.257852390418
 20
3246.316033861339
 30
0.0
  0
SPLINE
  5
DB
330
1F
100
AcDbEntity
  8
Predefinito
100
AcDbSpline
210
0.0
220
0.0
230
1.0
 70
    24
 71
     2
 72
     6
 73
     3
 74
     0
 42
0.0000000001
 43
0.0000000001
 40
-13.39947309394302
 40
-13.39947309394302
 40
-13.39947309394302
 40
0.0
 40
0.0
 40
0.0
 10
2302.257048758097
 20
3224.307554798164
 30
0.0
 10
2302.257048758102
 20
3231.007291345135
 30
0.0
 10
2302.257048758108
 20
3237.707027892107
 30
0.0
  0
SPLINE
  5
DC
330
1F
100
AcDbEntity
  8
Predefinito
100
AcDbSpline
210
0.0
220
0.0
230
1.0
 70
     8
 71
     2
 72
     6
 73
     3
 74
     0
 42
0.0000000001
 43
0.0000000001
 40
0.0
 40
0.0
 40
0.0
 40
0.915846699135319
 40
0.915846699135319
 40
0.915846699135319
 10
1900.91800323638
 20
3019.715343094389
 30
0.0
 10
1900.742763524132
 20
3020.138409116724
 30
0.0
 10
1900.567346378535
 20
3020.561904165022
 30
0.0
  0
SPLINE
  5
DD
330
1F
100
AcDbEntity
  8
Predefinito
100
AcDbSpline
210
0.0
220
0.0
230
1.0
 70
    12
 71
     2
 72
     6
 73
     3
 74
     0
 42
0.0000000001
 43
0.0000000001
 40
-2.205531297322872
 40
-2.205531297322872
 40
-2.205531297322872
 40
0.0
 40
0.0
 40
0.0
 10
1903.012195537958
 20
3019.023754858886
 30
0.0
 41
1.0
 10
1901.958200094254
 20
3019.34873258379
 30
0.0
 41
0.9998023174421921
 10
1900.91800323638
 20
3019.715343094389
 30
0.0
 41
1.0
  0
SPLINE
  5
DE
330
1F
100
AcDbEntity
  8
Predefinito
100
AcDbSpline
210
0.0
220
0.0
230
1.0
 70
    12
 71
     2
 72
     6
 73
     3
 74
     0
 42
0.0000000001
 43
0.0000000001
 40
-1.51790860931105
 40
-1.51790860931105
 40
-1.51790860931105
 40
0.0
 40
0.0
 40
0.0
 10
1904.499305307929
 20
3019.085535959286
 30
0.0
 41
1.0
 10
1903.766801302037
 20
3018.789248115952
 30
0.0
 41
0.9418046425167546
 10
1903.012195537958
 20
3019.023754858886
 30
0.0
 41
1.0
  0
SPLINE
  5
DF
330
1F
100
AcDbEntity
  8
Predefinito
100
AcDbSpline
210
0.0
220
0.0
230
1.0
 70
    24
 71
     2
 72
     6
 73
     3
 74
     0
 42
0.0000000001
 43
0.0000000001
 40
-6.499999999999616
 40
-6.499999999999616
 40
-6.499999999999616
 40
0.0
 40
0.0
 40
0.0
 10
1910.460195791432
 20
3021.6774049073
 30
0.0
 10
1907.47975054968
 20
3020.381470433293
 30
0.0
 10
1904.499305307929
 20
3019.085535959286
 30
0.0
  0
SPLINE
  5
E0
330
1F
100
AcDbEntity
  8
Predefinito
100
AcDbSpline
210
0.0
220
0.0
230
1.0
 70
    12
 71
     2
 72
     6
 73
     3
 74
     0
 42
0.0000000001
 43
0.0000000001
 40
-1.518050643092525
 40
-1.518050643092525
 40
-1.518050643092525
 40
0.0
 40
0.0
 40
0.0
 10
1911.519586052238
 20
3022.722873533097
 30
0.0
 41
1.0
 10
1911.176931807114
 20
3022.01057194779
 30
0.0
 41
0.9415315881090632
 10
1910.460195791432
 20
3021.6774049073
 30
0.0
 41
1.0
  0
SPLINE
  5
E1
330
1F
100
AcDbEntity
  8
Predefinito
100
AcDbSpline
210
0.0
220
0.0
230
1.0
 70
    12
 71
     2
 72
     6
 73
     3
 74
     0
 42
0.0000000001
 43
0.0000000001
 40
-2.205530080464224
 40
-2.205530080464224
 40
-2.205530080464224
 40
0.0
 40
0.0
 40
0.0
 10
1912.442026151553
 20
3024.726130867239
 30
0.0
 41
1.0
 10
1912.000651968211
 20
3023.715389766589
 30
0.0
 41
0.9998039725690618
 10
1911.519586052238
 20
3022.722873533097
 30
0.0
 41
1.0
  0
SPLINE
  5
E2
330
1F
100
AcDbEntity
  8
Predefinito
100
AcDbSpline
210
0.0
220
0.0
230
1.0
 70
     8
 71
     2
 72
     6
 73
     3
 74
     0
 42
0.0000000001
 43
0.0000000001
 40
0.0
 40
0.0
 40
0.0
 40
0.915846699135931
 40
0.915846699135931
 40
0.915846699135931
 10
1912.062038420028
 20
3025.559937380715
 30
0.0
 10
1912.252128446459
 20
3025.142823412894
 30
0.0
 10
1912.442026151553
 20
3024.726130867239
 30
0.0
  0
SPLINE
  5
E3
330
1F
100
AcDbEntity
  8
Predefinito
100
AcDbSpline
210
0.0
220
0.0
230
1.0
 70
    12
 71
     2
 72
     6
 73
     3
 74
     0
 42
0.0000000001
 43
0.0000000001
 40
0.0
 40
0.0
 40
0.0
 40
1.552221278102456
 40
1.552221278102456
 40
1.552221278102456
 10
1910.738078351908
 20
3026.055168369398
 30
0.0
 41
1.0
 10
1911.653649890879
 20
3026.452772412525
 30
0.0
 41
0.7139005903856771
 10
1912.062038420028
 20
3025.559937380715
 30
0.0
 41
1.0
  0
SPLINE
  5
E4
330
1F
100
AcDbEntity
  8
Predefinito
100
AcDbSpline
210
0.0
220
0.0
230
1.0
 70
    24
 71
     2
 72
     6
 73
     3
 74
     0
 42
0.0000000001
 43
0.0000000001
 40
0.0
 40
0.0
 40
0.0
 40
1.983624610900222
 40
1.983624610900222
 40
1.983624610900222
 10
1908.903532589994
 20
3025.257485169686
 30
0.0
 10
1909.813084056605
 20
3025.652969403033
 30
0.0
 10
1910.738078351908
 20
3026.055168369398
 30
0.0
  0
SPLINE
  5
E5
330
1F
100
AcDbEntity
  8
Predefinito
100
AcDbSpline
210
0.0
220
0.0
230
1.0
 70
    24
 71
     2
 72
     6
 73
     3
 74
     0
 42
0.0000000001
 43
0.0000000001
 40
0.0
 40
0.0
 40
0.0
 40
6.500000000000032
 40
6.500000000000032
 40
6.500000000000032
 10
1902.94264210649
 20
3022.665616221672
 30
0.0
 10
1905.923087348242
 20
3023.961550695679
 30
0.0
 10
1908.903532589994
 20
3025.257485169686
 30
0.0
  0
SPLINE
  5
E6
330
1F
100
AcDbEntity
  8
Predefinito
100
AcDbSpline
210
0.0
220
0.0
230
1.0
 70
    12
 71
     2
 72
     8
 73
     5
 74
     0
 42
0.0000000001
 43
0.0000000001
 40
0.0
 40
0.0
 40
0.0
 40
0.0169276275181101
 40
0.0169276275181101
 40
3.202449843458063
 40
3.202449843458063
 40
3.202449843458063
 10
1901.108096350106
 20
3021.867933015462
 30
0.0
 41
1.0
 10
1901.100375341829
 20
3021.864575816615
 30
0.0
 41
1.0
 10
1901.092654330296
 20
3021.861218625254
 30
0.0
 41
1.0
 10
1901.092654308544
 20
3021.861218633599
 30
0.0
 41
0.707106781186548
 10
1902.94264210649
 20
3022.665616221672
 30
0.0
 41
1.0
  0
SPLINE
  5
E7
330
1F
100
AcDbEntity
  8
Predefinito
100
AcDbSpline
210
0.0
220
0.0
230
1.0
 70
    12
 71
     2
 72
     6
 73
     3
 74
     0
 42
0.0000000001
 43
0.0000000001
 40
0.0
 40
0.0
 40
0.0
 40
1.552122167582507
 40
1.552122167582507
 40
1.552122167582507
 10
1900.567346378535
 20
3020.561904165022
 30
0.0
 41
1.0
 10
1900.193186187189
 20
3021.46937297472
 30
0.0
 41
0.714063686725569
 10
1901.108096350106
 20
3021.867933015462
 30
0.0
 41
1.0
  0
SPLINE
  5
E8
330
1F
100
AcDbEntity
  8
Predefinito
100
AcDbSpline
210
0.0
220
0.0
230
1.0
 70
    24
 71
     2
 72
     6
 73
     3
 74
     0
 42
0.0000000001
 43
0.0000000001
 40
0.0
 40
0.0
 40
0.0
 40
148.0219978073387
 40
148.0219978073387
 40
148.0219978073387
 10
2307.682129530562
 20
3025.785556990692
 30
0.0
 10
2307.682129530562
 20
3099.796555894361
 30
0.0
 10
2307.682129530562
 20
3173.80755479803
 30
0.0
  0
SPLINE
  5
E9
330
1F
100
AcDbEntity
  8
Predefinito
100
AcDbSpline
210
0.0
220
0.0
230
1.0
 70
    24
 71
     2
 72
     6
 73
     3
 74
     0
 42
0.0000000001
 43
0.0000000001
 40
0.0
 40
0.0
 40
0.0
 40
148.3698477228845
 40
148.3698477228845
 40
148.3698477228845
 10
2308.482129530562
 20
3173.80755479803
 30
0.0
 10
2308.482129530562
 20
3099.622630936588
 30
0.0
 10
2308.482129530562
 20
3025.437707075146
 30
0.0
  0
SPLINE
  5
EA
330
1F
100
AcDbEntity
  8
Predefinito
100
AcDbSpline
210
0.0
220
0.0
230
1.0
 70
    24
 71
     2
 72
     6
 73
     3
 74
     0
 42
0.0000000001
 43
0.0000000001
 40
0.0
 40
0.0
 40
0.0
 40
255.9446994462792
 40
255.9446994462792
 40
255.9446994462792
 10
2308.482129530562
 20
3480.252254244443
 30
0.0
 10
2308.482129530562
 20
3352.279904521303
 30
0.0
 10
2308.482129530562
 20
3224.307554798164
 30
0.0
  0
SPLINE
  5
EB
330
1F
100
AcDbEntity
  8
Predefinito
100
AcDbSpline
210
0.0
220
0.0
230
1.0
 70
    24
 71
     2
 72
     6
 73
     3
 74
     0
 42
0.0000000001
 43
0.0000000001
 40
0.0
 40
0.0
 40
0.0
 40
255.9446994462792
 40
255.9446994462792
 40
255.9446994462792
 10
2307.682129530562
 20
3224.307554798164
 30
0.0
 10
2307.682129530562
 20
3352.279904521303
 30
0.0
 10
2307.682129530562
 20
3480.252254244443
 30
0.0
  0
SPLINE
  5
EC
330
1F
100
AcDbEntity
  8
Predefinito
100
AcDbSpline
210
0.0
220
0.0
230
1.0
 70
    24
 71
     2
 72
     6
 73
     3
 74
     0
 42
0.0000000001
 43
0.0000000001
 40
0.0
 40
0.0
 40
0.0
 40
0.1999999999998181
 40
0.1999999999998181
 40
0.1999999999998181
 10
1903.753768607729
 20
3494.752254198613
 30
0.0
 10
1903.753768607729
 20
3494.852254198613
 30
0.0
 10
1903.753768607729
 20
3494.952254198613
 30
0.0
  0
SPLINE
  5
ED
330
1F
100
AcDbEntity
  8
Predefinito
100
AcDbSpline
210
0.0
220
0.0
230
1.0
 70
    24
 71
     2
 72
     6
 73
     3
 74
     0
 42
0.0000000001
 43
0.0000000001
 40
0.0
 40
0.0
 40
0.0
 40
0.1999999999998181
 40
0.1999999999998181
 40
0.1999999999998181
 10
1915.15376860773
 20
3494.952254198613
 30
0.0
 10
1915.15376860773
 20
3494.852254198613
 30
0.0
 10
1915.15376860773
 20
3494.752254198613
 30
0.0
  0
SPLINE
  5
EE
330
1F
100
AcDbEntity
  8
Predefinito
100
AcDbSpline
210
0.0
220
0.0
230
1.0
 70
    24
 71
     2
 72
     6
 73
     3
 74
     0
 42
0.0000000001
 43
0.0000000001
 40
0.0
 40
0.0
 40
0.0
 40
457.0815946492821
 40
457.0815946492821
 40
457.0815946492821
 10
1909.85376860773
 20
3482.752254198613
 30
0.0
 10
1909.85376860773
 20
3254.211456873972
 30
0.0
 10
1909.85376860773
 20
3025.670659549331
 30
0.0
  0
SPLINE
  5
EF
330
1F
100
AcDbEntity
  8
Predefinito
100
AcDbSpline
210
0.0
220
0.0
230
1.0
 70
    24
 71
     2
 72
     6
 73
     3
 74
     0
 42
0.0000000001
 43
0.0000000001
 40
0.0
 40
0.0
 40
0.0
 40
13.39947309394347
 40
13.39947309394347
 40
13.39947309394347
 10
119.6494814293201
 20
3221.729648098327
 30
0.0
 10
119.6494814293201
 20
3215.029911551356
 30
0.0
 10
119.6494814293201
 20
3208.330175004384
 30
0.0
  0
SPLINE
  5
F0
330
1F
100
AcDbEntity
  8
Predefinito
100
AcDbSpline
210
0.0
220
0.0
230
1.0
 70
    24
 71
     2
 72
     6
 73
     3
 74
     0
 42
0.0000000001
 43
0.0000000001
 40
0.0
 40
0.0
 40
0.0
 40
8.609004778265898
 40
8.609004778265898
 40
8.609004778265898
 10
119.6494841874278
 20
3230.338654067559
 30
0.0
 10
119.6494828083742
 20
3226.034151082944
 30
0.0
 10
119.6494814293201
 20
3221.729648098327
 30
0.0
  0
SPLINE
  5
F1
330
1F
100
AcDbEntity
  8
Predefinito
100
AcDbSpline
210
0.0
220
0.0
230
1.0
 70
    12
 71
     2
 72
     6
 73
     3
 74
     0
 42
0.0000000001
 43
0.0000000001
 40
0.0
 40
0.0
 40
0.0
 40
40.51175505442575
 40
40.51175505442575
 40
40.51175505442575
 10
119.6496737630382
 20
3270.850416626916
 30
0.0
 41
1.0
 10
119.6494869459259
 20
3250.594532785886
 30
0.0000000000000012
 41
0.9999999999890347
 10
119.6494841874278
 20
3230.338654067559
 30
0.0
 41
1.0
  0
SPLINE
  5
F2
330
1F
100
AcDbEntity
  8
Predefinito
100
AcDbSpline
210
0.0
220
0.0
230
1.0
 70
    12
 71
     2
 72
     6
 73
     3
 74
     0
 42
0.0000000001
 43
0.0000000001
 40
0.0
 40
0.0
 40
0.0
 40
40.51172651731343
 40
40.51172651731343
 40
40.51172651731343
 10
119.6504589055999
 20
3311.362169363611
 30
0.0
 41
1.0
 10
119.649860580289
 20
3291.106286199927
 30
-0.0000000000000012
 41
0.9999999999491455
 10
119.6496737630382
 20
3270.850416626916
 30
0.0
 41
1.0
  0
SPLINE
  5
F3
330
1F
100
AcDbEntity
  8
Predefinito
100
AcDbSpline
210
0.0
220
0.0
230
1.0
 70
    12
 71
     2
 72
     6
 73
     3
 74
     0
 42
0.0000000001
 43
0.0000000001
 40
0.0
 40
0.0
 40
0.0
 40
21.60710005530145
 40
21.60710005530145
 40
21.60710005530145
 10
119.6512665515656
 20
3332.969319798946
 30
0.0
 41
1.0
 10
119.6507780456876
 20
3322.165739299945
 30
0.0
 41
0.9999999999692815
 10
119.6504589055999
 20
3311.362169363611
 30
0.0
 41
1.0
  0
SPLINE
  5
F4
330
1F
100
AcDbEntity
  8
Predefinito
100
AcDbSpline
210
0.0
220
0.0
230
1.0
 70
    12
 71
     2
 72
     6
 73
     3
 74
     0
 42
0.0000000001
 43
0.0000000001
 40
0.0
 40
0.0
 40
0.0
 40
21.6070481271037
 40
21.6070481271037
 40
21.6070481271037
 10
119.6525715829407
 20
3354.57644932289
 30
0.0
 41
1.0
 10
119.6517550571951
 20
3343.772874334458
 30
-0.0000000000000002
 41
0.9999999998847378
 10
119.6512665515656
 20
3332.969319798946
 30
0.0
 41
1.0
  0
SPLINE
  5
F5
330
1F
100
AcDbEntity
  8
Predefinito
100
AcDbSpline
210
0.0
220
0.0
230
1.0
 70
    12
 71
     2
 72
     6
 73
     3
 74
     0
 42
0.0000000001
 43
0.0000000001
 40
0.0
 40
0.0
 40
0.0
 40
19.10015774886874
 40
19.10015774886874
 40
19.10015774886874
 10
119.654300246184
 20
3373.676729025052
 30
0.0
 41
1.0
 10
119.6532933763991
 20
3364.126579125665
 30
0.0000000000000001
 41
0.9999999998886494
 10
119.6525715829407
 20
3354.57644932289
 30
0.0
 41
1.0
  0
SPLINE
  5
F6
330
1F
100
AcDbEntity
  8
Predefinito
100
AcDbSpline
210
0.0
220
0.0
230
1.0
 70
    12
 71
     2
 72
     6
 73
     3
 74
     0
 42
0.0000000001
 43
0.0000000001
 40
0.0
 40
0.0
 40
0.0
 40
19.1003115347716
 40
19.1003115347716
 40
19.1003115347716
 10
119.6553071186336
 20
3392.777111603041
 30
0.0
 41
1.0
 10
119.6553071158239
 20
3383.22695582553
 30
-0.0000000000000001
 41
0.999999998610711
 10
119.654300246184
 20
3373.676729025052
 30
0.0
 41
1.0
  0
LINE
  5
F7
330
1F
100
AcDbEntity
  8
Predefinito
100
AcDbLine
 10
119.6553071224653
 20
3439.101420892811
 30
0.0
 11
119.6553071186336
 21
3392.777111603041
 31
0.0
  0
SPLINE
  5
F8
330
1F
100
AcDbEntity
  8
Predefinito
100
AcDbSpline
210
0.0
220
0.0
230
1.0
 70
    24
 71
     2
 72
     6
 73
     3
 74
     0
 42
0.0000000001
 43
0.0000000001
 40
0.0
 40
0.0
 40
0.0
 40
2.156086036030956
 40
2.156086036030956
 40
2.156086036030956
 10
119.6553071232429
 20
3441.257506928842
 30
0.0
 10
119.6553071228541
 20
3440.179463910828
 30
0.0
 10
119.6553071224653
 20
3439.101420892811
 30
0.0
  0
SPLINE
  5
F9
330
1F
100
AcDbEntity
  8
Predefinito
100
AcDbSpline
210
0.0
220
0.0
230
1.0
 70
    24
 71
     2
 72
     6
 73
     3
 74
     0
 42
0.0000000001
 43
0.0000000001
 40
0.0
 40
0.0
 40
0.0
 40
2.244185010057663
 40
2.244185010057663
 40
2.244185010057663
 10
119.6553071232811
 20
3443.501691938901
 30
0.0
 10
119.655307123262
 20
3442.379599433871
 30
0.0
 10
119.6553071232429
 20
3441.257506928842
 30
0.0
  0
SPLINE
  5
FA
330
1F
100
AcDbEntity
  8
Predefinito
100
AcDbSpline
210
0.0
220
0.0
230
1.0
 70
    24
 71
     2
 72
     6
 73
     3
 74
     0
 42
0.0000000001
 43
0.0000000001
 40
0.0
 40
0.0
 40
0.0
 40
2.273182511765754
 40
2.273182511765754
 40
2.273182511765754
 10
119.6553071232943
 20
3445.774874450665
 30
0.0
 10
119.6553071232879
 20
3444.638283194784
 30
0.0
 10
119.6553071232811
 20
3443.501691938901
 30
0.0
  0
SPLINE
  5
FB
330
1F
100
AcDbEntity
  8
Predefinito
100
AcDbSpline
210
0.0
220
0.0
230
1.0
 70
    24
 71
     2
 72
     6
 73
     3
 74
     0
 42
0.0000000001
 43
0.0000000001
 40
0.0
 40
0.0
 40
0.0
 40
18.5
 40
18.5
 40
18.5
 10
119.6553071232947
 20
3464.274874450664
 30
0.0
 10
119.6553071232947
 20
3455.024874450664
 30
0.0
 10
119.6553071232943
 20
3445.774874450665
 30
0.0
  0
SPLINE
  5
FC
330
1F
100
AcDbEntity
  8
Predefinito
100
AcDbSpline
210
0.0
220
0.0
230
1.0
 70
    24
 71
     2
 72
     6
 73
     3
 74
     0
 42
0.0000000001
 43
0.0000000001
 40
0.0
 40
0.0
 40
0.0
 40
18.5
 40
18.5
 40
18.5
 10
116.9553071232945
 20
3445.774874450665
 30
0.0
 10
116.9553071232945
 20
3455.024874450664
 30
0.0
 10
116.9553071232945
 20
3464.274874450664
 30
0.0
  0
SPLINE
  5
FD
330
1F
100
AcDbEntity
  8
Predefinito
100
AcDbSpline
210
0.0
220
0.0
230
1.0
 70
    24
 71
     2
 72
     6
 73
     3
 74
     0
 42
0.0000000001
 43
0.0000000001
 40
0.0
 40
0.0
 40
0.0
 40
2.273182511765754
 40
2.273182511765754
 40
2.273182511765754
 10
116.9553071232813
 20
3443.501691938901
 30
0.0
 10
116.9553071232876
 20
3444.638283194784
 30
0.0
 10
116.9553071232945
 20
3445.774874450665
 30
0.0
  0
SPLINE
  5
FE
330
1F
100
AcDbEntity
  8
Predefinito
100
AcDbSpline
210
0.0
220
0.0
230
1.0
 70
    24
 71
     2
 72
     6
 73
     3
 74
     0
 42
0.0000000001
 43
0.0000000001
 40
0.0
 40
0.0
 40
0.0
 40
2.244185010057663
 40
2.244185010057663
 40
2.244185010057663
 10
116.9553071232426
 20
3441.257506928842
 30
0.0
 10
116.9553071232617
 20
3442.379599433871
 30
0.0
 10
116.9553071232813
 20
3443.501691938901
 30
0.0
  0
SPLINE
  5
FF
330
1F
100
AcDbEntity
  8
Predefinito
100
AcDbSpline
210
0.0
220
0.0
230
1.0
 70
    24
 71
     2
 72
     6
 73
     3
 74
     0
 42
0.0000000001
 43
0.0000000001
 40
0.0
 40
0.0
 40
0.0
 40
2.156086036030956
 40
2.156086036030956
 40
2.156086036030956
 10
116.955307118626
 20
3439.101420892811
 30
0.0
 10
116.9553071209343
 20
3440.179463910828
 30
0.0
 10
116.9553071232426
 20
3441.257506928842
 30
0.0
  0
LINE
  5
100
330
1F
100
AcDbEntity
  8
Predefinito
100
AcDbLine
 10
116.9543002462237
 20
3373.676871518647
 30
0.0
 11
116.955307118626
 21
3439.101420892811
 31
0.0
  0
SPLINE
  5
101
330
1F
100
AcDbEntity
  8
Predefinito
100
AcDbSpline
210
0.0
220
0.0
230
1.0
 70
    12
 71
     2
 72
     6
 73
     3
 74
     0
 42
0.0000000001
 43
0.0000000001
 40
0.0
 40
0.0
 40
0.0
 40
19.10019808962431
 40
19.10019808962431
 40
19.10019808962431
 10
116.9525715828759
 20
3354.576551475691
 30
0.0
 41
1.0
 10
116.9532933763868
 20
3364.126701448871
 30
-0.0000000000000012
 41
0.9999999998886498
 10
116.9543002462237
 20
3373.676871518647
 30
0.0
 41
1.0
  0
SPLINE
  5
102
330
1F
100
AcDbEntity
  8
Predefinito
100
AcDbSpline
210
0.0
220
0.0
230
1.0
 70
    12
 71
     2
 72
     6
 73
     3
 74
     0
 42
0.0000000001
 43
0.0000000001
 40
0.0
 40
0.0
 40
0.0
 40
21.60708917016526
 40
21.60708917016526
 40
21.60708917016526
 10
116.9512665516127
 20
3332.969380908654
 30
0.0
 41
1.0
 10
116.9517550571531
 20
3343.772955965698
 30
0.0000000000000002
 41
0.9999999998847382
 10
116.9525715828759
 20
3354.576551475691
 30
0.0
 41
1.0
  0
SPLINE
  5
103
330
1F
100
AcDbEntity
  8
Predefinito
100
AcDbSpline
210
0.0
220
0.0
230
1.0
 70
    12
 71
     2
 72
     6
 73
     3
 74
     0
 42
0.0000000001
 43
0.0000000001
 40
0.0
 40
0.0
 40
0.0
 40
21.60712124364761
 40
21.60712124364761
 40
21.60712124364761
 10
116.9504589058142
 20
3311.362209284939
 30
0.0
 41
1.0
 10
116.9507780460032
 20
3322.165789815476
 30
0.0
 41
0.9999999999692815
 10
116.9512665516127
 20
3332.969380908654
 30
0.0
 41
1.0
  0
SPLINE
  5
104
330
1F
100
AcDbEntity
  8
Predefinito
100
AcDbSpline
210
0.0
220
0.0
230
1.0
 70
    12
 71
     2
 72
     6
 73
     3
 74
     0
 42
0.0000000001
 43
0.0000000001
 40
0.0
 40
0.0
 40
0.0
 40
40.51175377943212
 40
40.51175377943212
 40
40.51175377943212
 10
116.9496737629797
 20
3270.850429286089
 30
0.0
 41
1.0
 10
116.9498605803852
 20
3291.106312490167
 30
0.0
 41
0.9999999999491456
 10
116.9504589058142
 20
3311.362209284939
 30
0.0
 41
1.0
  0
SPLINE
  5
105
330
1F
100
AcDbEntity
  8
Predefinito
100
AcDbSpline
210
0.0
220
0.0
230
1.0
 70
    12
 71
     2
 72
     6
 73
     3
 74
     0
 42
0.0000000001
 43
0.0000000001
 40
0.0
 40
0.0
 40
0.0
 40
40.51176771359291
 40
40.51176771359291
 40
40.51176771359291
 10
116.949484187639
 20
3230.33865406756
 30
0.0
 41
1.0
 10
116.9494869460142
 20
3250.594539115471
 30
0.0000000000000012
 41
0.9999999999890347
 10
116.9496737629797
 20
3270.850429286089
 30
0.0
 41
1.0
  0
SPLINE
  5
106
330
1F
100
AcDbEntity
  8
Predefinito
100
AcDbSpline
210
0.0
220
0.0
230
1.0
 70
    24
 71
     2
 72
     6
 73
     3
 74
     0
 42
0.0000000001
 43
0.0000000001
 40
0.0
 40
0.0
 40
0.0
 40
8.609004778266353
 40
8.609004778266353
 40
8.609004778266353
 10
116.9494814293203
 20
3221.729648098327
 30
0.0
 10
116.9494828084794
 20
3226.034151082944
 30
0.0
 10
116.949484187639
 20
3230.33865406756
 30
0.0
  0
SPLINE
  5
107
330
1F
100
AcDbEntity
  8
Predefinito
100
AcDbSpline
210
0.0
220
0.0
230
1.0
 70
    24
 71
     2
 72
     6
 73
     3
 74
     0
 42
0.0000000001
 43
0.0000000001
 40
0.0
 40
0.0
 40
0.0
 40
13.39947309394347
 40
13.39947309394347
 40
13.39947309394347
 10
116.9494814293203
 20
3208.330175004384
 30
0.0
 10
116.9494814293203
 20
3215.029911551356
 30
0.0
 10
116.9494814293203
 20
3221.729648098327
 30
0.0
  0
SPLINE
  5
108
330
1F
100
AcDbEntity
  8
Predefinito
100
AcDbSpline
210
0.0
220
0.0
230
1.0
 70
    24
 71
     2
 72
     6
 73
     3
 74
     0
 42
0.0000000001
 43
0.0000000001
 40
0.0
 40
0.0
 40
0.0
 40
255.9446994462787
 40
255.9446994462787
 40
255.9446994462787
 10
117.9044258535714
 20
3208.330175004385
 30
0.0
 10
117.9044258535714
 20
3336.302524727524
 30
0.0
 10
117.9044258535714
 20
3464.274874450664
 30
0.0
  0
SPLINE
  5
109
330
1F
100
AcDbEntity
  8
Predefinito
100
AcDbSpline
210
0.0
220
0.0
230
1.0
 70
    24
 71
     2
 72
     6
 73
     3
 74
     0
 42
0.0000000001
 43
0.0000000001
 40
0.0
 40
0.0
 40
0.0
 40
255.9446994462787
 40
255.9446994462787
 40
255.9446994462787
 10
118.7044258535711
 20
3464.274874450664
 30
0.0
 10
118.7044258535711
 20
3336.302524727524
 30
0.0
 10
118.7044258535711
 20
3208.330175004385
 30
0.0
  0
SPLINE
  5
10A
330
1F
100
AcDbEntity
  8
Predefinito
100
AcDbSpline
210
0.0
220
0.0
230
1.0
 70
    24
 71
     2
 72
     6
 73
     3
 74
     0
 42
0.0000000001
 43
0.0000000001
 40
0.0
 40
0.0
 40
0.0
 40
7.04177786545614
 40
7.04177786545614
 40
7.04177786545614
 10
118.8659937587131
 20
3208.330175004384
 30
0.0
 10
115.3389212103839
 20
3208.330175004384
 30
0.0
 10
111.8118486620551
 20
3208.330175004384
 30
0.0
  0
SPLINE
  5
10B
330
1F
100
AcDbEntity
  8
Predefinito
100
AcDbSpline
210
0.0
220
0.0
230
1.0
 70
    28
 71
     2
 72
     6
 73
     3
 74
     0
 42
0.0000000001
 43
0.0000000001
 40
30.9141443759496
 40
30.9141443759496
 40
30.9141443759496
 40
40.8407044966673
 40
40.8407044966673
 40
40.8407044966673
 10
124.7963881509946
 20
3208.330175004387
 30
-0.0000000000000001
 41
0.9949287510430823
 10
124.9858911853617
 20
3208.330175004383
 30
0.0
 41
0.7249231770688658
 10
118.8659937587131
 20
3208.330175004384
 30
0.0
 41
1.0
  0
SPLINE
  5
10C
330
1F
100
AcDbEntity
  8
Predefinito
100
AcDbSpline
210
0.0
220
0.0
230
1.0
 70
    24
 71
     2
 72
     6
 73
     3
 74
     0
 42
0.0000000001
 43
0.0000000001
 40
-50.50000000020009
 40
-50.50000000020009
 40
-50.50000000020009
 40
0.0
 40
0.0
 40
0.0
 10
124.7699177630911
 20
3157.830175004218
 30
0.0
 10
124.7831529570431
 20
3183.080175004302
 30
0.0
 10
124.7963881509945
 20
3208.330175004384
 30
0.0
  0
SPLINE
  5
10D
330
1F
100
AcDbEntity
  8
Predefinito
100
AcDbSpline
210
0.0
220
0.0
230
1.0
 70
    24
 71
     2
 72
     6
 73
     3
 74
     0
 42
0.0000000001
 43
0.0000000001
 40
0.0
 40
0.0
 40
0.0
 40
5.874360336616263
 40
5.874360336616263
 40
5.874360336616263
 10
118.8659937587131
 20
3157.830175004251
 30
0.0
 10
121.8179557609024
 20
3157.830175004234
 30
0.0
 10
124.7699177630911
 20
3157.830175004218
 30
0.0
  0
SPLINE
  5
10E
330
1F
100
AcDbEntity
  8
Predefinito
100
AcDbSpline
210
0.0
220
0.0
230
1.0
 70
    28
 71
     2
 72
     8
 73
     5
 74
     0
 42
0.0000000001
 43
0.0000000001
 40
-11.48644813968766
 40
-11.48644813968766
 40
-11.48644813968766
 40
-10.3822383227443
 40
-10.3822383227443
 40
0.0
 40
0.0
 40
0.0
 10
111.8143575921294
 20
3157.830175004218
 30
0.0000000000000004
 41
0.944324435220616
 10
111.7802416053526
 20
3157.830175004251
 30
0.0000000000000002
 41
0.968849148182098
 10
111.8242158932571
 20
3157.830175004251
 30
0.0
 41
1.0
 10
112.3907282211167
 20
3157.830175004251
 30
-0.0000000000000002
 41
0.707106781186548
 10
118.8659937587131
 20
3157.830175004251
 30
0.0
 41
1.0
  0
SPLINE
  5
10F
330
1F
100
AcDbEntity
  8
Predefinito
100
AcDbSpline
210
0.0
220
0.0
230
1.0
 70
    24
 71
     2
 72
     6
 73
     3
 74
     0
 42
0.0000000001
 43
0.0000000001
 40
-50.50000000020009
 40
-50.50000000020009
 40
-50.50000000020009
 40
0.0
 40
0.0
 40
0.0
 10
111.8118486620551
 20
3208.330175004384
 30
0.0
 10
111.8131031270923
 20
3183.080175004302
 30
0.0
 10
111.8143575921295
 20
3157.830175004218
 30
0.0
  0
SPLINE
  5
110
330
1F
100
AcDbEntity
  8
Predefinito
100
AcDbSpline
210
0.0
220
0.0
230
1.0
 70
    24
 71
     2
 72
     6
 73
     3
 74
     0
 42
0.0000000001
 43
0.0000000001
 40
-148.1959137282261
 40
-148.1959137282261
 40
-148.1959137282261
 40
0.0
 40
0.0
 40
0.0
 10
118.7044258532324
 20
3009.634261276061
 30
0.0
 10
118.704425853402
 20
3083.732218140156
 30
0.0
 10
118.7044258535711
 20
3157.830175004251
 30
0.0
  0
SPLINE
  5
111
330
1F
100
AcDbEntity
  8
Predefinito
100
AcDbSpline
210
0.0
220
0.0
230
1.0
 70
    12
 71
     2
 72
     6
 73
     3
 74
     0
 42
0.0000000001
 43
0.0000000001
 40
0.0
 40
0.0
 40
0.0
 40
0.4685817551555806
 40
0.4685817551555806
 40
0.4685817551555806
 10
118.304425853571
 20
3009.460327281367
 30
0.0
 41
1.0
 10
118.5706736800837
 20
3009.394942630993
 30
0.0000000000000008
 41
0.7954879044948029
 10
118.7044258532324
 20
3009.634261276061
 30
0.0
 41
1.0
  0
SPLINE
  5
112
330
1F
100
AcDbEntity
  8
Predefinito
100
AcDbSpline
210
0.0
220
0.0
230
1.0
 70
    12
 71
     2
 72
     6
 73
     3
 74
     0
 42
0.0000000001
 43
0.0000000001
 40
0.0
 40
0.0
 40
0.0
 40
0.4686550721712923
 40
0.4686550721712923
 40
0.4686550721712923
 10
117.9044258568238
 20
3009.634377079945
 30
0.0
 41
1.0
 10
118.0381027896322
 20
3009.39492898533
 30
-0.0000000000000003
 41
0.7953507260148875
 10
118.304425853571
 20
3009.460327281367
 30
0.0
 41
1.0
  0
SPLINE
  5
113
330
1F
100
AcDbEntity
  8
Predefinito
100
AcDbSpline
210
0.0
220
0.0
230
1.0
 70
    24
 71
     2
 72
     6
 73
     3
 74
     0
 42
0.0000000001
 43
0.0000000001
 40
-148.1957979243061
 40
-148.1957979243061
 40
-148.1957979243061
 40
0.0
 40
0.0
 40
0.0
 10
117.9044258535714
 20
3157.830175004251
 30
0.0
 10
117.9044258551971
 20
3083.732276042098
 30
0.0
 10
117.9044258568238
 20
3009.634377079945
 30
0.0
  0
SPLINE
  5
114
330
1F
100
AcDbEntity
  8
Predefinito
100
AcDbSpline
210
0.0
220
0.0
230
1.0
 70
    12
 71
     2
 72
     6
 73
     3
 74
     0
 42
0.0000000001
 43
0.0000000001
 40
0.0
 40
0.0
 40
0.0
 40
9.127347374249739
 40
9.127347374249739
 40
9.127347374249739
 10
102.6999866227216
 20
3016.059115074429
 30
0.0
 41
1.0
 10
102.6998076657671
 20
3020.627674720136
 30
-0.0000000000000001
 41
0.9983965587024072
 10
103.2160221337954
 20
3025.166976416584
 30
0.0
 41
1.0
  0
SPLINE
  5
115
330
1F
100
AcDbEntity
  8
Predefinito
100
AcDbSpline
210
0.0
220
0.0
230
1.0
 70
    24
 71
     2
 72
     6
 73
     3
 74
     0
 42
0.0000000001
 43
0.0000000001
 40
0.0
 40
0.0
 40
0.0
 40
2.0
 40
2.0
 40
2.0
 10
102.6999866227216
 20
3014.059115074431
 30
0.0
 10
102.6999866227216
 20
3015.05911507443
 30
0.0
 10
102.6999866227216
 20
3016.059115074429
 30
0.0
  0
SPLINE
  5
116
330
1F
100
AcDbEntity
  8
Predefinito
100
AcDbSpline
210
0.0
220
0.0
230
1.0
 70
    12
 71
     2
 72
     6
 73
     3
 74
     0
 42
0.0000000001
 43
0.0000000001
 40
0.0
 40
0.0
 40
0.0
 40
1.839656839520212
 40
1.839656839520212
 40
1.839656839520212
 10
102.9362245483721
 20
3012.226205101345
 30
0.0
 41
1.0
 10
102.7001327784462
 20
3013.134302693069
 30
0.0
 41
0.9919358113165906
 10
102.6999866227216
 20
3014.059115074431
 30
0.0
 41
1.0
  0
SPLINE
  5
117
330
1F
100
AcDbEntity
  8
Predefinito
100
AcDbSpline
210
0.0
220
0.0
230
1.0
 70
    12
 71
     2
 72
     6
 73
     3
 74
     0
 42
0.0000000001
 43
0.0000000001
 40
0.0
 40
0.0
 40
0.0
 40
1.837034384731671
 40
1.837034384731671
 40
1.837034384731671
 10
103.6190566892037
 20
3010.509593519094
 30
0.0
 41
1.0
 10
103.1754739605178
 20
3011.320779922341
 30
0.0
 41
0.9926857922119376
 10
102.9362245483721
 20
3012.226205101345
 30
0.0
 41
1.0
  0
SPLINE
  5
118
330
1F
100
AcDbEntity
  8
Predefinito
100
AcDbSpline
210
0.0
220
0.0
230
1.0
 70
    12
 71
     2
 72
     6
 73
     3
 74
     0
 42
0.0000000001
 43
0.0000000001
 40
0.0
 40
0.0
 40
0.0
 40
1.782227946298279
 40
1.782227946298279
 40
1.782227946298279
 10
104.6350135965718
 20
3009.047951288449
 30
0.000000000000001
 41
0.9999999970834871
 10
104.0493665711092
 20
3009.723863805517
 30
0.0000000000000004
 41
0.9946232339978862
 10
103.6190566892037
 20
3010.509593519094
 30
0.0
 41
1.0
  0
SPLINE
  5
119
330
1F
100
AcDbEntity
  8
Predefinito
100
AcDbSpline
210
0.0
220
0.0
230
1.0
 70
    12
 71
     2
 72
     6
 73
     3
 74
     0
 42
0.0000000001
 43
0.0000000001
 40
-1.708824233968718
 40
-1.708824233968718
 40
-1.708824233968718
 40
0.0
 40
0.0
 40
0.0
 10
105.8537688352276
 20
3007.853338645386
 30
0.0
 41
1.0
 10
105.1964659174126
 20
3008.40184836093
 30
0.0000000000000012
 41
0.997312722359932
 10
104.6350135965718
 20
3009.047951288446
 30
0.0
 41
1.0
  0
SPLINE
  5
11A
330
1F
100
AcDbEntity
  8
Predefinito
100
AcDbSpline
210
0.0
220
0.0
230
1.0
 70
    12
 71
     2
 72
     6
 73
     3
 74
     0
 42
0.0000000001
 43
0.0000000001
 40
-3.126695522761689
 40
-3.126695522761689
 40
-3.126695522761689
 40
0.0
 40
0.0
 40
0.0
 10
108.4141828835682
 20
3006.061752051673
 30
0.0
 41
1.0
 10
107.0504588851706
 20
3006.838246557508
 30
-0.0000000000000002
 41
0.9944770864746844
 10
105.8537688352276
 20
3007.853338645386
 30
0.0
 41
1.0
  0
SPLINE
  5
11B
330
1F
100
AcDbEntity
  8
Predefinito
100
AcDbSpline
210
0.0
220
0.0
230
1.0
 70
    12
 71
     2
 72
     6
 73
     3
 74
     0
 42
0.0000000001
 43
0.0000000001
 40
0.0
 40
0.0
 40
0.0
 40
2.980627988117488
 40
2.980627988117488
 40
2.980627988117488
 10
111.0938059307118
 20
3004.763343423183
 30
0.0
 41
1.0
 10
109.7104195386861
 20
3005.322425525413
 30
0.0000000000000003
 41
0.9982161605376644
 10
108.4141828835682
 20
3006.061752051673
 30
0.0
 41
1.0
  0
SPLINE
  5
11C
330
1F
100
AcDbEntity
  8
Predefinito
100
AcDbSpline
210
0.0
220
0.0
230
1.0
 70
    12
 71
     2
 72
     6
 73
     3
 74
     0
 42
0.0000000001
 43
0.0000000001
 40
-0.4952153574711642
 40
-0.4952153574711642
 40
-0.4952153574711642
 40
0.0
 40
0.0
 40
0.0
 10
111.4079684093163
 20
3005.127788539253
 30
0.0
 41
1.0
 10
111.3310399069906
 20
3004.876471949208
 30
-0.0000000000000005
 41
0.9153616694234636
 10
111.0938059307118
 20
3004.763343423183
 30
0.0
 41
1.0
  0
SPLINE
  5
11D
330
1F
100
AcDbEntity
  8
Predefinito
100
AcDbSpline
210
0.0
220
0.0
230
1.0
 70
    12
 71
     2
 72
     8
 73
     5
 74
     0
 42
0.0000000001
 43
0.0000000001
 40
-2.288897180748744
 40
-2.288897180748744
 40
-2.288897180748744
 40
-1.910858094252033
 40
-1.910858094252033
 40
0.0
 40
0.0
 40
0.0
 10
112.1043973930205
 20
3007.267081607639
 30
0.0
 41
1.0
 10
112.1924257783618
 20
3007.084391278778
 30
0.0
 41
0.9011712212889833
 10
112.1046480902596
 20
3006.901580364558
 30
0.0
 41
1.0
 10
111.8698161291974
 20
3005.9701027642
 30
0.0000000000000004
 41
0.9919093923793318
 10
111.4079684093163
 20
3005.127788539253
 30
0.0
 41
1.0
  0
SPLINE
  5
11E
330
1F
100
AcDbEntity
  8
Predefinito
100
AcDbSpline
210
0.0
220
0.0
230
1.0
 70
    12
 71
     2
 72
     6
 73
     3
 74
     0
 42
0.0000000001
 43
0.0000000001
 40
0.0
 40
0.0
 40
0.0
 40
2.662704260220461
 40
2.662704260220461
 40
2.662704260220461
 10
109.6987139190815
 20
3008.411502950045
 30
0.0
 41
1.0
 10
110.8685934847854
 20
3007.766607811586
 30
-0.000000000000001
 41
0.9982104191502407
 10
112.1043973930205
 20
3007.267081607639
 30
0.0
 41
1.0
  0
SPLINE
  5
11F
330
1F
100
AcDbEntity
  8
Predefinito
100
AcDbSpline
210
0.0
220
0.0
230
1.0
 70
    12
 71
     2
 72
     6
 73
     3
 74
     0
 42
0.0000000001
 43
0.0000000001
 40
0.0
 40
0.0
 40
0.0
 40
2.530604809067723
 40
2.530604809067723
 40
2.530604809067723
 10
107.6185288866423
 20
3009.860869926189
 30
0.0
 41
1.0
 10
108.584239432531
 20
3009.026332101373
 30
-0.0000000000000002
 41
0.9945693547301222
 10
109.6987139190815
 20
3008.411502950045
 30
0.0
 41
1.0
  0
SPLINE
  5
120
330
1F
100
AcDbEntity
  8
Predefinito
100
AcDbSpline
210
0.0
220
0.0
230
1.0
 70
    12
 71
     2
 72
     6
 73
     3
 74
     0
 42
0.0000000001
 43
0.0000000001
 40
0.0
 40
0.0
 40
0.0
 40
1.307604070246974
 40
1.307604070246974
 40
1.307604070246974
 10
106.6881286620655
 20
3010.793961510554
 30
0.0
 41
1.0
 10
107.1186239960644
 20
3010.293938850848
 30
-0.0000000000000003
 41
0.9973324442149439
 10
107.6185288866423
 20
3009.860869926189
 30
0.0
 41
1.0
  0
SPLINE
  5
121
330
1F
100
AcDbEntity
  8
Predefinito
100
AcDbSpline
210
0.0
220
0.0
230
1.0
 70
    12
 71
     2
 72
     6
 73
     3
 74
     0
 42
0.0000000001
 43
0.0000000001
 40
-1.232428815741397
 40
-1.232428815741397
 40
-1.232428815741397
 40
0.0
 40
0.0
 40
0.0
 10
105.984205367376
 20
3011.808717363851
 30
0.0
 41
1.0
 10
106.2816089595847
 20
3011.266455803453
 30
-0.0000000000000001
 41
0.9945552224209996
 10
106.6881286620655
 20
3010.793961510554
 30
0.0
 41
1.0
  0
SPLINE
  5
122
330
1F
100
AcDbEntity
  8
Predefinito
100
AcDbSpline
210
0.0
220
0.0
230
1.0
 70
    12
 71
     2
 72
     6
 73
     3
 74
     0
 42
0.0000000001
 43
0.0000000001
 40
-1.189159982982265
 40
-1.189159982982265
 40
-1.189159982982265
 40
0.0
 40
0.0
 40
0.0
 10
105.5399934638986
 20
3012.908660105859
 30
0.0
 41
1.0
 10
105.6951506663454
 20
3012.331651480803
 30
-0.0000000000000002
 41
0.9926720828420381
 10
105.984205367376
 20
3011.808717363851
 30
0.0
 41
1.0
  0
SPLINE
  5
123
330
1F
100
AcDbEntity
  8
Predefinito
100
AcDbSpline
210
0.0
220
0.0
230
1.0
 70
    12
 71
     2
 72
     6
 73
     3
 74
     0
 42
0.0000000001
 43
0.0000000001
 40
-1.163863207175244
 40
-1.163863207175244
 40
-1.163863207175244
 40
0.0
 40
0.0
 40
0.0
 10
105.39322870416
 20
3014.05911507443
 30
-0.0000000000000004
 41
0.9999996173539327
 10
105.3887960368146
 20
3013.47394079397
 30
0.0
 41
0.9917305691310929
 10
105.5399934638986
 20
3012.908660105859
 30
0.0
 41
1.0
  0
SPLINE
  5
124
330
1F
100
AcDbEntity
  8
Predefinito
100
AcDbSpline
210
0.0
220
0.0
230
1.0
 70
    24
 71
     2
 72
     6
 73
     3
 74
     0
 42
0.0000000001
 43
0.0000000001
 40
0.0
 40
0.0
 40
0.0
 40
2.0
 40
2.0
 40
2.0
 10
105.3999866227218
 20
3016.059115074429
 30
0.0
 10
105.396607663441
 20
3015.05911507443
 30
0.0
 10
105.3932287041598
 20
3014.059115074431
 30
0.0
  0
SPLINE
  5
125
330
1F
100
AcDbEntity
  8
Predefinito
100
AcDbSpline
210
0.0
220
0.0
230
1.0
 70
    12
 71
     2
 72
     6
 73
     3
 74
     0
 42
0.0000000001
 43
0.0000000001
 40
0.0
 40
0.0
 40
0.0
 40
8.840605339381687
 40
8.840605339381687
 40
8.840605339381687
 10
105.9008814735084
 20
3024.880765257105
 30
0.0
 41
1.0
 10
105.3998075711904
 20
3020.484170781259
 30
0.0000000000000001
 41
0.9983895985215167
 10
105.3999866227218
 20
3016.059115074429
 30
0.0
 41
1.0
  0
SPLINE
  5
126
330
1F
100
AcDbEntity
  8
Predefinito
100
AcDbSpline
210
0.0
220
0.0
230
1.0
 70
    12
 71
     2
 72
     6
 73
     3
 74
     0
 42
0.0000000001
 43
0.0000000001
 40
0.0
 40
0.0
 40
0.0
 40
0.5593075338816316
 40
0.5593075338816316
 40
0.5593075338816316
 10
118.7828897862273
 20
3083.973131662644
 30
0.0
 41
1.0
 10
118.7434830972448
 20
3083.684137718893
 30
0.0000000000000002
 41
0.9999973624790053
 10
118.7044258535711
 20
3083.407224309849
 30
0.0
 41
1.0
  0
SPLINE
  5
127
330
1F
100
AcDbEntity
  8
Predefinito
100
AcDbSpline
210
0.0
220
0.0
230
1.0
 70
    12
 71
     2
 72
     6
 73
     3
 74
     0
 42
0.0000000001
 43
0.0000000001
 40
0.0
 40
0.0
 40
0.0
 40
5.962191151936569
 40
5.962191151936569
 40
5.962191151936569
 10
119.4173773348352
 20
3089.919485167563
 30
0.0
 41
1.0
 10
119.186579747668
 20
3086.939734969217
 30
0.0000000000000004
 41
0.9995803168090904
 10
118.7828897862273
 20
3083.973131662644
 30
0.0
 41
1.0
  0
SPLINE
  5
128
330
1F
100
AcDbEntity
  8
Predefinito
100
AcDbSpline
210
0.0
220
0.0
230
1.0
 70
    12
 71
     2
 72
     6
 73
     3
 74
     0
 42
0.0000000001
 43
0.0000000001
 40
0.0
 40
0.0
 40
0.0
 40
6.009591184103122
 40
6.009591184103122
 40
6.009591184103122
 10
119.6494814325843
 20
3095.929846774028
 30
0.0
 41
1.0
 10
119.6495181543792
 20
3092.923560505492
 30
0.0000000000000002
 41
0.9992563861163626
 10
119.4173773348352
 20
3089.919485167563
 30
0.0
 41
1.0
  0
SPLINE
  5
129
330
1F
100
AcDbEntity
  8
Predefinito
100
AcDbSpline
210
0.0
220
0.0
230
1.0
 70
    24
 71
     2
 72
     6
 73
     3
 74
     0
 42
0.0000000001
 43
0.0000000001
 40
0.0
 40
0.0
 40
0.0
 40
48.48518265076382
 40
48.48518265076382
 40
48.48518265076382
 10
119.6494814309522
 20
3144.415029424794
 30
0.0
 10
119.649481431768
 20
3120.172438099411
 30
0.0
 10
119.6494814325843
 20
3095.929846774028
 30
0.0
  0
SPLINE
  5
12A
330
1F
100
AcDbEntity
  8
Predefinito
100
AcDbSpline
210
0.0
220
0.0
230
1.0
 70
    24
 71
     2
 72
     6
 73
     3
 74
     0
 42
0.0000000001
 43
0.0000000001
 40
0.0
 40
0.0
 40
0.0
 40
13.41514557945675
 40
13.41514557945675
 40
13.41514557945675
 10
119.6494814293201
 20
3157.830175004251
 30
0.0
 10
119.6494814301363
 20
3151.122602214523
 30
0.0
 10
119.6494814309522
 20
3144.415029424794
 30
0.0
  0
SPLINE
  5
12B
330
1F
100
AcDbEntity
  8
Predefinito
100
AcDbSpline
210
0.0
220
0.0
230
1.0
 70
    12
 71
     2
 72
     6
 73
     3
 74
     0
 42
0.0000000001
 43
0.0000000001
 40
0.0
 40
0.0
 40
0.0
 40
9.519163574081471
 40
9.519163574081471
 40
9.519163574081471
 10
109.2281381201301
 20
3042.992455570306
 30
0.0
 41
1.0
 10
108.0926988922761
 20
3038.347262489825
 30
0.0
 41
0.9996176209984817
 10
107.2196752752857
 20
3033.667197961794
 30
0.0
 41
1.0
  0
SPLINE
  5
12C
330
1F
100
AcDbEntity
  8
Predefinito
100
AcDbSpline
210
0.0
220
0.0
230
1.0
 70
    12
 71
     2
 72
     6
 73
     3
 74
     0
 42
0.0000000001
 43
0.0000000001
 40
0.0
 40
0.0
 40
0.0
 40
9.597859629509395
 40
9.597859629509395
 40
9.597859629509395
 10
111.5973373545371
 20
3052.315752591692
 30
0.0
 41
1.0
 10
110.3741346985083
 20
3047.674452910907
 30
0.0
 41
0.9999611022528274
 10
109.2281381201301
 20
3042.992455570306
 30
0.0
 41
1.0
  0
SPLINE
  5
12D
330
1F
100
AcDbEntity
  8
Predefinito
100
AcDbSpline
210
0.0
220
0.0
230
1.0
 70
    12
 71
     2
 72
     6
 73
     3
 74
     0
 42
0.0000000001
 43
0.0000000001
 40
0.0
 40
0.0
 40
0.0
 40
10.0840023453655
 40
10.0840023453655
 40
10.0840023453655
 10
114.1698683315294
 20
3062.067606898787
 30
0.0
 41
1.0
 10
112.8824957523708
 20
3057.191966576092
 30
0.0000000000000001
 41
0.9999999742834621
 10
111.5973373545371
 20
3052.315752591692
 30
0.0
 41
1.0
  0
SPLINE
  5
12E
330
1F
100
AcDbEntity
  8
Predefinito
100
AcDbSpline
210
0.0
220
0.0
230
1.0
 70
    12
 71
     2
 72
     6
 73
     3
 74
     0
 42
0.0000000001
 43
0.0000000001
 40
0.0
 40
0.0
 40
0.0
 40
10.11596209846608
 40
10.11596209846608
 40
10.11596209846608
 10
116.5673035830273
 20
3071.915774639842
 30
0.0
 41
1.0
 10
115.4612585974144
 20
3066.959361698909
 30
-0.0000000000000003
 41
0.999814265641448
 10
114.1698683315294
 20
3062.067606898787
 30
0.0
 41
1.0
  0
SPLINE
  5
12F
330
1F
100
AcDbEntity
  8
Predefinito
100
AcDbSpline
210
0.0
220
0.0
230
1.0
 70
    12
 71
     2
 72
     6
 73
     3
 74
     0
 42
0.0000000001
 43
0.0000000001
 40
0.0
 40
0.0
 40
0.0
 40
6.059928925237918
 40
6.059928925237918
 40
6.059928925237918
 10
117.7972158441203
 20
3077.895517189627
 30
0.0
 41
1.0
 10
117.2311651781391
 20
3074.892605834244
 30
-0.0000000000000001
 41
0.999863027584215
 10
116.5673035830273
 20
3071.915774639842
 30
0.0
 41
1.0
  0
SPLINE
  5
130
330
1F
100
AcDbEntity
  8
Predefinito
100
AcDbSpline
210
0.0
220
0.0
230
1.0
 70
    12
 71
     2
 72
     6
 73
     3
 74
     0
 42
0.0000000001
 43
0.0000000001
 40
0.0
 40
0.0
 40
0.0
 40
0.5610572016046941
 40
0.5610572016046941
 40
0.5610572016046941
 10
117.904425853571
 20
3078.472248619216
 30
0.0
 41
1.0
 10
117.8538278323481
 20
3078.196320331309
 30
-0.0000000000000003
 41
0.9999972938718099
 10
117.7972158441203
 20
3077.895517189627
 30
0.0
 41
1.0
  0
SPLINE
  5
131
330
1F
100
AcDbEntity
  8
Predefinito
100
AcDbSpline
210
0.0
220
0.0
230
1.0
 70
    24
 71
     2
 72
     6
 73
     3
 74
     0
 42
0.0000000001
 43
0.0000000001
 40
-2.591399581152419
 40
-2.591399581152419
 40
-2.591399581152419
 40
0.0
 40
0.0
 40
0.0
 10
121.3674834543281
 20
3003.25569964202
 30
0.0
 10
121.3428259330481
 20
3004.551164791665
 30
0.0
 10
121.3181684117681
 20
3005.84662994131
 30
0.0
  0
SPLINE
  5
132
330
1F
100
AcDbEntity
  8
Predefinito
100
AcDbSpline
210
0.0
220
0.0
230
1.0
 70
    12
 71
     3
 72
    10
 73
     6
 74
     0
 42
0.0000000001
 43
0.0000000001
 40
0.0
 40
0.0
 40
0.0
 40
0.0
 40
0.5230282459666628
 40
0.5230282459666628
 40
1.0
 40
1.0
 40
1.0
 40
1.0
 10
121.0248828797885
 20
3003.193905564083
 30
0.0
 41
1.0
 10
121.0993888038092
 20
3003.143494825784
 30
0.0
 41
1.0
 10
121.1695879928202
 20
3003.102151203128
 30
0.0
 41
1.0
 10
121.2995913686686
 20
3003.087475492055
 30
0.0
 41
1.0
 10
121.3674834543281
 20
3003.103378991892
 30
0.0
 41
1.0
 10
121.3674834543281
 20
3003.25569964202
 30
0.0
 41
1.0
  0
SPLINE
  5
133
330
1F
100
AcDbEntity
  8
Predefinito
100
AcDbSpline
210
0.0
220
0.0
230
1.0
 70
     8
 71
     3
 72
    11
 73
     7
 74
     0
 42
0.0000000001
 43
0.0000000001
 40
0.0
 40
0.0
 40
0.0
 40
0.0
 40
0.6429580247424806
 40
1.334357968472321
 40
2.85078431483592
 40
5.702674667742867
 40
5.702674667742867
 40
5.702674667742867
 40
5.702674667742867
 10
115.5737995363388
 20
3003.193905564039
 30
0.0
 10
115.7526027738145
 20
3003.315441920426
 30
0.0
 10
116.1445365752065
 20
3003.518987499961
 30
0.0
 10
117.0608043509283
 20
3003.813856894538
 30
0.0
 10
118.7324158969714
 20
3003.973456858535
 30
0.0
 10
120.2201376986013
 20
3003.717062706251
 30
0.0
 10
121.0248828797885
 20
3003.193905564083
 30
0.0
  0
SPLINE
  5
134
330
1F
100
AcDbEntity
  8
Predefinito
100
AcDbSpline
210
0.0
220
0.0
230
1.0
 70
    12
 71
     3
 72
    10
 73
     6
 74
     0
 42
0.0000000001
 43
0.0000000001
 40
0.0
 40
0.0
 40
0.0
 40
0.0
 40
0.4836130155633231
 40
0.4836130155633231
 40
1.0
 40
1.0
 40
1.0
 40
1.0
 10
115.2311989617983
 20
3003.255699641987
 30
0.0
 41
1.0
 10
115.2311989617983
 20
3003.099158503238
 30
0.0
 41
1.0
 10
115.2975535623177
 20
3003.087210600278
 30
0.0
 41
1.0
 10
115.4286813213521
 20
3003.101740627589
 30
0.0
 41
1.0
 10
115.4991869376418
 20
3003.14342264961
 30
0.0
 41
1.0
 10
115.5737995363388
 20
3003.193905564039
 30
0.0
 41
1.0
  0
SPLINE
  5
135
330
1F
100
AcDbEntity
  8
Predefinito
100
AcDbSpline
210
0.0
220
0.0
230
1.0
 70
    24
 71
     2
 72
     6
 73
     3
 74
     0
 42
0.0000000001
 43
0.0000000001
 40
0.0
 40
0.0
 40
0.0
 40
2.591868948014053
 40
2.591868948014053
 40
2.591868948014053
 10
115.2821907760231
 20
3005.934724735168
 30
0.0
 10
115.2566948689109
 20
3004.595212188578
 30
0.0
 10
115.2311989617983
 20
3003.255699641987
 30
0.0
  0
SPLINE
  5
136
330
1F
100
AcDbEntity
  8
Predefinito
100
AcDbSpline
210
0.0
220
0.0
230
1.0
 70
    12
 71
     2
 72
     8
 73
     5
 74
     0
 42
0.0000000001
 43
0.0000000001
 40
1.5707963267949
 40
1.5707963267949
 40
1.5707963267949
 40
3.14159265358979
 40
3.14159265358979
 40
4.71238898038469
 40
4.71238898038469
 40
4.71238898038469
 10
121.3164916401042
 20
3005.934724735168
 30
0.0
 41
1.0
 10
121.3164916401042
 20
3004.731638809583
 30
-0.0000000000000002
 41
0.707106781186548
 10
118.2993412080637
 20
3004.731638809583
 30
0.0
 41
1.0
 10
115.2821907760229
 20
3004.731638809583
 30
-0.0000000000000002
 41
0.707106781186548
 10
115.2821907760231
 20
3005.934724735168
 30
0.0
 41
1.0
  0
LINE
  5
137
330
1F
100
AcDbEntity
  8
Predefinito
100
AcDbLine
 10
121.3165188237081
 20
3008.526594006858
 30
0.0
 11
121.3164916401042
 21
3005.934724735168
 31
0.0
  0
SPLINE
  5
138
330
1F
100
AcDbEntity
  8
Predefinito
100
AcDbSpline
210
0.0
220
0.0
230
1.0
 70
     8
 71
     3
 72
    13
 73
     9
 74
     0
 42
0.0000000001
 43
0.0000000001
 40
4.751800454518408
 40
4.751800454518408
 40
4.751800454518408
 40
4.751800454518408
 40
5.292208916718332
 40
6.286222133858512
 40
7.248716781317103
 40
7.652111336744632
 40
8.14853787302365
 40
8.702321998631916
 40
8.702321998631916
 40
8.702321998631916
 40
8.702321998631916
 10
118.6854208116106
 20
3010.259908351565
 30
0.0
 10
118.8825214557728
 20
3010.289085444948
 30
0.0
 10
119.380966846451
 20
3010.232165341387
 30
0.0
 10
120.117445713402
 20
3010.038641794858
 30
0.0
 10
120.6847500934909
 20
3009.721786290227
 30
0.0
 10
121.042387714951
 20
3009.352450456981
 30
0.0
 10
121.2532586510561
 20
3008.992260500218
 30
0.0
 10
121.3146271684609
 20
3008.687745705714
 30
0.0
 10
121.3165188237081
 20
3008.526594006858
 30
0.0
  0
SPLINE
  5
139
330
1F
100
AcDbEntity
  8
Predefinito
100
AcDbSpline
210
0.0
220
0.0
230
1.0
 70
    12
 71
     2
 72
     6
 73
     3
 74
     0
 42
0.0000000001
 43
0.0000000001
 40
0.0
 40
0.0
 40
0.0
 40
2.772675262989774
 40
2.772675262989774
 40
2.772675262989774
 10
120.3166439449478
 20
3009.427648852422
 30
0.0
 41
1.0
 10
120.3166439449483
 20
3010.091464274493
 30
-0.0000000000000001
 41
0.7452549463865324
 10
118.6854208116109
 20
3010.259908351565
 30
0.0000000000000001
 41
0.9336409601526826
  0
SPLINE
  5
13A
330
1F
100
AcDbEntity
  8
Predefinito
100
AcDbSpline
210
0.0
220
0.0
230
1.0
 70
    24
 71
     2
 72
     6
 73
     3
 74
     0
 42
0.0000000001
 43
0.0000000001
 40
0.0
 40
0.0
 40
0.0
 40
2.591868948014962
 40
2.591868948014962
 40
2.591868948014962
 10
120.3166439449478
 20
3006.835779904407
 30
0.0
 10
120.3166439449478
 20
3008.131714378414
 30
0.0
 10
120.3166439449478
 20
3009.427648852422
 30
0.0
  0
SPLINE
  5
13B
330
1F
100
AcDbEntity
  8
Predefinito
100
AcDbSpline
210
0.0
220
0.0
230
1.0
 70
    12
 71
     2
 72
     8
 73
     5
 74
     0
 42
0.0000000001
 43
0.0000000001
 40
0.0
 40
0.0
 40
0.0
 40
3.16877172913117
 40
3.16877172913117
 40
6.33754345826233
 40
6.33754345826233
 40
6.33754345826233
 10
116.2820384711795
 20
3006.835779904407
 30
0.0
 41
1.0
 10
116.2820384711793
 20
3006.031382316335
 30
-0.0000000000000002
 41
0.707106781186548
 10
118.2993412080637
 20
3006.031382316334
 30
0.0
 41
1.0
 10
120.3166439449478
 20
3006.031382316335
 30
-0.0000000000000002
 41
0.707106781186548
 10
120.3166439449478
 20
3006.835779904407
 30
0.0
 41
1.0
  0
SPLINE
  5
13C
330
1F
100
AcDbEntity
  8
Predefinito
100
AcDbSpline
210
0.0
220
0.0
230
1.0
 70
    24
 71
     2
 72
     6
 73
     3
 74
     0
 42
0.0000000001
 43
0.0000000001
 40
0.0
 40
0.0
 40
0.0
 40
2.591868948014508
 40
2.591868948014508
 40
2.591868948014508
 10
116.2820384711795
 20
3009.427648852422
 30
0.0
 10
116.2820384711795
 20
3008.131714378414
 30
0.0
 10
116.2820384711795
 20
3006.835779904407
 30
0.0
  0
SPLINE
  5
13D
330
1F
100
AcDbEntity
  8
Predefinito
100
AcDbSpline
210
0.0
220
0.0
230
1.0
 70
    12
 71
     2
 72
     6
 73
     3
 74
     0
 42
0.0000000001
 43
0.0000000001
 40
3.594277229313394
 40
3.594277229313394
 40
3.594277229313394
 40
6.33754345826233
 40
6.33754345826233
 40
6.33754345826233
 10
117.9044258527237
 20
3010.25926412432
 30
-0.0000000000000001
 41
0.931902598785738
 10
116.2820384711795
 20
3010.087338629762
 30
0.0
 41
0.7464367444103019
 10
116.2820384711795
 20
3009.427648852422
 30
0.0
 41
1.0
  0
SPLINE
  5
13E
330
1F
100
AcDbEntity
  8
Predefinito
100
AcDbSpline
210
0.0
220
0.0
230
1.0
 70
     8
 71
     3
 72
    12
 73
     8
 74
     0
 42
0.0000000001
 43
0.0000000001
 40
-0.0089582916759235
 40
-0.0089582916759235
 40
-0.0089582916759235
 40
-0.0089582916759235
 40
0.9105116122210051
 40
1.408630444464379
 40
2.373177698900744
 40
3.026300728170201
 40
3.94915348597183
 40
3.94915348597183
 40
3.94915348597183
 40
3.94915348597183
 10
115.2829084342625
 20
3008.525812678269
 30
0.0
 10
115.2837999719995
 20
3008.799816069719
 30
0.0
 10
115.425003900566
 20
3009.19764606017
 30
0.0
 10
115.8653358878541
 20
3009.69057565896
 30
0.0
 10
116.3701122634407
 20
3009.980074569433
 30
0.0
 10
117.0880922425372
 20
3010.206794214867
 30
0.0
 10
117.59694091442
 20
3010.281580030819
 30
0.0
 10
117.9044258527238
 20
3010.25926412432
 30
0.0
  0
LINE
  5
13F
330
1F
100
AcDbEntity
  8
Predefinito
100
AcDbLine
 10
115.2821907760231
 20
3005.934724735168
 30
0.0
 11
115.2829084342625
 21
3008.525812678269
 31
0.0
  0
SPLINE
  5
140
330
1F
100
AcDbEntity
  8
Predefinito
100
AcDbSpline
210
0.0
220
0.0
230
1.0
 70
    24
 71
     2
 72
     6
 73
     3
 74
     0
 42
0.0000000001
 43
0.0000000001
 40
0.0
 40
0.0
 40
0.0
 40
13.41514557945675
 40
13.41514557945675
 40
13.41514557945675
 10
116.9494814309523
 20
3144.415029424794
 30
0.0
 10
116.9494814301361
 20
3151.122602214523
 30
0.0
 10
116.9494814293203
 20
3157.830175004251
 30
0.0
  0
SPLINE
  5
141
330
1F
100
AcDbEntity
  8
Predefinito
100
AcDbSpline
210
0.0
220
0.0
230
1.0
 70
    24
 71
     2
 72
     6
 73
     3
 74
     0
 42
0.0000000001
 43
0.0000000001
 40
0.0
 40
0.0
 40
0.0
 40
48.48518265076382
 40
48.48518265076382
 40
48.48518265076382
 10
116.949481432584
 20
3095.929846774027
 30
0.0
 10
116.9494814317682
 20
3120.172438099411
 30
0.0
 10
116.9494814309523
 20
3144.415029424794
 30
0.0
  0
SPLINE
  5
142
330
1F
100
AcDbEntity
  8
Predefinito
100
AcDbSpline
210
0.0
220
0.0
230
1.0
 70
    12
 71
     2
 72
     6
 73
     3
 74
     0
 42
0.0000000001
 43
0.0000000001
 40
0.0
 40
0.0
 40
0.0
 40
5.814277579826813
 40
5.814277579826813
 40
5.814277579826813
 10
116.7244054139164
 20
3090.114634830778
 30
0.0
 41
1.0
 10
116.9495183138008
 20
3093.021259297336
 30
-0.0000000000000004
 41
0.9992530588948445
 10
116.949481432584
 20
3095.929846774027
 30
0.0
 41
1.0
  0
SPLINE
  5
143
330
1F
100
AcDbEntity
  8
Predefinito
100
AcDbSpline
210
0.0
220
0.0
230
1.0
 70
    12
 71
     2
 72
     6
 73
     3
 74
     0
 42
0.0000000001
 43
0.0000000001
 40
0.0
 40
0.0
 40
0.0
 40
5.815616408831167
 40
5.815616408831167
 40
5.815616408831167
 10
116.1044026944742
 20
3084.314134444547
 30
0.0
 41
1.0
 10
116.4988829446965
 20
3087.20800454257
 30
-0.0000000000000012
 41
0.9995788588379736
 10
116.7244054139164
 20
3090.114634830778
 30
0.0
 41
1.0
  0
SPLINE
  5
144
330
1F
100
AcDbEntity
  8
Predefinito
100
AcDbSpline
210
0.0
220
0.0
230
1.0
 70
    12
 71
     2
 72
     6
 73
     3
 74
     0
 42
0.0000000001
 43
0.0000000001
 40
0.0
 40
0.0
 40
0.0
 40
5.976162357216282
 40
5.976162357216282
 40
5.976162357216282
 10
115.1423759399358
 20
3078.387336468618
 30
0.0
 41
1.0
 10
115.6984926414966
 20
3081.34099250777
 30
-0.0000000000000002
 41
0.9996823160642638
 10
116.1044026944742
 20
3084.314134444547
 30
0.0
 41
1.0
  0
SPLINE
  5
145
330
1F
100
AcDbEntity
  8
Predefinito
100
AcDbSpline
210
0.0
220
0.0
230
1.0
 70
    12
 71
     2
 72
     6
 73
     3
 74
     0
 42
0.0000000001
 43
0.0000000001
 40
0.0
 40
0.0
 40
0.0
 40
5.950882439488431
 40
5.950882439488431
 40
5.950882439488431
 10
113.934110949745
 20
3072.512758216943
 30
0.0
 41
1.0
 10
114.5880433635393
 20
3075.446576094545
 30
-0.0000000000000012
 41
0.999863927433731
 10
115.1423759399358
 20
3078.387336468618
 30
0.0
 41
1.0
  0
SPLINE
  5
146
330
1F
100
AcDbEntity
  8
Predefinito
100
AcDbSpline
210
0.0
220
0.0
230
1.0
 70
    12
 71
     2
 72
     6
 73
     3
 74
     0
 42
0.0000000001
 43
0.0000000001
 40
0.0
 40
0.0
 40
0.0
 40
10.01199557442059
 40
10.01199557442059
 40
10.01199557442059
 10
111.5529536949862
 20
3062.732725387382
 30
0.0
 41
1.0
 10
112.8371058600666
 20
3067.596954163745
 30
0.0
 41
0.9998142592349941
 10
113.934110949745
 20
3072.512758216943
 30
0.0
 41
1.0
  0
SPLINE
  5
147
330
1F
100
AcDbEntity
  8
Predefinito
100
AcDbSpline
210
0.0
220
0.0
230
1.0
 70
    12
 71
     2
 72
     6
 73
     3
 74
     0
 42
0.0000000001
 43
0.0000000001
 40
0.0
 40
0.0
 40
0.0
 40
10.03815115789663
 40
10.03815115789663
 40
10.03815115789663
 10
108.9801370330324
 20
3052.979739601996
 30
0.0
 41
1.0
 10
110.2654379602106
 20
3057.856499889067
 30
0.0000000000000003
 41
0.999999974523
 10
111.5529536949862
 20
3062.732725387382
 30
0.0
 41
1.0
  0
SPLINE
  5
148
330
1F
100
AcDbEntity
  8
Predefinito
100
AcDbSpline
210
0.0
220
0.0
230
1.0
 70
    12
 71
     2
 72
     6
 73
     3
 74
     0
 42
0.0000000001
 43
0.0000000001
 40
0.0
 40
0.0
 40
0.0
 40
9.575770668655352
 40
9.575770668655352
 40
9.575770668655352
 10
106.6078122326949
 20
3043.643592534722
 30
0.0
 41
1.0
 10
107.7541744431678
 20
3048.32629879244
 30
-0.0000000000000003
 41
0.9999616629743445
 10
108.9801370330324
 20
3052.979739601996
 30
0.0
 41
1.0
  0
SPLINE
  5
149
330
1F
100
AcDbEntity
  8
Predefinito
100
AcDbSpline
210
0.0
220
0.0
230
1.0
 70
    12
 71
     2
 72
     6
 73
     3
 74
     0
 42
0.0000000001
 43
0.0000000001
 40
0.0
 40
0.0
 40
0.0
 40
9.683748100456652
 40
9.683748100456652
 40
9.683748100456652
 10
104.5623925198715
 20
3034.145873030105
 30
0.0
 41
1.0
 10
105.450057206572
 20
3038.906943472669
 30
-0.0000000000000011
 41
0.9996164204318989
 10
106.6078122326949
 20
3043.643592534722
 30
0.0
 41
1.0
  0
SPLINE
  5
14A
330
1F
100
AcDbEntity
  8
Predefinito
100
AcDbSpline
210
0.0
220
0.0
230
1.0
 70
    24
 71
     2
 72
     6
 73
     3
 74
     0
 42
0.0000000001
 43
0.0000000001
 40
0.0
 40
0.0
 40
0.0
 40
0.0014717629496772
 40
0.0014717629496772
 40
0.0014717629496772
 10
115.2311837313141
 20
3003.797198572351
 30
0.0
 10
115.2311837313141
 20
3003.797934453826
 30
0.0
 10
115.2311837313141
 20
3003.798670335301
 30
0.0
  0
SPLINE
  5
14B
330
1F
100
AcDbEntity
  8
Predefinito
100
AcDbSpline
210
0.0
220
0.0
230
1.0
 70
    12
 71
     2
 72
     6
 73
     3
 74
     0
 42
0.0000000001
 43
0.0000000001
 40
0.0
 40
0.0
 40
0.0
 40
0.5865199714776553
 40
0.5865199714776553
 40
0.5865199714776553
 10
105.5498228303636
 20
3012.903791589772
 30
0.0
 41
1.0
 10
105.6247665069504
 20
3012.619904474497
 30
0.0
 41
0.9981987658800806
 10
105.7331721314263
 20
3012.347036980167
 30
0.0
 41
1.0
  0
SPLINE
  5
14C
330
1F
100
AcDbEntity
  8
Predefinito
100
AcDbSpline
210
0.0
220
0.0
230
1.0
 70
    24
 71
     2
 72
     6
 73
     3
 74
     0
 42
0.0000000001
 43
0.0000000001
 40
0.0
 40
0.0
 40
0.0
 40
70.48786481420554
 40
70.48786481420554
 40
70.48786481420554
 10
70.91499354527468
 20
3464.274874450664
 30
0.0
 10
35.65834277269141
 20
3464.274874450663
 30
0.0
 10
0.4016920001076869
 20
3464.274874450663
 30
0.0
  0
SPLINE
  5
14D
330
1F
100
AcDbEntity
  8
Predefinito
100
AcDbSpline
210
0.0
220
0.0
230
1.0
 70
    24
 71
     2
 72
     6
 73
     3
 74
     0
 42
0.0000000001
 43
0.0000000001
 40
-165.3003433462706
 40
-165.3003433462706
 40
-165.3003433462706
 40
0.0
 40
0.0
 40
0.0
 10
236.216339011723
 20
3464.274874450664
 30
0.0
 10
153.5656662784991
 20
3464.274874450664
 30
0.0
 10
70.91499354527468
 20
3464.274874450664
 30
0.0
  0
SPLINE
  5
14E
330
1F
100
AcDbEntity
  8
Predefinito
100
AcDbSpline
210
0.0
220
0.0
230
1.0
 70
    24
 71
     2
 72
     6
 73
     3
 74
     0
 42
0.0000000001
 43
0.0000000001
 40
0.0
 40
0.0
 40
0.0
 40
43.00161963856726
 40
43.00161963856726
 40
43.00161963856726
 10
236.5915695983686
 20
3507.274865678634
 30
0.0
 10
236.4039543050458
 20
3485.774870064649
 30
0.0
 10
236.216339011723
 20
3464.274874450664
 30
0.0
  0
SPLINE
  5
14F
330
1F
100
AcDbEntity
  8
Predefinito
100
AcDbSpline
210
0.0
220
0.0
230
1.0
 70
    24
 71
     2
 72
     6
 73
     3
 74
     0
 42
0.0000000001
 43
0.0000000001
 40
0.0
 40
0.0
 40
0.0
 40
165.8263553599352
 40
165.8263553599352
 40
165.8263553599352
 10
70.76420900589801
 20
3507.274874450664
 30
0.0
 10
153.6778893021333
 20
3507.274870064649
 30
0.0
 10
236.5915695983686
 20
3507.274865678634
 30
0.0
  0
SPLINE
  5
150
330
1F
100
AcDbEntity
  8
Predefinito
100
AcDbSpline
210
0.0
220
0.0
230
1.0
 70
    12
 71
     3
 72
    12
 73
     8
 74
     0
 42
0.0000000001
 43
0.0000000001
 40
-139.7296516077452
 40
-139.7296516077452
 40
-139.7296516077452
 40
-139.7296516077452
 40
-130.8481403178698
 40
-75.76855833364361
 40
-23.75898695102061
 40
-11.87949347551035
 40
0.0
 40
0.0
 40
0.0
 40
0.0
 10
0.0246012514344329
 20
3507.274668565582
 30
0.0
 41
1.0
 10
-0.0344385511689325
 20
3507.274874450664
 30
0.0
 41
1.0
 10
0.3373551864960973
 20
3507.274874450664
 30
0.0
 41
1.0
 10
11.55213462607253
 20
3507.274874450664
 30
0.0
 41
1.0
 10
38.77620932163882
 20
3507.274874450664
 30
0.0
 41
1.0
 10
60.08776329276952
 20
3507.274874450664
 30
0.0
 41
1.0
 10
67.15228205345647
 20
3507.274874450664
 30
0.0
 41
1.0
 10
70.76420900589801
 20
3507.274874450664
 30
0.0
 41
1.0
  0
SPLINE
  5
151
330
1F
100
AcDbEntity
  8
Predefinito
100
AcDbSpline
210
0.0
220
0.0
230
1.0
 70
    24
 71
     2
 72
     6
 73
     3
 74
     0
 42
0.0000000001
 43
0.0000000001
 40
0.0
 40
0.0
 40
0.0
 40
43.0012255386821
 40
43.0012255386821
 40
43.0012255386821
 10
0.4016920001076869
 20
3464.274874450663
 30
0.0
 10
0.2131466257710599
 20
3485.774771508122
 30
0.0
 10
0.0246012514344329
 20
3507.274668565582
 30
0.0
  0
SPLINE
  5
152
330
1F
100
AcDbEntity
  8
Predefinito
100
AcDbSpline
210
0.0
220
0.0
230
1.0
 70
    12
 71
     2
 72
    20
 73
    17
 74
     0
 42
0.0000000001
 43
0.0000000001
 40
0.0
 40
0.0
 40
0.0
 40
1.325861077756491
 40
1.325861077756491
 40
8.600023397156967
 40
8.600023397156967
 40
15.87460961324599
 40
15.87460961324599
 40
18.92523073329724
 40
18.92523073329724
 40
21.97585185329304
 40
21.97585185329304
 40
29.25019152897293
 40
29.25019152897293
 40
36.52460134833743
 40
36.52460134833743
 40
37.81287228098724
 40
37.81287228098724
 40
37.81287228098724
 10
109.7844729185866
 20
2085.550247744952
 30
0.0
 41
1.0
 10
109.7805393928081
 20
2084.883541716155
 30
0.0
 41
0.9915014288772787
 10
109.9487360630627
 20
2084.238388802828
 30
0.0
 41
1.0
 10
110.8510867637402
 20
2080.706818627333
 30
0.0
 41
0.9967331755912031
 10
112.3102560223318
 20
2077.366601603508
 30
0.0
 41
1.0
 10
113.7715802517442
 20
2074.027626582469
 30
0.0
 41
0.9969328010199904
 10
115.7360321145878
 20
2070.957585609915
 30
0.0
 41
1.0
 10
116.615510271393
 20
2069.53566759666
 30
0.0
 41
0.8735065337234396
 10
118.287435109631
 20
2069.535667596659
 30
0.0
 41
1.0
 10
119.9593599478333
 20
2069.53566759666
 30
0.0
 41
0.8735065337278842
 10
120.8388381046455
 20
2070.957585609868
 30
0.0
 41
1.0
 10
122.8032305221297
 20
2074.02751782952
 30
0.0
 41
0.9969328507948153
 10
124.264517251728
 20
2077.366374294993
 30
0.0
 41
1.0
 10
125.7237575083278
 20
2080.706696469201
 30
0.0
 41
0.9967328646258194
 10
126.626134156197
 20
2084.238388802822
 30
0.0
 41
1.0
 10
126.789422884535
 20
2084.8650629314
 30
0.0
 41
0.9919982732950786
 10
126.7905353044492
 20
2085.512660364033
 30
0.0
 41
1.0
  0
LINE
  5
153
330
1F
100
AcDbEntity
  8
Predefinito
100
AcDbLine
 10
126.7905353191327
 20
2085.512660364033
 30
0.0
 11
126.7905353191327
 21
3049.166232787978
 31
0.0
  0
SPLINE
  5
154
330
1F
100
AcDbEntity
  8
Predefinito
100
AcDbSpline
210
0.0
220
0.0
230
1.0
 70
    12
 71
     2
 72
    20
 73
    17
 74
     0
 42
0.0000000001
 43
0.0000000001
 40
0.0
 40
0.0
 40
0.0
 40
1.325861077756491
 40
1.325861077756491
 40
8.600023397156967
 40
8.600023397156967
 40
15.87460961324599
 40
15.87460961324599
 40
18.92523073329724
 40
18.92523073329724
 40
21.97585185329304
 40
21.97585185329304
 40
29.25019152897293
 40
29.25019152897293
 40
36.52460134833743
 40
36.52460134833743
 40
37.81287228098724
 40
37.81287228098724
 40
37.81287228098724
 10
2590.519642713772
 20
109.7844729185115
 30
0.0
 41
1.0
 10
2591.186348742569
 20
109.7805393927329
 30
0.0
 41
0.9915014288772787
 10
2591.831501655895
 20
109.9487360629876
 30
0.0
 41
1.0
 10
2595.363071831391
 20
110.851086763665
 30
0.0
 41
0.9967331755912031
 10
2598.703288855216
 20
112.3102560222567
 30
0.0
 41
1.0
 10
2602.042263876255
 20
113.771580251669
 30
0.0
 41
0.9969328010199904
 10
2605.112304848808
 20
115.7360321145127
 30
0.0
 41
1.0
 10
2606.534222862064
 20
116.6155102713179
 30
0.0
 41
0.8735065337234396
 10
2606.534222862064
 20
118.2874351095559
 30
0.0
 41
1.0
 10
2606.534222862064
 20
119.9593599477582
 30
0.0
 41
0.8735065337278842
 10
2605.112304848855
 20
120.8388381045704
 30
0.0
 41
1.0
 10
2602.042372629203
 20
122.8032305220545
 30
0.0
 41
0.9969328507948153
 10
2598.70351616373
 20
124.2645172516529
 30
0.0
 41
1.0
 10
2595.363193989524
 20
125.7237575082526
 30
0.0
 41
0.9967328646258194
 10
2591.831501655902
 20
126.6261341561219
 30
0.0
 41
1.0
 10
2591.204827527324
 20
126.7894228844598
 30
0.0
 41
0.9919982732950786
 10
2590.557230094691
 20
126.7905353043741
 30
0.0
 41
1.0
  0
SPLINE
  5
155
330
1F
100
AcDbEntity
  8
Predefinito
100
AcDbSpline
210
0.0
220
0.0
230
1.0
 70
    12
 71
     2
 72
     6
 73
     3
 74
     0
 42
0.0000000001
 43
0.0000000001
 40
0.0
 40
0.0
 40
0.0
 40
9.027836317619036
 40
9.027836317619036
 40
9.027836317619036
 10
103.224396365606
 20
3025.219628402454
 30
0.0
 41
1.0
 10
103.7360035570129
 20
3029.706342765186
 30
-0.0000000000000001
 41
0.9993787781129692
 10
104.5623925198715
 20
3034.145873030105
 30
0.0
 41
1.0
  0
SPLINE
  5
156
330
1F
100
AcDbEntity
  8
Predefinito
100
AcDbSpline
210
0.0
220
0.0
230
1.0
 70
    12
 71
     2
 72
     6
 73
     3
 74
     0
 42
0.0000000001
 43
0.0000000001
 40
0.0
 40
0.0
 40
0.0
 40
8.816006761313705
 40
8.816006761313705
 40
8.816006761313705
 10
107.216489513572
 20
3033.650119814979
 30
0.0
 41
1.0
 10
106.4095511175768
 20
3029.314756707874
 30
0.0000000000000004
 41
0.9993817902895459
 10
105.9092585856574
 20
3024.93340643337
 30
0.0
 41
1.0
  0
VIEWPORT
  5
160
330
15C
100
AcDbEntity
 67
     1
  8
0
100
AcDbViewport
 10
6.0
 20
4.5
 30
0.0
 40
12.696
 41
9.522
 68
     1
 69
     1
 12
6.0
 22
4.5
 13
0.0
 23
0.0
 14
0.5
 24
0.5
 15
0.5
 25
0.5
 16
0.0
 26
0.0
 36
1.0
 17
0.0
 27
0.0
 37
0.0
 42
50.0
 43
0.0
 44
0.0
 45
9.522
 50
0.0
 51
0.0
 72
   100
 90
   557152
  1

281
     0
 71
     1
 74
     0
110
0.0
120
0.0
130
0.0
111
1.0
121
0.0
131
0.0
112
0.0
122
1.0
132
0.0
 79
     0
146
0.0
170
     0
  0
ENDSEC
  0
SECTION
  2
OBJECTS
  0
DICTIONARY
  5
C
330
0
100
AcDbDictionary
281
     1
  3
ACAD_GROUP
350
D
  3
ACAD_LAYOUT
350
1A
  3
ACAD_MLEADERSTYLE
350
186
  3
ACAD_MLINESTYLE
350
17
  3
ACAD_PLOTSETTINGS
350
19
  3
ACAD_PLOTSTYLENAME
350
E
  3
ACAD_SCALELIST
350
161
  3
ACAD_TABLESTYLE
350
185
  3
ACAD_VISUALSTYLE
350
2A
  3
AcDbVariableDictionary
350
183
  0
DICTIONARY
  5
D
102
{ACAD_REACTORS
330
C
102
}
330
C
100
AcDbDictionary
281
     1
  0
DICTIONARY
  5
1A
102
{ACAD_REACTORS
330
C
102
}
330
C
100
AcDbDictionary
281
     1
  3
Layout1
350
158
  3
Layout2
350
15D
  3
Model
350
22
  0
DICTIONARY
  5
186
102
{ACAD_REACTORS
330
C
102
}
330
C
100
AcDbDictionary
281
     1
  0
DICTIONARY
  5
17
102
{ACAD_REACTORS
330
C
102
}
330
C
100
AcDbDictionary
281
     1
  3
Standard
350
18
  0
DICTIONARY
  5
19
102
{ACAD_REACTORS
330
C
102
}
330
C
100
AcDbDictionary
281
     1
  0
ACDBDICTIONARYWDFLT
  5
E
102
{ACAD_REACTORS
330
C
102
}
330
C
100
AcDbDictionary
281
     1
  3
Normal
350
F
100
AcDbDictionaryWithDefault
340
F
  0
DICTIONARY
  5
161
102
{ACAD_REACTORS
330
C
102
}
330
C
100
AcDbDictionary
281
     1
  3
A0
350
162
  3
A1
350
163
  3
A2
350
164
  3
A3
350
165
  3
A4
350
166
  3
A5
350
167
  3
A6
350
168
  3
A7
350
169
  3
A8
350
16A
  3
A9
350
16B
  3
B0
350
16C
  3
B1
350
16D
  3
B2
350
16E
  3
B3
350
16F
  3
B4
350
170
  3
B5
350
171
  3
B6
350
172
  3
B7
350
173
  3
B8
350
174
  3
B9
350
175
  3
C0
350
176
  3
C1
350
177
  3
C2
350
178
  3
C3
350
179
  3
C4
350
17A
  3
C5
350
17B
  3
C6
350
17C
  3
C7
350
17D
  3
C8
350
17E
  3
C9
350
17F
  3
D0
350
180
  3
D1
350
181
  3
D2
350
182
  0
DICTIONARY
  5
185
102
{ACAD_REACTORS
330
C
102
}
330
C
100
AcDbDictionary
281
     1
  0
DICTIONARY
  5
2A
102
{ACAD_REACTORS
330
C
102
}
330
C
100
AcDbDictionary
281
     1
  3
2dWireframe
350
2F
  3
3D Hidden
350
31
  3
3dWireframe
350
30
  3
Basic
350
32
  3
Brighten
350
36
  3
ColorChange
350
3A
  3
Conceptual
350
34
  3
Dim
350
35
  3
Facepattern
350
39
  3
Flat
350
2B
  3
FlatWithEdges
350
2C
  3
Gouraud
350
2D
  3
GouraudWithEdges
350
2E
  3
Linepattern
350
38
  3
Realistic
350
33
  3
Thicken
350
37
  0
DICTIONARY
  5
183
102
{ACAD_REACTORS
330
C
102
}
330
C
100
AcDbDictionary
281
     1
  3
CANNOSCALE
350
184
  0
LAYOUT
  5
158
102
{ACAD_REACTORS
330
1A
102
}
330
1A
100
AcDbPlotSettings
  1

  2
none_device
  4
Letter_(8.50_x_11.00_Inches)
  6

 40
6.35
 41
6.35
 42
6.35000508
 43
6.35000508
 44
215.9
 45
279.4
 46
0.0
 47
0.0
 48
0.0
 49
0.0
140
0.0
141
0.0
142
1.0
143
1.0
 70
   688
 72
     0
 73
     1
 74
     5
  7

 75
    16
 76
     0
 77
     2
 78
   300
147
1.0
148
0.0
149
0.0
100
AcDbLayout
  1
Layout1
 70
     1
 71
     1
 10
0.0
 20
0.0
 11
0.0
 21
0.0
 12
0.0
 22
0.0
 32
0.0
 14
0.0
 24
0.0
 34
0.0
 15
0.0
 25
0.0
 35
0.0
146
0.0
 13
0.0
 23
0.0
 33
0.0
 16
1.0
 26
0.0
 36
0.0
 17
0.0
 27
1.0
 37
0.0
 76
     0
330
157
331
15B
  0
LAYOUT
  5
15D
102
{ACAD_REACTORS
330
1A
102
}
330
1A
100
AcDbPlotSettings
  1

  2
none_device
  4
Letter_(8.50_x_11.00_Inches)
  6

 40
6.35
 41
6.35
 42
6.35000508
 43
6.35000508
 44
215.9
 45
279.4
 46
0.0
 47
0.0
 48
0.0
 49
0.0
140
0.0
141
0.0
142
1.0
143
1.0
 70
   688
 72
     0
 73
     1
 74
     5
  7

 75
    16
 76
     0
 77
     2
 78
   300
147
1.0
148
0.0
149
0.0
100
AcDbLayout
  1
Layout2
 70
     1
 71
     2
 10
0.0
 20
0.0
 11
0.0
 21
0.0
 12
0.0
 22
0.0
 32
0.0
 14
0.0
 24
0.0
 34
0.0
 15
0.0
 25
0.0
 35
0.0
146
0.0
 13
0.0
 23
0.0
 33
0.0
 16
1.0
 26
0.0
 36
0.0
 17
0.0
 27
1.0
 37
0.0
 76
     0
330
15C
331
160
  0
LAYOUT
  5
22
102
{ACAD_REACTORS
330
1A
102
}
330
1A
100
AcDbPlotSettings
  1

  2
none_device
  4

  6

 40
0.0
 41
0.0
 42
0.0
 43
0.0
 44
0.0
 45
0.0
 46
0.0
 47
0.0
 48
0.0
 49
0.0
140
0.0
141
0.0
142
1.0
143
1.0
 70
  1712
 72
     0
 73
     0
 74
     0
  7

 75
     0
 76
     0
 77
     2
 78
   300
147
1.0
148
0.0
149
0.0
100
AcDbLayout
  1
Model
 70
     1
 71
     0
 10
0.0
 20
0.0
 11
12.0
 21
9.0
 12
0.0
 22
0.0
 32
0.0
 14
0.0246012514344329
 24
0.0403032184933117
 34
-0.0000000000000006
 15
2606.534222862064
 25
3523.752254198613
 35
0.000000000000001
146
0.0
 13
0.0
 23
0.0
 33
0.0
 16
1.0
 26
0.0
 36
0.0
 17
0.0
 27
1.0
 37
0.0
 76
     0
330
1F
331
29
  0
MLINESTYLE
  5
18
102
{ACAD_REACTORS
330
17
102
}
330
17
100
AcDbMlineStyle
  2
Standard
 70
     0
  3

 62
   256
 51
90.0
 52
90.0
 71
     2
 49
0.5
 62
   256
  6
BYLAYER
 49
-0.5
 62
   256
  6
BYLAYER
  0
ACDBPLACEHOLDER
  5
F
102
{ACAD_REACTORS
330
E
102
}
330
E
  0
SCALE
  5
162
102
{ACAD_REACTORS
330
161
102
}
330
161
100
AcDbScale
 70
     0
300
1:1
140
1.0
141
1.0
290
     1
  0
SCALE
  5
163
102
{ACAD_REACTORS
330
161
102
}
330
161
100
AcDbScale
 70
     0
300
1:2
140
1.0
141
2.0
290
     0
  0
SCALE
  5
164
102
{ACAD_REACTORS
330
161
102
}
330
161
100
AcDbScale
 70
     0
300
1:4
140
1.0
141
4.0
290
     0
  0
SCALE
  5
165
102
{ACAD_REACTORS
330
161
102
}
330
161
100
AcDbScale
 70
     0
300
1:5
140
1.0
141
5.0
290
     0
  0
SCALE
  5
166
102
{ACAD_REACTORS
330
161
102
}
330
161
100
AcDbScale
 70
     0
300
1:8
140
1.0
141
8.0
290
     0
  0
SCALE
  5
167
102
{ACAD_REACTORS
330
161
102
}
330
161
100
AcDbScale
 70
     0
300
1:10
140
1.0
141
10.0
290
     0
  0
SCALE
  5
168
102
{ACAD_REACTORS
330
161
102
}
330
161
100
AcDbScale
 70
     0
300
1:16
140
1.0
141
16.0
290
     0
  0
SCALE
  5
169
102
{ACAD_REACTORS
330
161
102
}
330
161
100
AcDbScale
 70
     0
300
1:20
140
1.0
141
20.0
290
     0
  0
SCALE
  5
16A
102
{ACAD_REACTORS
330
161
102
}
330
161
100
AcDbScale
 70
     0
300
1:30
140
1.0
141
30.0
290
     0
  0
SCALE
  5
16B
102
{ACAD_REACTORS
330
161
102
}
330
161
100
AcDbScale
 70
     0
300
1:40
140
1.0
141
40.0
290
     0
  0
SCALE
  5
16C
102
{ACAD_REACTORS
330
161
102
}
330
161
100
AcDbScale
 70
     0
300
1:50
140
1.0
141
50.0
290
     0
  0
SCALE
  5
16D
102
{ACAD_REACTORS
330
161
102
}
330
161
100
AcDbScale
 70
     0
300
1:100
140
1.0
141
100.0
290
     0
  0
SCALE
  5
16E
102
{ACAD_REACTORS
330
161
102
}
330
161
100
AcDbScale
 70
     0
300
2:1
140
2.0
141
1.0
290
     0
  0
SCALE
  5
16F
102
{ACAD_REACTORS
330
161
102
}
330
161
100
AcDbScale
 70
     0
300
4:1
140
4.0
141
1.0
290
     0
  0
SCALE
  5
170
102
{ACAD_REACTORS
330
161
102
}
330
161
100
AcDbScale
 70
     0
300
8:1
140
8.0
141
1.0
290
     0
  0
SCALE
  5
171
102
{ACAD_REACTORS
330
161
102
}
330
161
100
AcDbScale
 70
     0
300
10:1
140
10.0
141
1.0
290
     0
  0
SCALE
  5
172
102
{ACAD_REACTORS
330
161
102
}
330
161
100
AcDbScale
 70
     0
300
100:1
140
100.0
141
1.0
290
     0
  0
SCALE
  5
173
102
{ACAD_REACTORS
330
161
102
}
330
161
100
AcDbScale
 70
     0
300
1/128" = 1'-0"
140
0.0078125
141
12.0
290
     0
  0
SCALE
  5
174
102
{ACAD_REACTORS
330
161
102
}
330
161
100
AcDbScale
 70
     0
300
1/64" = 1'-0"
140
0.015625
141
12.0
290
     0
  0
SCALE
  5
175
102
{ACAD_REACTORS
330
161
102
}
330
161
100
AcDbScale
 70
     0
300
1/32" = 1'-0"
140
0.03125
141
12.0
290
     0
  0
SCALE
  5
176
102
{ACAD_REACTORS
330
161
102
}
330
161
100
AcDbScale
 70
     0
300
1/16" = 1'-0"
140
0.0625
141
12.0
290
     0
  0
SCALE
  5
177
102
{ACAD_REACTORS
330
161
102
}
330
161
100
AcDbScale
 70
     0
300
3/32" = 1'-0"
140
0.09375
141
12.0
290
     0
  0
SCALE
  5
178
102
{ACAD_REACTORS
330
161
102
}
330
161
100
AcDbScale
 70
     0
300
1/8" = 1'-0"
140
0.125
141
12.0
290
     0
  0
SCALE
  5
179
102
{ACAD_REACTORS
330
161
102
}
330
161
100
AcDbScale
 70
     0
300
3/16" = 1'-0"
140
0.1875
141
12.0
290
     0
  0
SCALE
  5
17A
102
{ACAD_REACTORS
330
161
102
}
330
161
100
AcDbScale
 70
     0
300
1/4" = 1'-0"
140
0.25
141
12.0
290
     0
  0
SCALE
  5
17B
102
{ACAD_REACTORS
330
161
102
}
330
161
100
AcDbScale
 70
     0
300
3/8" = 1'-0"
140
0.375
141
12.0
290
     0
  0
SCALE
  5
17C
102
{ACAD_REACTORS
330
161
102
}
330
161
100
AcDbScale
 70
     0
300
1/2" = 1'-0"
140
0.5
141
12.0
290
     0
  0
SCALE
  5
17D
102
{ACAD_REACTORS
330
161
102
}
330
161
100
AcDbScale
 70
     0
300
3/4" = 1'-0"
140
0.75
141
12.0
290
     0
  0
SCALE
  5
17E
102
{ACAD_REACTORS
330
161
102
}
330
161
100
AcDbScale
 70
     0
300
1" = 1'-0"
140
1.0
141
12.0
290
     0
  0
SCALE
  5
17F
102
{ACAD_REACTORS
330
161
102
}
330
161
100
AcDbScale
 70
     0
300
1-1/2" = 1'-0"
140
1.5
141
12.0
290
     0
  0
SCALE
  5
180
102
{ACAD_REACTORS
330
161
102
}
330
161
100
AcDbScale
 70
     0
300
3" = 1'-0"
140
3.0
141
12.0
290
     0
  0
SCALE
  5
181
102
{ACAD_REACTORS
330
161
102
}
330
161
100
AcDbScale
 70
     0
300
6" = 1'-0"
140
6.0
141
12.0
290
     0
  0
SCALE
  5
182
102
{ACAD_REACTORS
330
161
102
}
330
161
100
AcDbScale
 70
     0
300
1'-0" = 1'-0"
140
12.0
141
12.0
290
     0
  0
VISUALSTYLE
  5
2F
102
{ACAD_REACTORS
330
2A
102
}
330
2A
100
AcDbVisualStyle
  2
2dWireframe
 70
     4
 71
     0
 72
     2
 73
     0
 90
        0
 40
-0.6
 41
-30.0
 62
     5
 63
     7
421
 16777215
 74
     1
 91
        4
 64
     7
 65
   257
 75
     1
175
     1
 42
1.0
 92
        0
 66
   257
 43
1.0
 76
     1
 77
     6
 78
     2
 67
     7
 79
     5
170
     0
171
     0
290
     0
174
     0
 93
        1
 44
0.0
173
     0
291
     0
 45
0.0
1001
ACAD
1000
AcDbSavedByObjectVersion
1070
     0
  0
VISUALSTYLE
  5
31
102
{ACAD_REACTORS
330
2A
102
}
330
2A
100
AcDbVisualStyle
  2
3D Hidden
 70
     6
 71
     1
 72
     2
 73
     2
 90
        0
 40
-0.6
 41
-30.0
 62
     5
 63
     7
421
 16777215
 74
     2
 91
        2
 64
     7
 65
   257
 75
     2
175
     1
 42
40.0
 92
        0
 66
   257
 43
1.0
 76
     1
 77
     6
 78
     2
 67
     7
 79
     3
170
     0
171
     0
290
     0
174
     0
 93
        1
 44
0.0
173
     0
291
     0
 45
0.0
1001
ACAD
1000
AcDbSavedByObjectVersion
1070
     0
  0
VISUALSTYLE
  5
30
102
{ACAD_REACTORS
330
2A
102
}
330
2A
100
AcDbVisualStyle
  2
3dWireframe
 70
     5
 71
     0
 72
     2
 73
     0
 90
        0
 40
-0.6
 41
-30.0
 62
     5
 63
     7
421
 16777215
 74
     1
 91
        4
 64
     7
 65
   257
 75
     1
175
     1
 42
1.0
 92
        0
 66
   257
 43
1.0
 76
     1
 77
     6
 78
     2
 67
     7
 79
     5
170
     0
171
     0
290
     0
174
     0
 93
        1
 44
0.0
173
     0
291
     0
 45
0.0
1001
ACAD
1000
AcDbSavedByObjectVersion
1070
     0
  0
VISUALSTYLE
  5
32
102
{ACAD_REACTORS
330
2A
102
}
330
2A
100
AcDbVisualStyle
  2
Basic
 70
     7
 71
     1
 72
     0
 73
     1
 90
        0
 40
-0.6
 41
-30.0
 62
     5
 63
     7
421
 16777215
 74
     0
 91
        4
 64
     7
 65
   257
 75
     1
175
     1
 42
1.0
 92
        8
 66
     7
 43
1.0
 76
     1
 77
     6
 78
     2
 67
     7
 79
     5
170
     0
171
     0
290
     0
174
     0
 93
        1
 44
0.0
173
     0
291
     1
 45
0.0
1001
ACAD
1000
AcDbSavedByObjectVersion
1070
     0
  0
VISUALSTYLE
  5
36
102
{ACAD_REACTORS
330
2A
102
}
330
2A
100
AcDbVisualStyle
  2
Brighten
 70
    12
 71
     2
 72
     2
 73
     0
 90
        0
 40
-0.6
 41
-30.0
 62
     5
 63
     7
421
 16777215
 74
     1
 91
        4
 64
     7
 65
   257
 75
     1
175
     1
 42
1.0
 92
        8
 66
     7
 43
1.0
 76
     1
 77
     6
 78
     2
 67
     7
 79
     5
170
     0
171
     0
290
     0
174
     0
 93
        1
 44
50.0
173
     0
291
     1
 45
0.0
1001
ACAD
1000
AcDbSavedByObjectVersion
1070
     0
  0
VISUALSTYLE
  5
3A
102
{ACAD_REACTORS
330
2A
102
}
330
2A
100
AcDbVisualStyle
  2
ColorChange
 70
    16
 71
     2
 72
     2
 73
     3
 90
        0
 40
-0.6
 41
-30.0
 62
     5
 63
     8
421
  8421504
 74
     1
 91
        4
 64
     7
 65
   257
 75
     1
175
     1
 42
1.0
 92
        8
 66
     8
424
  8421504
 43
1.0
 76
     1
 77
     6
 78
     2
 67
     7
 79
     5
170
     0
171
     0
290
     0
174
     0
 93
        1
 44
0.0
173
     0
291
     1
 45
0.0
1001
ACAD
1000
AcDbSavedByObjectVersion
1070
     0
  0
VISUALSTYLE
  5
34
102
{ACAD_REACTORS
330
2A
102
}
330
2A
100
AcDbVisualStyle
  2
Conceptual
 70
     9
 71
     3
 72
     2
 73
     0
 90
        0
 40
-0.6
 41
-30.0
 62
     5
 63
     7
421
 16777215
 74
     2
 91
        2
 64
     7
 65
   257
 75
     1
175
     1
 42
40.0
 92
        8
 66
     7
 43
1.0
 76
     1
 77
     6
 78
     2
 67
     7
 79
     3
170
     0
171
     0
290
     0
174
     0
 93
        1
 44
0.0
173
     0
291
     0
 45
0.0
1001
ACAD
1000
AcDbSavedByObjectVersion
1070
     0
  0
VISUALSTYLE
  5
35
102
{ACAD_REACTORS
330
2A
102
}
330
2A
100
AcDbVisualStyle
  2
Dim
 70
    11
 71
     2
 72
     2
 73
     0
 90
        0
 40
-0.6
 41
-30.0
 62
     5
 63
     7
421
 16777215
 74
     1
 91
        4
 64
     7
 65
   257
 75
     1
175
     1
 42
1.0
 92
        8
 66
     7
 43
1.0
 76
     1
 77
     6
 78
     2
 67
     7
 79
     5
170
     0
171
     0
290
     0
174
     0
 93
        1
 44
-50.0
173
     0
291
     1
 45
0.0
1001
ACAD
1000
AcDbSavedByObjectVersion
1070
     0
  0
VISUALSTYLE
  5
39
102
{ACAD_REACTORS
330
2A
102
}
330
2A
100
AcDbVisualStyle
  2
Facepattern
 70
    15
 71
     2
 72
     2
 73
     0
 90
        0
 40
-0.6
 41
-30.0
 62
     5
 63
     7
421
 16777215
 74
     1
 91
        4
 64
     7
 65
   257
 75
     1
175
     1
 42
1.0
 92
        8
 66
     7
 43
1.0
 76
     1
 77
     6
 78
     2
 67
     7
 79
     5
170
     0
171
     0
290
     0
174
     0
 93
        1
 44
0.0
173
     0
291
     1
 45
0.0
1001
ACAD
1000
AcDbSavedByObjectVersion
1070
     0
  0
VISUALSTYLE
  5
2B
102
{ACAD_REACTORS
330
2A
102
}
330
2A
100
AcDbVisualStyle
  2
Flat
 70
     0
 71
     2
 72
     1
 73
     1
 90
        2
 40
-0.6
 41
30.0
 62
     5
 63
     7
421
 16777215
 74
     0
 91
        4
 64
     7
 65
   257
 75
     1
175
     1
 42
1.0
 92
        8
 66
     7
 43
1.0
 76
     1
 77
     6
 78
     2
 67
     7
 79
     5
170
     0
171
     0
290
     0
174
     0
 93
       13
 44
0.0
173
     0
291
     1
 45
0.0
1001
ACAD
1000
AcDbSavedByObjectVersion
1070
     0
  0
VISUALSTYLE
  5
2C
102
{ACAD_REACTORS
330
2A
102
}
330
2A
100
AcDbVisualStyle
  2
FlatWithEdges
 70
     1
 71
     2
 72
     1
 73
     1
 90
        2
 40
-0.6
 41
30.0
 62
     5
 63
     7
421
 16777215
 74
     1
 91
        4
 64
     7
 65
   257
 75
     1
175
     1
 42
1.0
 92
        0
 66
   257
 43
1.0
 76
     1
 77
     6
 78
     2
 67
     7
 79
     5
170
     0
171
     0
290
     0
174
     0
 93
       13
 44
0.0
173
     0
291
     1
 45
0.0
1001
ACAD
1000
AcDbSavedByObjectVersion
1070
     0
  0
VISUALSTYLE
  5
2D
102
{ACAD_REACTORS
330
2A
102
}
330
2A
100
AcDbVisualStyle
  2
Gouraud
 70
     2
 71
     2
 72
     2
 73
     1
 90
        2
 40
-0.6
 41
30.0
 62
     5
 63
     7
421
 16777215
 74
     0
 91
        4
 64
     7
 65
   257
 75
     1
175
     1
 42
1.0
 92
        0
 66
     7
 43
1.0
 76
     1
 77
     6
 78
     2
 67
     7
 79
     5
170
     0
171
     0
290
     0
174
     0
 93
       13
 44
0.0
173
     0
291
     1
 45
0.0
1001
ACAD
1000
AcDbSavedByObjectVersion
1070
     0
  0
VISUALSTYLE
  5
2E
102
{ACAD_REACTORS
330
2A
102
}
330
2A
100
AcDbVisualStyle
  2
GouraudWithEdges
 70
     3
 71
     2
 72
     2
 73
     1
 90
        2
 40
-0.6
 41
30.0
 62
     5
 63
     7
421
 16777215
 74
     1
 91
        4
 64
     7
 65
   257
 75
     1
175
     1
 42
1.0
 92
        0
 66
   257
 43
1.0
 76
     1
 77
     6
 78
     2
 67
     7
 79
     5
170
     0
171
     0
290
     0
174
     0
 93
       13
 44
0.0
173
     0
291
     1
 45
0.0
1001
ACAD
1000
AcDbSavedByObjectVersion
1070
     0
  0
VISUALSTYLE
  5
38
102
{ACAD_REACTORS
330
2A
102
}
330
2A
100
AcDbVisualStyle
  2
Linepattern
 70
    14
 71
     2
 72
     2
 73
     0
 90
        0
 40
-0.6
 41
-30.0
 62
     5
 63
     7
421
 16777215
 74
     1
 91
        4
 64
     7
 65
   257
 75
     7
175
     7
 42
1.0
 92
        8
 66
     7
 43
1.0
 76
     1
 77
     6
 78
     2
 67
     7
 79
     5
170
     0
171
     0
290
     0
174
     0
 93
        1
 44
0.0
173
     0
291
     1
 45
0.0
1001
ACAD
1000
AcDbSavedByObjectVersion
1070
     0
  0
VISUALSTYLE
  5
33
102
{ACAD_REACTORS
330
2A
102
}
330
2A
100
AcDbVisualStyle
  2
Realistic
 70
     8
 71
     2
 72
     2
 73
     0
 90
        0
 40
-0.6
 41
-30.0
 62
     5
 63
     7
421
 16777215
 74
     1
 91
        0
 64
     7
 65
   257
 75
     1
175
     1
 42
1.0
 92
        8
 66
     8
424
  7895160
 43
1.0
 76
     1
 77
     6
 78
     2
 67
     7
 79
     5
170
     0
171
     0
290
     0
174
     0
 93
       13
 44
0.0
173
     0
291
     0
 45
0.0
1001
ACAD
1000
AcDbSavedByObjectVersion
1070
     0
  0
VISUALSTYLE
  5
37
102
{ACAD_REACTORS
330
2A
102
}
330
2A
100
AcDbVisualStyle
  2
Thicken
 70
    13
 71
     2
 72
     2
 73
     0
 90
        0
 40
-0.6
 41
-30.0
 62
     5
 63
     7
421
 16777215
 74
     1
 91
        4
 64
     7
 65
   257
 75
     1
175
     1
 42
1.0
 92
       12
 66
     7
 43
1.0
 76
     1
 77
     6
 78
     2
 67
     7
 79
     5
170
     0
171
     0
290
     0
174
     0
 93
        1
 44
0.0
173
     0
291
     1
 45
0.0
1001
ACAD
1000
AcDbSavedByObjectVersion
1070
     0
  0
DICTIONARYVAR
  5
184
102
{ACAD_REACTORS
330
183
102
}
330
183
100
DictionaryVariables
280
     0
  1
1:1
  0
ENDSEC
  0
EOF
