  0
SECTION
  2
HEADER
  9
$ACADVER
  1
AC1018
  9
$ACADMAINTVER
 70
     0
  9
$DWGCODEPAGE
  3
ANSI_1252
  9
$INSBASE
 10
0.0
 20
0.0
 30
0.0
  9
$EXTMIN
 10
0.0235960188985009
 20
0.0403032184933705
 30
0.0
  9
$EXTMAX
 10
1843.196296081258
 20
2785.094470527986
 30
5.000000000000003
  9
$LIMMIN
 10
0.0
 20
0.0
  9
$LIMMAX
 10
12.0
 20
9.0
  9
$ORTHOMODE
 70
     0
  9
$REGENMODE
 70
     1
  9
$FILLMODE
 70
     1
  9
$QTEXTMODE
 70
     0
  9
$MIRRTEXT
 70
     1
  9
$LTSCALE
 40
1.0
  9
$ATTMODE
 70
     1
  9
$TEXTSIZE
 40
0.2
  9
$TRACEWID
 40
0.05
  9
$TEXTSTYLE
  7
Standard
  9
$CLAYER
  8
Predefinito
  9
$CELTYPE
  6
ByLayer
  9
$CECOLOR
 62
   256
  9
$CELTSCALE
 40
1.0
  9
$DISPSILH
 70
     0
  9
$DIMSCALE
 40
1.0
  9
$DIMASZ
 40
0.18
  9
$DIMEXO
 40
0.0625
  9
$DIMDLI
 40
0.38
  9
$DIMRND
 40
0.0
  9
$DIMDLE
 40
0.0
  9
$DIMEXE
 40
0.18
  9
$DIMTP
 40
0.0
  9
$DIMTM
 40
0.0
  9
$DIMTXT
 40
0.18
  9
$DIMCEN
 40
0.09
  9
$DIMTSZ
 40
0.0
  9
$DIMTOL
 70
     0
  9
$DIMLIM
 70
     0
  9
$DIMTIH
 70
     1
  9
$DIMTOH
 70
     1
  9
$DIMSE1
 70
     0
  9
$DIMSE2
 70
     0
  9
$DIMTAD
 70
     0
  9
$DIMZIN
 70
     0
  9
$DIMBLK
  1

  9
$DIMASO
 70
     1
  9
$DIMSHO
 70
     1
  9
$DIMPOST
  1

  9
$DIMAPOST
  1

  9
$DIMALT
 70
     0
  9
$DIMALTD
 70
     2
  9
$DIMALTF
 40
25.4
  9
$DIMLFAC
 40
1.0
  9
$DIMTOFL
 70
     0
  9
$DIMTVP
 40
0.0
  9
$DIMTIX
 70
     0
  9
$DIMSOXD
 70
     0
  9
$DIMSAH
 70
     0
  9
$DIMBLK1
  1

  9
$DIMBLK2
  1

  9
$DIMSTYLE
  2
Standard
  9
$DIMCLRD
 70
     0
  9
$DIMCLRE
 70
     0
  9
$DIMCLRT
 70
     0
  9
$DIMTFAC
 40
1.0
  9
$DIMGAP
 40
0.09
  9
$DIMJUST
 70
     0
  9
$DIMSD1
 70
     0
  9
$DIMSD2
 70
     0
  9
$DIMTOLJ
 70
     1
  9
$DIMTZIN
 70
     0
  9
$DIMALTZ
 70
     0
  9
$DIMALTTZ
 70
     0
  9
$DIMUPT
 70
     0
  9
$DIMDEC
 70
     4
  9
$DIMTDEC
 70
     4
  9
$DIMALTU
 70
     2
  9
$DIMALTTD
 70
     2
  9
$DIMTXSTY
  7
Standard
  9
$DIMAUNIT
 70
     0
  9
$DIMADEC
 70
     0
  9
$DIMALTRND
 40
0.0
  9
$DIMAZIN
 70
     0
  9
$DIMDSEP
 70
    46
  9
$DIMATFIT
 70
     3
  9
$DIMFRAC
 70
     0
  9
$DIMLDRBLK
  1

  9
$DIMLUNIT
 70
     2
  9
$DIMLWD
 70
    -2
  9
$DIMLWE
 70
    -2
  9
$DIMTMOVE
 70
     2
  9
$LUNITS
 70
     2
  9
$LUPREC
 70
     3
  9
$SKETCHINC
 40
0.1
  9
$FILLETRAD
 40
0.5
  9
$AUNITS
 70
     0
  9
$AUPREC
 70
     0
  9
$MENU
  1
.
  9
$ELEVATION
 40
0.0
  9
$PELEVATION
 40
0.0
  9
$THICKNESS
 40
0.0
  9
$LIMCHECK
 70
     0
  9
$CHAMFERA
 40
0.5
  9
$CHAMFERB
 40
0.5
  9
$CHAMFERC
 40
1.0
  9
$CHAMFERD
 40
0.0
  9
$SKPOLY
 70
     0
  9
$TDCREATE
 40
2458323.380274572
  9
$TDUCREATE
 40
2458323.296941238
  9
$TDUPDATE
 40
2458323.380274583
  9
$TDUUPDATE
 40
2458323.29694125
  9
$TDINDWG
 40
0.0000000116
  9
$TDUSRTIMER
 40
0.0000000116
  9
$USRTIMER
 70
     1
  9
$ANGBASE
 50
0.0
  9
$ANGDIR
 70
     0
  9
$PDMODE
 70
     0
  9
$PDSIZE
 40
0.0
  9
$PLINEWID
 40
0.0
  9
$SPLFRAME
 70
     0
  9
$SPLINETYPE
 70
     6
  9
$SPLINESEGS
 70
     8
  9
$HANDSEED
  5
191
  9
$SURFTAB1
 70
     6
  9
$SURFTAB2
 70
     6
  9
$SURFTYPE
 70
     6
  9
$SURFU
 70
     6
  9
$SURFV
 70
     6
  9
$UCSBASE
  2

  9
$UCSNAME
  2

  9
$UCSORG
 10
0.0
 20
0.0
 30
0.0
  9
$UCSXDIR
 10
1.0
 20
0.0
 30
0.0
  9
$UCSYDIR
 10
0.0
 20
1.0
 30
0.0
  9
$UCSORTHOREF
  2

  9
$UCSORTHOVIEW
 70
     0
  9
$UCSORGTOP
 10
0.0
 20
0.0
 30
0.0
  9
$UCSORGBOTTOM
 10
0.0
 20
0.0
 30
0.0
  9
$UCSORGLEFT
 10
0.0
 20
0.0
 30
0.0
  9
$UCSORGRIGHT
 10
0.0
 20
0.0
 30
0.0
  9
$UCSORGFRONT
 10
0.0
 20
0.0
 30
0.0
  9
$UCSORGBACK
 10
0.0
 20
0.0
 30
0.0
  9
$PUCSBASE
  2

  9
$PUCSNAME
  2

  9
$PUCSORG
 10
0.0
 20
0.0
 30
0.0
  9
$PUCSXDIR
 10
1.0
 20
0.0
 30
0.0
  9
$PUCSYDIR
 10
0.0
 20
1.0
 30
0.0
  9
$PUCSORTHOREF
  2

  9
$PUCSORTHOVIEW
 70
     0
  9
$PUCSORGTOP
 10
0.0
 20
0.0
 30
0.0
  9
$PUCSORGBOTTOM
 10
0.0
 20
0.0
 30
0.0
  9
$PUCSORGLEFT
 10
0.0
 20
0.0
 30
0.0
  9
$PUCSORGRIGHT
 10
0.0
 20
0.0
 30
0.0
  9
$PUCSORGFRONT
 10
0.0
 20
0.0
 30
0.0
  9
$PUCSORGBACK
 10
0.0
 20
0.0
 30
0.0
  9
$USERI1
 70
     0
  9
$USERI2
 70
     0
  9
$USERI3
 70
     0
  9
$USERI4
 70
     0
  9
$USERI5
 70
     0
  9
$USERR1
 40
0.0
  9
$USERR2
 40
0.0
  9
$USERR3
 40
0.0
  9
$USERR4
 40
0.0
  9
$USERR5
 40
0.0
  9
$WORLDVIEW
 70
     1
  9
$SHADEDGE
 70
     3
  9
$SHADEDIF
 70
    70
  9
$TILEMODE
 70
     0
  9
$MAXACTVP
 70
    64
  9
$PINSBASE
 10
0.0
 20
0.0
 30
0.0
  9
$PLIMCHECK
 70
     0
  9
$PEXTMIN
 10
0.0
 20
0.0
 30
0.0
  9
$PEXTMAX
 10
0.0
 20
0.0
 30
0.0
  9
$PLIMMIN
 10
0.0
 20
0.0
  9
$PLIMMAX
 10
12.0
 20
9.0
  9
$UNITMODE
 70
     0
  9
$VISRETAIN
 70
     1
  9
$PLINEGEN
 70
     0
  9
$PSLTSCALE
 70
     1
  9
$TREEDEPTH
 70
  3020
  9
$CMLSTYLE
  2
Standard
  9
$CMLJUST
 70
     0
  9
$CMLSCALE
 40
1.0
  9
$PROXYGRAPHICS
 70
     1
  9
$MEASUREMENT
 70
     0
  9
$CELWEIGHT
370
    -1
  9
$ENDCAPS
280
     0
  9
$JOINSTYLE
280
     0
  9
$LWDISPLAY
290
     0
  9
$INSUNITS
 70
     4
  9
$HYPERLINKBASE
  1

  9
$STYLESHEET
  1

  9
$XEDIT
290
     1
  9
$CEPSNTYPE
380
     0
  9
$PSTYLEMODE
290
     1
  9
$FINGERPRINTGUID
  2
{E58DAB5B-6E7B-4DFB-80F9-DB3CC80FACED}
  9
$VERSIONGUID
  2
{FAEB1C32-E019-11D5-929B-00C0DF256EC4}
  9
$EXTNAMES
290
     1
  9
$PSVPSCALE
 40
0.0
  9
$OLESTARTUP
290
     0
  9
$SORTENTS
280
   127
  9
$INDEXCTL
280
     0
  9
$HIDETEXT
280
     1
  9
$XCLIPFRAME
290
     0
  9
$HALOGAP
280
     0
  9
$OBSCOLOR
 70
   257
  9
$OBSLTYPE
280
     0
  9
$INTERSECTIONDISPLAY
280
     0
  9
$INTERSECTIONCOLOR
 70
   257
  9
$DIMASSOC
280
     2
  9
$PROJECTNAME
  1

  0
ENDSEC
  0
SECTION
  2
CLASSES
  0
CLASS
  1
ACDBDICTIONARYWDFLT
  2
AcDbDictionaryWithDefault
  3
ObjectDBX Classes
 90
        0
 91
        4
280
     0
281
     0
  0
CLASS
  1
VISUALSTYLE
  2
AcDbVisualStyle
  3
ObjectDBX Classes
 90
     4095
 91
        4
280
     0
281
     0
  0
CLASS
  1
SCALE
  2
AcDbScale
  3
ObjectDBX Classes
 90
     1153
 91
        4
280
     0
281
     0
  0
CLASS
  1
DICTIONARYVAR
  2
AcDbDictionaryVar
  3
ObjectDBX Classes
 90
        0
 91
        4
280
     0
281
     0
  0
ENDSEC
  0
SECTION
  2
TABLES
  0
TABLE
  2
VPORT
  5
8
330
0
100
AcDbSymbolTable
 70
     1
  0
VPORT
  5
29
330
8
100
AcDbSymbolTableRecord
100
AcDbViewportTableRecord
  2
*Active
 70
     0
 10
0.0
 20
0.0
 11
1.0
 21
1.0
 12
921.6099460500783
 22
1392.56738687324
 13
0.0
 23
0.0
 14
0.5
 24
0.5
 15
0.5
 25
0.5
 16
0.0
 26
0.0
 36
1.0
 17
0.0
 27
0.0
 37
0.0
 40
2840.755250655682
 41
0.66180856433502
 42
50.0
 43
0.0
 44
0.0
 50
0.0
 51
0.0
 71
     0
 72
   100
 73
     1
 74
     3
 75
     0
 76
     0
 77
     0
 78
     0
281
     0
 65
     1
110
0.0
120
0.0
130
0.0
111
1.0
121
0.0
131
0.0
112
0.0
122
1.0
132
0.0
 79
     0
146
0.0
  0
ENDTAB
  0
TABLE
  2
LTYPE
  5
5
330
0
100
AcDbSymbolTable
 70
     1
  0
LTYPE
  5
14
330
5
100
AcDbSymbolTableRecord
100
AcDbLinetypeTableRecord
  2
ByBlock
 70
     0
  3

 72
    65
 73
     0
 40
0.0
  0
LTYPE
  5
15
330
5
100
AcDbSymbolTableRecord
100
AcDbLinetypeTableRecord
  2
ByLayer
 70
     0
  3

 72
    65
 73
     0
 40
0.0
  0
LTYPE
  5
16
330
5
100
AcDbSymbolTableRecord
100
AcDbLinetypeTableRecord
  2
Continuous
 70
     0
  3
Solid line
 72
    65
 73
     0
 40
0.0
  0
ENDTAB
  0
TABLE
  2
LAYER
  5
2
330
0
100
AcDbSymbolTable
 70
     2
  0
LAYER
  5
10
330
2
100
AcDbSymbolTableRecord
100
AcDbLayerTableRecord
  2
0
 70
     0
 62
     7
  6
Continuous
370
    -3
390
F
  0
LAYER
  5
3B
330
2
100
AcDbSymbolTableRecord
100
AcDbLayerTableRecord
  2
Predefinito
 70
     0
 62
     7
  6
Continuous
370
    -3
390
F
  0
ENDTAB
  0
TABLE
  2
STYLE
  5
3
330
0
100
AcDbSymbolTable
 70
     1
  0
STYLE
  5
11
330
3
100
AcDbSymbolTableRecord
100
AcDbTextStyleTableRecord
  2
Standard
 70
     0
 40
0.0
 41
1.0
 50
0.0
 71
     0
 42
0.2
  3
txt
  4

  0
ENDTAB
  0
TABLE
  2
VIEW
  5
6
330
0
100
AcDbSymbolTable
 70
     0
  0
ENDTAB
  0
TABLE
  2
UCS
  5
7
330
0
100
AcDbSymbolTable
 70
     0
  0
ENDTAB
  0
TABLE
  2
APPID
  5
9
330
0
100
AcDbSymbolTable
 70
     1
  0
APPID
  5
12
330
9
100
AcDbSymbolTableRecord
100
AcDbRegAppTableRecord
  2
ACAD
 70
     0
  0
ENDTAB
  0
TABLE
  2
DIMSTYLE
  5
A
330
0
100
AcDbSymbolTable
 70
     1
100
AcDbDimStyleTable
  0
DIMSTYLE
105
27
330
A
100
AcDbSymbolTableRecord
100
AcDbDimStyleTableRecord
  2
Standard
 70
     0
340
11
  0
ENDTAB
  0
TABLE
  2
BLOCK_RECORD
  5
1
330
0
100
AcDbSymbolTable
 70
     3
  0
BLOCK_RECORD
  5
1F
330
1
100
AcDbSymbolTableRecord
100
AcDbBlockTableRecord
  2
*Model_Space
340
22
  0
BLOCK_RECORD
  5
166
330
1
100
AcDbSymbolTableRecord
100
AcDbBlockTableRecord
  2
*Paper_Space
340
167
  0
BLOCK_RECORD
  5
23
330
1
100
AcDbSymbolTableRecord
100
AcDbBlockTableRecord
  2
*Paper_Space0
340
26
  0
BLOCK_RECORD
  5
1B
330
1
100
AcDbSymbolTableRecord
100
AcDbBlockTableRecord
  2
*Paper_Space1
340
1E
  0
BLOCK_RECORD
  5
161
330
1
100
AcDbSymbolTableRecord
100
AcDbBlockTableRecord
  2
*Paper_Space2
340
162
  0
ENDTAB
  0
ENDSEC
  0
SECTION
  2
BLOCKS
  0
BLOCK
  5
20
330
1F
100
AcDbEntity
  8
0
100
AcDbBlockBegin
  2
*Model_Space
 70
     0
 10
0.0
 20
0.0
 30
0.0
  3
*Model_Space
  1

  0
ENDBLK
  5
21
330
1F
100
AcDbEntity
  8
0
100
AcDbBlockEnd
  0
BLOCK
  5
168
330
166
100
AcDbEntity
 67
     1
  8
0
100
AcDbBlockBegin
  2
*Paper_Space
 70
     0
 10
0.0
 20
0.0
 30
0.0
  3
*Paper_Space
  1

  0
ENDBLK
  5
169
330
166
100
AcDbEntity
 67
     1
  8
0
100
AcDbBlockEnd
  0
BLOCK
  5
24
330
23
100
AcDbEntity
  8
0
100
AcDbBlockBegin
  2
*Paper_Space0
 70
     0
 10
0.0
 20
0.0
 30
0.0
  3
*Paper_Space0
  1

  0
ENDBLK
  5
25
330
23
100
AcDbEntity
  8
0
100
AcDbBlockEnd
  0
BLOCK
  5
1C
330
1B
100
AcDbEntity
  8
0
100
AcDbBlockBegin
  2
*Paper_Space1
 70
     0
 10
0.0
 20
0.0
 30
0.0
  3
*Paper_Space1
  1

  0
ENDBLK
  5
1D
330
1B
100
AcDbEntity
  8
0
100
AcDbBlockEnd
  0
BLOCK
  5
163
330
161
100
AcDbEntity
  8
0
100
AcDbBlockBegin
  2
*Paper_Space2
 70
     0
 10
0.0
 20
0.0
 30
0.0
  3
*Paper_Space2
  1

  0
VIEWPORT
  5
165
330
161
100
AcDbEntity
  8
0
100
AcDbViewport
 10
6.0
 20
4.5
 30
0.0
 40
12.696
 41
9.522
 68
     1
 69
     1
 12
6.0
 22
4.5
 13
0.0
 23
0.0
 14
0.5
 24
0.5
 15
0.5
 25
0.5
 16
0.0
 26
0.0
 36
1.0
 17
0.0
 27
0.0
 37
0.0
 42
50.0
 43
0.0
 44
0.0
 45
9.522
 50
0.0
 51
0.0
 72
   100
 90
   557152
  1

281
     0
 71
     1
 74
     0
110
0.0
120
0.0
130
0.0
111
1.0
121
0.0
131
0.0
112
0.0
122
1.0
132
0.0
 79
     0
146
0.0
170
     0
  0
ENDBLK
  5
164
330
161
100
AcDbEntity
  8
0
100
AcDbBlockEnd
  0
ENDSEC
  0
SECTION
  2
ENTITIES
  0
SPLINE
  5
3C
330
1F
100
AcDbEntity
  8
Predefinito
100
AcDbSpline
210
0.0
220
0.0
230
1.0
 70
    12
 71
     2
 72
     6
 73
     3
 74
     0
 42
0.0000000001
 43
0.0000000001
 40
0.0
 40
0.0
 40
0.0
 40
269.9948875238524
 40
269.9948875238524
 40
269.9948875238524
 10
1352.952179726929
 20
2285.895847054973
 30
5.0
 41
1.0
 10
1483.574061683451
 20
2341.665527865676
 30
5.000000000000001
 41
0.9273627720058903
 10
1616.324777643762
 20
2291.172154482471
 30
5.0
 41
1.0
  0
SPLINE
  5
3D
330
1F
100
AcDbEntity
  8
Predefinito
100
AcDbSpline
210
0.0
220
0.0
230
1.0
 70
    12
 71
     2
 72
     6
 73
     3
 74
     0
 42
0.0000000001
 43
0.0000000001
 40
0.0
 40
0.0
 40
0.0
 40
10.44272873394839
 40
10.44272873394839
 40
10.44272873394839
 10
1619.044237988149
 20
2290.124882449093
 30
5.0
 41
1.0
 10
1623.909318256365
 20
2288.228138061957
 30
5.0
 41
0.9998899906393871
 10
1628.715996636937
 20
2286.187920369635
 30
5.0
 41
1.0
  0
SPLINE
  5
3E
330
1F
100
AcDbEntity
  8
Predefinito
100
AcDbSpline
210
0.0
220
0.0
230
1.0
 70
    12
 71
     2
 72
     8
 73
     5
 74
     0
 42
0.0000000001
 43
0.0000000001
 40
0.0
 40
0.0
 40
0.0
 40
524.253274121584
 40
524.253274121584
 40
1048.506516281407
 40
1048.506516281407
 40
1048.506516281407
 10
1824.927127514221
 20
1962.150026400543
 30
5.0
 41
1.0
 10
1824.927127501586
 20
1628.400026397653
 30
5.0
 41
0.707106781277944
 10
1491.177127498695
 20
1628.400026324011
 30
5.0
 41
1.0
 10
1157.427159373495
 20
1628.400026250369
 30
5.0
 41
0.7071068148911063
 10
1157.427127483171
 20
1962.150010327049
 30
5.0
 41
1.0
  0
SPLINE
  5
3F
330
1F
100
AcDbEntity
  8
Predefinito
100
AcDbSpline
210
0.0
220
0.0
230
1.0
 70
    12
 71
     2
 72
     8
 73
     5
 74
     0
 42
0.0000000001
 43
0.0000000001
 40
-1048.50651558393
 40
-1048.50651558393
 40
-1048.50651558393
 40
-524.2532414623466
 40
-524.2532414623466
 40
0.0
 40
0.0
 40
0.0
 10
1157.427127483171
 20
1962.150010327049
 30
5.0
 41
1.0
 10
1157.427127495804
 20
2295.90002628142
 30
5.0
 41
0.7071067812779424
 10
1491.177127498695
 20
2295.900026355062
 30
5.0
 41
1.0
 10
1824.92709492642
 20
2295.900026428703
 30
5.0
 41
0.7071068156299667
 10
1824.927127514221
 20
1962.150026400543
 30
5.0
 41
1.0
  0
SPLINE
  5
40
330
1F
100
AcDbEntity
  8
Predefinito
100
AcDbSpline
210
0.0
220
0.0
230
1.0
 70
    12
 71
     2
 72
     8
 73
     5
 74
     0
 42
0.0000000001
 43
0.0000000001
 40
0.0
 40
0.0
 40
0.0
 40
523.3188477823601
 40
523.3188477823601
 40
1046.637705928967
 40
1046.637705928967
 40
1046.637705928967
 10
1158.021994399995
 20
1962.150008451492
 30
5.0
 41
1.0
 10
1158.022013762085
 20
1628.994888578464
 30
5.0
 41
0.7071067983523897
 10
1491.177133635115
 20
1628.994891765096
 30
5.0
 41
1.0
 10
1824.332267239845
 20
1628.994894951728
 30
5.0
 41
0.7071067775191406
 10
1824.332260597397
 20
1962.150034123163
 30
5.0
 41
1.0
  0
SPLINE
  5
41
330
1F
100
AcDbEntity
  8
Predefinito
100
AcDbSpline
210
0.0
220
0.0
230
1.0
 70
    12
 71
     2
 72
     8
 73
     5
 74
     0
 42
0.0000000001
 43
0.0000000001
 40
0.0
 40
0.0
 40
0.0
 40
523.3188533665987
 40
523.3188533665987
 40
1046.637722949162
 40
1046.637722949162
 40
1046.637722949162
 10
1824.332260597397
 20
1962.150034123163
 30
5.0
 41
1.0
 10
1824.332259853455
 20
2295.305170464066
 30
4.999999999999999
 41
0.7071067768985035
 10
1491.177129079257
 20
2295.305165679479
 30
5.0
 41
1.0
 10
1158.0219893555
 20
2295.305160894893
 30
5.0
 41
0.7071067809107265
 10
1158.021994399995
 20
1962.150008451492
 30
5.0
 41
1.0
  0
SPLINE
  5
42
330
1F
100
AcDbEntity
  8
Predefinito
100
AcDbSpline
210
0.0
220
0.0
230
1.0
 70
    12
 71
     2
 72
     8
 73
     5
 74
     0
 42
0.0000000001
 43
0.0000000001
 40
0.0
 40
0.0
 40
0.0
 40
525.4313713136424
 40
525.4313713136424
 40
1050.862742627285
 40
1050.862742627285
 40
1050.862742627285
 10
1156.677127498218
 20
1962.150026278529
 30
5.0
 41
1.0
 10
1156.677127498218
 20
1627.650026278052
 30
5.0
 41
0.7071067811865474
 10
1491.177127498695
 20
1627.650026278052
 30
5.0
 41
1.0
 10
1825.677127499173
 20
1627.650026278052
 30
5.0
 41
0.707106781186546
 10
1825.677127499173
 20
1962.150026278529
 30
5.0
 41
1.0
  0
SPLINE
  5
43
330
1F
100
AcDbEntity
  8
Predefinito
100
AcDbSpline
210
0.0
220
0.0
230
1.0
 70
    12
 71
     2
 72
     8
 73
     5
 74
     0
 42
0.0000000001
 43
0.0000000001
 40
0.0
 40
0.0
 40
0.0
 40
525.4313713136424
 40
525.4313713136424
 40
1050.862742627285
 40
1050.862742627285
 40
1050.862742627285
 10
1825.677127499172
 20
1962.150026278529
 30
5.0
 41
1.0
 10
1825.677127499173
 20
2296.650026279007
 30
5.0
 41
0.7071067811865474
 10
1491.177127498695
 20
2296.650026279007
 30
5.0
 41
1.0
 10
1156.677127498218
 20
2296.650026279007
 30
5.0
 41
0.7071067811865485
 10
1156.677127498218
 20
1962.150026278529
 30
5.0
 41
1.0
  0
SPLINE
  5
44
330
1F
100
AcDbEntity
  8
Predefinito
100
AcDbSpline
210
0.0
220
0.0
230
1.0
 70
    12
 71
     2
 72
     8
 73
     5
 74
     0
 42
0.0000000001
 43
0.0000000001
 40
0.0
 40
0.0
 40
0.0
 40
500.8733605287872
 40
500.8733605287872
 40
1001.746721532198
 40
1001.746721532198
 40
1001.746721532198
 10
1810.043012414594
 20
1962.150026278529
 30
5.0
 41
1.0
 10
1810.043012516584
 20
1643.284141260641
 30
5.0
 41
0.7071067804143643
 10
1491.177127498695
 20
1643.284141855075
 30
5.0
 41
1.0
 10
1172.311242684786
 20
1643.284142449509
 30
5.0
 41
0.7071067819587314
 10
1172.311242582796
 20
1962.150027263419
 30
5.0
 41
1.0
  0
SPLINE
  5
45
330
1F
100
AcDbEntity
  8
Predefinito
100
AcDbSpline
210
0.0
220
0.0
230
1.0
 70
    12
 71
     2
 72
     8
 73
     5
 74
     0
 42
0.0000000001
 43
0.0000000001
 40
0.0
 40
0.0
 40
0.0
 40
500.8733605287866
 40
500.8733605287866
 40
1001.746721532197
 40
1001.746721532197
 40
1001.746721532197
 10
1172.311242582796
 20
1962.150027263419
 30
5.0
 41
1.0
 10
1172.311242480808
 20
2281.015912281308
 30
5.0
 41
0.7071067804143654
 10
1491.177127498695
 20
2281.015911686873
 30
5.0
 41
1.0
 10
1810.043012312608
 20
2281.015911092441
 30
5.0
 41
0.7071067819587272
 10
1810.043012414594
 20
1962.150026278529
 30
5.0
 41
1.0
  0
SPLINE
  5
46
330
1F
100
AcDbEntity
  8
Predefinito
100
AcDbSpline
210
0.0
220
0.0
230
1.0
 70
    12
 71
     2
 72
     6
 73
     3
 74
     0
 42
0.0000000001
 43
0.0000000001
 40
0.0
 40
0.0
 40
0.0
 40
399.1812525582598
 40
399.1812525582598
 40
399.1812525582598
 10
1640.102553183448
 20
2281.115093799945
 30
5.0
 41
1.0
 10
1843.196247540888
 20
2186.290186982949
 30
5.0
 41
0.843522660216459
 10
1843.196296081258
 20
1962.150026278529
 30
5.0
 41
1.0
  0
SPLINE
  5
47
330
1F
100
AcDbEntity
  8
Predefinito
100
AcDbSpline
210
0.0
220
0.0
230
1.0
 70
    12
 71
     2
 72
     8
 73
     5
 74
     0
 42
0.0000000001
 43
0.0000000001
 40
0.0
 40
0.0
 40
0.0
 40
552.9503924157691
 40
552.9503924157691
 40
1105.900784831538
 40
1105.900784831538
 40
1105.900784831538
 10
1843.196296081258
 20
1962.150026278529
 30
5.0
 41
1.0
 10
1843.196271526145
 20
1610.130882251081
 30
5.0
 41
0.7071068058486821
 10
1491.177127498695
 20
1610.130882251081
 30
5.0
 41
1.0
 10
1139.157983471246
 20
1610.130882251081
 30
5.0
 41
0.7071068058486821
 10
1139.157958916132
 20
1962.150026278529
 30
5.0
 41
1.0
  0
SPLINE
  5
48
330
1F
100
AcDbEntity
  8
Predefinito
100
AcDbSpline
210
0.0
220
0.0
230
1.0
 70
    12
 71
     2
 72
     6
 73
     3
 74
     0
 42
0.0000000001
 43
0.0000000001
 40
0.0
 40
0.0
 40
0.0
 40
398.7326761036919
 40
398.7326761036919
 40
398.7326761036919
 10
1139.157958916132
 20
1962.150026278529
 30
5.0
 41
1.0
 10
1139.157930601881
 20
2185.975131073098
 30
5.0
 41
0.8438645034542228
 10
1341.845358558572
 20
2280.925034098858
 30
5.0
 41
1.0
  0
SPLINE
  5
49
330
1F
100
AcDbEntity
  8
Predefinito
100
AcDbSpline
210
0.0
220
0.0
230
1.0
 70
    24
 71
     2
 72
     6
 73
     3
 74
     0
 42
0.0000000001
 43
0.0000000001
 40
0.0
 40
0.0
 40
0.0
 40
148.0219978073387
 40
148.0219978073387
 40
148.0219978073387
 10
1631.391206810765
 20
2287.127773274235
 30
5.0
 10
1631.391206810765
 20
2361.138772177904
 30
5.0
 10
1631.391206810765
 20
2435.149771081573
 30
5.0
  0
SPLINE
  5
4A
330
1F
100
AcDbEntity
  8
Predefinito
100
AcDbSpline
210
0.0
220
0.0
230
1.0
 70
    24
 71
     2
 72
     6
 73
     3
 74
     0
 42
0.0000000001
 43
0.0000000001
 40
0.0
 40
0.0
 40
0.0
 40
148.3698477228845
 40
148.3698477228845
 40
148.3698477228845
 10
1632.191206810765
 20
2435.149771081573
 30
5.0
 10
1632.191206810765
 20
2360.964847220131
 30
5.0
 10
1632.191206810765
 20
2286.779923358689
 30
5.0
  0
SPLINE
  5
4B
330
1F
100
AcDbEntity
  8
Predefinito
100
AcDbSpline
210
0.0
220
0.0
230
1.0
 70
    24
 71
     2
 72
     6
 73
     3
 74
     0
 42
0.0000000001
 43
0.0000000001
 40
0.0
 40
0.0
 40
0.0
 40
13.41514557945675
 40
13.41514557945675
 40
13.41514557945675
 10
1628.666126038311
 20
2435.149771081573
 30
5.0
 10
1628.666126038278
 20
2428.442198291845
 30
5.0
 10
1628.666126038246
 20
2421.734625502117
 30
5.0
  0
SPLINE
  5
4C
330
1F
100
AcDbEntity
  8
Predefinito
100
AcDbSpline
210
0.0
220
0.0
230
1.0
 70
    24
 71
     2
 72
     6
 73
     3
 74
     0
 42
0.0000000001
 43
0.0000000001
 40
0.0
 40
0.0
 40
0.0
 40
48.48518265076382
 40
48.48518265076382
 40
48.48518265076382
 10
1628.666126038246
 20
2421.734625502117
 30
5.0
 10
1628.666126038213
 20
2397.492034176733
 30
5.0
 10
1628.66612603818
 20
2373.24944285135
 30
5.0
  0
SPLINE
  5
4D
330
1F
100
AcDbEntity
  8
Predefinito
100
AcDbSpline
210
0.0
220
0.0
230
1.0
 70
    12
 71
     2
 72
     6
 73
     3
 74
     0
 42
0.0000000001
 43
0.0000000001
 40
0.0
 40
0.0
 40
0.0
 40
5.986206500552917
 40
5.986206500552917
 40
5.986206500552917
 10
1628.66612603818
 20
2373.24944285135
 30
5.0
 41
1.0
 10
1628.666198444488
 20
2370.255655705905
 30
5.0
 41
0.9996573775739365
 10
1628.509088386882
 20
2367.256220524114
 30
5.0
 41
1.0
  0
SPLINE
  5
4E
330
1F
100
AcDbEntity
  8
Predefinito
100
AcDbSpline
210
0.0
220
0.0
230
1.0
 70
    12
 71
     2
 72
     6
 73
     3
 74
     0
 42
0.0000000001
 43
0.0000000001
 40
0.0
 40
0.0
 40
0.0
 40
5.882717153388692
 40
5.882717153388692
 40
5.882717153388692
 10
1628.509088386882
 20
2367.256220524114
 30
5.0
 41
1.0
 10
1628.354320425521
 20
2364.30878570818
 30
5.0
 41
0.9998078252757359
 10
1628.081641154803
 20
2361.342720394306
 30
5.0
 41
1.0
  0
SPLINE
  5
4F
330
1F
100
AcDbEntity
  8
Predefinito
100
AcDbSpline
210
0.0
220
0.0
230
1.0
 70
    12
 71
     2
 72
     6
 73
     3
 74
     0
 42
0.0000000001
 43
0.0000000001
 40
0.0
 40
0.0
 40
0.0
 40
5.983023659193321
 40
5.983023659193321
 40
5.983023659193321
 10
1628.081641154803
 20
2361.342720394306
 30
5.0
 41
1.0
 10
1627.802998641773
 20
2358.326924219322
 30
5.0
 41
0.9998536489247949
 10
1627.419630793564
 20
2355.309103530437
 30
5.0
 41
1.0
  0
SPLINE
  5
50
330
1F
100
AcDbEntity
  8
Predefinito
100
AcDbSpline
210
0.0
220
0.0
230
1.0
 70
    12
 71
     2
 72
     6
 73
     3
 74
     0
 42
0.0000000001
 43
0.0000000001
 40
0.0
 40
0.0
 40
0.0
 40
5.901838231079212
 40
5.901838231079212
 40
5.901838231079212
 10
1627.419630793564
 20
2355.309103530437
 30
5.0
 41
1.0
 10
1627.03984561887
 20
2352.33191467209
 30
5.0
 41
0.9999361344904052
 10
1626.595312931085
 20
2349.380408060254
 30
5.0
 41
1.0
  0
SPLINE
  5
51
330
1F
100
AcDbEntity
  8
Predefinito
100
AcDbSpline
210
0.0
220
0.0
230
1.0
 70
    12
 71
     2
 72
     6
 73
     3
 74
     0
 42
0.0000000001
 43
0.0000000001
 40
0.0
 40
0.0
 40
0.0
 40
9.905451343508158
 40
9.905451343508158
 40
9.905451343508158
 10
1626.595312931085
 20
2349.380408060254
 30
5.0
 41
1.0
 10
1625.851440232505
 20
2344.449429673236
 30
4.999999999999999
 41
0.9999103178819402
 10
1624.974582838025
 20
2339.533535285533
 30
5.0
 41
1.0
  0
SPLINE
  5
52
330
1F
100
AcDbEntity
  8
Predefinito
100
AcDbSpline
210
0.0
220
0.0
230
1.0
 70
    12
 71
     2
 72
     6
 73
     3
 74
     0
 42
0.0000000001
 43
0.0000000001
 40
0.0
 40
0.0
 40
0.0
 40
9.82539645170417
 40
9.82539645170417
 40
9.82539645170417
 10
1624.974582838025
 20
2339.533535285533
 30
5.0
 41
1.0
 10
1624.103437184497
 20
2334.657582281383
 30
4.999999999999999
 41
0.9999999875507742
 10
1623.233840912897
 20
2329.781439096225
 30
5.0
 41
1.0
  0
SPLINE
  5
53
330
1F
100
AcDbEntity
  8
Predefinito
100
AcDbSpline
210
0.0
220
0.0
230
1.0
 70
    12
 71
     2
 72
     6
 73
     3
 74
     0
 42
0.0000000001
 43
0.0000000001
 40
0.0
 40
0.0
 40
0.0
 40
9.370840536264573
 40
9.370840536264573
 40
9.370840536264573
 10
1623.233840912897
 20
2329.781439096225
 30
5.0
 41
1.0
 10
1622.404209320193
 20
2325.128973151788
 30
5.0
 41
0.9999812561091065
 10
1621.632119087713
 20
2320.46975655099
 30
5.0
 41
1.0
  0
SPLINE
  5
54
330
1F
100
AcDbEntity
  8
Predefinito
100
AcDbSpline
210
0.0
220
0.0
230
1.0
 70
    12
 71
     2
 72
     6
 73
     3
 74
     0
 42
0.0000000001
 43
0.0000000001
 40
0.0
 40
0.0
 40
0.0
 40
9.427931681436055
 40
9.427931681436055
 40
9.427931681436055
 10
1621.632119087713
 20
2320.46975655099
 30
5.0
 41
1.0
 10
1620.856209405111
 20
2315.781711344406
 30
5.0
 41
0.9998160357878842
 10
1620.259119256816
 20
2311.054936987979
 30
5.0
 41
1.0
  0
SPLINE
  5
55
330
1F
100
AcDbEntity
  8
Predefinito
100
AcDbSpline
210
0.0
220
0.0
230
1.0
 70
    12
 71
     2
 72
     6
 73
     3
 74
     0
 42
0.0000000001
 43
0.0000000001
 40
0.0
 40
0.0
 40
0.0
 40
8.768160279960247
 40
8.768160279960247
 40
8.768160279960247
 10
1620.259119256816
 20
2311.054936987979
 30
5.0
 41
1.0
 10
1619.705511776624
 20
2306.654910601753
 30
5.0
 41
0.9997115779678956
 10
1619.365297248543
 20
2302.252177086836
 30
5.0
 41
1.0
  0
SPLINE
  5
56
330
1F
100
AcDbEntity
  8
Predefinito
100
AcDbSpline
210
0.0
220
0.0
230
1.0
 70
    12
 71
     2
 72
     6
 73
     3
 74
     0
 42
0.0000000001
 43
0.0000000001
 40
0.0
 40
0.0
 40
0.0
 40
8.85127432853329
 40
8.85127432853329
 40
8.85127432853329
 10
1619.365297248543
 20
2302.252177086836
 30
5.0
 41
1.0
 10
1619.023934498604
 20
2297.806519735285
 30
5.0
 41
0.9992645504484123
 10
1619.024274920515
 20
2293.378711151752
 30
5.0
 41
1.0
  0
SPLINE
  5
57
330
1F
100
AcDbEntity
  8
Predefinito
100
AcDbSpline
210
0.0
220
0.0
230
1.0
 70
    24
 71
     2
 72
     6
 73
     3
 74
     0
 42
0.0000000001
 43
0.0000000001
 40
0.0
 40
0.0
 40
0.0
 40
2.0
 40
2.0
 40
2.0
 10
1619.024274920515
 20
2293.378711151752
 30
5.0
 10
1619.024274920515
 20
2292.378711151753
 30
5.0
 10
1619.024274920515
 20
2291.378711151753
 30
5.0
  0
SPLINE
  5
58
330
1F
100
AcDbEntity
  8
Predefinito
100
AcDbSpline
210
0.0
220
0.0
230
1.0
 70
    12
 71
     2
 72
     6
 73
     3
 74
     0
 42
0.0000000001
 43
0.0000000001
 40
0.0
 40
0.0
 40
0.0
 40
1.44697784884194
 40
1.44697784884194
 40
1.44697784884194
 10
1619.024274920515
 20
2291.378711151753
 30
5.0
 41
1.0
 10
1619.024123514964
 20
2290.655138287235
 30
5.0
 41
0.99982596455134
 10
1619.051522875273
 20
2289.917306260301
 30
5.0
 41
1.0
  0
SPLINE
  5
59
330
1F
100
AcDbEntity
  8
Predefinito
100
AcDbSpline
210
0.0
220
0.0
230
1.0
 70
    12
 71
     2
 72
     6
 73
     3
 74
     0
 42
0.0000000001
 43
0.0000000001
 40
0.0
 40
0.0
 40
0.0
 40
1.343426695667409
 40
1.343426695667409
 40
1.343426695667409
 10
1619.051522875273
 20
2289.917306260301
 30
5.0
 41
1.0
 10
1619.077269696094
 20
2289.231278939359
 30
5.0
 41
0.9999347191345723
 10
1619.118749021874
 20
2288.545116890257
 30
5.0
 41
1.0
  0
LINE
  5
5A
330
1F
100
AcDbEntity
  8
Predefinito
100
AcDbLine
 10
1619.118749021874
 20
2288.545116890257
 30
5.0
 11
1619.287459623814
 21
2285.974980131705
 31
5.0
  0
POLYLINE
  5
5B
330
1F
100
AcDbEntity
  8
Predefinito
100
AcDb2dPolyline
 66
     1
 10
0.0
 20
0.0
 30
5.0
  0
VERTEX
  5
5C
330
5B
100
AcDbEntity
  8
Predefinito
100
AcDbVertex
100
AcDb2dVertex
 10
1619.287459623814
 20
2285.974980131705
 30
5.0
  0
VERTEX
  5
5D
330
5B
100
AcDbEntity
  8
Predefinito
100
AcDbVertex
100
AcDb2dVertex
 10
1619.304477083266
 20
2284.499813998707
 30
5.0
  0
VERTEX
  5
5E
330
5B
100
AcDbEntity
  8
Predefinito
100
AcDbVertex
100
AcDb2dVertex
 10
1619.294577200883
 20
2284.266586906524
 30
5.0
  0
SEQEND
  5
5F
330
5B
100
AcDbEntity
  8
Predefinito
  0
SPLINE
  5
60
330
1F
100
AcDbEntity
  8
Predefinito
100
AcDbSpline
210
0.0
220
0.0
230
1.0
 70
    12
 71
     2
 72
     6
 73
     3
 74
     0
 42
0.0000000001
 43
0.0000000001
 40
0.0
 40
0.0
 40
0.0
 40
1.473002384164126
 40
1.473002384164126
 40
1.473002384164126
 10
1619.294577200883
 20
2284.266586906524
 30
5.0
 41
1.0
 10
1619.24260824607
 20
2283.525711085913
 30
5.0
 41
0.9877582631487596
 10
1618.967575980678
 20
2282.83593741184
 30
4.999999999999999
 41
0.9999999916002136
  0
SPLINE
  5
61
330
1F
100
AcDbEntity
  8
Predefinito
100
AcDbSpline
210
0.0
220
0.0
230
1.0
 70
    12
 71
     2
 72
     6
 73
     3
 74
     0
 42
0.0000000001
 43
0.0000000001
 40
-0.4681372653380217
 40
-0.4681372653380217
 40
-0.4681372653380217
 40
0.0
 40
0.0
 40
0.0
 10
1618.967575980678
 20
2282.835937411841
 30
5.0
 41
0.9999999413479289
 10
1618.8801929258
 20
2282.615222979945
 30
5.0
 41
0.9791861797853636
 10
1618.712321132137
 20
2282.447384616575
 30
5.0
 41
1.0
  0
SPLINE
  5
62
330
1F
100
AcDbEntity
  8
Predefinito
100
AcDbSpline
210
0.0
220
0.0
230
1.0
 70
    12
 71
     2
 72
     6
 73
     3
 74
     0
 42
0.0000000001
 43
0.0000000001
 40
-1.095832421727457
 40
-1.095832421727457
 40
-1.095832421727457
 40
0.0
 40
0.0
 40
0.0
 10
1618.712321132137
 20
2282.447384616575
 30
5.0
 41
1.0
 10
1618.294501592734
 20
2282.040907563313
 30
5.0
 41
0.9123110751708563
 10
1617.713098050784
 20
2282.082939500505
 30
5.0
 41
1.0
  0
SPLINE
  5
63
330
1F
100
AcDbEntity
  8
Predefinito
100
AcDbSpline
210
0.0
220
0.0
230
1.0
 70
    12
 71
     2
 72
     8
 73
     5
 74
     0
 42
0.0000000001
 43
0.0000000001
 40
-2.501599675926156
 40
-2.501599675926156
 40
-2.501599675926156
 40
-1.527269015275569
 40
-1.527269015275569
 40
0.0
 40
0.0
 40
0.0
 10
1617.713098050784
 20
2282.082939500505
 30
5.0
 41
1.0
 10
1617.20806030778
 20
2282.113121033356
 30
5.0
 41
0.9452589146591668
 10
1616.829200520107
 20
2282.448440743586
 30
5.0
 41
1.0
 10
1616.158539381152
 20
2283.01121198207
 30
5.0
 41
0.8189140653758044
 10
1616.462267398324
 20
2283.842544467138
 30
5.0
 41
1.0
  0
SPLINE
  5
64
330
1F
100
AcDbEntity
  8
Predefinito
100
AcDbSpline
210
0.0
220
0.0
230
1.0
 70
    12
 71
     2
 72
     6
 73
     3
 74
     0
 42
0.0000000001
 43
0.0000000001
 40
0.0
 40
0.0
 40
0.0
 40
0.7033634825887669
 40
0.7033634825887669
 40
0.7033634825887669
 10
1616.462267398324
 20
2283.842544467138
 30
5.0
 41
1.0
 10
1616.592758575629
 20
2284.182982876961
 30
4.999999999999999
 41
0.9860112525343514
 10
1616.604890717918
 20
2284.566405221171
 30
5.0
 41
1.0
  0
SPLINE
  5
65
330
1F
100
AcDbEntity
  8
Predefinito
100
AcDbSpline
210
0.0
220
0.0
230
1.0
 70
    12
 71
     2
 72
     6
 73
     3
 74
     0
 42
0.0000000001
 43
0.0000000001
 40
0.0
 40
0.0
 40
0.0
 40
1.407049246372992
 40
1.407049246372992
 40
1.407049246372992
 10
1616.604890717918
 20
2284.566405221171
 30
5.0
 41
1.0
 10
1616.625080983228
 20
2285.2987056514
 30
5.0
 41
0.9990457580403147
 10
1616.580137545033
 20
2286.043676770214
 30
5.0
 41
1.0
  0
SPLINE
  5
66
330
1F
100
AcDbEntity
  8
Predefinito
100
AcDbSpline
210
0.0
220
0.0
230
1.0
 70
    12
 71
     2
 72
     6
 73
     3
 74
     0
 42
0.0000000001
 43
0.0000000001
 40
0.0
 40
0.0
 40
0.0
 40
1.05341177961165
 40
1.05341177961165
 40
1.05341177961165
 10
1616.580137545033
 20
2286.043676770214
 30
5.0
 41
1.0
 10
1616.546835901503
 20
2286.61177196264
 30
5.0
 41
0.9999677993593964
 10
1616.505668881962
 20
2287.161536738002
 30
5.0
 41
1.0
  0
SPLINE
  5
67
330
1F
100
AcDbEntity
  8
Predefinito
100
AcDbSpline
210
0.0
220
0.0
230
1.0
 70
    12
 71
     2
 72
     6
 73
     3
 74
     0
 42
0.0000000001
 43
0.0000000001
 40
0.0
 40
0.0
 40
0.0
 40
1.21281622030254
 40
1.21281622030254
 40
1.21281622030254
 10
1616.505668881962
 20
2287.161536738002
 30
5.0
 41
1.0
 10
1616.45955171668
 20
2287.790851982659
 30
5.0
 41
0.9999804663080551
 10
1616.421862869257
 20
2288.411798023876
 30
5.0
 41
1.0
  0
SPLINE
  5
68
330
1F
100
AcDbEntity
  8
Predefinito
100
AcDbSpline
210
0.0
220
0.0
230
1.0
 70
    12
 71
     2
 72
     6
 73
     3
 74
     0
 42
0.0000000001
 43
0.0000000001
 40
0.0
 40
0.0
 40
0.0
 40
1.306336098286487
 40
1.306336098286487
 40
1.306336098286487
 10
1616.421862869257
 20
2288.411798023876
 30
5.0
 41
1.0
 10
1616.381823972611
 20
2289.079464096959
 30
5.0
 41
0.9999432196963688
 10
1616.354502866907
 20
2289.78816436543
 30
5.0
 41
1.0
  0
SPLINE
  5
69
330
1F
100
AcDbEntity
  8
Predefinito
100
AcDbSpline
210
0.0
220
0.0
230
1.0
 70
    12
 71
     2
 72
     6
 73
     3
 74
     0
 42
0.0000000001
 43
0.0000000001
 40
0.0
 40
0.0
 40
0.0
 40
1.534898272014069
 40
1.534898272014069
 40
1.534898272014069
 10
1616.354502866907
 20
2289.78816436543
 30
5.0
 41
1.0
 10
1616.324123832497
 20
2290.611174464139
 30
5.0
 41
0.9998288772710803
 10
1616.324274920515
 20
2291.378711151753
 30
5.0
 41
1.0
  0
SPLINE
  5
6A
330
1F
100
AcDbEntity
  8
Predefinito
100
AcDbSpline
210
0.0
220
0.0
230
1.0
 70
    24
 71
     2
 72
     6
 73
     3
 74
     0
 42
0.0000000001
 43
0.0000000001
 40
0.0
 40
0.0
 40
0.0
 40
2.0
 40
2.0
 40
2.0
 10
1616.324274920515
 20
2291.378711151753
 30
5.0
 10
1616.324274920515
 20
2292.378711151753
 30
5.0
 10
1616.324274920515
 20
2293.378711151752
 30
5.0
  0
SPLINE
  5
6B
330
1F
100
AcDbEntity
  8
Predefinito
100
AcDbSpline
210
0.0
220
0.0
230
1.0
 70
    12
 71
     2
 72
     6
 73
     3
 74
     0
 42
0.0000000001
 43
0.0000000001
 40
0.0
 40
0.0
 40
0.0
 40
9.087550400495278
 40
9.087550400495278
 40
9.087550400495278
 10
1616.324274920515
 20
2293.378711151752
 30
5.0
 41
1.0
 10
1616.32392452134
 20
2297.924730411578
 30
5.0
 41
0.9992597123304172
 10
1616.674185293861
 20
2302.471400520326
 30
5.0
 41
1.0
  0
SPLINE
  5
6C
330
1F
100
AcDbEntity
  8
Predefinito
100
AcDbSpline
210
0.0
220
0.0
230
1.0
 70
    12
 71
     2
 72
     6
 73
     3
 74
     0
 42
0.0000000001
 43
0.0000000001
 40
0.0
 40
0.0
 40
0.0
 40
8.948187645906975
 40
8.948187645906975
 40
8.948187645906975
 10
1616.674185293861
 20
2302.471400520326
 30
5.0
 41
1.0
 10
1617.019903321485
 20
2306.947154958834
 30
5.0
 41
0.9997082531661365
 10
1617.582341313448
 20
2311.40867493009
 30
5.0
 41
1.0
  0
SPLINE
  5
6D
330
1F
100
AcDbEntity
  8
Predefinito
100
AcDbSpline
210
0.0
220
0.0
230
1.0
 70
    12
 71
     2
 72
     6
 73
     3
 74
     0
 42
0.0000000001
 43
0.0000000001
 40
0.0
 40
0.0
 40
0.0
 40
9.533047789478116
 40
9.533047789478116
 40
9.533047789478116
 10
1617.582341313448
 20
2311.40867493009
 30
5.0
 41
1.0
 10
1618.182289978858
 20
2316.159922764237
 30
4.999999999999999
 41
0.999815988039837
 10
1618.965802748156
 20
2320.895215258869
 30
5.0
 41
1.0
  0
SPLINE
  5
6E
330
1F
100
AcDbEntity
  8
Predefinito
100
AcDbSpline
210
0.0
220
0.0
230
1.0
 70
    12
 71
     2
 72
     6
 73
     3
 74
     0
 42
0.0000000001
 43
0.0000000001
 40
0.0
 40
0.0
 40
0.0
 40
9.411785200571481
 40
9.411785200571481
 40
9.411785200571481
 10
1618.965802748156
 20
2320.895215258869
 30
5.0
 41
1.0
 10
1619.740343719665
 20
2325.570003386194
 30
5.0
 41
0.9999812253835956
 10
1620.572519705891
 20
2330.237195168223
 30
5.0
 41
1.0
  0
SPLINE
  5
6F
330
1F
100
AcDbEntity
  8
Predefinito
100
AcDbSpline
210
0.0
220
0.0
230
1.0
 70
    12
 71
     2
 72
     6
 73
     3
 74
     0
 42
0.0000000001
 43
0.0000000001
 40
0.0
 40
0.0
 40
0.0
 40
9.842257670673524
 40
9.842257670673524
 40
9.842257670673524
 10
1620.572519705891
 20
2330.237195168223
 30
5.0
 41
1.0
 10
1621.442621613337
 20
2335.116195709437
 30
5.0
 41
0.9999999875101899
 10
1622.313834539341
 20
2339.992519627638
 30
5.0
 41
1.0
  0
SPLINE
  5
70
330
1F
100
AcDbEntity
  8
Predefinito
100
AcDbSpline
210
0.0
220
0.0
230
1.0
 70
    12
 71
     2
 72
     6
 73
     3
 74
     0
 42
0.0000000001
 43
0.0000000001
 40
0.0
 40
0.0
 40
0.0
 40
9.847348987646635
 40
9.847348987646635
 40
9.847348987646635
 10
1622.313834539341
 20
2339.992519627638
 30
5.0
 41
1.0
 10
1623.184489334589
 20
2344.871829031217
 30
5.0
 41
0.9999100490619017
 10
1623.923570432393
 20
2349.770225034652
 30
5.0
 41
1.0
  0
SPLINE
  5
71
330
1F
100
AcDbEntity
  8
Predefinito
100
AcDbSpline
210
0.0
220
0.0
230
1.0
 70
    12
 71
     2
 72
     6
 73
     3
 74
     0
 42
0.0000000001
 43
0.0000000001
 40
0.0
 40
0.0
 40
0.0
 40
5.900852932123745
 40
5.900852932123745
 40
5.900852932123745
 10
1623.923570432393
 20
2349.770225034652
 30
5.0
 41
1.0
 10
1624.367637633811
 20
2352.717381808276
 30
4.999999999999999
 41
0.9999348173362327
 10
1624.743298447383
 20
2355.666142945379
 30
5.0
 41
1.0
  0
SPLINE
  5
72
330
1F
100
AcDbEntity
  8
Predefinito
100
AcDbSpline
210
0.0
220
0.0
230
1.0
 70
    12
 71
     2
 72
     6
 73
     3
 74
     0
 42
0.0000000001
 43
0.0000000001
 40
0.0
 40
0.0
 40
0.0
 40
5.934888114017529
 40
5.934888114017529
 40
5.934888114017529
 10
1624.743298447383
 20
2355.666142945379
 30
5.0
 41
1.0
 10
1625.120257971274
 20
2358.632060668223
 30
5.0
 41
0.9998514509076131
 10
1625.394267325699
 20
2361.603834060905
 30
5.0
 41
1.0
  0
SPLINE
  5
73
330
1F
100
AcDbEntity
  8
Predefinito
100
AcDbSpline
210
0.0
220
0.0
230
1.0
 70
    12
 71
     2
 72
     6
 73
     3
 74
     0
 42
0.0000000001
 43
0.0000000001
 40
0.0
 40
0.0
 40
0.0
 40
5.802352741222836
 40
5.802352741222836
 40
5.802352741222836
 10
1625.394267325699
 20
2361.603834060905
 30
5.0
 41
1.0
 10
1625.661533175507
 20
2364.509761841749
 30
5.000000000000001
 41
0.9998061289064409
 10
1625.813813816496
 20
2367.417084152876
 30
5.0
 41
1.0
  0
SPLINE
  5
74
330
1F
100
AcDbEntity
  8
Predefinito
100
AcDbSpline
210
0.0
220
0.0
230
1.0
 70
    12
 71
     2
 72
     6
 73
     3
 74
     0
 42
0.0000000001
 43
0.0000000001
 40
0.0
 40
0.0
 40
0.0
 40
5.825255072983518
 40
5.825255072983518
 40
5.825255072983518
 10
1625.813813816496
 20
2367.417084152876
 30
5.0
 41
1.0
 10
1625.966196642872
 20
2370.336154298887
 30
5.000000000000001
 41
0.9996596890469287
 10
1625.96612603818
 20
2373.24944285135
 30
5.0
 41
1.0
  0
SPLINE
  5
75
330
1F
100
AcDbEntity
  8
Predefinito
100
AcDbSpline
210
0.0
220
0.0
230
1.0
 70
    24
 71
     2
 72
     6
 73
     3
 74
     0
 42
0.0000000001
 43
0.0000000001
 40
0.0
 40
0.0
 40
0.0
 40
48.48518265076382
 40
48.48518265076382
 40
48.48518265076382
 10
1625.96612603818
 20
2373.24944285135
 30
5.0
 10
1625.966126038213
 20
2397.492034176733
 30
5.0
 10
1625.966126038246
 20
2421.734625502117
 30
5.0
  0
SPLINE
  5
76
330
1F
100
AcDbEntity
  8
Predefinito
100
AcDbSpline
210
0.0
220
0.0
230
1.0
 70
    24
 71
     2
 72
     6
 73
     3
 74
     0
 42
0.0000000001
 43
0.0000000001
 40
-13.41514557945675
 40
-13.41514557945675
 40
-13.41514557945675
 40
0.0
 40
0.0
 40
0.0
 10
1625.966126038246
 20
2421.734625502117
 30
5.0
 10
1625.966126038251
 20
2428.442198291845
 30
5.0
 10
1625.966126038257
 20
2435.149771081573
 30
5.0
  0
SPLINE
  5
77
330
1F
100
AcDbEntity
  8
Predefinito
100
AcDbSpline
210
0.0
220
0.0
230
1.0
 70
    12
 71
     2
 72
     6
 73
     3
 74
     0
 42
0.0000000001
 43
0.0000000001
 40
0.0
 40
0.0
 40
0.0
 40
1.552221276945727
 40
1.552221276945727
 40
1.552221276945727
 10
1640.061798297446
 20
2283.357692782016
 30
5.0
 41
1.0
 10
1640.977005770737
 20
2282.95925145183
 30
5.0
 41
0.713900592324401
 10
1640.602547875963
 20
2282.051662963265
 30
5.0
 41
1.0
  0
SPLINE
  5
78
330
1F
100
AcDbEntity
  8
Predefinito
100
AcDbSpline
210
0.0
220
0.0
230
1.0
 70
    24
 71
     2
 72
     6
 73
     3
 74
     0
 42
0.0000000001
 43
0.0000000001
 40
0.0
 40
0.0
 40
0.0
 40
0.9158466991343047
 40
0.9158466991343047
 40
0.9158466991343047
 10
1640.602547875963
 20
2282.051662963265
 30
5.0
 10
1640.427219640803
 20
2281.628382908856
 30
5.0
 10
1640.251891405642
 20
2281.205102854446
 30
5.0
  0
SPLINE
  5
79
330
1F
100
AcDbEntity
  8
Predefinito
100
AcDbSpline
210
0.0
220
0.0
230
1.0
 70
    12
 71
     2
 72
     6
 73
     3
 74
     0
 42
0.0000000001
 43
0.0000000001
 40
-2.205530080500143
 40
-2.205530080500143
 40
-2.205530080500143
 40
0.0
 40
0.0
 40
0.0
 10
1640.251891405642
 20
2281.205102854446
 30
5.0
 41
1.0
 10
1639.211665691196
 20
2280.838579723775
 30
5.0
 41
0.9998039725625734
 10
1638.157699104015
 20
2280.513514618891
 30
5.0
 41
1.0
  0
SPLINE
  5
7A
330
1F
100
AcDbEntity
  8
Predefinito
100
AcDbSpline
210
0.0
220
0.0
230
1.0
 70
    12
 71
     2
 72
     6
 73
     3
 74
     0
 42
0.0000000001
 43
0.0000000001
 40
-1.51805064308941
 40
-1.51805064308941
 40
-1.51805064308941
 40
0.0
 40
0.0
 40
0.0
 10
1638.157699104015
 20
2280.513514618891
 30
5.0
 41
1.0
 10
1637.40306506969
 20
2280.278327556392
 30
4.999999999999999
 41
0.94153158810869
 10
1636.670589334079
 20
2280.57529571931
 30
5.0
 41
1.0
  0
SPLINE
  5
7B
330
1F
100
AcDbEntity
  8
Predefinito
100
AcDbSpline
210
0.0
220
0.0
230
1.0
 70
    24
 71
     2
 72
     6
 73
     3
 74
     0
 42
0.0000000001
 43
0.0000000001
 40
-6.500000000000658
 40
-6.500000000000658
 40
-6.500000000000658
 40
0.0
 40
0.0
 40
0.0
 10
1636.670589334079
 20
2280.57529571931
 30
5.0
 10
1633.690144092328
 20
2281.871230193317
 30
5.0
 10
1630.709698850575
 20
2283.167164667324
 30
5.0
  0
SPLINE
  5
7C
330
1F
100
AcDbEntity
  8
Predefinito
100
AcDbSpline
210
0.0
220
0.0
230
1.0
 70
    12
 71
     2
 72
     6
 73
     3
 74
     0
 42
0.0000000001
 43
0.0000000001
 40
-1.517908609306868
 40
-1.517908609306868
 40
-1.517908609306868
 40
0.0
 40
0.0
 40
0.0
 10
1630.709698850575
 20
2283.167164667324
 30
5.0
 41
1.0
 10
1629.993441108852
 20
2283.500816360219
 30
4.999999999999999
 41
0.9418046425172678
 10
1629.650308589737
 20
2284.212633293167
 30
5.0
 41
1.0
  0
SPLINE
  5
7D
330
1F
100
AcDbEntity
  8
Predefinito
100
AcDbSpline
210
0.0
220
0.0
230
1.0
 70
    12
 71
     2
 72
     6
 73
     3
 74
     0
 42
0.0000000001
 43
0.0000000001
 40
-2.205531297293621
 40
-2.205531297293621
 40
-2.205531297293621
 40
0.0
 40
0.0
 40
0.0
 10
1629.650308589737
 20
2284.212633293167
 30
5.0
 41
1.0
 10
1629.169159087675
 20
2285.205111037871
 30
5.0
 41
0.9998023174420922
 10
1628.727868490469
 20
2286.215890627296
 30
5.0
 41
1.0
  0
SPLINE
  5
7E
330
1F
100
AcDbEntity
  8
Predefinito
100
AcDbSpline
210
0.0
220
0.0
230
1.0
 70
    24
 71
     2
 72
     6
 73
     3
 74
     0
 42
0.0000000001
 43
0.0000000001
 40
0.0
 40
0.0
 40
0.0
 40
0.915846699135931
 40
0.915846699135931
 40
0.915846699135931
 10
1628.727868490469
 20
2286.215890627296
 30
5.0
 10
1628.9178625758
 20
2286.63279435372
 30
5.0
 10
1629.10785666113
 20
2287.049698080145
 30
5.0
  0
SPLINE
  5
7F
330
1F
100
AcDbEntity
  8
Predefinito
100
AcDbSpline
210
0.0
220
0.0
230
1.0
 70
    12
 71
     2
 72
     6
 73
     3
 74
     0
 42
0.0000000001
 43
0.0000000001
 40
0.0
 40
0.0
 40
0.0
 40
1.552122167575411
 40
1.552122167575411
 40
1.552122167575411
 10
1629.10785666113
 20
2287.049698080145
 30
5.0
 41
1.0
 10
1629.516360697317
 20
2287.942233761085
 30
5.0
 41
0.7140636867382304
 10
1630.431816279859
 20
2287.544928098511
 30
5.0
 41
1.0
  0
SPLINE
  5
80
330
1F
100
AcDbEntity
  8
Predefinito
100
AcDbSpline
210
0.0
220
0.0
230
1.0
 70
    12
 71
     2
 72
     8
 73
     5
 74
     0
 42
0.0000000001
 43
0.0000000001
 40
0.0
 40
0.0
 40
0.0
 40
0.016978017703992
 40
0.016978017703992
 40
2.050991241907468
 40
2.050991241907468
 40
2.050991241907468
 10
1630.431816279859
 20
2287.544928098511
 30
5.0
 41
1.0
 10
1630.424095253372
 20
2287.548285260971
 30
5.0
 41
1.0
 10
1630.416374239831
 20
2287.551642453206
 30
5.0
 41
1.0
 10
1631.341380497141
 20
2287.149499689646
 30
5.0
 41
1.0
 10
1632.266370605187
 20
2286.747271877338
 30
5.0
 41
1.0
  0
SPLINE
  5
81
330
1F
100
AcDbEntity
  8
Predefinito
100
AcDbSpline
210
0.0
220
0.0
230
1.0
 70
    24
 71
     2
 72
     6
 73
     3
 74
     0
 42
0.0000000001
 43
0.0000000001
 40
0.0
 40
0.0
 40
0.0
 40
6.500000000000005
 40
6.500000000000005
 40
6.500000000000005
 10
1632.266370605187
 20
2286.747271877338
 30
5.0
 10
1635.24681157036
 20
2285.451323929534
 30
5.0
 10
1638.227252535532
 20
2284.155375981729
 30
5.0
  0
SPLINE
  5
82
330
1F
100
AcDbEntity
  8
Predefinito
100
AcDbSpline
210
0.0
220
0.0
230
1.0
 70
    24
 71
     2
 72
     6
 73
     3
 74
     0
 42
0.0000000001
 43
0.0000000001
 40
0.0
 40
0.0
 40
0.0
 40
1.98362461089918
 40
1.98362461089918
 40
1.98362461089918
 10
1638.227252535532
 20
2284.155375981729
 30
5.0
 10
1639.144525416489
 20
2283.756534381873
 30
5.0
 10
1640.061798297446
 20
2283.357692782016
 30
5.0
  0
SPLINE
  5
83
330
1F
100
AcDbEntity
  8
Predefinito
100
AcDbSpline
210
0.0
220
0.0
230
1.0
 70
    24
 71
     2
 72
     6
 73
     3
 74
     0
 42
0.0000000001
 43
0.0000000001
 40
-50.50000000020009
 40
-50.50000000020009
 40
-50.50000000020009
 40
0.0
 40
0.0
 40
0.0
 10
1633.803758805312
 20
2435.14977108154
 30
5.0
 10
1633.803758805312
 20
2460.399771081624
 30
5.0
 10
1633.803758805312
 20
2485.649771081707
 30
5.0
  0
SPLINE
  5
84
330
1F
100
AcDbEntity
  8
Predefinito
100
AcDbSpline
210
0.0
220
0.0
230
1.0
 70
    28
 71
     2
 72
     8
 73
     5
 74
     0
 42
0.0000000001
 43
0.0000000001
 40
0.0
 40
0.0
 40
0.0
 40
10.11752208627331
 40
10.11752208627331
 40
20.4203522483337
 40
20.4203522483337
 40
20.4203522483337
 10
1633.803758805312
 20
2485.649771081705
 30
5.0
 41
0.9896534695886122
 10
1634.194415540298
 20
2485.649771081707
 30
5.0
 41
0.7123747976379153
 10
1627.882638364374
 20
2485.649771081707
 30
5.0
 41
1.0
 10
1621.407372826778
 20
2485.649771081707
 30
5.0
 41
0.707106781186548
 10
1620.840860498918
 20
2485.649771081707
 30
5.0
 41
1.0
  0
SPLINE
  5
85
330
1F
100
AcDbEntity
  8
Predefinito
100
AcDbSpline
210
0.0
220
0.0
230
1.0
 70
    24
 71
     2
 72
     6
 73
     3
 74
     0
 42
0.0000000001
 43
0.0000000001
 40
-50.50000000013324
 40
-50.50000000013324
 40
-50.50000000013324
 40
0.0
 40
0.0
 40
0.0
 10
1620.840860498918
 20
2485.649771081707
 30
5.0
 10
1620.840860498918
 20
2460.39977108164
 30
5.0
 10
1620.840860498918
 20
2435.149771081573
 30
5.0
  0
SPLINE
  5
86
330
1F
100
AcDbEntity
  8
Predefinito
100
AcDbSpline
210
0.0
220
0.0
230
1.0
 70
    28
 71
     2
 72
     8
 73
     5
 74
     0
 42
0.0000000001
 43
0.0000000001
 40
-20.4203522483337
 40
-20.4203522483337
 40
-20.4203522483337
 40
-10.11752208627083
 40
-10.11752208627083
 40
0.0
 40
0.0
 40
0.0
 10
1620.840860498918
 20
2435.149771081573
 30
5.0
 41
1.0
 10
1621.407372826778
 20
2435.149771081573
 30
5.0
 41
0.707106781186548
 10
1627.882638364374
 20
2435.149771081573
 30
5.0
 41
1.0
 10
1634.194415540294
 20
2435.149771081573
 30
5.0
 41
0.7123747976380552
 10
1633.803758805312
 20
2435.149771081538
 30
4.999999999999999
 41
0.9896534695883425
  0
SPLINE
  5
87
330
1F
100
AcDbEntity
  8
Predefinito
100
AcDbSpline
210
0.0
220
0.0
230
1.0
 70
    24
 71
     2
 72
     6
 73
     3
 74
     0
 42
0.0000000001
 43
0.0000000001
 40
0.0
 40
0.0
 40
0.0
 40
43.00163471387392
 40
43.00163471387392
 40
43.00163471387392
 10
1513.823729191457
 20
2741.594470527986
 30
5.0
 10
1513.626103685037
 20
2763.094469948386
 30
5.0
 10
1513.428478178618
 20
2784.594469368787
 30
5.0
  0
SPLINE
  5
88
330
1F
100
AcDbEntity
  8
Predefinito
100
AcDbSpline
210
0.0
220
0.0
230
1.0
 70
     8
 71
     3
 72
     8
 73
     4
 74
     0
 42
0.0000000001
 43
0.0000000001
 40
0.0
 40
0.0
 40
0.0
 40
0.0
 40
226.617110258572
 40
226.617110258572
 40
226.617110258572
 40
226.617110258572
 10
1513.428478178618
 20
2784.594469368787
 30
5.0
 10
1588.967647776233
 20
2784.594470527985
 30
5.0
 10
1664.506684529091
 20
2784.594470527987
 30
5.0
 10
1740.045721281947
 20
2784.594470527986
 30
5.0
  0
SPLINE
  5
89
330
1F
100
AcDbEntity
  8
Predefinito
100
AcDbSpline
210
0.0
220
0.0
230
1.0
 70
    24
 71
     2
 72
     6
 73
     3
 74
     0
 42
0.0000000001
 43
0.0000000001
 40
0.0
 40
0.0
 40
0.0
 40
9.969089666941727
 40
9.969089666941727
 40
9.969089666941727
 10
1740.045721281947
 20
2784.594470527986
 30
5.0
 10
1745.031180125043
 20
2784.594462551387
 30
5.0
 10
1750.016638968139
 20
2784.594454574788
 30
5.0
  0
SPLINE
  5
8A
330
1F
100
AcDbEntity
  8
Predefinito
100
AcDbSpline
210
0.0
220
0.0
230
1.0
 70
    24
 71
     2
 72
     6
 73
     3
 74
     0
 42
0.0000000001
 43
0.0000000001
 40
0.0
 40
0.0
 40
0.0
 40
43.00160552778422
 40
43.00160552778422
 40
43.00160552778422
 10
1750.016638968139
 20
2784.594454574788
 30
5.0
 10
1749.829010566498
 20
2763.094462551387
 30
5.0
 10
1749.641382164858
 20
2741.594470527986
 30
5.0
  0
SPLINE
  5
8B
330
1F
100
AcDbEntity
  8
Predefinito
100
AcDbSpline
210
0.0
220
0.0
230
1.0
 70
    24
 71
     2
 72
     6
 73
     3
 74
     0
 42
0.0000000001
 43
0.0000000001
 40
-9.937467064378325
 40
-9.937467064378325
 40
-9.937467064378325
 40
0.0
 40
0.0
 40
0.0
 10
1749.641382164858
 20
2741.594470527986
 30
5.0
 10
1744.67173745295
 20
2741.594470527986
 30
5.0
 10
1739.702092741043
 20
2741.594470527986
 30
5.0
  0
SPLINE
  5
8C
330
1F
100
AcDbEntity
  8
Predefinito
100
AcDbSpline
210
0.0
220
0.0
230
1.0
 70
    24
 71
     2
 72
     6
 73
     3
 74
     0
 42
0.0000000001
 43
0.0000000001
 40
0.0
 40
0.0
 40
0.0
 40
166.9483390492592
 40
166.9483390492592
 40
166.9483390492592
 10
1739.702092741043
 20
2741.594470527986
 30
5.0
 10
1656.227923216414
 20
2741.594470527986
 30
5.0
 10
1572.753753691784
 20
2741.594470527986
 30
5.0
  0
SPLINE
  5
8D
330
1F
100
AcDbEntity
  8
Predefinito
100
AcDbSpline
210
0.0
220
0.0
230
1.0
 70
    24
 71
     2
 72
     6
 73
     3
 74
     0
 42
0.0000000001
 43
0.0000000001
 40
0.0
 40
0.0
 40
0.0
 40
58.90985717715239
 40
58.90985717715239
 40
58.90985717715239
 10
1572.753753691784
 20
2741.594470527986
 30
5.0
 10
1543.28874144162
 20
2741.594470527986
 30
5.0
 10
1513.823729191457
 20
2741.594470527986
 30
5.0
  0
SPLINE
  5
8E
330
1F
100
AcDbEntity
  8
Predefinito
100
AcDbSpline
210
0.0
220
0.0
230
1.0
 70
    24
 71
     2
 72
     6
 73
     3
 74
     0
 42
0.0000000001
 43
0.0000000001
 40
0.0
 40
0.0
 40
0.0
 40
255.9446994462792
 40
255.9446994462792
 40
255.9446994462792
 10
1632.191206810765
 20
2741.594470527986
 30
5.0
 10
1632.191206810765
 20
2613.622120804846
 30
5.0
 10
1632.191206810765
 20
2485.649771081707
 30
5.0
  0
SPLINE
  5
8F
330
1F
100
AcDbEntity
  8
Predefinito
100
AcDbSpline
210
0.0
220
0.0
230
1.0
 70
    24
 71
     2
 72
     6
 73
     3
 74
     0
 42
0.0000000001
 43
0.0000000001
 40
0.0
 40
0.0
 40
0.0
 40
255.9446994462792
 40
255.9446994462792
 40
255.9446994462792
 10
1631.391206810765
 20
2485.649771081707
 30
5.0
 10
1631.391206810765
 20
2613.622120804846
 30
5.0
 10
1631.391206810765
 20
2741.594470527986
 30
5.0
  0
SPLINE
  5
90
330
1F
100
AcDbEntity
  8
Predefinito
100
AcDbSpline
210
0.0
220
0.0
230
1.0
 70
    24
 71
     2
 72
     6
 73
     3
 74
     0
 42
0.0000000001
 43
0.0000000001
 40
0.0
 40
0.0
 40
0.0
 40
18.49999999999864
 40
18.49999999999864
 40
18.49999999999864
 10
1613.062681611518
 20
2741.594470527986
 30
5.0
 10
1613.062681611518
 20
2732.344470527987
 30
5.0
 10
1613.062681611518
 20
2723.094470527987
 30
5.0
  0
SPLINE
  5
91
330
1F
100
AcDbEntity
  8
Predefinito
100
AcDbSpline
210
0.0
220
0.0
230
1.0
 70
    12
 71
     2
 72
     6
 73
     3
 74
     0
 42
0.0000000001
 43
0.0000000001
 40
0.0
 40
0.0
 40
0.0
 40
2.119702945346288
 40
2.119702945346288
 40
2.119702945346288
 10
1613.062681611518
 20
2723.094470527987
 30
5.0
 41
1.0
 10
1613.062681611518
 20
2722.033396440948
 30
5.0
 41
0.9982725324959901
 10
1613.187149444516
 20
2720.979647905131
 30
5.0
 41
1.0
  0
SPLINE
  5
92
330
1F
100
AcDbEntity
  8
Predefinito
100
AcDbSpline
210
0.0
220
0.0
230
1.0
 70
    12
 71
     2
 72
     6
 73
     3
 74
     0
 42
0.0000000001
 43
0.0000000001
 40
0.0
 40
0.0
 40
0.0
 40
2.13247700197799
 40
2.13247700197799
 40
2.13247700197799
 10
1613.187149444516
 20
2720.979647905131
 30
5.0
 41
1.0
 10
1613.312345708829
 20
2719.919732447205
 30
5.0
 41
0.9985314319357336
 10
1613.551481216597
 20
2718.879583856151
 30
5.0
 41
1.0
  0
SPLINE
  5
93
330
1F
100
AcDbEntity
  8
Predefinito
100
AcDbSpline
210
0.0
220
0.0
230
1.0
 70
    12
 71
     2
 72
     6
 73
     3
 74
     0
 42
0.0000000001
 43
0.0000000001
 40
0.0
 40
0.0
 40
0.0
 40
2.108723517038255
 40
2.108723517038255
 40
2.108723517038255
 10
1613.551481216597
 20
2718.879583856151
 30
5.0
 41
1.0
 10
1613.787911116177
 20
2717.851203632628
 30
5.0
 41
0.9987967724954318
 10
1614.123947749037
 20
2716.850931488197
 30
5.0
 41
1.0
  0
SPLINE
  5
94
330
1F
100
AcDbEntity
  8
Predefinito
100
AcDbSpline
210
0.0
220
0.0
230
1.0
 70
    12
 71
     2
 72
     6
 73
     3
 74
     0
 42
0.0000000001
 43
0.0000000001
 40
0.0
 40
0.0
 40
0.0
 40
2.136121503267424
 40
2.136121503267424
 40
2.136121503267424
 10
1614.123947749037
 20
2716.850931488197
 30
5.0
 41
1.0
 10
1614.464251175154
 20
2715.837958483136
 30
5.0
 41
0.9992335338148977
 10
1614.882756907059
 20
2714.854711981404
 30
5.0
 41
1.0
  0
SPLINE
  5
95
330
1F
100
AcDbEntity
  8
Predefinito
100
AcDbSpline
210
0.0
220
0.0
230
1.0
 70
    12
 71
     2
 72
     6
 73
     3
 74
     0
 42
0.0000000001
 43
0.0000000001
 40
0.0
 40
0.0
 40
0.0
 40
2.180184608807236
 40
2.180184608807236
 40
2.180184608807236
 10
1614.882756907059
 20
2714.854711981404
 30
5.0
 41
1.0
 10
1615.309843679722
 20
2713.851304995208
 30
4.999999999999999
 41
0.9994150763501068
 10
1615.80452043098
 20
2712.879438953469
 30
5.0
 41
1.0
  0
SPLINE
  5
96
330
1F
100
AcDbEntity
  8
Predefinito
100
AcDbSpline
210
0.0
220
0.0
230
1.0
 70
    12
 71
     2
 72
     6
 73
     3
 74
     0
 42
0.0000000001
 43
0.0000000001
 40
0.0
 40
0.0
 40
0.0
 40
2.208871682682744
 40
2.208871682682744
 40
2.208871682682744
 10
1615.80452043098
 20
2712.879438953469
 30
5.0
 41
1.0
 10
1616.305604931503
 20
2711.894983935389
 30
5.0
 41
0.9997179835802187
 10
1616.852868156218
 20
2710.935431788731
 30
5.0
 41
1.0
  0
SPLINE
  5
97
330
1F
100
AcDbEntity
  8
Predefinito
100
AcDbSpline
210
0.0
220
0.0
230
1.0
 70
    12
 71
     2
 72
     6
 73
     3
 74
     0
 42
0.0000000001
 43
0.0000000001
 40
0.0
 40
0.0
 40
0.0
 40
2.33474914540818
 40
2.33474914540818
 40
2.33474914540818
 10
1616.852868156218
 20
2710.935431788731
 30
5.0
 41
1.0
 10
1617.431284340387
 20
2709.921257135444
 30
5.0
 41
0.999806260683207
 10
1618.049169646407
 20
2708.930634473638
 30
5.0
 41
1.0
  0
SPLINE
  5
98
330
1F
100
AcDbEntity
  8
Predefinito
100
AcDbSpline
210
0.0
220
0.0
230
1.0
 70
    12
 71
     2
 72
     6
 73
     3
 74
     0
 42
0.0000000001
 43
0.0000000001
 40
0.0
 40
0.0
 40
0.0
 40
2.361981173696301
 40
2.361981173696301
 40
2.361981173696301
 10
1618.049169646407
 20
2708.930634473638
 30
5.0
 41
1.0
 10
1618.674200641184
 20
2707.928555508939
 30
4.999999999999999
 41
0.9999530963879733
 10
1619.31852433298
 20
2706.938771201065
 30
5.0
 41
1.0
  0
SPLINE
  5
99
330
1F
100
AcDbEntity
  8
Predefinito
100
AcDbSpline
210
0.0
220
0.0
230
1.0
 70
    12
 71
     2
 72
     6
 73
     3
 74
     0
 42
0.0000000001
 43
0.0000000001
 40
0.0
 40
0.0
 40
0.0
 40
2.469063975054027
 40
2.469063975054027
 40
2.469063975054027
 10
1619.31852433298
 20
2706.938771201065
 30
5.0
 41
1.0
 10
1619.992043904563
 20
2705.904137349342
 30
4.999999999999999
 41
0.9999869141004963
 10
1620.676114087244
 20
2704.876448775113
 30
5.0
 41
1.0
  0
SPLINE
  5
9A
330
1F
100
AcDbEntity
  8
Predefinito
100
AcDbSpline
210
0.0
220
0.0
230
1.0
 70
    12
 71
     2
 72
     6
 73
     3
 74
     0
 42
0.0000000001
 43
0.0000000001
 40
-2.496048127053525
 40
-2.496048127053525
 40
-2.496048127053525
 40
0.0
 40
0.0
 40
0.0
 10
1620.676114087244
 20
2704.876448775113
 30
5.0
 41
1.0
 10
1621.367659855259
 20
2703.837529520424
 30
5.0
 41
0.9999881047434471
 10
1622.049038104417
 20
2702.791913697764
 30
5.0
 41
1.0
  0
SPLINE
  5
9B
330
1F
100
AcDbEntity
  8
Predefinito
100
AcDbSpline
210
0.0
220
0.0
230
1.0
 70
    12
 71
     2
 72
     6
 73
     3
 74
     0
 42
0.0000000001
 43
0.0000000001
 40
-2.411900190385612
 40
-2.411900190385612
 40
-2.411900190385612
 40
0.0
 40
0.0
 40
0.0
 10
1622.049038104417
 20
2702.791913697764
 30
5.0
 41
1.0
 10
1622.707459753992
 20
2701.781526155122
 30
5.000000000000001
 41
0.9999554337533958
 10
1623.34668695656
 20
2700.758887099321
 30
5.0
 41
1.0
  0
SPLINE
  5
9C
330
1F
100
AcDbEntity
  8
Predefinito
100
AcDbSpline
210
0.0
220
0.0
230
1.0
 70
    12
 71
     2
 72
     6
 73
     3
 74
     0
 42
0.0000000001
 43
0.0000000001
 40
-2.438568025913374
 40
-2.438568025913374
 40
-2.438568025913374
 40
0.0
 40
0.0
 40
0.0
 10
1623.34668695656
 20
2700.758887099321
 30
5.0
 41
1.0
 10
1623.993043859665
 20
2699.724841910936
 30
5.0
 41
0.9998117741070371
 10
1624.598797759421
 20
2698.666499380966
 30
5.0
 41
1.0
  0
SPLINE
  5
9D
330
1F
100
AcDbEntity
  8
Predefinito
100
AcDbSpline
210
0.0
220
0.0
230
1.0
 70
    12
 71
     2
 72
     6
 73
     3
 74
     0
 42
0.0000000001
 43
0.0000000001
 40
-2.332672232249903
 40
-2.332672232249903
 40
-2.332672232249903
 40
0.0
 40
0.0
 40
0.0
 10
1624.598797759421
 20
2698.666499380966
 30
5.0
 41
1.0
 10
1625.178279940184
 20
2697.654057467662
 30
5.0
 41
0.9997253745441369
 10
1625.70968655051
 20
2696.615575286717
 30
5.0
 41
1.0
  0
SPLINE
  5
9E
330
1F
100
AcDbEntity
  8
Predefinito
100
AcDbSpline
210
0.0
220
0.0
230
1.0
 70
    12
 71
     2
 72
     6
 73
     3
 74
     0
 42
0.0000000001
 43
0.0000000001
 40
-2.360301368282427
 40
-2.360301368282427
 40
-2.360301368282427
 40
0.0
 40
0.0
 40
0.0
 10
1625.70968655051
 20
2696.615575286717
 30
5.0
 41
1.0
 10
1626.247494172043
 20
2695.564584160739
 30
5.0
 41
0.9994275974391007
 10
1626.713001153844
 20
2694.479631334777
 30
5.0
 41
1.0
  0
SPLINE
  5
9F
330
1F
100
AcDbEntity
  8
Predefinito
100
AcDbSpline
210
0.0
220
0.0
230
1.0
 70
    12
 71
     2
 72
     6
 73
     3
 74
     0
 42
0.0000000001
 43
0.0000000001
 40
-2.342289097157112
 40
-2.342289097157112
 40
-2.342289097157112
 40
0.0
 40
0.0
 40
0.0
 10
1626.713001153844
 20
2694.479631334777
 30
5.0
 41
1.0
 10
1627.175010760778
 20
2693.402829808133
 30
5.0
 41
0.9992489451028338
 10
1627.552243935627
 20
2692.293483362482
 30
5.0
 41
1.0
  0
SPLINE
  5
A0
330
1F
100
AcDbEntity
  8
Predefinito
100
AcDbSpline
210
0.0
220
0.0
230
1.0
 70
    12
 71
     2
 72
     6
 73
     3
 74
     0
 42
0.0000000001
 43
0.0000000001
 40
-2.368418137550998
 40
-2.368418137550998
 40
-2.368418137550998
 40
0.0
 40
0.0
 40
0.0
 10
1627.552243935627
 20
2692.293483362482
 30
5.0
 41
1.0
 10
1627.933795643322
 20
2691.171437214406
 30
5.0
 41
0.998815526549904
 10
1628.204478277289
 20
2690.017617394968
 30
5.0
 41
1.0
  0
SPLINE
  5
A1
330
1F
100
AcDbEntity
  8
Predefinito
100
AcDbSpline
210
0.0
220
0.0
230
1.0
 70
    12
 71
     2
 72
     6
 73
     3
 74
     0
 42
0.0000000001
 43
0.0000000001
 40
-2.476670559585191
 40
-2.476670559585191
 40
-2.476670559585191
 40
0.0
 40
0.0
 40
0.0
 10
1628.204478277289
 20
2690.017617394968
 30
5.0
 41
1.0
 10
1628.487596617665
 20
2688.810788764759
 30
5.000000000000001
 41
0.9984785003620451
 10
1628.636100859894
 20
2687.580123161361
 30
5.0
 41
1.0
  0
SPLINE
  5
A2
330
1F
100
AcDbEntity
  8
Predefinito
100
AcDbSpline
210
0.0
220
0.0
230
1.0
 70
    12
 71
     2
 72
     6
 73
     3
 74
     0
 42
0.0000000001
 43
0.0000000001
 40
-2.489394601357576
 40
-2.489394601357576
 40
-2.489394601357576
 40
0.0
 40
0.0
 40
0.0
 10
1628.636100859894
 20
2687.580123161361
 30
5.0
 41
1.0
 10
1628.785396039528
 20
2686.34290300138
 30
5.0
 41
0.9981978639035336
 10
1628.785396039529
 20
2685.096707681647
 30
5.0
 41
1.0
  0
SPLINE
  5
A3
330
1F
100
AcDbEntity
  8
Predefinito
100
AcDbSpline
210
0.0
220
0.0
230
1.0
 70
    24
 71
     2
 72
     6
 73
     3
 74
     0
 42
0.0000000001
 43
0.0000000001
 40
0.0
 40
0.0
 40
0.0
 40
15.00000002281755
 40
15.00000002281755
 40
15.00000002281755
 10
1628.785396039529
 20
2685.096707681647
 30
5.0
 10
1628.785195097886
 20
2677.596707680685
 30
5.0
 10
1628.784994156243
 20
2670.096707679723
 30
5.0
  0
SPLINE
  5
A4
330
1F
100
AcDbEntity
  8
Predefinito
100
AcDbSpline
210
0.0
220
0.0
230
1.0
 70
    12
 71
     2
 72
     6
 73
     3
 74
     0
 42
0.0000000001
 43
0.0000000001
 40
0.0
 40
0.0
 40
0.0
 40
19.10323997213998
 40
19.10323997213998
 40
19.10323997213998
 10
1628.784994156243
 20
2670.096707679723
 30
5.0
 41
1.0
 10
1628.785396036838
 20
2660.545083984915
 30
5.000000000000001
 41
0.9999994176752315
 10
1628.76478002336
 20
2650.993479067611
 30
5.0
 41
1.0
  0
SPLINE
  5
A5
330
1F
100
AcDbEntity
  8
Predefinito
100
AcDbSpline
210
0.0
220
0.0
230
1.0
 70
    12
 71
     2
 72
     6
 73
     3
 74
     0
 42
0.0000000001
 43
0.0000000001
 40
0.0
 40
0.0
 40
0.0
 40
19.09950109679981
 40
19.09950109679981
 40
19.09950109679981
 10
1628.76478002336
 20
2650.993479067611
 30
5.0
 41
1.0
 10
1628.744168051302
 20
2641.443746994578
 30
5.0
 41
0.9999999533274615
 10
1628.72939143216
 20
2631.89400509233
 30
5.0
 41
1.0
  0
SPLINE
  5
A6
330
1F
100
AcDbEntity
  8
Predefinito
100
AcDbSpline
210
0.0
220
0.0
230
1.0
 70
    12
 71
     2
 72
     6
 73
     3
 74
     0
 42
0.0000000001
 43
0.0000000001
 40
0.0
 40
0.0
 40
0.0
 40
21.60632265392769
 40
21.60632265392769
 40
21.60632265392769
 10
1628.72939143216
 20
2631.89400509233
 30
5.0
 41
1.0
 10
1628.712675374645
 20
2621.090853861187
 30
5.0
 41
0.9999999516879633
 10
1628.702675515274
 20
2610.287695325531
 30
5.0
 41
1.0
  0
SPLINE
  5
A7
330
1F
100
AcDbEntity
  8
Predefinito
100
AcDbSpline
210
0.0
220
0.0
230
1.0
 70
    12
 71
     2
 72
     6
 73
     3
 74
     0
 42
0.0000000001
 43
0.0000000001
 40
0.0
 40
0.0
 40
0.0
 40
21.60673119512192
 40
21.60673119512192
 40
21.60673119512192
 10
1628.702675515274
 20
2610.287695325531
 30
5.0
 41
1.0
 10
1628.692675467662
 20
2599.484332774579
 30
5.000000000000001
 41
0.9999999871243535
 10
1628.686142697059
 20
2588.680968086813
 30
5.0
 41
1.0
  0
SPLINE
  5
A8
330
1F
100
AcDbEntity
  8
Predefinito
100
AcDbSpline
210
0.0
220
0.0
230
1.0
 70
    12
 71
     2
 72
     6
 73
     3
 74
     0
 42
0.0000000001
 43
0.0000000001
 40
0.0
 40
0.0
 40
0.0
 40
40.51121044528357
 40
40.51121044528357
 40
40.51121044528357
 10
1628.686142697059
 20
2588.680968086813
 30
5.0
 41
1.0
 10
1628.67389417758
 20
2568.425365307011
 30
5.0
 41
0.9999999786844406
 10
1628.67000998731
 20
2548.169759860507
 30
5.0
 41
1.0
  0
SPLINE
  5
A9
330
1F
100
AcDbEntity
  8
Predefinito
100
AcDbSpline
210
0.0
220
0.0
230
1.0
 70
    12
 71
     2
 72
     6
 73
     3
 74
     0
 42
0.0000000001
 43
0.0000000001
 40
0.0
 40
0.0
 40
0.0
 40
40.51150846450876
 40
40.51150846450876
 40
40.51150846450876
 10
1628.67000998731
 20
2548.169759860507
 30
5.0
 41
1.0
 10
1628.666125768927
 20
2527.914005630167
 30
5.0
 41
0.9999999954039074
 10
1628.6661259036
 20
2507.658250144882
 30
5.0
 41
1.0
  0
SPLINE
  5
AA
330
1F
100
AcDbEntity
  8
Predefinito
100
AcDbSpline
210
0.0
220
0.0
230
1.0
 70
    24
 71
     2
 72
     6
 73
     3
 74
     0
 42
0.0000000001
 43
0.0000000001
 40
0.0
 40
0.0
 40
0.0
 40
8.609004778265898
 40
8.609004778265898
 40
8.609004778265898
 10
1628.6661259036
 20
2507.658250144882
 30
5.0
 10
1628.666125970956
 20
2503.353747160265
 30
5.0
 10
1628.666126038311
 20
2499.04924417565
 30
5.0
  0
SPLINE
  5
AB
330
1F
100
AcDbEntity
  8
Predefinito
100
AcDbSpline
210
0.0
220
0.0
230
1.0
 70
    24
 71
     2
 72
     6
 73
     3
 74
     0
 42
0.0000000001
 43
0.0000000001
 40
0.0
 40
0.0
 40
0.0
 40
13.39947309394347
 40
13.39947309394347
 40
13.39947309394347
 10
1628.666126038311
 20
2499.04924417565
 30
5.0
 10
1628.666126038311
 20
2492.349507628678
 30
5.0
 10
1628.666126038311
 20
2485.649771081706
 30
5.0
  0
SPLINE
  5
AC
330
1F
100
AcDbEntity
  8
Predefinito
100
AcDbSpline
210
0.0
220
0.0
230
1.0
 70
    24
 71
     2
 72
     6
 73
     3
 74
     0
 42
0.0000000001
 43
0.0000000001
 40
-13.39947309394302
 40
-13.39947309394302
 40
-13.39947309394302
 40
0.0
 40
0.0
 40
0.0
 10
1625.9661260383
 20
2485.649771081707
 30
5.0
 10
1625.966126038305
 20
2492.349507628678
 30
5.0
 10
1625.966126038311
 20
2499.04924417565
 30
5.0
  0
SPLINE
  5
AD
330
1F
100
AcDbEntity
  8
Predefinito
100
AcDbSpline
210
0.0
220
0.0
230
1.0
 70
    24
 71
     2
 72
     6
 73
     3
 74
     0
 42
0.0000000001
 43
0.0000000001
 40
0.0
 40
0.0
 40
0.0
 40
8.609006006740609
 40
8.609006006740609
 40
8.609006006740609
 10
1625.966126038311
 20
2499.04924417565
 30
5.0
 10
1625.966527854466
 20
2503.353747160265
 30
5.0
 10
1625.966929670621
 20
2507.658250144882
 30
5.0
  0
SPLINE
  5
AE
330
1F
100
AcDbEntity
  8
Predefinito
100
AcDbSpline
210
0.0
220
0.0
230
1.0
 70
    12
 71
     2
 72
     6
 73
     3
 74
     0
 42
0.0000000001
 43
0.0000000001
 40
0.0
 40
0.0
 40
0.0
 40
40.51202839575984
 40
40.51202839575984
 40
40.51202839575984
 10
1625.966929670621
 20
2507.658250144882
 30
5.0
 41
1.0
 10
1625.96733155762
 20
2527.914264400841
 30
5.0
 41
0.9999999954039075
 10
1625.971617571075
 20
2548.170278207343
 30
5.0
 41
1.0
  0
SPLINE
  5
AF
330
1F
100
AcDbEntity
  8
Predefinito
100
AcDbSpline
210
0.0
220
0.0
230
1.0
 70
    12
 71
     2
 72
     6
 73
     3
 74
     0
 42
0.0000000001
 43
0.0000000001
 40
0.0
 40
0.0
 40
0.0
 40
40.51232800978214
 40
40.51232800978214
 40
40.51232800978214
 10
1625.971617571075
 20
2548.170278207343
 30
5.0
 41
1.0
 10
1625.975501796492
 20
2568.42644212767
 30
5.0
 41
0.999999978684438
 10
1625.987750725618
 20
2588.682602716938
 30
5.0
 41
1.0
  0
SPLINE
  5
B0
330
1F
100
AcDbEntity
  8
Predefinito
100
AcDbSpline
210
0.0
220
0.0
230
1.0
 70
    12
 71
     2
 72
     6
 73
     3
 74
     0
 42
0.0000000001
 43
0.0000000001
 40
0.0
 40
0.0
 40
0.0
 40
21.60760123886195
 40
21.60760123886195
 40
21.60760123886195
 10
1625.987750725618
 20
2588.682602716938
 30
5.0
 41
1.0
 10
1625.994283758581
 20
2599.48640145385
 30
5.0
 41
0.9999999871243498
 10
1626.004284208086
 20
2610.290197537601
 30
5.0
 41
1.0
  0
SPLINE
  5
B1
330
1F
100
AcDbEntity
  8
Predefinito
100
AcDbSpline
210
0.0
220
0.0
230
1.0
 70
    12
 71
     2
 72
     6
 73
     3
 74
     0
 42
0.0000000001
 43
0.0000000001
 40
0.0
 40
0.0
 40
0.0
 40
21.60800719097965
 40
21.60800719097965
 40
21.60800719097965
 10
1626.004284208086
 20
2610.290197537601
 30
5.0
 41
1.0
 10
1626.014284846674
 20
2621.09419685256
 30
5.0
 41
0.9999999516879386
 10
1626.031002204183
 20
2631.898187862386
 30
5.0
 41
1.0
  0
SPLINE
  5
B2
330
1F
100
AcDbEntity
  8
Predefinito
100
AcDbSpline
210
0.0
220
0.0
230
1.0
 70
    12
 71
     2
 72
     6
 73
     3
 74
     0
 42
0.0000000001
 43
0.0000000001
 40
0.0
 40
0.0
 40
0.0
 40
19.10115885537272
 40
19.10115885537272
 40
19.10115885537272
 10
1626.031002204183
 20
2631.898187862386
 30
5.0
 41
1.0
 10
1626.045780101018
 20
2641.448756154092
 30
5.0
 41
0.9999999533274253
 10
1626.066393857744
 20
2650.999313632785
 30
5.0
 41
1.0
  0
SPLINE
  5
B3
330
1F
100
AcDbEntity
  8
Predefinito
100
AcDbSpline
210
0.0
220
0.0
230
1.0
 70
    12
 71
     2
 72
     6
 73
     3
 74
     0
 42
0.0000000001
 43
0.0000000001
 40
-19.09740802494003
 40
-19.09740802494003
 40
-19.09740802494003
 40
0.0
 40
0.0
 40
0.0
 10
1626.066393857744
 20
2650.999313632785
 30
5.0
 41
1.0
 10
1626.086601691793
 20
2660.547999969382
 30
5.0
 41
0.999999417674841
 10
1626.086199806691
 20
2670.096707680364
 30
5.0
 41
1.0
  0
SPLINE
  5
B4
330
1F
100
AcDbEntity
  8
Predefinito
100
AcDbSpline
210
0.0
220
0.0
230
1.0
 70
    24
 71
     2
 72
     6
 73
     3
 74
     0
 42
0.0000000001
 43
0.0000000001
 40
0.0
 40
0.0
 40
0.0
 40
15.00000002281756
 40
15.00000002281756
 40
15.00000002281756
 10
1626.086199806691
 20
2670.096707680364
 30
5.0
 10
1626.08579792311
 20
2677.596707681005
 30
5.0
 10
1626.085396039529
 20
2685.096707681647
 30
5.0
  0
SPLINE
  5
B5
330
1F
100
AcDbEntity
  8
Predefinito
100
AcDbSpline
210
0.0
220
0.0
230
1.0
 70
    12
 71
     2
 72
     6
 73
     3
 74
     0
 42
0.0000000001
 43
0.0000000001
 40
-2.165153703388162
 40
-2.165153703388162
 40
-2.165153703388162
 40
0.0
 40
0.0
 40
0.0
 10
1626.085396039529
 20
2685.096707681647
 30
5.0
 41
1.0
 10
1626.085396039528
 20
2686.180587437067
 30
5.0
 41
0.9981978639035517
 10
1625.955546392186
 20
2687.256661037383
 30
5.0
 41
1.0
  0
SPLINE
  5
B6
330
1F
100
AcDbEntity
  8
Predefinito
100
AcDbSpline
210
0.0
220
0.0
230
1.0
 70
    12
 71
     2
 72
     6
 73
     3
 74
     0
 42
0.0000000001
 43
0.0000000001
 40
-2.178750487349794
 40
-2.178750487349794
 40
-2.178750487349794
 40
0.0
 40
0.0
 40
0.0
 10
1625.955546392186
 20
2687.256661037383
 30
5.0
 41
1.0
 10
1625.824905807438
 20
2688.339289194282
 30
5.000000000000001
 41
0.9984785003620867
 10
1625.575843928908
 20
2689.400947740688
 30
5.0
 41
1.0
  0
SPLINE
  5
B7
330
1F
100
AcDbEntity
  8
Predefinito
100
AcDbSpline
210
0.0
220
0.0
230
1.0
 70
    12
 71
     2
 72
     6
 73
     3
 74
     0
 42
0.0000000001
 43
0.0000000001
 40
-2.10556431342216
 40
-2.10556431342216
 40
-2.10556431342216
 40
0.0
 40
0.0
 40
0.0
 10
1625.575843928908
 20
2689.400947740688
 30
5.0
 41
1.0
 10
1625.335202428445
 20
2690.426713333936
 30
5.000000000000001
 41
0.9988155265499077
 10
1624.995996421401
 20
2691.424231588819
 30
5.0
 41
1.0
  0
SPLINE
  5
B8
330
1F
100
AcDbEntity
  8
Predefinito
100
AcDbSpline
210
0.0
220
0.0
230
1.0
 70
    12
 71
     2
 72
     6
 73
     3
 74
     0
 42
0.0000000001
 43
0.0000000001
 40
-2.132987865451069
 40
-2.132987865451069
 40
-2.132987865451069
 40
0.0
 40
0.0
 40
0.0
 10
1624.995996421401
 20
2691.424231588819
 30
5.0
 41
1.0
 10
1624.652471881508
 20
2692.434449546127
 30
5.0
 41
0.9992489451028158
 10
1624.231746324398
 20
2693.415030718886
 30
5.0
 41
1.0
  0
SPLINE
  5
B9
330
1F
100
AcDbEntity
  8
Predefinito
100
AcDbSpline
210
0.0
220
0.0
230
1.0
 70
    12
 71
     2
 72
     6
 73
     3
 74
     0
 42
0.0000000001
 43
0.0000000001
 40
-2.177583819742133
 40
-2.177583819742133
 40
-2.177583819742133
 40
0.0
 40
0.0
 40
0.0
 10
1624.231746324398
 20
2693.415030718886
 30
5.0
 41
1.0
 10
1623.802275543604
 20
2694.415994303768
 30
4.999999999999999
 41
0.9994275974391038
 10
1623.306101118371
 20
2695.385625259111
 30
5.0
 41
1.0
  0
SPLINE
  5
BA
330
1F
100
AcDbEntity
  8
Predefinito
100
AcDbSpline
210
0.0
220
0.0
230
1.0
 70
    12
 71
     2
 72
     6
 73
     3
 74
     0
 42
0.0000000001
 43
0.0000000001
 40
-2.206114380997753
 40
-2.206114380997753
 40
-2.206114380997753
 40
0.0
 40
0.0
 40
0.0
 10
1623.306101118371
 20
2695.385625259111
 30
5.0
 41
1.0
 10
1622.803525681931
 20
2696.367765159487
 30
5.0
 41
0.9997253745441381
 10
1622.255482988731
 20
2697.325277592646
 30
5.0
 41
1.0
  0
SPLINE
  5
BB
330
1F
100
AcDbEntity
  8
Predefinito
100
AcDbSpline
210
0.0
220
0.0
230
1.0
 70
    12
 71
     2
 72
     6
 73
     3
 74
     0
 42
0.0000000001
 43
0.0000000001
 40
-2.33379360888021
 40
-2.33379360888021
 40
-2.33379360888021
 40
0.0
 40
0.0
 40
0.0
 10
1622.255482988731
 20
2697.325277592646
 30
5.0
 41
1.0
 10
1621.675755638588
 20
2698.338147853472
 30
4.999999999999999
 41
0.9998117741070449
 10
1621.057169815477
 20
2699.327764721364
 30
5.0
 41
1.0
  0
SPLINE
  5
BC
330
1F
100
AcDbEntity
  8
Predefinito
100
AcDbSpline
210
0.0
220
0.0
230
1.0
 70
    12
 71
     2
 72
     6
 73
     3
 74
     0
 42
0.0000000001
 43
0.0000000001
 40
-2.360918597554468
 40
-2.360918597554468
 40
-2.360918597554468
 40
0.0
 40
0.0
 40
0.0
 10
1621.057169815477
 20
2699.327764721364
 30
5.0
 41
1.0
 10
1620.431454291831
 20
2700.32878772184
 30
5.0
 41
0.9999554337534022
 10
1619.786950044223
 20
2701.317818175782
 30
5.0
 41
1.0
  0
SPLINE
  5
BD
330
1F
100
AcDbEntity
  8
Predefinito
100
AcDbSpline
210
0.0
220
0.0
230
1.0
 70
    12
 71
     2
 72
     6
 73
     3
 74
     0
 42
0.0000000001
 43
0.0000000001
 40
-2.469709320371384
 40
-2.469709320371384
 40
-2.469709320371384
 40
0.0
 40
0.0
 40
0.0
 10
1619.786950044223
 20
2701.317818175782
 30
5.0
 41
1.0
 10
1619.11276183671
 20
2702.35240044796
 30
5.0
 41
0.999988104743446
 10
1618.428513400063
 20
2703.380356815711
 30
5.0
 41
1.0
  0
SPLINE
  5
BE
330
1F
100
AcDbEntity
  8
Predefinito
100
AcDbSpline
210
0.0
220
0.0
230
1.0
 70
    12
 71
     2
 72
     6
 73
     3
 74
     0
 42
0.0000000001
 43
0.0000000001
 40
0.0
 40
0.0
 40
0.0
 40
2.496689530681316
 40
2.496689530681316
 40
2.496689530681316
 10
1618.428513400063
 20
2703.380356815711
 30
5.0
 41
1.0
 10
1617.736789378083
 20
2704.41954386392
 30
5.0
 41
0.9999869141004948
 10
1617.055734014566
 20
2705.465753898082
 30
5.0
 41
1.0
  0
SPLINE
  5
BF
330
1F
100
AcDbEntity
  8
Predefinito
100
AcDbSpline
210
0.0
220
0.0
230
1.0
 70
    12
 71
     2
 72
     6
 73
     3
 74
     0
 42
0.0000000001
 43
0.0000000001
 40
0.0
 40
0.0
 40
0.0
 40
2.414282608064657
 40
2.414282608064657
 40
2.414282608064657
 10
1617.055734014566
 20
2705.465753898082
 30
5.0
 41
1.0
 10
1616.39714304001
 20
2706.477455035605
 30
5.0
 41
0.9999530963879729
 10
1615.758271961359
 20
2707.501723070982
 30
5.0
 41
1.0
  0
SPLINE
  5
C0
330
1F
100
AcDbEntity
  8
Predefinito
100
AcDbSpline
210
0.0
220
0.0
230
1.0
 70
    12
 71
     2
 72
     6
 73
     3
 74
     0
 42
0.0000000001
 43
0.0000000001
 40
0.0
 40
0.0
 40
0.0
 40
2.441047037265297
 40
2.441047037265297
 40
2.441047037265297
 10
1615.758271961359
 20
2707.501723070982
 30
5.0
 41
1.0
 10
1615.112255193949
 20
2708.537447409249
 30
5.000000000000001
 41
0.9998062606832002
 10
1614.507504522791
 20
2709.597796028519
 30
5.0
 41
1.0
  0
SPLINE
  5
C1
330
1F
100
AcDbEntity
  8
Predefinito
100
AcDbSpline
210
0.0
220
0.0
230
1.0
 70
    12
 71
     2
 72
     6
 73
     3
 74
     0
 42
0.0000000001
 43
0.0000000001
 40
0.0
 40
0.0
 40
0.0
 40
2.337121324876459
 40
2.337121324876459
 40
2.337121324876459
 10
1614.507504522791
 20
2709.597796028519
 30
5.0
 41
1.0
 10
1613.928466562899
 20
2710.613060881552
 30
5.0
 41
0.99971798358022
 10
1613.398288517285
 20
2711.654674495495
 30
5.0
 41
1.0
  0
SPLINE
  5
C2
330
1F
100
AcDbEntity
  8
Predefinito
100
AcDbSpline
210
0.0
220
0.0
230
1.0
 70
    12
 71
     2
 72
     6
 73
     3
 74
     0
 42
0.0000000001
 43
0.0000000001
 40
0.0
 40
0.0
 40
0.0
 40
2.364889977811542
 40
2.364889977811542
 40
2.364889977811542
 10
1613.398288517285
 20
2711.654674495495
 30
5.0
 41
1.0
 10
1612.861702722403
 20
2712.708877085773
 30
5.0
 41
0.9994150763500832
 10
1612.398433133101
 20
2713.797292771183
 30
5.0
 41
1.0
  0
SPLINE
  5
C3
330
1F
100
AcDbEntity
  8
Predefinito
100
AcDbSpline
210
0.0
220
0.0
230
1.0
 70
    12
 71
     2
 72
     6
 73
     3
 74
     0
 42
0.0000000001
 43
0.0000000001
 40
0.0
 40
0.0
 40
0.0
 40
2.347559483049648
 40
2.347559483049648
 40
2.347559483049648
 10
1612.398433133101
 20
2713.797292771183
 30
5.0
 41
1.0
 10
1611.938502788247
 20
2714.877863162795
 30
5.0
 41
0.9992335338149112
 10
1611.564515384501
 20
2715.991102452071
 30
5.0
 41
1.0
  0
SPLINE
  5
C4
330
1F
100
AcDbEntity
  8
Predefinito
100
AcDbSpline
210
0.0
220
0.0
230
1.0
 70
    12
 71
     2
 72
     6
 73
     3
 74
     0
 42
0.0000000001
 43
0.0000000001
 40
0.0
 40
0.0
 40
0.0
 40
2.373650497117807
 40
2.373650497117807
 40
2.373650497117807
 10
1611.564515384501
 20
2715.991102452071
 30
5.0
 41
1.0
 10
1611.1862611875
 20
2717.117042601975
 30
5.0
 41
0.9987967724954714
 10
1610.920127697671
 20
2718.274622156179
 30
5.0
 41
1.0
  0
SPLINE
  5
C5
330
1F
100
AcDbEntity
  8
Predefinito
100
AcDbSpline
210
0.0
220
0.0
230
1.0
 70
    12
 71
     2
 72
     6
 73
     3
 74
     0
 42
0.0000000001
 43
0.0000000001
 40
0.0
 40
0.0
 40
0.0
 40
2.425167727434738
 40
2.425167727434738
 40
2.425167727434738
 10
1610.920127697671
 20
2718.274622156179
 30
5.0
 41
1.0
 10
1610.648169915529
 20
2719.457535168803
 30
4.999999999999999
 41
0.9985314319357212
 10
1610.505789979182
 20
2720.662928127315
 30
5.0
 41
1.0
  0
SPLINE
  5
C6
330
1F
100
AcDbEntity
  8
Predefinito
100
AcDbSpline
210
0.0
220
0.0
230
1.0
 70
    12
 71
     2
 72
     6
 73
     3
 74
     0
 42
0.0000000001
 43
0.0000000001
 40
0.0
 40
0.0
 40
0.0
 40
2.437153609355465
 40
2.437153609355465
 40
2.437153609355465
 10
1610.505789979182
 20
2720.662928127315
 30
5.0
 41
1.0
 10
1610.362681611517
 20
2721.874488007937
 30
4.999999999999999
 41
0.9982725324960108
 10
1610.362681611518
 20
2723.094470527987
 30
5.0
 41
1.0
  0
SPLINE
  5
C7
330
1F
100
AcDbEntity
  8
Predefinito
100
AcDbSpline
210
0.0
220
0.0
230
1.0
 70
    24
 71
     2
 72
     6
 73
     3
 74
     0
 42
0.0000000001
 43
0.0000000001
 40
0.0
 40
0.0
 40
0.0
 40
18.49999999999864
 40
18.49999999999864
 40
18.49999999999864
 10
1610.362681611518
 20
2723.094470527987
 30
5.0
 10
1610.362681611518
 20
2732.344470527987
 30
5.0
 10
1610.362681611518
 20
2741.594470527986
 30
5.0
  0
SPLINE
  5
C8
330
1F
100
AcDbEntity
  8
Predefinito
100
AcDbSpline
210
0.0
220
0.0
230
1.0
 70
    12
 71
     2
 72
     6
 73
     3
 74
     0
 42
0.0000000001
 43
0.0000000001
 40
0.0
 40
0.0
 40
0.0
 40
1.552122167582507
 40
1.552122167582507
 40
1.552122167582507
 10
1341.11165435714
 20
2281.904549532569
 30
5.0
 41
1.0
 10
1340.737671632217
 20
2282.811589304094
 30
5.0
 41
0.714063686725569
 10
1341.637138960915
 20
2283.203434618314
 30
5.0
 41
1.0
  0
SPLINE
  5
C9
330
1F
100
AcDbEntity
  8
Predefinito
100
AcDbSpline
210
0.0
220
0.0
230
1.0
 70
    12
 71
     2
 72
     6
 73
     3
 74
     0
 42
0.0000000001
 43
0.0000000001
 40
0.0
 40
0.0
 40
0.0
 40
1.552221278102456
 40
1.552221278102456
 40
1.552221278102456
 10
1351.298006625626
 20
2287.404099431789
 30
5.0
 41
1.0
 10
1352.198135335908
 20
2287.794988741898
 30
5.0
 41
0.7139005903856771
 10
1352.606331557346
 20
2286.902575164774
 30
5.0
 41
1.0
  0
SPLINE
  5
CA
330
1F
100
AcDbEntity
  8
Predefinito
100
AcDbSpline
210
0.0
220
0.0
230
1.0
 70
    24
 71
     2
 72
     6
 73
     3
 74
     0
 42
0.0000000001
 43
0.0000000001
 40
0.0
 40
0.0
 40
0.0
 40
0.915846699135319
 40
0.915846699135319
 40
0.915846699135319
 10
1341.462488648333
 20
2281.057559435973
 30
5.0
 10
1341.28724896916
 20
2281.480625446097
 30
5.0
 10
1341.112009289987
 20
2281.903691456222
 30
5.0
  0
SPLINE
  5
CB
330
1F
100
AcDbEntity
  8
Predefinito
100
AcDbSpline
210
0.0
220
0.0
230
1.0
 70
    24
 71
     2
 72
     6
 73
     3
 74
     0
 42
0.0000000001
 43
0.0000000001
 40
0.0
 40
0.0
 40
0.0
 40
0.915846699135931
 40
0.915846699135931
 40
0.915846699135931
 10
1352.606716172767
 20
2286.901732255404
 30
5.0
 10
1352.796613891488
 20
2286.485039742267
 30
5.0
 10
1352.986511610208
 20
2286.06834722913
 30
5.0
  0
SPLINE
  5
CC
330
1F
100
AcDbEntity
  8
Predefinito
100
AcDbSpline
210
0.0
220
0.0
230
1.0
 70
    12
 71
     2
 72
     6
 73
     3
 74
     0
 42
0.0000000001
 43
0.0000000001
 40
0.0
 40
0.0
 40
0.0
 40
1.51790860931105
 40
1.51790860931105
 40
1.51790860931105
 10
1343.55672642559
 20
2280.365958210721
 30
5.0
 41
1.0
 10
1344.311286747065
 20
2280.131464445326
 30
5.0
 41
0.9418046425167546
 10
1345.043790752957
 20
2280.427752288659
 30
5.0
 41
1.0
  0
SPLINE
  5
CD
330
1F
100
AcDbEntity
  8
Predefinito
100
AcDbSpline
210
0.0
220
0.0
230
1.0
 70
    12
 71
     2
 72
     6
 73
     3
 74
     0
 42
0.0000000001
 43
0.0000000001
 40
0.0
 40
0.0
 40
0.0
 40
2.205531297322872
 40
2.205531297322872
 40
2.205531297322872
 10
1341.462488714483
 20
2281.057559411551
 30
5.0
 41
1.0
 10
1342.502685539283
 20
2280.690948913163
 30
4.999999999999999
 41
0.9998023174421921
 10
1343.556635540383
 20
2280.365984165797
 30
5.0
 41
1.0
  0
SPLINE
  5
CE
330
1F
100
AcDbEntity
  8
Predefinito
100
AcDbSpline
210
0.0
220
0.0
230
1.0
 70
    12
 71
     2
 72
     6
 73
     3
 74
     0
 42
0.0000000001
 43
0.0000000001
 40
0.0
 40
0.0
 40
0.0
 40
2.205530080464224
 40
2.205530080464224
 40
2.205530080464224
 10
1352.064092997862
 20
2284.065131947718
 30
5.0
 41
1.0
 10
1352.54513741324
 20
2285.057606095962
 30
5.0
 41
0.9998039725690618
 10
1352.986511582955
 20
2286.068347164094
 30
5.0
 41
1.0
  0
SPLINE
  5
CF
330
1F
100
AcDbEntity
  8
Predefinito
100
AcDbSpline
210
0.0
220
0.0
230
1.0
 70
    12
 71
     2
 72
     6
 73
     3
 74
     0
 42
0.0000000001
 43
0.0000000001
 40
0.0
 40
0.0
 40
0.0
 40
1.518050643092525
 40
1.518050643092525
 40
1.518050643092525
 10
1351.00468123646
 20
2283.019621236673
 30
5.0
 41
1.0
 10
1351.721417252143
 20
2283.352788277163
 30
5.0
 41
0.9415315881090632
 10
1352.064049996671
 20
2284.065047777223
 30
5.0
 41
1.0
  0
SPLINE
  5
D0
330
1F
100
AcDbEntity
  8
Predefinito
100
AcDbSpline
210
0.0
220
0.0
230
1.0
 70
    24
 71
     2
 72
     6
 73
     3
 74
     0
 42
0.0000000001
 43
0.0000000001
 40
0.0
 40
0.0
 40
0.0
 40
1.983624610900222
 40
1.983624610900222
 40
1.983624610900222
 10
1349.448018035022
 20
2286.599701499059
 30
5.0
 10
1350.357569501634
 20
2286.995185732406
 30
5.0
 10
1351.267120968246
 20
2287.390669965753
 30
5.0
  0
SPLINE
  5
D1
330
1F
100
AcDbEntity
  8
Predefinito
100
AcDbSpline
210
0.0
220
0.0
230
1.0
 70
    24
 71
     2
 72
     6
 73
     3
 74
     0
 42
0.0000000001
 43
0.0000000001
 40
0.0
 40
0.0
 40
0.0
 40
6.500000000000032
 40
6.500000000000032
 40
6.500000000000032
 10
1343.487127551518
 20
2284.007832551045
 30
5.0
 10
1346.46757279327
 20
2285.303767025052
 30
5.0
 10
1349.448018035022
 20
2286.599701499059
 30
5.0
  0
SPLINE
  5
D2
330
1F
100
AcDbEntity
  8
Predefinito
100
AcDbSpline
210
0.0
220
0.0
230
1.0
 70
    12
 71
     2
 72
     8
 73
     5
 74
     0
 42
0.0000000001
 43
0.0000000001
 40
0.0
 40
0.0
 40
0.0
 40
0.0336781143269036
 40
0.0336781143269036
 40
3.202449843458063
 40
3.202449843458063
 40
3.202449843458063
 10
1341.668024629354
 20
2283.216864071357
 30
5.0
 41
1.0
 10
1341.652582202339
 20
2283.210149512992
 30
5.0
 41
1.0
 10
1341.637139775324
 20
2283.203434954627
 30
5.0
 41
1.0
 10
1341.637139753573
 20
2283.203434962972
 30
5.0
 41
0.707106781186548
 10
1343.487127551518
 20
2284.007832551045
 30
5.0
 41
1.0
  0
SPLINE
  5
D3
330
1F
100
AcDbEntity
  8
Predefinito
100
AcDbSpline
210
0.0
220
0.0
230
1.0
 70
    24
 71
     2
 72
     6
 73
     3
 74
     0
 42
0.0000000001
 43
0.0000000001
 40
0.0
 40
0.0
 40
0.0
 40
6.499999999999616
 40
6.499999999999616
 40
6.499999999999616
 10
1345.043790752957
 20
2280.427752288659
 30
5.0
 10
1348.024235994708
 20
2281.723686762666
 30
5.0
 10
1351.00468123646
 20
2283.019621236673
 30
5.0
  0
SPLINE
  5
D4
330
1F
100
AcDbEntity
  8
Predefinito
100
AcDbSpline
210
0.0
220
0.0
230
1.0
 70
    24
 71
     2
 72
     6
 73
     3
 74
     0
 42
0.0000000001
 43
0.0000000001
 40
0.0
 40
0.0
 40
0.0
 40
26.80000000000018
 40
26.80000000000018
 40
26.80000000000018
 10
1355.998254052758
 20
2783.094470527986
 30
5.0
 10
1355.998254052758
 20
2769.694470527986
 30
5.0
 10
1355.998254052758
 20
2756.294470527986
 30
5.0
  0
SPLINE
  5
D5
330
1F
100
AcDbEntity
  8
Predefinito
100
AcDbSpline
210
0.0
220
0.0
230
1.0
 70
    24
 71
     2
 72
     6
 73
     3
 74
     0
 42
0.0000000001
 43
0.0000000001
 40
0.0
 40
0.0
 40
0.0
 40
5.949916105249713
 40
5.949916105249713
 40
5.949916105249713
 10
1347.048337947508
 20
2744.094470527986
 30
5.0
 10
1350.023296000133
 20
2744.094470527986
 30
5.0
 10
1352.998254052758
 20
2744.094470527986
 30
5.0
  0
SPLINE
  5
D6
330
1F
100
AcDbEntity
  8
Predefinito
100
AcDbSpline
210
0.0
220
0.0
230
1.0
 70
    24
 71
     2
 72
     6
 73
     3
 74
     0
 42
0.0000000001
 43
0.0000000001
 40
0.0
 40
0.0
 40
0.0
 40
12.0
 40
12.0
 40
12.0
 10
1343.998254052758
 20
2754.094470527986
 30
5.0
 10
1349.998254052758
 20
2754.094470527986
 30
5.0
 10
1355.998254052758
 20
2754.094470527986
 30
5.0
  0
SPLINE
  5
D7
330
1F
100
AcDbEntity
  8
Predefinito
100
AcDbSpline
210
0.0
220
0.0
230
1.0
 70
    24
 71
     2
 72
     6
 73
     3
 74
     0
 42
0.0000000001
 43
0.0000000001
 40
0.0
 40
0.0
 40
0.0
 40
15.96763926890276
 40
15.96763926890276
 40
15.96763926890276
 10
1342.030614783855
 20
2783.094470527986
 30
5.0
 10
1350.014434418307
 20
2783.094470527986
 30
5.0
 10
1357.998254052758
 20
2783.094470527986
 30
5.0
  0
SPLINE
  5
D8
330
1F
100
AcDbEntity
  8
Predefinito
100
AcDbSpline
210
0.0
220
0.0
230
1.0
 70
    24
 71
     2
 72
     6
 73
     3
 74
     0
 42
0.0000000001
 43
0.0000000001
 40
0.0
 40
0.0
 40
0.0
 40
26.80000000000018
 40
26.80000000000018
 40
26.80000000000018
 10
1343.998254052758
 20
2783.094470527986
 30
5.0
 10
1343.998254052758
 20
2769.694470527986
 30
5.0
 10
1343.998254052758
 20
2756.294470527986
 30
5.0
  0
SPLINE
  5
D9
330
1F
100
AcDbEntity
  8
Predefinito
100
AcDbSpline
210
0.0
220
0.0
230
1.0
 70
    24
 71
     2
 72
     6
 73
     3
 74
     0
 42
0.0000000001
 43
0.0000000001
 40
0.0
 40
0.0
 40
0.0
 40
10.0
 40
10.0
 40
10.0
 10
1346.998254052758
 20
2744.094470527986
 30
5.0
 10
1346.998254052758
 20
2749.094470527986
 30
5.0
 10
1346.998254052758
 20
2754.094470527986
 30
5.0
  0
SPLINE
  5
DA
330
1F
100
AcDbEntity
  8
Predefinito
100
AcDbSpline
210
0.0
220
0.0
230
1.0
 70
    24
 71
     2
 72
     6
 73
     3
 74
     0
 42
0.0000000001
 43
0.0000000001
 40
0.0
 40
0.0
 40
0.0
 40
10.0
 40
10.0
 40
10.0
 10
1352.998254052758
 20
2754.094470527986
 30
5.0
 10
1352.998254052758
 20
2749.094470527986
 30
5.0
 10
1352.998254052758
 20
2744.094470527986
 30
5.0
  0
SPLINE
  5
DB
330
1F
100
AcDbEntity
  8
Predefinito
100
AcDbSpline
210
0.0
220
0.0
230
1.0
 70
    24
 71
     2
 72
     6
 73
     3
 74
     0
 42
0.0000000001
 43
0.0000000001
 40
0.0
 40
0.0
 40
0.0
 40
2.0
 40
2.0
 40
2.0
 10
1343.998254052758
 20
2754.094470527986
 30
5.0
 10
1343.998254052758
 20
2755.094470527986
 30
5.0
 10
1343.998254052758
 20
2756.094470527986
 30
5.0
  0
SPLINE
  5
DC
330
1F
100
AcDbEntity
  8
Predefinito
100
AcDbSpline
210
0.0
220
0.0
230
1.0
 70
    24
 71
     2
 72
     6
 73
     3
 74
     0
 42
0.0000000001
 43
0.0000000001
 40
0.0
 40
0.0
 40
0.0
 40
2.0
 40
2.0
 40
2.0
 10
1355.998254052758
 20
2756.094470527986
 30
5.0
 10
1355.998254052758
 20
2755.094470527986
 30
5.0
 10
1355.998254052758
 20
2754.094470527986
 30
5.0
  0
SPLINE
  5
DD
330
1F
100
AcDbEntity
  8
Predefinito
100
AcDbSpline
210
0.0
220
0.0
230
1.0
 70
    24
 71
     2
 72
     6
 73
     3
 74
     0
 42
0.0000000001
 43
0.0000000001
 40
0.0
 40
0.0
 40
0.0
 40
12.0
 40
12.0
 40
12.0
 10
1343.998254052758
 20
2756.094470527986
 30
5.0
 10
1349.998254052758
 20
2756.094470527986
 30
5.0
 10
1355.998254052758
 20
2756.094470527986
 30
5.0
  0
SPLINE
  5
DE
330
1F
100
AcDbEntity
  8
Predefinito
100
AcDbSpline
210
0.0
220
0.0
230
1.0
 70
    24
 71
     2
 72
     6
 73
     3
 74
     0
 42
0.0000000001
 43
0.0000000001
 40
0.0
 40
0.0
 40
0.0
 40
0.1999999999998181
 40
0.1999999999998181
 40
0.1999999999998181
 10
1344.298254052758
 20
2756.094470527986
 30
5.0
 10
1344.298254052758
 20
2756.194470527986
 30
5.0
 10
1344.298254052758
 20
2756.294470527986
 30
5.0
  0
SPLINE
  5
DF
330
1F
100
AcDbEntity
  8
Predefinito
100
AcDbSpline
210
0.0
220
0.0
230
1.0
 70
    24
 71
     2
 72
     6
 73
     3
 74
     0
 42
0.0000000001
 43
0.0000000001
 40
0.0
 40
0.0
 40
0.0
 40
0.1999999999998181
 40
0.1999999999998181
 40
0.1999999999998181
 10
1355.698254052758
 20
2756.294470527986
 30
5.0
 10
1355.698254052758
 20
2756.194470527986
 30
5.0
 10
1355.698254052758
 20
2756.094470527986
 30
5.0
  0
SPLINE
  5
E0
330
1F
100
AcDbEntity
  8
Predefinito
100
AcDbSpline
210
0.0
220
0.0
230
1.0
 70
    24
 71
     2
 72
     6
 73
     3
 74
     0
 42
0.0000000001
 43
0.0000000001
 40
0.0
 40
0.0
 40
0.0
 40
12.0
 40
12.0
 40
12.0
 10
1355.998254052758
 20
2756.294470527986
 30
5.0
 10
1349.998254052758
 20
2756.294470527986
 30
5.0
 10
1343.998254052758
 20
2756.294470527986
 30
5.0
  0
SPLINE
  5
E1
330
1F
100
AcDbEntity
  8
Predefinito
100
AcDbSpline
210
0.0
220
0.0
230
1.0
 70
    24
 71
     2
 72
     6
 73
     3
 74
     0
 42
0.0000000001
 43
0.0000000001
 40
0.0
 40
0.0
 40
0.0
 40
2.0
 40
2.0
 40
2.0
 10
1341.998254052758
 20
2783.094470527986
 30
5.0
 10
1341.998254052758
 20
2784.094470527986
 30
5.0
 10
1341.998254052758
 20
2785.094470527986
 30
5.0
  0
SPLINE
  5
E2
330
1F
100
AcDbEntity
  8
Predefinito
100
AcDbSpline
210
0.0
220
0.0
230
1.0
 70
    24
 71
     2
 72
     6
 73
     3
 74
     0
 42
0.0000000001
 43
0.0000000001
 40
0.0
 40
0.0
 40
0.0
 40
2.0
 40
2.0
 40
2.0
 10
1357.998254052758
 20
2785.094470527986
 30
5.0
 10
1357.998254052758
 20
2784.094470527986
 30
5.0
 10
1357.998254052758
 20
2783.094470527986
 30
5.0
  0
SPLINE
  5
E3
330
1F
100
AcDbEntity
  8
Predefinito
100
AcDbSpline
210
0.0
220
0.0
230
1.0
 70
    24
 71
     2
 72
     6
 73
     3
 74
     0
 42
0.0000000001
 43
0.0000000001
 40
0.0
 40
0.0
 40
0.0
 40
15.96763926890276
 40
15.96763926890276
 40
15.96763926890276
 10
1342.030614783855
 20
2785.094470527986
 30
5.0
 10
1350.014434418307
 20
2785.094470527986
 30
5.0
 10
1357.998254052758
 20
2785.094470527986
 30
5.0
  0
SPLINE
  5
E4
330
1F
100
AcDbEntity
  8
Predefinito
100
AcDbSpline
210
0.0
220
0.0
230
1.0
 70
    12
 71
     2
 72
     6
 73
     3
 74
     0
 42
0.0000000001
 43
0.0000000001
 40
0.0
 40
0.0
 40
0.0
 40
0.1717028957273642
 40
0.1717028957273642
 40
0.1717028957273642
 10
1349.598254052758
 20
2286.83895092872
 30
5.0
 41
1.0
 10
1349.598254052758
 20
2286.753071483825
 30
4.999999999999999
 41
0.9995110659370268
 10
1349.603621822579
 20
2286.667359955414
 30
5.0
 41
1.0
  0
SPLINE
  5
E5
330
1F
100
AcDbEntity
  8
Predefinito
100
AcDbSpline
210
0.0
220
0.0
230
1.0
 70
    24
 71
     2
 72
     6
 73
     3
 74
     0
 42
0.0000000001
 43
0.0000000001
 40
0.0
 40
0.0
 40
0.0
 40
457.0815946492821
 40
457.0815946492821
 40
457.0815946492821
 10
1350.398254052758
 20
2744.094470527986
 30
5.0
 10
1350.398254052758
 20
2515.553673203345
 30
5.0
 10
1350.398254052758
 20
2287.012875878704
 30
5.0
  0
SPLINE
  5
E6
330
1F
100
AcDbEntity
  8
Predefinito
100
AcDbSpline
210
0.0
220
0.0
230
1.0
 70
    24
 71
     2
 72
     6
 73
     3
 74
     0
 42
0.0000000001
 43
0.0000000001
 40
0.0
 40
0.0
 40
0.0
 40
457.2555195992663
 40
457.2555195992663
 40
457.2555195992663
 10
1349.598254052758
 20
2286.83895092872
 30
5.0
 10
1349.598254052758
 20
2515.466710728353
 30
5.0
 10
1349.598254052758
 20
2744.094470527986
 30
5.0
  0
POLYLINE
  5
E7
330
1F
100
AcDbEntity
  8
Predefinito
100
AcDb2dPolyline
 66
     1
 10
0.0
 20
0.0
 30
5.0
  0
VERTEX
  5
E8
330
E7
100
AcDbEntity
  8
Predefinito
100
AcDbVertex
100
AcDb2dVertex
 10
126.7905484205396
 20
1626.083432946945
 30
5.0
  0
VERTEX
  5
E9
330
E7
100
AcDbEntity
  8
Predefinito
100
AcDbVertex
100
AcDb2dVertex
 10
126.7904541079994
 20
2298.1455184284
 30
5.0
  0
SEQEND
  5
EA
330
E7
100
AcDbEntity
  8
Predefinito
  0
SPLINE
  5
EB
330
1F
100
AcDbEntity
  8
Predefinito
100
AcDbSpline
210
0.0
220
0.0
230
1.0
 70
    12
 71
     2
 72
    20
 73
    17
 74
     0
 42
0.0000000001
 43
0.0000000001
 40
0.0
 40
0.0
 40
0.0
 40
1.337961041356906
 40
1.337961041356906
 40
8.610689378146914
 40
8.610689378146914
 40
15.88527559427776
 40
15.88527559427776
 40
18.93589671435404
 40
18.93589671435404
 40
21.98651783437609
 40
21.98651783437609
 40
29.26085751010309
 40
29.26085751010309
 40
36.53501839771697
 40
36.53501839771697
 40
37.82271515553857
 40
37.82271515553857
 40
37.82271515553857
 10
109.7844400632963
 20
2298.096309545009
 30
5.0
 41
1.0
 10
109.7791252262145
 20
2298.769149318463
 30
4.999999999999999
 41
0.9913722269618869
 10
109.9488584561415
 20
2299.420250108581
 30
5.0
 41
1.0
 10
110.8512894701512
 20
2302.951049768626
 30
5.0
 41
0.9967364884737218
 10
112.3101399052858
 20
2306.290613120668
 30
5.0
 41
1.0
 10
113.7714641347123
 20
2309.629588141723
 30
5.000000000000001
 41
0.9969328010203857
 10
115.7359159975409
 20
2312.69962911431
 30
5.0
 41
1.0
 10
116.6153941543256
 20
2314.1215471276
 30
4.999999999999999
 41
0.8735065337193679
 10
118.2873189925832
 20
2314.121547127608
 30
5.0
 41
1.0
 10
119.959243830805
 20
2314.1215471276
 30
5.0
 41
0.8735065337238227
 10
120.8387219875968
 20
2312.699629114356
 30
5.0
 41
1.0
 10
122.8031144050681
 20
2309.629696894668
 30
4.999999999999999
 41
0.9969328507952142
 10
124.2644011346826
 20
2306.290840429178
 30
5.0
 41
1.0
 10
125.7233233763321
 20
2302.950564165881
 30
5.0
 41
0.9967511560763251
 10
126.6269952778035
 20
2299.419377861419
 30
5.0
 41
1.0
 10
126.7892644637372
 20
2298.792782830498
 30
4.999999999999999
 41
0.9920998125478376
 10
126.7904541079994
 20
2298.1455184284
 30
5.0
 41
1.0
  0
SPLINE
  5
EC
330
1F
100
AcDbEntity
  8
Predefinito
100
AcDbSpline
210
0.0
220
0.0
230
1.0
 70
    12
 71
     2
 72
     6
 73
     3
 74
     0
 42
0.0000000001
 43
0.0000000001
 40
0.0
 40
0.0
 40
0.0
 40
8.816006761313705
 40
8.816006761313705
 40
8.816006761313705
 10
107.2071100492254
 20
2310.917071519262
 30
5.0
 41
1.0
 10
106.4001716532305
 20
2306.581708412157
 30
5.000000000000001
 41
0.9993817902895459
 10
105.899879121311
 20
2302.200358137653
 30
5.0
 41
1.0
  0
SPLINE
  5
ED
330
1F
100
AcDbEntity
  8
Predefinito
100
AcDbSpline
210
0.0
220
0.0
230
1.0
 70
    12
 71
     2
 72
     6
 73
     3
 74
     0
 42
0.0000000001
 43
0.0000000001
 40
0.0
 40
0.0
 40
0.0
 40
9.027836317619036
 40
9.027836317619036
 40
9.027836317619036
 10
103.2150169012594
 20
2302.486580106737
 30
5.0
 41
1.0
 10
103.7266240926668
 20
2306.97329446947
 30
5.0
 41
0.9993787781129692
 10
104.553013055525
 20
2311.412824734388
 30
5.0
 41
1.0
  0
SPLINE
  5
EE
330
1F
100
AcDbEntity
  8
Predefinito
100
AcDbSpline
210
0.0
220
0.0
230
1.0
 70
    12
 71
     2
 72
    12
 73
     9
 74
     0
 42
0.0000000001
 43
0.0000000001
 40
0.0
 40
0.0
 40
0.0
 40
97.48561642305881
 40
97.48561642305881
 40
194.9712328461176
 40
194.9712328461176
 40
292.4568492691764
 40
292.4568492691764
 40
389.9424656922353
 40
389.9424656922353
 40
389.9424656922353
 10
1532.003872946412
 20
181.9565321423021
 30
0.0
 41
1.0
 10
1504.18373994197
 20
138.3771518487042
 30
0.0
 41
0.9163105686564637
 10
1517.27011751456
 20
88.35846624835605
 30
0.0
 41
1.0
 10
1530.356495087151
 20
38.33978064800787
 30
0.0
 41
0.9163105686564637
 10
1575.954475072117
 20
13.96876490287406
 30
0.0
 41
1.0
 10
1621.552455057082
 20
-10.40225084225975
 30
0.0
 41
0.9163105686564637
 10
1670.410943915028
 20
6.508404191677791
 30
0.0
 41
1.0
 10
1719.269432772974
 20
23.41905922561532
 30
0.0
 41
0.9163105686564637
 10
1740.045721281947
 20
70.7632037732867
 30
0.0
 41
1.0
  0
SPLINE
  5
EF
330
1F
100
AcDbEntity
  8
Predefinito
100
AcDbSpline
210
0.0
220
0.0
230
1.0
 70
    12
 71
     2
 72
     8
 73
     5
 74
     0
 42
0.0000000001
 43
0.0000000001
 40
0.0
 40
0.0
 40
0.0
 40
176.6712248038117
 40
176.6712248038117
 40
353.3424496076233
 40
353.3424496076233
 40
353.3424496076233
 10
1740.045721281947
 20
70.76320377328659
 30
0.0
 41
1.0
 10
1784.033862670612
 20
171.0202655700684
 30
0.0
 41
0.7339301823362703
 10
1687.47742913279
 20
222.6273403312775
 30
0.0
 41
1.0
 10
1590.920995594968
 20
274.2344150924866
 30
0.0
 41
0.7339301823362703
 10
1532.003872946412
 20
181.9565321423021
 30
0.0
 41
1.0
  0
SPLINE
  5
F0
330
1F
100
AcDbEntity
  8
Predefinito
100
AcDbSpline
210
0.0
220
0.0
230
1.0
 70
    12
 71
     2
 72
     8
 73
     5
 74
     0
 42
0.0000000001
 43
0.0000000001
 40
0.0
 40
0.0
 40
0.0
 40
1.460806934840582
 40
1.460806934840582
 40
2.921613869761726
 40
2.921613869761726
 40
2.921613869761726
 10
1342.113121879276
 20
119.6492872732412
 30
0.0
 41
1.0
 10
1341.63341268002
 20
119.0590553876837
 30
0.0
 41
0.9415201098334995
 10
1341.637139753573
 20
118.2984761981826
 30
0.0
 41
1.0
 10
1341.63341268002
 20
117.5378970086359
 30
0.0
 41
0.9415201098265801
 10
1342.113121879328
 20
116.947665123062
 30
0.0
 41
1.0
  0
SPLINE
  5
F1
330
1F
100
AcDbEntity
  8
Predefinito
100
AcDbSpline
210
0.0
220
0.0
230
1.0
 70
    12
 71
     2
 72
     8
 73
     5
 74
     0
 42
0.0000000001
 43
0.0000000001
 40
0.0
 40
0.0
 40
0.0
 40
3.068967700637213
 40
3.068967700637213
 40
6.137935401274427
 40
6.137935401274427
 40
6.137935401274427
 10
1342.430810098658
 20
115.7035210924671
 30
0.0
 41
1.0
 10
1341.035911962594
 20
116.6260331483931
 30
0.0
 41
0.8808044559076386
 10
1341.035895424299
 20
118.298387567483
 30
0.0
 41
1.0
 10
1341.035878886003
 20
119.9707419865728
 30
0.0
 41
0.8808044559076386
 10
1342.430758775928
 20
120.8932816312522
 30
0.0
 41
1.0
  0
SPLINE
  5
F2
330
1F
100
AcDbEntity
  8
Predefinito
100
AcDbSpline
210
0.0
220
0.0
230
1.0
 70
    12
 71
     2
 72
     8
 73
     5
 74
     0
 42
0.0000000001
 43
0.0000000001
 40
0.0
 40
0.0
 40
0.0
 40
12.56637061435906
 40
12.56637061435906
 40
25.13274122871826
 40
25.13274122871826
 40
25.13274122871826
 10
1341.998254052758
 20
118.2984761983012
 30
0.0
 41
1.0
 10
1341.998254052759
 20
110.2984761983016
 30
0.0
 41
0.707106781186584
 10
1349.998254052758
 20
110.2984761983012
 30
0.0
 41
1.0
 10
1357.998254052758
 20
110.2984761983012
 30
0.0
 41
0.7071067811865462
 10
1357.998254052758
 20
118.2984761983012
 30
0.0
 41
1.0
  0
SPLINE
  5
F3
330
1F
100
AcDbEntity
  8
Predefinito
100
AcDbSpline
210
0.0
220
0.0
230
1.0
 70
    12
 71
     2
 72
     8
 73
     5
 74
     0
 42
0.0000000001
 43
0.0000000001
 40
0.0
 40
0.0
 40
0.0
 40
12.5663706143592
 40
12.5663706143592
 40
25.13274122871856
 40
25.13274122871856
 40
25.13274122871856
 10
1357.998254052758
 20
118.2984761983012
 30
0.0
 41
1.0
 10
1357.998254052758
 20
126.2984761983013
 30
0.0
 41
0.7071067811865462
 10
1349.998254052758
 20
126.2984761983013
 30
0.0
 41
1.0
 10
1341.998254052758
 20
126.2984761983013
 30
0.0
 41
0.7071067811865582
 10
1341.998254052758
 20
118.2984761983012
 30
0.0
 41
1.0
  0
SPLINE
  5
F4
330
1F
100
AcDbEntity
  8
Predefinito
100
AcDbSpline
210
0.0
220
0.0
230
1.0
 70
    24
 71
     2
 72
     6
 73
     3
 74
     0
 42
0.0000000001
 43
0.0000000001
 40
0.0
 40
0.0
 40
0.0
 40
77.51266472090265
 40
77.51266472090265
 40
77.51266472090265
 10
1749.707218419884
 20
126.7906792736077
 30
0.0
 10
1788.46364671649
 20
126.7906792699619
 30
0.0
 10
1827.220075013096
 20
126.7906792663161
 30
0.0
  0
SPLINE
  5
F5
330
1F
100
AcDbEntity
  8
Predefinito
100
AcDbSpline
210
0.0
220
0.0
230
1.0
 70
    12
 71
     2
 72
    20
 73
    17
 74
     0
 42
0.0000000001
 43
0.0000000001
 40
0.0
 40
0.0
 40
0.0
 40
1.287697254496605
 40
1.287697254496605
 40
8.561858142110475
 40
8.561858142110475
 40
15.83619781783746
 40
15.83619781783746
 40
18.88681893785891
 40
18.88681893785891
 40
21.93744005793451
 40
21.93744005793451
 40
29.21202627406555
 40
29.21202627406555
 40
36.48475461085621
 40
36.48475461085621
 40
37.77479820649955
 40
37.77479820649955
 40
37.77479820649955
 10
1827.220075013096
 20
126.7906792663161
 30
0.0
 41
1.0
 10
1827.867531540074
 20
126.7894896792201
 30
0.0
 41
0.9920998061356743
 10
1828.494126815069
 20
126.627220428791
 30
0.0
 41
1.0
 10
1832.025313119532
 20
125.7235485273196
 30
0.0
 41
0.9967511560763284
 10
1835.365589382829
 20
124.2646262856699
 30
0.0
 41
1.0
 10
1838.704445848319
 20
122.8033395560557
 30
0.0
 41
0.9969328507952188
 10
1841.774378068006
 20
120.8389471385842
 30
0.0
 41
1.0
 10
1843.19629608125
 20
119.9594689817921
 30
0.0
 41
0.8735065337238831
 10
1843.196296081258
 20
118.2875441435706
 30
0.0
 41
1.0
 10
1843.19629608125
 20
116.6156193053137
 30
0.0
 41
0.873506533719571
 10
1841.77437806796
 20
115.7361411485284
 30
0.0
 41
1.0
 10
1838.704337095373
 20
113.7716892856999
 30
0.0
 41
0.9969328010203873
 10
1835.365362074318
 20
112.3103650562733
 30
0.0
 41
1.0
 10
1832.025798722275
 20
110.8515146211385
 30
0.0
 41
0.9967364884737173
 10
1828.494999062231
 20
109.949083607129
 30
0.0
 41
1.0
 10
1827.867456320129
 20
109.7856109090657
 30
0.0
 41
0.9920077983246235
 10
1827.218779903292
 20
109.7844400705443
 30
0.0
 41
1.0
  0
SPLINE
  5
F6
330
1F
100
AcDbEntity
  8
Predefinito
100
AcDbSpline
210
0.0
220
0.0
230
1.0
 70
    24
 71
     2
 72
     6
 73
     3
 74
     0
 42
0.0000000001
 43
0.0000000001
 40
0.0
 40
0.0
 40
0.0
 40
77.50641027545294
 40
77.50641027545294
 40
77.50641027545294
 10
1827.218779903292
 20
109.7844400705443
 30
0.0
 10
1788.465478690949
 20
109.7844400668827
 30
0.0
 10
1749.712177478606
 20
109.784440063221
 30
0.0
  0
SPLINE
  5
F7
330
1F
100
AcDbEntity
  8
Predefinito
100
AcDbSpline
210
0.0
220
0.0
230
1.0
 70
    24
 71
     2
 72
     6
 73
     3
 74
     0
 42
0.0000000001
 43
0.0000000001
 40
0.0
 40
0.0
 40
0.0
 40
358.5555363975745
 40
358.5555363975745
 40
358.5555363975745
 10
1513.738696355704
 20
109.784440063221
 30
0.0
 10
1334.460937292067
 20
109.7844963509867
 30
0.0
 10
1155.183178228431
 20
109.7845526387524
 30
0.0
  0
SPLINE
  5
F8
330
1F
100
AcDbEntity
  8
Predefinito
100
AcDbSpline
210
0.0
220
0.0
230
1.0
 70
    12
 71
     2
 72
    20
 73
    17
 74
     0
 42
0.0000000001
 43
0.0000000001
 40
0.0
 40
0.0
 40
0.0
 40
1.337942507213288
 40
1.337942507213288
 40
8.61067453852707
 40
8.61067453852707
 40
15.88526445012549
 40
15.88526445012549
 40
18.93588711990798
 40
18.93588711990798
 40
21.98650978963624
 40
21.98650978963624
 40
29.26085316070557
 40
29.26085316070557
 40
36.53501774357095
 40
36.53501774357095
 40
37.82271515553857
 40
37.82271515553857
 40
37.82271515553857
 10
1155.183178228431
 20
109.7845526387524
 30
0.0
 41
0.9999997522049738
 10
1154.510347293761
 20
109.7793528358719
 30
0.0
 41
0.9913723508611793
 10
1153.859255935159
 20
109.9490836071291
 30
0.0
 41
1.0
 10
1150.328456275117
 20
110.8515146211387
 30
0.0
 41
0.9967364884737218
 10
1146.988892923073
 20
112.3103650562733
 30
0.0
 41
1.0
 10
1143.649917902018
 20
113.7716892856999
 30
0.0
 41
0.9969328010203857
 10
1140.579876929431
 20
115.7361411485284
 30
0.0
 41
1.0
 10
1139.15795891614
 20
116.6156193053131
 30
0.0
 41
0.8735065337193679
 10
1139.157958916132
 20
118.2875441435706
 30
0.0
 41
1.0
 10
1139.157958916141
 20
119.9594689817924
 30
0.0
 41
0.8735065337238227
 10
1140.579876929385
 20
120.8389471385843
 30
0.0
 41
1.0
 10
1143.649809149072
 20
122.8033395560559
 30
0.0
 41
0.9969328507952142
 10
1146.988665614563
 20
124.2646262856699
 30
0.0
 41
1.0
 10
1150.32894187786
 20
125.7235485273197
 30
0.0
 41
0.9967511560763251
 10
1153.860128182322
 20
126.627220428791
 30
0.0
 41
1.0
 10
1154.486723213242
 20
126.7894896147249
 30
0.0
 41
0.9920998125478376
 10
1155.134179266347
 20
126.7906792662972
 30
0.0
 41
1.0
  0
SPLINE
  5
F9
330
1F
100
AcDbEntity
  8
Predefinito
100
AcDbSpline
210
0.0
220
0.0
230
1.0
 70
    24
 71
     2
 72
     6
 73
     3
 74
     0
 42
0.0000000001
 43
0.0000000001
 40
0.0
 40
0.0
 40
0.0
 40
358.5920622384449
 40
358.5920622384449
 40
358.5920622384449
 10
1155.134179266347
 20
126.7906792662972
 30
0.0
 10
1334.430306211072
 20
126.7906792699525
 30
0.0
 10
1513.726433155798
 20
126.7906792736078
 30
0.0
  0
SPLINE
  5
FA
330
1F
100
AcDbEntity
  8
Predefinito
100
AcDbSpline
210
0.0
220
0.0
230
1.0
 70
    24
 71
     2
 72
     6
 73
     3
 74
     0
 42
0.0000000001
 43
0.0000000001
 40
0.0
 40
0.0
 40
0.0
 40
43.0012255386821
 40
43.0012255386821
 40
43.0012255386821
 10
0.4006867675718599
 20
2741.594478140816
 30
5.0
 10
0.2121413932351804
 20
2763.094375198275
 30
5.0
 10
0.0235960188985009
 20
2784.594272255735
 30
5.0
  0
SPLINE
  5
FB
330
1F
100
AcDbEntity
  8
Predefinito
100
AcDbSpline
210
0.0
220
0.0
230
1.0
 70
    12
 71
     3
 72
    12
 73
     8
 74
     0
 42
0.0000000001
 43
0.0000000001
 40
-139.7296516077452
 40
-139.7296516077452
 40
-139.7296516077452
 40
-139.7296516077452
 40
-130.8481403178698
 40
-75.76855833364361
 40
-23.75898695102061
 40
-11.87949347551035
 40
0.0
 40
0.0
 40
0.0
 40
0.0
 10
0.0235960188985009
 20
2784.594272255735
 30
5.0
 41
1.0
 10
-0.0354437837050628
 20
2784.594478140817
 30
5.0
 41
1.0
 10
0.3363499539602083
 20
2784.594478140817
 30
5.0
 41
1.0
 10
11.55112939353642
 20
2784.594478140817
 30
5.0
 41
1.0
 10
38.77520408910284
 20
2784.594478140817
 30
5.0
 41
1.0
 10
60.08675806023333
 20
2784.594478140817
 30
5.0
 41
1.0
 10
67.15127682092044
 20
2784.594478140817
 30
5.0
 41
1.0
 10
70.76320377336184
 20
2784.594478140817
 30
5.0
 41
1.0
  0
SPLINE
  5
FC
330
1F
100
AcDbEntity
  8
Predefinito
100
AcDbSpline
210
0.0
220
0.0
230
1.0
 70
    24
 71
     2
 72
     6
 73
     3
 74
     0
 42
0.0000000001
 43
0.0000000001
 40
0.0
 40
0.0
 40
0.0
 40
165.8263553599352
 40
165.8263553599352
 40
165.8263553599352
 10
70.76320377336184
 20
2784.594478140817
 30
5.0
 10
153.6768840695972
 20
2784.594473754802
 30
5.0
 10
236.5905643658326
 20
2784.594469368787
 30
5.0
  0
SPLINE
  5
FD
330
1F
100
AcDbEntity
  8
Predefinito
100
AcDbSpline
210
0.0
220
0.0
230
1.0
 70
    24
 71
     2
 72
     6
 73
     3
 74
     0
 42
0.0000000001
 43
0.0000000001
 40
0.0
 40
0.0
 40
0.0
 40
43.00161963856726
 40
43.00161963856726
 40
43.00161963856726
 10
236.5905643658326
 20
2784.594469368787
 30
5.0
 10
236.4029490725098
 20
2763.094473754802
 30
5.0
 10
236.2153337791869
 20
2741.594478140817
 30
5.0
  0
SPLINE
  5
FE
330
1F
100
AcDbEntity
  8
Predefinito
100
AcDbSpline
210
0.0
220
0.0
230
1.0
 70
    24
 71
     2
 72
     6
 73
     3
 74
     0
 42
0.0000000001
 43
0.0000000001
 40
-165.3003433462706
 40
-165.3003433462706
 40
-165.3003433462706
 40
0.0
 40
0.0
 40
0.0
 10
236.2153337791869
 20
2741.594478140817
 30
5.0
 10
153.5646610459628
 20
2741.594478140817
 30
5.0
 10
70.91398831273874
 20
2741.594478140817
 30
5.0
  0
SPLINE
  5
FF
330
1F
100
AcDbEntity
  8
Predefinito
100
AcDbSpline
210
0.0
220
0.0
230
1.0
 70
    24
 71
     2
 72
     6
 73
     3
 74
     0
 42
0.0000000001
 43
0.0000000001
 40
0.0
 40
0.0
 40
0.0
 40
70.48786481420554
 40
70.48786481420554
 40
70.48786481420554
 10
70.91398831273874
 20
2741.594478140817
 30
5.0
 10
35.6573375401553
 20
2741.594478140816
 30
5.0
 10
0.4006867675718599
 20
2741.594478140816
 30
5.0
  0
SPLINE
  5
100
330
1F
100
AcDbEntity
  8
Predefinito
100
AcDbSpline
210
0.0
220
0.0
230
1.0
 70
    24
 71
     2
 72
     6
 73
     3
 74
     0
 42
0.0000000001
 43
0.0000000001
 40
0.0
 40
0.0
 40
0.0
 40
336.041461501751
 40
336.041461501751
 40
336.041461501751
 10
109.7844400632959
 20
1626.108572389609
 30
5.0
 10
109.784440063296
 20
1794.129303140485
 30
5.0
 10
109.7844400632961
 20
1962.15003389136
 30
5.0
  0
SPLINE
  5
101
330
1F
100
AcDbEntity
  8
Predefinito
100
AcDbSpline
210
0.0
220
0.0
230
1.0
 70
    24
 71
     2
 72
     6
 73
     3
 74
     0
 42
0.0000000001
 43
0.0000000001
 40
0.0
 40
0.0
 40
0.0
 40
320.5057623864386
 40
320.5057623864386
 40
320.5057623864386
 10
109.7844400632961
 20
1962.15003389136
 30
5.0
 10
109.7844400632962
 20
2122.402915084579
 30
5.0
 10
109.7844400632963
 20
2282.655796277799
 30
5.0
  0
SPLINE
  5
102
330
1F
100
AcDbEntity
  8
Predefinito
100
AcDbSpline
210
0.0
220
0.0
230
1.0
 70
    24
 71
     3
 72
     8
 73
     4
 74
     0
 42
0.0000000001
 43
0.0000000001
 40
0.0
 40
0.0
 40
0.0
 40
0.0
 40
12.50793750837738
 40
12.50793750837738
 40
12.50793750837738
 40
12.50793750837738
 10
109.7844400632963
 20
2285.683557884739
 30
5.0
 10
109.7844400632962
 20
2289.852870387532
 30
5.0
 10
109.7844400632964
 20
2294.022182890327
 30
5.0
 10
109.7844400632963
 20
2298.191495393116
 30
5.0
  0
SPLINE
  5
103
330
1F
100
AcDbEntity
  8
Predefinito
100
AcDbSpline
210
0.0
220
0.0
230
1.0
 70
    12
 71
     2
 72
     6
 73
     3
 74
     0
 42
0.0000000001
 43
0.0000000001
 40
0.0
 40
0.0
 40
0.0
 40
0.5865199714776553
 40
0.5865199714776553
 40
0.5865199714776553
 10
105.5488175978276
 20
2290.223395279925
 30
5.0
 41
1.0
 10
105.6237612744144
 20
2289.93950816465
 30
5.0
 41
0.9981987658800806
 10
105.7321668988903
 20
2289.66664067032
 30
5.0
 41
1.0
  0
SPLINE
  5
104
330
1F
100
AcDbEntity
  8
Predefinito
100
AcDbSpline
210
0.0
220
0.0
230
1.0
 70
    24
 71
     2
 72
     6
 73
     3
 74
     0
 42
0.0000000001
 43
0.0000000001
 40
0.0
 40
0.0
 40
0.0
 40
0.0014717629496772
 40
0.0014717629496772
 40
0.0014717629496772
 10
115.230178498778
 20
2281.116802262504
 30
5.0
 10
115.230178498778
 20
2281.117538143979
 30
5.0
 10
115.230178498778
 20
2281.118274025454
 30
5.0
  0
SPLINE
  5
105
330
1F
100
AcDbEntity
  8
Predefinito
100
AcDbSpline
210
0.0
220
0.0
230
1.0
 70
    12
 71
     2
 72
     6
 73
     3
 74
     0
 42
0.0000000001
 43
0.0000000001
 40
0.0
 40
0.0
 40
0.0
 40
9.683748100456652
 40
9.683748100456652
 40
9.683748100456652
 10
104.5613872873354
 20
2311.465476720258
 30
5.0
 41
1.0
 10
105.4490519740361
 20
2316.226547162822
 30
4.999999999999997
 41
0.9996164204318989
 10
106.606807000159
 20
2320.963196224875
 30
5.0
 41
1.0
  0
SPLINE
  5
106
330
1F
100
AcDbEntity
  8
Predefinito
100
AcDbSpline
210
0.0
220
0.0
230
1.0
 70
    12
 71
     2
 72
     6
 73
     3
 74
     0
 42
0.0000000001
 43
0.0000000001
 40
0.0
 40
0.0
 40
0.0
 40
9.575770668655352
 40
9.575770668655352
 40
9.575770668655352
 10
106.606807000159
 20
2320.963196224875
 30
5.0
 41
1.0
 10
107.7531692106317
 20
2325.645902482593
 30
5.0
 41
0.9999616629743445
 10
108.9791318004963
 20
2330.299343292149
 30
5.0
 41
1.0
  0
SPLINE
  5
107
330
1F
100
AcDbEntity
  8
Predefinito
100
AcDbSpline
210
0.0
220
0.0
230
1.0
 70
    12
 71
     2
 72
     6
 73
     3
 74
     0
 42
0.0000000001
 43
0.0000000001
 40
0.0
 40
0.0
 40
0.0
 40
10.03815115789663
 40
10.03815115789663
 40
10.03815115789663
 10
108.9791318004963
 20
2330.299343292149
 30
5.0
 41
1.0
 10
110.2644327276745
 20
2335.176103579221
 30
5.0
 41
0.999999974523
 10
111.55194846245
 20
2340.052329077535
 30
5.0
 41
1.0
  0
SPLINE
  5
108
330
1F
100
AcDbEntity
  8
Predefinito
100
AcDbSpline
210
0.0
220
0.0
230
1.0
 70
    12
 71
     2
 72
     6
 73
     3
 74
     0
 42
0.0000000001
 43
0.0000000001
 40
0.0
 40
0.0
 40
0.0
 40
10.01199557442059
 40
10.01199557442059
 40
10.01199557442059
 10
111.55194846245
 20
2340.052329077535
 30
5.0
 41
1.0
 10
112.8361006275307
 20
2344.916557853898
 30
5.0
 41
0.9998142592349941
 10
113.9331057172089
 20
2349.832361907096
 30
5.0
 41
1.0
  0
SPLINE
  5
109
330
1F
100
AcDbEntity
  8
Predefinito
100
AcDbSpline
210
0.0
220
0.0
230
1.0
 70
    12
 71
     2
 72
     6
 73
     3
 74
     0
 42
0.0000000001
 43
0.0000000001
 40
0.0
 40
0.0
 40
0.0
 40
5.950882439488431
 40
5.950882439488431
 40
5.950882439488431
 10
113.9331057172089
 20
2349.832361907096
 30
5.0
 41
1.0
 10
114.5870381310034
 20
2352.766179784698
 30
4.999999999999997
 41
0.999863927433731
 10
115.1413707073999
 20
2355.706940158771
 30
5.0
 41
1.0
  0
SPLINE
  5
10A
330
1F
100
AcDbEntity
  8
Predefinito
100
AcDbSpline
210
0.0
220
0.0
230
1.0
 70
    12
 71
     2
 72
     6
 73
     3
 74
     0
 42
0.0000000001
 43
0.0000000001
 40
0.0
 40
0.0
 40
0.0
 40
5.976162357216282
 40
5.976162357216282
 40
5.976162357216282
 10
115.1413707073999
 20
2355.706940158771
 30
5.0
 41
1.0
 10
115.6974874089605
 20
2358.660596197923
 30
5.0
 41
0.9996823160642638
 10
116.1033974619381
 20
2361.6337381347
 30
5.0
 41
1.0
  0
SPLINE
  5
10B
330
1F
100
AcDbEntity
  8
Predefinito
100
AcDbSpline
210
0.0
220
0.0
230
1.0
 70
    12
 71
     2
 72
     6
 73
     3
 74
     0
 42
0.0000000001
 43
0.0000000001
 40
0.0
 40
0.0
 40
0.0
 40
5.815616408831167
 40
5.815616408831167
 40
5.815616408831167
 10
116.1033974619381
 20
2361.6337381347
 30
5.0
 41
1.0
 10
116.4978777121604
 20
2364.527608232723
 30
4.999999999999997
 41
0.9995788588379736
 10
116.7234001813802
 20
2367.434238520931
 30
5.0
 41
1.0
  0
SPLINE
  5
10C
330
1F
100
AcDbEntity
  8
Predefinito
100
AcDbSpline
210
0.0
220
0.0
230
1.0
 70
    12
 71
     2
 72
     6
 73
     3
 74
     0
 42
0.0000000001
 43
0.0000000001
 40
0.0
 40
0.0
 40
0.0
 40
5.814277579826813
 40
5.814277579826813
 40
5.814277579826813
 10
116.7234001813802
 20
2367.434238520931
 30
5.0
 41
1.0
 10
116.9485130812649
 20
2370.340862987489
 30
5.0
 41
0.9992530588948445
 10
116.948476200048
 20
2373.24945046418
 30
5.0
 41
1.0
  0
SPLINE
  5
10D
330
1F
100
AcDbEntity
  8
Predefinito
100
AcDbSpline
210
0.0
220
0.0
230
1.0
 70
    24
 71
     2
 72
     6
 73
     3
 74
     0
 42
0.0000000001
 43
0.0000000001
 40
0.0
 40
0.0
 40
0.0
 40
48.48518265076382
 40
48.48518265076382
 40
48.48518265076382
 10
116.948476200048
 20
2373.24945046418
 30
5.0
 10
116.9484761992321
 20
2397.492041789564
 30
5.0
 10
116.9484761984161
 20
2421.734633114947
 30
5.0
  0
SPLINE
  5
10E
330
1F
100
AcDbEntity
  8
Predefinito
100
AcDbSpline
210
0.0
220
0.0
230
1.0
 70
    24
 71
     2
 72
     6
 73
     3
 74
     0
 42
0.0000000001
 43
0.0000000001
 40
0.0
 40
0.0
 40
0.0
 40
13.41514557945675
 40
13.41514557945675
 40
13.41514557945675
 10
116.9484761984161
 20
2421.734633114947
 30
5.0
 10
116.9484761976001
 20
2428.442205904676
 30
5.0
 10
116.9484761967841
 20
2435.149778694404
 30
5.0
  0
LINE
  5
10F
330
1F
100
AcDbEntity
  8
Predefinito
100
AcDbLine
 10
115.281185543487
 20
2283.254328425321
 30
5.0
 11
115.2819032017264
 21
2285.845416368422
 31
5.0
  0
SPLINE
  5
110
330
1F
100
AcDbEntity
  8
Predefinito
100
AcDbSpline
210
0.0
220
0.0
230
1.0
 70
     8
 71
     3
 72
    12
 73
     8
 74
     0
 42
0.0000000001
 43
0.0000000001
 40
-0.0089582916759235
 40
-0.0089582916759235
 40
-0.0089582916759235
 40
-0.0089582916759235
 40
0.9105116122210051
 40
1.408630444464379
 40
2.373177698900744
 40
3.026300728170201
 40
3.94915348597183
 40
3.94915348597183
 40
3.94915348597183
 40
3.94915348597183
 10
115.2819032017264
 20
2285.845416368422
 30
5.0
 10
115.2827947394636
 20
2286.119419759872
 30
5.0
 10
115.42399866803
 20
2286.517249750323
 30
5.0
 10
115.8643306553181
 20
2287.010179349113
 30
5.0
 10
116.3691070309047
 20
2287.299678259586
 30
5.0
 10
117.087087010001
 20
2287.52639790502
 30
5.0
 10
117.595935681884
 20
2287.601183720971
 30
5.0
 10
117.9034206201876
 20
2287.578867814473
 30
5.0
  0
SPLINE
  5
111
330
1F
100
AcDbEntity
  8
Predefinito
100
AcDbSpline
210
0.0
220
0.0
230
1.0
 70
    12
 71
     2
 72
     6
 73
     3
 74
     0
 42
0.0000000001
 43
0.0000000001
 40
3.594277229313394
 40
3.594277229313394
 40
3.594277229313394
 40
6.33754345826233
 40
6.33754345826233
 40
6.33754345826233
 10
117.9034206201876
 20
2287.578867814473
 30
5.0
 41
0.931902598785738
 10
116.2810332386434
 20
2287.406942319915
 30
5.0
 41
0.7464367444103019
 10
116.2810332386434
 20
2286.747252542575
 30
5.0
 41
1.0
  0
SPLINE
  5
112
330
1F
100
AcDbEntity
  8
Predefinito
100
AcDbSpline
210
0.0
220
0.0
230
1.0
 70
    24
 71
     2
 72
     6
 73
     3
 74
     0
 42
0.0000000001
 43
0.0000000001
 40
0.0
 40
0.0
 40
0.0
 40
2.591868948014508
 40
2.591868948014508
 40
2.591868948014508
 10
116.2810332386434
 20
2286.747252542575
 30
5.0
 10
116.2810332386434
 20
2285.451318068567
 30
5.0
 10
116.2810332386434
 20
2284.15538359456
 30
5.0
  0
SPLINE
  5
113
330
1F
100
AcDbEntity
  8
Predefinito
100
AcDbSpline
210
0.0
220
0.0
230
1.0
 70
    12
 71
     2
 72
     8
 73
     5
 74
     0
 42
0.0000000001
 43
0.0000000001
 40
0.0
 40
0.0
 40
0.0
 40
3.16877172913117
 40
3.16877172913117
 40
6.33754345826233
 40
6.33754345826233
 40
6.33754345826233
 10
116.2810332386434
 20
2284.15538359456
 30
5.0
 41
1.0
 10
116.2810332386434
 20
2283.350986006487
 30
5.0
 41
0.707106781186548
 10
118.2983359755277
 20
2283.350986006487
 30
5.0
 41
1.0
 10
120.315638712412
 20
2283.350986006487
 30
5.0
 41
0.707106781186548
 10
120.315638712412
 20
2284.15538359456
 30
5.0
 41
1.0
  0
SPLINE
  5
114
330
1F
100
AcDbEntity
  8
Predefinito
100
AcDbSpline
210
0.0
220
0.0
230
1.0
 70
    24
 71
     2
 72
     6
 73
     3
 74
     0
 42
0.0000000001
 43
0.0000000001
 40
0.0
 40
0.0
 40
0.0
 40
2.591868948014962
 40
2.591868948014962
 40
2.591868948014962
 10
120.315638712412
 20
2284.15538359456
 30
5.0
 10
120.315638712412
 20
2285.451318068567
 30
5.0
 10
120.315638712412
 20
2286.747252542575
 30
5.0
  0
SPLINE
  5
115
330
1F
100
AcDbEntity
  8
Predefinito
100
AcDbSpline
210
0.0
220
0.0
230
1.0
 70
    12
 71
     2
 72
     6
 73
     3
 74
     0
 42
0.0000000001
 43
0.0000000001
 40
0.0
 40
0.0
 40
0.0
 40
2.772675262989774
 40
2.772675262989774
 40
2.772675262989774
 10
120.315638712412
 20
2286.747252542575
 30
5.0
 41
1.0
 10
120.315638712412
 20
2287.411067964646
 30
5.0
 41
0.7452549463865324
 10
118.6844155790746
 20
2287.579512041718
 30
5.0
 41
0.9336409601526826
  0
SPLINE
  5
116
330
1F
100
AcDbEntity
  8
Predefinito
100
AcDbSpline
210
0.0
220
0.0
230
1.0
 70
     8
 71
     3
 72
    13
 73
     9
 74
     0
 42
0.0000000001
 43
0.0000000001
 40
4.751800454518408
 40
4.751800454518408
 40
4.751800454518408
 40
4.751800454518408
 40
5.292208916718332
 40
6.286222133858512
 40
7.248716781317103
 40
7.652111336744632
 40
8.14853787302365
 40
8.702321998631916
 40
8.702321998631916
 40
8.702321998631916
 40
8.702321998631916
 10
118.6844155790746
 20
2287.579512041718
 30
5.0
 10
118.8815162232366
 20
2287.608689135101
 30
5.0
 10
119.3799616139151
 20
2287.55176903154
 30
5.0
 10
120.1164404808662
 20
2287.358245485011
 30
5.0
 10
120.6837448609548
 20
2287.04138998038
 30
5.0
 10
121.041382482415
 20
2286.672054147134
 30
5.0
 10
121.2522534185198
 20
2286.31186419037
 30
5.0
 10
121.3136219359248
 20
2286.007349395867
 30
5.0
 10
121.3155135911719
 20
2285.846197697011
 30
5.0
  0
LINE
  5
117
330
1F
100
AcDbEntity
  8
Predefinito
100
AcDbLine
 10
121.3155135911719
 20
2285.846197697011
 30
5.0
 11
121.3154864075684
 21
2283.254328425321
 31
5.0
  0
SPLINE
  5
118
330
1F
100
AcDbEntity
  8
Predefinito
100
AcDbSpline
210
0.0
220
0.0
230
1.0
 70
    12
 71
     2
 72
     8
 73
     5
 74
     0
 42
0.0000000001
 43
0.0000000001
 40
1.5707963267949
 40
1.5707963267949
 40
1.5707963267949
 40
3.14159265358979
 40
3.14159265358979
 40
4.71238898038469
 40
4.71238898038469
 40
4.71238898038469
 10
121.3154864075684
 20
2283.254328425321
 30
5.0
 41
1.0
 10
121.3154864075684
 20
2282.051242499736
 30
5.0
 41
0.707106781186548
 10
118.2983359755277
 20
2282.051242499736
 30
5.0
 41
1.0
 10
115.281185543487
 20
2282.051242499736
 30
5.0
 41
0.707106781186548
 10
115.281185543487
 20
2283.254328425321
 30
5.0
 41
1.0
  0
SPLINE
  5
119
330
1F
100
AcDbEntity
  8
Predefinito
100
AcDbSpline
210
0.0
220
0.0
230
1.0
 70
    24
 71
     2
 72
     6
 73
     3
 74
     0
 42
0.0000000001
 43
0.0000000001
 40
0.0
 40
0.0
 40
0.0
 40
2.591868948014053
 40
2.591868948014053
 40
2.591868948014053
 10
115.281185543487
 20
2283.254328425321
 30
5.0
 10
115.2556896363747
 20
2281.91481587873
 30
5.0
 10
115.2301937292625
 20
2280.57530333214
 30
5.0
  0
SPLINE
  5
11A
330
1F
100
AcDbEntity
  8
Predefinito
100
AcDbSpline
210
0.0
220
0.0
230
1.0
 70
    12
 71
     3
 72
    10
 73
     6
 74
     0
 42
0.0000000001
 43
0.0000000001
 40
0.0
 40
0.0
 40
0.0
 40
0.0
 40
0.4836130155633231
 40
0.4836130155633231
 40
1.0
 40
1.0
 40
1.0
 40
1.0
 10
115.2301937292625
 20
2280.57530333214
 30
5.0
 41
1.0
 10
115.2301937292625
 20
2280.418762193391
 30
5.0
 41
1.0
 10
115.2965483297819
 20
2280.406814290431
 30
5.0
 41
1.0
 10
115.4276760888161
 20
2280.421344317742
 30
5.0
 41
1.0
 10
115.4981817051055
 20
2280.463026339763
 30
5.0
 41
1.0
 10
115.5727943038026
 20
2280.513509254192
 30
5.0
 41
1.0
  0
SPLINE
  5
11B
330
1F
100
AcDbEntity
  8
Predefinito
100
AcDbSpline
210
0.0
220
0.0
230
1.0
 70
     8
 71
     3
 72
    11
 73
     7
 74
     0
 42
0.0000000001
 43
0.0000000001
 40
0.0
 40
0.0
 40
0.0
 40
0.0
 40
0.6429580247424806
 40
1.334357968472321
 40
2.85078431483592
 40
5.702674667742867
 40
5.702674667742867
 40
5.702674667742867
 40
5.702674667742867
 10
115.5727943038026
 20
2280.513509254192
 30
5.0
 10
115.7515975412784
 20
2280.635045610579
 30
5.0
 10
116.1435313426703
 20
2280.838591190113
 30
5.0
 10
117.0597991183923
 20
2281.133460584691
 30
5.0
 10
118.7314106644355
 20
2281.293060548688
 30
5.0
 10
120.2191324660651
 20
2281.036666396404
 30
5.0
 10
121.0238776472523
 20
2280.513509254236
 30
5.0
  0
SPLINE
  5
11C
330
1F
100
AcDbEntity
  8
Predefinito
100
AcDbSpline
210
0.0
220
0.0
230
1.0
 70
    12
 71
     3
 72
    10
 73
     6
 74
     0
 42
0.0000000001
 43
0.0000000001
 40
0.0
 40
0.0
 40
0.0
 40
0.0
 40
0.5230282459666628
 40
0.5230282459666628
 40
1.0
 40
1.0
 40
1.0
 40
1.0
 10
121.0238776472523
 20
2280.513509254236
 30
5.0
 41
1.0
 10
121.0983835712734
 20
2280.463098515937
 30
5.0
 41
1.0
 10
121.1685827602842
 20
2280.42175489328
 30
5.0
 41
1.0
 10
121.2985861361328
 20
2280.407079182208
 30
5.0
 41
1.0
 10
121.3664782217922
 20
2280.422982682044
 30
5.0
 41
1.0
 10
121.3664782217922
 20
2280.575303332173
 30
5.0
 41
1.0
  0
SPLINE
  5
11D
330
1F
100
AcDbEntity
  8
Predefinito
100
AcDbSpline
210
0.0
220
0.0
230
1.0
 70
    24
 71
     2
 72
     6
 73
     3
 74
     0
 42
0.0000000001
 43
0.0000000001
 40
-2.591399581152419
 40
-2.591399581152419
 40
-2.591399581152419
 40
0.0
 40
0.0
 40
0.0
 10
121.3664782217922
 20
2280.575303332173
 30
5.0
 10
121.3418207005122
 20
2281.870768481818
 30
5.0
 10
121.3171631792321
 20
2283.166233631463
 30
5.0
  0
SPLINE
  5
11E
330
1F
100
AcDbEntity
  8
Predefinito
100
AcDbSpline
210
0.0
220
0.0
230
1.0
 70
    12
 71
     2
 72
     6
 73
     3
 74
     0
 42
0.0000000001
 43
0.0000000001
 40
0.0
 40
0.0
 40
0.0
 40
0.5610572016046941
 40
0.5610572016046941
 40
0.5610572016046941
 10
117.9034206210351
 20
2355.791852309369
 30
5.0
 41
1.0
 10
117.852822599812
 20
2355.515924021462
 30
5.0
 41
0.9999972938718099
 10
117.7962106115843
 20
2355.21512087978
 30
5.0
 41
1.0
  0
SPLINE
  5
11F
330
1F
100
AcDbEntity
  8
Predefinito
100
AcDbSpline
210
0.0
220
0.0
230
1.0
 70
    12
 71
     2
 72
     6
 73
     3
 74
     0
 42
0.0000000001
 43
0.0000000001
 40
0.0
 40
0.0
 40
0.0
 40
6.059928925237918
 40
6.059928925237918
 40
6.059928925237918
 10
117.7962106115843
 20
2355.21512087978
 30
5.0
 41
1.0
 10
117.2301599456029
 20
2352.212209524397
 30
5.0
 41
0.999863027584215
 10
116.5662983504914
 20
2349.235378329995
 30
5.0
 41
1.0
  0
SPLINE
  5
120
330
1F
100
AcDbEntity
  8
Predefinito
100
AcDbSpline
210
0.0
220
0.0
230
1.0
 70
    12
 71
     2
 72
     6
 73
     3
 74
     0
 42
0.0000000001
 43
0.0000000001
 40
0.0
 40
0.0
 40
0.0
 40
10.11596209846608
 40
10.11596209846608
 40
10.11596209846608
 10
116.5662983504914
 20
2349.235378329995
 30
5.0
 41
1.0
 10
115.4602533648784
 20
2344.278965389062
 30
5.0
 41
0.999814265641448
 10
114.1688630989932
 20
2339.38721058894
 30
5.0
 41
1.0
  0
SPLINE
  5
121
330
1F
100
AcDbEntity
  8
Predefinito
100
AcDbSpline
210
0.0
220
0.0
230
1.0
 70
    12
 71
     2
 72
     6
 73
     3
 74
     0
 42
0.0000000001
 43
0.0000000001
 40
0.0
 40
0.0
 40
0.0
 40
10.0840023453655
 40
10.0840023453655
 40
10.0840023453655
 10
114.1688630989932
 20
2339.38721058894
 30
5.0
 41
1.0
 10
112.8814905198347
 20
2334.511570266248
 30
5.0
 41
0.9999999742834621
 10
111.5963321220009
 20
2329.635356281845
 30
5.0
 41
1.0
  0
SPLINE
  5
122
330
1F
100
AcDbEntity
  8
Predefinito
100
AcDbSpline
210
0.0
220
0.0
230
1.0
 70
    12
 71
     2
 72
     6
 73
     3
 74
     0
 42
0.0000000001
 43
0.0000000001
 40
0.0
 40
0.0
 40
0.0
 40
9.597859629509395
 40
9.597859629509395
 40
9.597859629509395
 10
111.5963321220009
 20
2329.635356281845
 30
5.0
 41
1.0
 10
110.3731294659721
 20
2324.99405660106
 30
5.0
 41
0.9999611022528274
 10
109.2271328875939
 20
2320.312059260458
 30
5.0
 41
1.0
  0
SPLINE
  5
123
330
1F
100
AcDbEntity
  8
Predefinito
100
AcDbSpline
210
0.0
220
0.0
230
1.0
 70
    12
 71
     2
 72
     6
 73
     3
 74
     0
 42
0.0000000001
 43
0.0000000001
 40
0.0
 40
0.0
 40
0.0
 40
9.519163574081471
 40
9.519163574081471
 40
9.519163574081471
 10
109.2271328875939
 20
2320.312059260458
 30
5.0
 41
1.0
 10
108.0916936597402
 20
2315.666866179978
 30
5.0
 41
0.9996176209984817
 10
107.2186700427498
 20
2310.986801651947
 30
5.0
 41
1.0
  0
SPLINE
  5
124
330
1F
100
AcDbEntity
  8
Predefinito
100
AcDbSpline
210
0.0
220
0.0
230
1.0
 70
    24
 71
     2
 72
     6
 73
     3
 74
     0
 42
0.0000000001
 43
0.0000000001
 40
0.0
 40
0.0
 40
0.0
 40
13.41514557945675
 40
13.41514557945675
 40
13.41514557945675
 10
119.6484761967841
 20
2435.149778694404
 30
5.0
 10
119.6484761976001
 20
2428.442205904676
 30
5.0
 10
119.6484761984161
 20
2421.734633114947
 30
5.0
  0
SPLINE
  5
125
330
1F
100
AcDbEntity
  8
Predefinito
100
AcDbSpline
210
0.0
220
0.0
230
1.0
 70
    24
 71
     2
 72
     6
 73
     3
 74
     0
 42
0.0000000001
 43
0.0000000001
 40
0.0
 40
0.0
 40
0.0
 40
48.48518265076382
 40
48.48518265076382
 40
48.48518265076382
 10
119.6484761984161
 20
2421.734633114947
 30
5.0
 10
119.6484761992321
 20
2397.492041789564
 30
5.0
 10
119.648476200048
 20
2373.249450464181
 30
5.0
  0
SPLINE
  5
126
330
1F
100
AcDbEntity
  8
Predefinito
100
AcDbSpline
210
0.0
220
0.0
230
1.0
 70
    12
 71
     2
 72
     6
 73
     3
 74
     0
 42
0.0000000001
 43
0.0000000001
 40
0.0
 40
0.0
 40
0.0
 40
6.009591184103122
 40
6.009591184103122
 40
6.009591184103122
 10
119.648476200048
 20
2373.249450464181
 30
5.0
 41
1.0
 10
119.6485129218432
 20
2370.243164195645
 30
5.0
 41
0.9992563861163626
 10
119.4163721022991
 20
2367.239088857716
 30
5.0
 41
1.0
  0
SPLINE
  5
127
330
1F
100
AcDbEntity
  8
Predefinito
100
AcDbSpline
210
0.0
220
0.0
230
1.0
 70
    12
 71
     2
 72
     6
 73
     3
 74
     0
 42
0.0000000001
 43
0.0000000001
 40
0.0
 40
0.0
 40
0.0
 40
5.962191151936569
 40
5.962191151936569
 40
5.962191151936569
 10
119.4163721022991
 20
2367.239088857716
 30
5.0
 41
1.0
 10
119.1855745151321
 20
2364.25933865937
 30
5.000000000000001
 41
0.9995803168090904
 10
118.7818845536911
 20
2361.292735352797
 30
5.0
 41
1.0
  0
SPLINE
  5
128
330
1F
100
AcDbEntity
  8
Predefinito
100
AcDbSpline
210
0.0
220
0.0
230
1.0
 70
    12
 71
     2
 72
     6
 73
     3
 74
     0
 42
0.0000000001
 43
0.0000000001
 40
0.0
 40
0.0
 40
0.0
 40
0.5593075338816316
 40
0.5593075338816316
 40
0.5593075338816316
 10
118.7818845536911
 20
2361.292735352797
 30
5.0
 41
1.0
 10
118.7424778647086
 20
2361.003741409047
 30
5.0
 41
0.9999973624790053
 10
118.7034206210352
 20
2360.726828000002
 30
5.0
 41
1.0
  0
SPLINE
  5
129
330
1F
100
AcDbEntity
  8
Predefinito
100
AcDbSpline
210
0.0
220
0.0
230
1.0
 70
    12
 71
     2
 72
     6
 73
     3
 74
     0
 42
0.0000000001
 43
0.0000000001
 40
0.0
 40
0.0
 40
0.0
 40
8.840605339381687
 40
8.840605339381687
 40
8.840605339381687
 10
105.8998762409722
 20
2302.200368947258
 30
5.0
 41
1.0
 10
105.3988023386542
 20
2297.803774471412
 30
5.0
 41
0.9983895985215167
 10
105.3989813901858
 20
2293.378718764582
 30
5.0
 41
1.0
  0
SPLINE
  5
12A
330
1F
100
AcDbEntity
  8
Predefinito
100
AcDbSpline
210
0.0
220
0.0
230
1.0
 70
    24
 71
     2
 72
     6
 73
     3
 74
     0
 42
0.0000000001
 43
0.0000000001
 40
0.0
 40
0.0
 40
0.0
 40
2.0
 40
2.0
 40
2.0
 10
105.3989813901858
 20
2293.378718764582
 30
5.0
 10
105.3956024309048
 20
2292.378718764583
 30
5.0
 10
105.3922234716239
 20
2291.378718764584
 30
5.0
  0
SPLINE
  5
12B
330
1F
100
AcDbEntity
  8
Predefinito
100
AcDbSpline
210
0.0
220
0.0
230
1.0
 70
    12
 71
     2
 72
     6
 73
     3
 74
     0
 42
0.0000000001
 43
0.0000000001
 40
-1.163863207175244
 40
-1.163863207175244
 40
-1.163863207175244
 40
0.0
 40
0.0
 40
0.0
 10
105.3922234716239
 20
2291.378718764583
 30
4.999999999999999
 41
0.9999996173539327
 10
105.3877908042784
 20
2290.793544484123
 30
5.0
 41
0.9917305691310929
 10
105.5389882313624
 20
2290.228263796012
 30
5.0
 41
1.0
  0
SPLINE
  5
12C
330
1F
100
AcDbEntity
  8
Predefinito
100
AcDbSpline
210
0.0
220
0.0
230
1.0
 70
    12
 71
     2
 72
     6
 73
     3
 74
     0
 42
0.0000000001
 43
0.0000000001
 40
-1.189159982982265
 40
-1.189159982982265
 40
-1.189159982982265
 40
0.0
 40
0.0
 40
0.0
 10
105.5389882313624
 20
2290.228263796012
 30
5.0
 41
1.0
 10
105.6941454338092
 20
2289.651255170955
 30
5.0
 41
0.9926720828420381
 10
105.9832001348401
 20
2289.128321054003
 30
5.0
 41
1.0
  0
SPLINE
  5
12D
330
1F
100
AcDbEntity
  8
Predefinito
100
AcDbSpline
210
0.0
220
0.0
230
1.0
 70
    12
 71
     2
 72
     6
 73
     3
 74
     0
 42
0.0000000001
 43
0.0000000001
 40
-1.232428815741397
 40
-1.232428815741397
 40
-1.232428815741397
 40
0.0
 40
0.0
 40
0.0
 10
105.9832001348401
 20
2289.128321054003
 30
5.0
 41
1.0
 10
106.2806037270488
 20
2288.586059493604
 30
5.0
 41
0.9945552224209996
 10
106.6871234295293
 20
2288.113565200707
 30
5.0
 41
1.0
  0
SPLINE
  5
12E
330
1F
100
AcDbEntity
  8
Predefinito
100
AcDbSpline
210
0.0
220
0.0
230
1.0
 70
    12
 71
     2
 72
     6
 73
     3
 74
     0
 42
0.0000000001
 43
0.0000000001
 40
0.0
 40
0.0
 40
0.0
 40
1.307604070246974
 40
1.307604070246974
 40
1.307604070246974
 10
106.6871234295293
 20
2288.113565200707
 30
5.0
 41
1.0
 10
107.1176187635283
 20
2287.613542541
 30
5.0
 41
0.9973324442149439
 10
107.6175236541061
 20
2287.180473616342
 30
5.0
 41
1.0
  0
SPLINE
  5
12F
330
1F
100
AcDbEntity
  8
Predefinito
100
AcDbSpline
210
0.0
220
0.0
230
1.0
 70
    12
 71
     2
 72
     6
 73
     3
 74
     0
 42
0.0000000001
 43
0.0000000001
 40
0.0
 40
0.0
 40
0.0
 40
2.530604809067723
 40
2.530604809067723
 40
2.530604809067723
 10
107.6175236541061
 20
2287.180473616342
 30
5.0
 41
1.0
 10
108.5832341999949
 20
2286.345935791526
 30
5.0
 41
0.9945693547301222
 10
109.6977086865454
 20
2285.731106640198
 30
5.0
 41
1.0
  0
SPLINE
  5
130
330
1F
100
AcDbEntity
  8
Predefinito
100
AcDbSpline
210
0.0
220
0.0
230
1.0
 70
    12
 71
     2
 72
     6
 73
     3
 74
     0
 42
0.0000000001
 43
0.0000000001
 40
0.0
 40
0.0
 40
0.0
 40
2.662704260220461
 40
2.662704260220461
 40
2.662704260220461
 10
109.6977086865454
 20
2285.731106640198
 30
5.0
 41
1.0
 10
110.8675882522495
 20
2285.086211501739
 30
4.999999999999997
 41
0.9982104191502407
 10
112.1033921604846
 20
2284.586685297792
 30
5.0
 41
1.0
  0
SPLINE
  5
131
330
1F
100
AcDbEntity
  8
Predefinito
100
AcDbSpline
210
0.0
220
0.0
230
1.0
 70
    12
 71
     2
 72
     8
 73
     5
 74
     0
 42
0.0000000001
 43
0.0000000001
 40
-2.288897180748744
 40
-2.288897180748744
 40
-2.288897180748744
 40
-1.910858094252033
 40
-1.910858094252033
 40
0.0
 40
0.0
 40
0.0
 10
112.1033921604846
 20
2284.586685297792
 30
5.0
 41
1.0
 10
112.1914205458259
 20
2284.40399496893
 30
5.0
 41
0.9011712212889833
 10
112.1036428577236
 20
2284.221184054711
 30
5.0
 41
1.0
 10
111.8688108966616
 20
2283.289706454352
 30
5.0
 41
0.9919093923793318
 10
111.4069631767804
 20
2282.447392229406
 30
5.0
 41
1.0
  0
SPLINE
  5
132
330
1F
100
AcDbEntity
  8
Predefinito
100
AcDbSpline
210
0.0
220
0.0
230
1.0
 70
    12
 71
     2
 72
     6
 73
     3
 74
     0
 42
0.0000000001
 43
0.0000000001
 40
-0.4952153574711642
 40
-0.4952153574711642
 40
-0.4952153574711642
 40
0.0
 40
0.0
 40
0.0
 10
111.4069631767804
 20
2282.447392229406
 30
5.0
 41
1.0
 10
111.3300346744545
 20
2282.196075639361
 30
5.0
 41
0.9153616694234636
 10
111.0928006981757
 20
2282.082947113336
 30
5.0
 41
1.0
  0
SPLINE
  5
133
330
1F
100
AcDbEntity
  8
Predefinito
100
AcDbSpline
210
0.0
220
0.0
230
1.0
 70
    12
 71
     2
 72
     6
 73
     3
 74
     0
 42
0.0000000001
 43
0.0000000001
 40
0.0
 40
0.0
 40
0.0
 40
2.980627988117488
 40
2.980627988117488
 40
2.980627988117488
 10
111.0928006981757
 20
2282.082947113336
 30
5.0
 41
1.0
 10
109.7094143061502
 20
2282.642029215565
 30
5.0
 41
0.9982161605376644
 10
108.4131776510323
 20
2283.381355741826
 30
5.0
 41
1.0
  0
SPLINE
  5
134
330
1F
100
AcDbEntity
  8
Predefinito
100
AcDbSpline
210
0.0
220
0.0
230
1.0
 70
    12
 71
     2
 72
     6
 73
     3
 74
     0
 42
0.0000000001
 43
0.0000000001
 40
-3.126695522761689
 40
-3.126695522761689
 40
-3.126695522761689
 40
0.0
 40
0.0
 40
0.0
 10
108.4131776510323
 20
2283.381355741826
 30
5.0
 41
1.0
 10
107.0494536526347
 20
2284.157850247661
 30
5.0
 41
0.9944770864746844
 10
105.8527636026914
 20
2285.172942335539
 30
5.0
 41
1.0
  0
SPLINE
  5
135
330
1F
100
AcDbEntity
  8
Predefinito
100
AcDbSpline
210
0.0
220
0.0
230
1.0
 70
    12
 71
     2
 72
     6
 73
     3
 74
     0
 42
0.0000000001
 43
0.0000000001
 40
-1.708824233968718
 40
-1.708824233968718
 40
-1.708824233968718
 40
0.0
 40
0.0
 40
0.0
 10
105.8527636026914
 20
2285.172942335539
 30
5.0
 41
1.0
 10
105.1954606848767
 20
2285.721452051083
 30
5.000000000000003
 41
0.997312722359932
 10
104.6340083640358
 20
2286.367554978599
 30
5.0
 41
1.0
  0
SPLINE
  5
136
330
1F
100
AcDbEntity
  8
Predefinito
100
AcDbSpline
210
0.0
220
0.0
230
1.0
 70
    12
 71
     2
 72
     6
 73
     3
 74
     0
 42
0.0000000001
 43
0.0000000001
 40
0.0
 40
0.0
 40
0.0
 40
1.782227946298279
 40
1.782227946298279
 40
1.782227946298279
 10
104.6340083640359
 20
2286.367554978599
 30
5.000000000000003
 41
0.9999999970834871
 10
104.048361338573
 20
2287.043467495669
 30
5.000000000000001
 41
0.9946232339978862
 10
103.6180514566675
 20
2287.829197209247
 30
5.0
 41
1.0
  0
SPLINE
  5
137
330
1F
100
AcDbEntity
  8
Predefinito
100
AcDbSpline
210
0.0
220
0.0
230
1.0
 70
    12
 71
     2
 72
     6
 73
     3
 74
     0
 42
0.0000000001
 43
0.0000000001
 40
0.0
 40
0.0
 40
0.0
 40
1.837034384731671
 40
1.837034384731671
 40
1.837034384731671
 10
103.6180514566675
 20
2287.829197209247
 30
5.0
 41
1.0
 10
103.1744687279817
 20
2288.640383612497
 30
5.0
 41
0.9926857922119376
 10
102.935219315836
 20
2289.545808791498
 30
5.0
 41
1.0
  0
SPLINE
  5
138
330
1F
100
AcDbEntity
  8
Predefinito
100
AcDbSpline
210
0.0
220
0.0
230
1.0
 70
    12
 71
     2
 72
     6
 73
     3
 74
     0
 42
0.0000000001
 43
0.0000000001
 40
0.0
 40
0.0
 40
0.0
 40
1.839656839520212
 40
1.839656839520212
 40
1.839656839520212
 10
102.935219315836
 20
2289.545808791498
 30
5.0
 41
1.0
 10
102.6991275459103
 20
2290.453906383221
 30
5.0
 41
0.9919358113165906
 10
102.6989813901857
 20
2291.378718764584
 30
5.0
 41
1.0
  0
SPLINE
  5
139
330
1F
100
AcDbEntity
  8
Predefinito
100
AcDbSpline
210
0.0
220
0.0
230
1.0
 70
    24
 71
     2
 72
     6
 73
     3
 74
     0
 42
0.0000000001
 43
0.0000000001
 40
0.0
 40
0.0
 40
0.0
 40
2.0
 40
2.0
 40
2.0
 10
102.6989813901857
 20
2291.378718764584
 30
5.0
 10
102.6989813901857
 20
2292.378718764583
 30
5.0
 10
102.6989813901857
 20
2293.378718764582
 30
5.0
  0
SPLINE
  5
13A
330
1F
100
AcDbEntity
  8
Predefinito
100
AcDbSpline
210
0.0
220
0.0
230
1.0
 70
    12
 71
     2
 72
     6
 73
     3
 74
     0
 42
0.0000000001
 43
0.0000000001
 40
0.0
 40
0.0
 40
0.0
 40
9.127347374249739
 40
9.127347374249739
 40
9.127347374249739
 10
102.6989813901857
 20
2293.378718764582
 30
5.0
 41
1.0
 10
102.6988024332312
 20
2297.947278410289
 30
5.0
 41
0.9983965587024072
 10
103.2150169012594
 20
2302.486580106737
 30
5.0
 41
1.0
  0
SPLINE
  5
13B
330
1F
100
AcDbEntity
  8
Predefinito
100
AcDbSpline
210
0.0
220
0.0
230
1.0
 70
    24
 71
     2
 72
     6
 73
     3
 74
     0
 42
0.0000000001
 43
0.0000000001
 40
-148.1957979243061
 40
-148.1957979243061
 40
-148.1957979243061
 40
0.0
 40
0.0
 40
0.0
 10
117.9034206210352
 20
2435.149778694404
 30
5.0
 10
117.9034206226613
 20
2361.051879732251
 30
5.0
 10
117.9034206242875
 20
2286.953980770098
 30
5.0
  0
SPLINE
  5
13C
330
1F
100
AcDbEntity
  8
Predefinito
100
AcDbSpline
210
0.0
220
0.0
230
1.0
 70
    12
 71
     2
 72
     6
 73
     3
 74
     0
 42
0.0000000001
 43
0.0000000001
 40
0.0
 40
0.0
 40
0.0
 40
0.4686550721712923
 40
0.4686550721712923
 40
0.4686550721712923
 10
117.9034206242875
 20
2286.953980770098
 30
5.0
 41
1.0
 10
118.0370975570959
 20
2286.714532675483
 30
5.0
 41
0.7953507260148875
 10
118.3034206210351
 20
2286.779930971519
 30
5.0
 41
1.0
  0
SPLINE
  5
13D
330
1F
100
AcDbEntity
  8
Predefinito
100
AcDbSpline
210
0.0
220
0.0
230
1.0
 70
    12
 71
     2
 72
     6
 73
     3
 74
     0
 42
0.0000000001
 43
0.0000000001
 40
0.0
 40
0.0
 40
0.0
 40
0.4685817551555806
 40
0.4685817551555806
 40
0.4685817551555806
 10
118.3034206210351
 20
2286.779930971519
 30
5.0
 41
1.0
 10
118.5696684475474
 20
2286.714546321145
 30
5.000000000000001
 41
0.7954879044948029
 10
118.7034206206964
 20
2286.953864966214
 30
5.0
 41
1.0
  0
SPLINE
  5
13E
330
1F
100
AcDbEntity
  8
Predefinito
100
AcDbSpline
210
0.0
220
0.0
230
1.0
 70
    24
 71
     2
 72
     6
 73
     3
 74
     0
 42
0.0000000001
 43
0.0000000001
 40
-148.1959137282261
 40
-148.1959137282261
 40
-148.1959137282261
 40
0.0
 40
0.0
 40
0.0
 10
118.7034206206964
 20
2286.953864966214
 30
5.0
 10
118.7034206208658
 20
2361.051821830309
 30
5.0
 10
118.7034206210352
 20
2435.149778694404
 30
5.0
  0
SPLINE
  5
13F
330
1F
100
AcDbEntity
  8
Predefinito
100
AcDbSpline
210
0.0
220
0.0
230
1.0
 70
    24
 71
     2
 72
     6
 73
     3
 74
     0
 42
0.0000000001
 43
0.0000000001
 40
-50.50000000020009
 40
-50.50000000020009
 40
-50.50000000020009
 40
0.0
 40
0.0
 40
0.0
 10
111.810843429519
 20
2485.649778694537
 30
5.0
 10
111.8120978945562
 20
2460.399778694454
 30
5.0
 10
111.8133523595933
 20
2435.149778694371
 30
5.0
  0
SPLINE
  5
140
330
1F
100
AcDbEntity
  8
Predefinito
100
AcDbSpline
210
0.0
220
0.0
230
1.0
 70
    28
 71
     2
 72
     8
 73
     5
 74
     0
 42
0.0000000001
 43
0.0000000001
 40
-11.48644813968766
 40
-11.48644813968766
 40
-11.48644813968766
 40
-10.3822383227443
 40
-10.3822383227443
 40
0.0
 40
0.0
 40
0.0
 10
111.8133523595933
 20
2435.149778694371
 30
5.0
 41
0.944324435220616
 10
111.7792363728167
 20
2435.149778694402
 30
5.0
 41
0.968849148182098
 10
111.8232106607209
 20
2435.149778694404
 30
5.0
 41
1.0
 10
112.3897229885807
 20
2435.149778694404
 30
5.0
 41
0.707106781186548
 10
118.864988526177
 20
2435.149778694404
 30
5.0
 41
1.0
  0
SPLINE
  5
141
330
1F
100
AcDbEntity
  8
Predefinito
100
AcDbSpline
210
0.0
220
0.0
230
1.0
 70
    24
 71
     2
 72
     6
 73
     3
 74
     0
 42
0.0000000001
 43
0.0000000001
 40
0.0
 40
0.0
 40
0.0
 40
5.874360336616263
 40
5.874360336616263
 40
5.874360336616263
 10
118.864988526177
 20
2435.149778694404
 30
5.0
 10
121.8169505283661
 20
2435.149778694387
 30
5.0
 10
124.7689125305553
 20
2435.149778694371
 30
5.0
  0
SPLINE
  5
142
330
1F
100
AcDbEntity
  8
Predefinito
100
AcDbSpline
210
0.0
220
0.0
230
1.0
 70
    24
 71
     2
 72
     6
 73
     3
 74
     0
 42
0.0000000001
 43
0.0000000001
 40
-50.50000000020009
 40
-50.50000000020009
 40
-50.50000000020009
 40
0.0
 40
0.0
 40
0.0
 10
124.7689125305553
 20
2435.149778694371
 30
5.0
 10
124.7821477245068
 20
2460.399778694454
 30
5.0
 10
124.7953829184583
 20
2485.649778694537
 30
5.0
  0
SPLINE
  5
143
330
1F
100
AcDbEntity
  8
Predefinito
100
AcDbSpline
210
0.0
220
0.0
230
1.0
 70
    28
 71
     2
 72
     6
 73
     3
 74
     0
 42
0.0000000001
 43
0.0000000001
 40
30.9141443759496
 40
30.9141443759496
 40
30.9141443759496
 40
40.8407044966673
 40
40.8407044966673
 40
40.8407044966673
 10
124.7953829184583
 20
2485.649778694538
 30
5.0
 41
0.9949287510430823
 10
124.9848859528256
 20
2485.649778694537
 30
5.0
 41
0.7249231770688658
 10
118.864988526177
 20
2485.649778694537
 30
5.0
 41
1.0
  0
SPLINE
  5
144
330
1F
100
AcDbEntity
  8
Predefinito
100
AcDbSpline
210
0.0
220
0.0
230
1.0
 70
    24
 71
     2
 72
     6
 73
     3
 74
     0
 42
0.0000000001
 43
0.0000000001
 40
0.0
 40
0.0
 40
0.0
 40
7.04177786545614
 40
7.04177786545614
 40
7.04177786545614
 10
118.864988526177
 20
2485.649778694537
 30
5.0
 10
115.337915977848
 20
2485.649778694537
 30
5.0
 10
111.810843429519
 20
2485.649778694537
 30
5.0
  0
SPLINE
  5
145
330
1F
100
AcDbEntity
  8
Predefinito
100
AcDbSpline
210
0.0
220
0.0
230
1.0
 70
    24
 71
     2
 72
     6
 73
     3
 74
     0
 42
0.0000000001
 43
0.0000000001
 40
0.0
 40
0.0
 40
0.0
 40
255.9446994462787
 40
255.9446994462787
 40
255.9446994462787
 10
118.7034206210352
 20
2741.594478140817
 30
5.0
 10
118.7034206210352
 20
2613.622128417677
 30
5.0
 10
118.7034206210352
 20
2485.649778694538
 30
5.0
  0
SPLINE
  5
146
330
1F
100
AcDbEntity
  8
Predefinito
100
AcDbSpline
210
0.0
220
0.0
230
1.0
 70
    24
 71
     2
 72
     6
 73
     3
 74
     0
 42
0.0000000001
 43
0.0000000001
 40
0.0
 40
0.0
 40
0.0
 40
255.9446994462787
 40
255.9446994462787
 40
255.9446994462787
 10
117.9034206210352
 20
2485.649778694538
 30
5.0
 10
117.9034206210352
 20
2613.622128417677
 30
5.0
 10
117.9034206210352
 20
2741.594478140817
 30
5.0
  0
SPLINE
  5
147
330
1F
100
AcDbEntity
  8
Predefinito
100
AcDbSpline
210
0.0
220
0.0
230
1.0
 70
    24
 71
     2
 72
     6
 73
     3
 74
     0
 42
0.0000000001
 43
0.0000000001
 40
0.0
 40
0.0
 40
0.0
 40
13.39947309394347
 40
13.39947309394347
 40
13.39947309394347
 10
116.9484761967841
 20
2485.649778694537
 30
5.0
 10
116.9484761967841
 20
2492.349515241509
 30
5.0
 10
116.9484761967841
 20
2499.04925178848
 30
5.0
  0
SPLINE
  5
148
330
1F
100
AcDbEntity
  8
Predefinito
100
AcDbSpline
210
0.0
220
0.0
230
1.0
 70
    24
 71
     2
 72
     6
 73
     3
 74
     0
 42
0.0000000001
 43
0.0000000001
 40
0.0
 40
0.0
 40
0.0
 40
8.609004778266353
 40
8.609004778266353
 40
8.609004778266353
 10
116.9484761967841
 20
2499.04925178848
 30
5.0
 10
116.9484775759435
 20
2503.353754773097
 30
5.0
 10
116.9484789551028
 20
2507.658257757713
 30
5.0
  0
SPLINE
  5
149
330
1F
100
AcDbEntity
  8
Predefinito
100
AcDbSpline
210
0.0
220
0.0
230
1.0
 70
    12
 71
     2
 72
     6
 73
     3
 74
     0
 42
0.0000000001
 43
0.0000000001
 40
0.0
 40
0.0
 40
0.0
 40
40.51176771359291
 40
40.51176771359291
 40
40.51176771359291
 10
116.9484789551028
 20
2507.658257757713
 30
5.0
 41
1.0
 10
116.9484817134784
 20
2527.914142805623
 30
5.000000000000003
 41
0.9999999999890347
 10
116.9486685304437
 20
2548.170032976242
 30
5.0
 41
1.0
  0
SPLINE
  5
14A
330
1F
100
AcDbEntity
  8
Predefinito
100
AcDbSpline
210
0.0
220
0.0
230
1.0
 70
    12
 71
     2
 72
     6
 73
     3
 74
     0
 42
0.0000000001
 43
0.0000000001
 40
0.0
 40
0.0
 40
0.0
 40
40.51175377943212
 40
40.51175377943212
 40
40.51175377943212
 10
116.9486685304437
 20
2548.170032976242
 30
5.0
 41
1.0
 10
116.9488553478493
 20
2568.425916180319
 30
5.0
 41
0.9999999999491456
 10
116.9494536732781
 20
2588.681812975092
 30
5.0
 41
1.0
  0
SPLINE
  5
14B
330
1F
100
AcDbEntity
  8
Predefinito
100
AcDbSpline
210
0.0
220
0.0
230
1.0
 70
    12
 71
     2
 72
     6
 73
     3
 74
     0
 42
0.0000000001
 43
0.0000000001
 40
0.0
 40
0.0
 40
0.0
 40
21.60712124364761
 40
21.60712124364761
 40
21.60712124364761
 10
116.9494536732781
 20
2588.681812975092
 30
5.0
 41
1.0
 10
116.9497728134672
 20
2599.485393505629
 30
5.0
 41
0.9999999999692815
 10
116.9502613190766
 20
2610.288984598807
 30
5.0
 41
1.0
  0
SPLINE
  5
14C
330
1F
100
AcDbEntity
  8
Predefinito
100
AcDbSpline
210
0.0
220
0.0
230
1.0
 70
    12
 71
     2
 72
     6
 73
     3
 74
     0
 42
0.0000000001
 43
0.0000000001
 40
0.0
 40
0.0
 40
0.0
 40
21.60708917016526
 40
21.60708917016526
 40
21.60708917016526
 10
116.9502613190766
 20
2610.288984598807
 30
5.0
 41
1.0
 10
116.950749824617
 20
2621.092559655851
 30
5.0
 41
0.9999999998847382
 10
116.9515663503398
 20
2631.896155165844
 30
5.0
 41
1.0
  0
SPLINE
  5
14D
330
1F
100
AcDbEntity
  8
Predefinito
100
AcDbSpline
210
0.0
220
0.0
230
1.0
 70
    12
 71
     2
 72
     6
 73
     3
 74
     0
 42
0.0000000001
 43
0.0000000001
 40
0.0
 40
0.0
 40
0.0
 40
19.10019808962431
 40
19.10019808962431
 40
19.10019808962431
 10
116.9515663503398
 20
2631.896155165844
 30
5.0
 41
1.0
 10
116.9522881438507
 20
2641.446305139023
 30
4.999999999999997
 41
0.9999999998886498
 10
116.9532950136878
 20
2650.9964752088
 30
5.0
 41
1.0
  0
LINE
  5
14E
330
1F
100
AcDbEntity
  8
Predefinito
100
AcDbLine
 10
116.9532950136878
 20
2650.9964752088
 30
5.0
 11
116.9543018860899
 21
2716.421024582964
 31
5.0
  0
SPLINE
  5
14F
330
1F
100
AcDbEntity
  8
Predefinito
100
AcDbSpline
210
0.0
220
0.0
230
1.0
 70
    24
 71
     2
 72
     6
 73
     3
 74
     0
 42
0.0000000001
 43
0.0000000001
 40
0.0
 40
0.0
 40
0.0
 40
2.156086036030956
 40
2.156086036030956
 40
2.156086036030956
 10
116.9543018860899
 20
2716.421024582964
 30
5.0
 10
116.9543018883983
 20
2717.49906760098
 30
5.0
 10
116.9543018907067
 20
2718.577110618995
 30
5.0
  0
SPLINE
  5
150
330
1F
100
AcDbEntity
  8
Predefinito
100
AcDbSpline
210
0.0
220
0.0
230
1.0
 70
    24
 71
     2
 72
     6
 73
     3
 74
     0
 42
0.0000000001
 43
0.0000000001
 40
0.0
 40
0.0
 40
0.0
 40
2.244185010057663
 40
2.244185010057663
 40
2.244185010057663
 10
116.9543018907067
 20
2718.577110618995
 30
5.0
 10
116.9543018907259
 20
2719.699203124024
 30
5.0
 10
116.9543018907451
 20
2720.821295629054
 30
5.0
  0
SPLINE
  5
151
330
1F
100
AcDbEntity
  8
Predefinito
100
AcDbSpline
210
0.0
220
0.0
230
1.0
 70
    24
 71
     2
 72
     6
 73
     3
 74
     0
 42
0.0000000001
 43
0.0000000001
 40
0.0
 40
0.0
 40
0.0
 40
2.273182511765754
 40
2.273182511765754
 40
2.273182511765754
 10
116.9543018907451
 20
2720.821295629054
 30
5.0
 10
116.9543018907518
 20
2721.957886884936
 30
5.0
 10
116.9543018907584
 20
2723.094478140818
 30
5.0
  0
SPLINE
  5
152
330
1F
100
AcDbEntity
  8
Predefinito
100
AcDbSpline
210
0.0
220
0.0
230
1.0
 70
    24
 71
     2
 72
     6
 73
     3
 74
     0
 42
0.0000000001
 43
0.0000000001
 40
0.0
 40
0.0
 40
0.0
 40
18.5
 40
18.5
 40
18.5
 10
116.9543018907584
 20
2723.094478140818
 30
5.0
 10
116.9543018907585
 20
2732.344478140817
 30
5.0
 10
116.9543018907586
 20
2741.594478140817
 30
5.0
  0
SPLINE
  5
153
330
1F
100
AcDbEntity
  8
Predefinito
100
AcDbSpline
210
0.0
220
0.0
230
1.0
 70
    24
 71
     2
 72
     6
 73
     3
 74
     0
 42
0.0000000001
 43
0.0000000001
 40
0.0
 40
0.0
 40
0.0
 40
18.5
 40
18.5
 40
18.5
 10
119.6543018907586
 20
2741.594478140817
 30
5.0
 10
119.6543018907585
 20
2732.344478140817
 30
5.0
 10
119.6543018907584
 20
2723.094478140818
 30
5.0
  0
SPLINE
  5
154
330
1F
100
AcDbEntity
  8
Predefinito
100
AcDbSpline
210
0.0
220
0.0
230
1.0
 70
    24
 71
     2
 72
     6
 73
     3
 74
     0
 42
0.0000000001
 43
0.0000000001
 40
0.0
 40
0.0
 40
0.0
 40
2.273182511765754
 40
2.273182511765754
 40
2.273182511765754
 10
119.6543018907584
 20
2723.094478140818
 30
5.0
 10
119.6543018907518
 20
2721.957886884936
 30
5.0
 10
119.6543018907451
 20
2720.821295629054
 30
5.0
  0
SPLINE
  5
155
330
1F
100
AcDbEntity
  8
Predefinito
100
AcDbSpline
210
0.0
220
0.0
230
1.0
 70
    24
 71
     2
 72
     6
 73
     3
 74
     0
 42
0.0000000001
 43
0.0000000001
 40
0.0
 40
0.0
 40
0.0
 40
2.244185010057663
 40
2.244185010057663
 40
2.244185010057663
 10
119.6543018907451
 20
2720.821295629054
 30
5.0
 10
119.6543018907259
 20
2719.699203124024
 30
5.0
 10
119.6543018907067
 20
2718.577110618995
 30
5.0
  0
SPLINE
  5
156
330
1F
100
AcDbEntity
  8
Predefinito
100
AcDbSpline
210
0.0
220
0.0
230
1.0
 70
    24
 71
     2
 72
     6
 73
     3
 74
     0
 42
0.0000000001
 43
0.0000000001
 40
0.0
 40
0.0
 40
0.0
 40
2.156086036030956
 40
2.156086036030956
 40
2.156086036030956
 10
119.6543018907067
 20
2718.577110618995
 30
5.0
 10
119.6543018903181
 20
2717.49906760098
 30
5.0
 10
119.6543018899294
 20
2716.421024582964
 30
5.0
  0
LINE
  5
157
330
1F
100
AcDbEntity
  8
Predefinito
100
AcDbLine
 10
119.6543018899294
 20
2716.421024582964
 30
5.0
 11
119.6543018860976
 21
2670.096715293194
 31
5.0
  0
SPLINE
  5
158
330
1F
100
AcDbEntity
  8
Predefinito
100
AcDbSpline
210
0.0
220
0.0
230
1.0
 70
    12
 71
     2
 72
     6
 73
     3
 74
     0
 42
0.0000000001
 43
0.0000000001
 40
0.0
 40
0.0
 40
0.0
 40
19.1003115347716
 40
19.1003115347716
 40
19.1003115347716
 10
119.6543018860976
 20
2670.096715293194
 30
5.0
 41
1.0
 10
119.6543018832876
 20
2660.546559515682
 30
5.0
 41
0.999999998610711
 10
119.6532950136478
 20
2650.996332715205
 30
5.0
 41
1.0
  0
SPLINE
  5
159
330
1F
100
AcDbEntity
  8
Predefinito
100
AcDbSpline
210
0.0
220
0.0
230
1.0
 70
    12
 71
     2
 72
     6
 73
     3
 74
     0
 42
0.0000000001
 43
0.0000000001
 40
0.0
 40
0.0
 40
0.0
 40
19.10015774886874
 40
19.10015774886874
 40
19.10015774886874
 10
119.6532950136478
 20
2650.996332715205
 30
5.0
 41
1.0
 10
119.6522881438629
 20
2641.446182815818
 30
5.0
 41
0.9999999998886494
 10
119.6515663504045
 20
2631.896053013043
 30
5.0
 41
1.0
  0
SPLINE
  5
15A
330
1F
100
AcDbEntity
  8
Predefinito
100
AcDbSpline
210
0.0
220
0.0
230
1.0
 70
    12
 71
     2
 72
     6
 73
     3
 74
     0
 42
0.0000000001
 43
0.0000000001
 40
0.0
 40
0.0
 40
0.0
 40
21.6070481271037
 40
21.6070481271037
 40
21.6070481271037
 10
119.6515663504045
 20
2631.896053013043
 30
5.0
 41
1.0
 10
119.6507498246589
 20
2621.092478024611
 30
5.0
 41
0.9999999998847378
 10
119.6502613190294
 20
2610.288923489099
 30
5.0
 41
1.0
  0
SPLINE
  5
15B
330
1F
100
AcDbEntity
  8
Predefinito
100
AcDbSpline
210
0.0
220
0.0
230
1.0
 70
    12
 71
     2
 72
     6
 73
     3
 74
     0
 42
0.0000000001
 43
0.0000000001
 40
0.0
 40
0.0
 40
0.0
 40
21.60710005530145
 40
21.60710005530145
 40
21.60710005530145
 10
119.6502613190294
 20
2610.288923489099
 30
5.0
 41
1.0
 10
119.6497728131517
 20
2599.485342990098
 30
5.0
 41
0.9999999999692815
 10
119.649453673064
 20
2588.681773053764
 30
5.0
 41
1.0
  0
SPLINE
  5
15C
330
1F
100
AcDbEntity
  8
Predefinito
100
AcDbSpline
210
0.0
220
0.0
230
1.0
 70
    12
 71
     2
 72
     6
 73
     3
 74
     0
 42
0.0000000001
 43
0.0000000001
 40
0.0
 40
0.0
 40
0.0
 40
40.51172651731343
 40
40.51172651731343
 40
40.51172651731343
 10
119.649453673064
 20
2588.681773053764
 30
5.0
 41
1.0
 10
119.6488553477529
 20
2568.425889890078
 30
4.999999999999997
 41
0.9999999999491455
 10
119.648668530502
 20
2548.170020317069
 30
5.0
 41
1.0
  0
SPLINE
  5
15D
330
1F
100
AcDbEntity
  8
Predefinito
100
AcDbSpline
210
0.0
220
0.0
230
1.0
 70
    12
 71
     2
 72
     6
 73
     3
 74
     0
 42
0.0000000001
 43
0.0000000001
 40
0.0
 40
0.0
 40
0.0
 40
40.51175505442575
 40
40.51175505442575
 40
40.51175505442575
 10
119.648668530502
 20
2548.170020317069
 30
5.0
 41
1.0
 10
119.64848171339
 20
2527.914136476039
 30
5.000000000000003
 41
0.9999999999890347
 10
119.6484789548917
 20
2507.658257757712
 30
5.0
 41
1.0
  0
SPLINE
  5
15E
330
1F
100
AcDbEntity
  8
Predefinito
100
AcDbSpline
210
0.0
220
0.0
230
1.0
 70
    24
 71
     2
 72
     6
 73
     3
 74
     0
 42
0.0000000001
 43
0.0000000001
 40
0.0
 40
0.0
 40
0.0
 40
8.609004778265898
 40
8.609004778265898
 40
8.609004778265898
 10
119.6484789548917
 20
2507.658257757712
 30
5.0
 10
119.6484775758379
 20
2503.353754773097
 30
5.0
 10
119.6484761967841
 20
2499.04925178848
 30
5.0
  0
SPLINE
  5
15F
330
1F
100
AcDbEntity
  8
Predefinito
100
AcDbSpline
210
0.0
220
0.0
230
1.0
 70
    24
 71
     2
 72
     6
 73
     3
 74
     0
 42
0.0000000001
 43
0.0000000001
 40
0.0
 40
0.0
 40
0.0
 40
13.39947309394347
 40
13.39947309394347
 40
13.39947309394347
 10
119.6484761967841
 20
2499.04925178848
 30
5.0
 10
119.6484761967841
 20
2492.349515241509
 30
5.0
 10
119.6484761967841
 20
2485.649778694537
 30
5.0
  0
SPLINE
  5
160
330
1F
100
AcDbEntity
  8
Predefinito
100
AcDbSpline
210
0.0
220
0.0
230
1.0
 70
    12
 71
     2
 72
    20
 73
    17
 74
     0
 42
0.0000000001
 43
0.0000000001
 40
-37.82271515553857
 40
-37.82271515553857
 40
-37.82271515553857
 40
-36.53501839771697
 40
-36.53501839771697
 40
-29.26085751010309
 40
-29.26085751010309
 40
-21.98651783437609
 40
-21.98651783437609
 40
-18.93589671435404
 40
-18.93589671435404
 40
-15.88527559427776
 40
-15.88527559427776
 40
-8.610689378146914
 40
-8.610689378146914
 40
-1.337961041356906
 40
-1.337961041356906
 40
0.0
 40
0.0
 40
0.0
 10
126.7905484205396
 20
1626.083432946945
 30
5.0
 41
1.0
 10
126.7892644637368
 20
1625.41209910412
 30
4.999999999999999
 41
0.9920998125478376
 10
126.6269952778032
 20
1624.785504073199
 30
5.0
 41
1.0
 10
125.7233233763317
 20
1621.254317768738
 30
5.000000000000001
 41
0.9967511560763251
 10
124.2644011346822
 20
1617.91404150544
 30
5.0
 41
1.0
 10
122.8031144050678
 20
1614.575185039949
 30
4.999999999999998
 41
0.9969328507952142
 10
120.8387219875965
 20
1611.505252820263
 30
5.0
 41
1.0
 10
119.9592438308046
 20
1610.083334807018
 30
5.0
 41
0.8735065337238227
 10
118.2873189925829
 20
1610.08333480701
 30
5.0
 41
1.0
 10
116.6153941543252
 20
1610.083334807018
 30
4.999999999999999
 41
0.8735065337193679
 10
115.7359159975406
 20
1611.505252820308
 30
5.0
 41
1.0
 10
113.7714641347119
 20
1614.575293792896
 30
5.000000000000001
 41
0.9969328010203857
 10
112.3101399052855
 20
1617.91426881395
 30
5.0
 41
1.0
 10
110.8512894701508
 20
1621.253832165994
 30
5.000000000000001
 41
0.9967364884737218
 10
109.9488584561411
 20
1624.784631826037
 30
5.0
 41
1.0
 10
109.7791252262141
 20
1625.435732616155
 30
4.999999999999999
 41
0.9913722269618869
 10
109.7844400632959
 20
1626.108572389609
 30
5.0
 41
1.0
  0
VIEWPORT
  5
16A
330
166
100
AcDbEntity
 67
     1
  8
0
100
AcDbViewport
 10
6.0
 20
4.5
 30
0.0
 40
12.696
 41
9.522
 68
     1
 69
     1
 12
6.0
 22
4.5
 13
0.0
 23
0.0
 14
0.5
 24
0.5
 15
0.5
 25
0.5
 16
0.0
 26
0.0
 36
1.0
 17
0.0
 27
0.0
 37
0.0
 42
50.0
 43
0.0
 44
0.0
 45
9.522
 50
0.0
 51
0.0
 72
   100
 90
   557152
  1

281
     0
 71
     1
 74
     0
110
0.0
120
0.0
130
0.0
111
1.0
121
0.0
131
0.0
112
0.0
122
1.0
132
0.0
 79
     0
146
0.0
170
     0
  0
ENDSEC
  0
SECTION
  2
OBJECTS
  0
DICTIONARY
  5
C
330
0
100
AcDbDictionary
281
     1
  3
ACAD_GROUP
350
D
  3
ACAD_LAYOUT
350
1A
  3
ACAD_MLEADERSTYLE
350
190
  3
ACAD_MLINESTYLE
350
17
  3
ACAD_PLOTSETTINGS
350
19
  3
ACAD_PLOTSTYLENAME
350
E
  3
ACAD_SCALELIST
350
16B
  3
ACAD_TABLESTYLE
350
18F
  3
ACAD_VISUALSTYLE
350
2A
  3
AcDbVariableDictionary
350
18D
  0
DICTIONARY
  5
D
102
{ACAD_REACTORS
330
C
102
}
330
C
100
AcDbDictionary
281
     1
  0
DICTIONARY
  5
1A
102
{ACAD_REACTORS
330
C
102
}
330
C
100
AcDbDictionary
281
     1
  3
Layout1
350
162
  3
Layout2
350
167
  3
Model
350
22
  0
DICTIONARY
  5
190
102
{ACAD_REACTORS
330
C
102
}
330
C
100
AcDbDictionary
281
     1
  0
DICTIONARY
  5
17
102
{ACAD_REACTORS
330
C
102
}
330
C
100
AcDbDictionary
281
     1
  3
Standard
350
18
  0
DICTIONARY
  5
19
102
{ACAD_REACTORS
330
C
102
}
330
C
100
AcDbDictionary
281
     1
  0
ACDBDICTIONARYWDFLT
  5
E
102
{ACAD_REACTORS
330
C
102
}
330
C
100
AcDbDictionary
281
     1
  3
Normal
350
F
100
AcDbDictionaryWithDefault
340
F
  0
DICTIONARY
  5
16B
102
{ACAD_REACTORS
330
C
102
}
330
C
100
AcDbDictionary
281
     1
  3
A0
350
16C
  3
A1
350
16D
  3
A2
350
16E
  3
A3
350
16F
  3
A4
350
170
  3
A5
350
171
  3
A6
350
172
  3
A7
350
173
  3
A8
350
174
  3
A9
350
175
  3
B0
350
176
  3
B1
350
177
  3
B2
350
178
  3
B3
350
179
  3
B4
350
17A
  3
B5
350
17B
  3
B6
350
17C
  3
B7
350
17D
  3
B8
350
17E
  3
B9
350
17F
  3
C0
350
180
  3
C1
350
181
  3
C2
350
182
  3
C3
350
183
  3
C4
350
184
  3
C5
350
185
  3
C6
350
186
  3
C7
350
187
  3
C8
350
188
  3
C9
350
189
  3
D0
350
18A
  3
D1
350
18B
  3
D2
350
18C
  0
DICTIONARY
  5
18F
102
{ACAD_REACTORS
330
C
102
}
330
C
100
AcDbDictionary
281
     1
  0
DICTIONARY
  5
2A
102
{ACAD_REACTORS
330
C
102
}
330
C
100
AcDbDictionary
281
     1
  3
2dWireframe
350
2F
  3
3D Hidden
350
31
  3
3dWireframe
350
30
  3
Basic
350
32
  3
Brighten
350
36
  3
ColorChange
350
3A
  3
Conceptual
350
34
  3
Dim
350
35
  3
Facepattern
350
39
  3
Flat
350
2B
  3
FlatWithEdges
350
2C
  3
Gouraud
350
2D
  3
GouraudWithEdges
350
2E
  3
Linepattern
350
38
  3
Realistic
350
33
  3
Thicken
350
37
  0
DICTIONARY
  5
18D
102
{ACAD_REACTORS
330
C
102
}
330
C
100
AcDbDictionary
281
     1
  3
CANNOSCALE
350
18E
  0
LAYOUT
  5
162
102
{ACAD_REACTORS
330
1A
102
}
330
1A
100
AcDbPlotSettings
  1

  2
none_device
  4
Letter_(8.50_x_11.00_Inches)
  6

 40
6.35
 41
6.35
 42
6.35000508
 43
6.35000508
 44
215.9
 45
279.4
 46
0.0
 47
0.0
 48
0.0
 49
0.0
140
0.0
141
0.0
142
1.0
143
1.0
 70
   688
 72
     0
 73
     1
 74
     5
  7

 75
    16
 76
     0
 77
     2
 78
   300
147
1.0
148
0.0
149
0.0
100
AcDbLayout
  1
Layout1
 70
     1
 71
     1
 10
0.0
 20
0.0
 11
0.0
 21
0.0
 12
0.0
 22
0.0
 32
0.0
 14
0.0
 24
0.0
 34
0.0
 15
0.0
 25
0.0
 35
0.0
146
0.0
 13
0.0
 23
0.0
 33
0.0
 16
1.0
 26
0.0
 36
0.0
 17
0.0
 27
1.0
 37
0.0
 76
     0
330
161
331
165
  0
LAYOUT
  5
167
102
{ACAD_REACTORS
330
1A
102
}
330
1A
100
AcDbPlotSettings
  1

  2
none_device
  4
Letter_(8.50_x_11.00_Inches)
  6

 40
6.35
 41
6.35
 42
6.35000508
 43
6.35000508
 44
215.9
 45
279.4
 46
0.0
 47
0.0
 48
0.0
 49
0.0
140
0.0
141
0.0
142
1.0
143
1.0
 70
   688
 72
     0
 73
     1
 74
     5
  7

 75
    16
 76
     0
 77
     2
 78
   300
147
1.0
148
0.0
149
0.0
100
AcDbLayout
  1
Layout2
 70
     1
 71
     2
 10
0.0
 20
0.0
 11
0.0
 21
0.0
 12
0.0
 22
0.0
 32
0.0
 14
0.0
 24
0.0
 34
0.0
 15
0.0
 25
0.0
 35
0.0
146
0.0
 13
0.0
 23
0.0
 33
0.0
 16
1.0
 26
0.0
 36
0.0
 17
0.0
 27
1.0
 37
0.0
 76
     0
330
166
331
16A
  0
LAYOUT
  5
22
102
{ACAD_REACTORS
330
1A
102
}
330
1A
100
AcDbPlotSettings
  1

  2
none_device
  4

  6

 40
0.0
 41
0.0
 42
0.0
 43
0.0
 44
0.0
 45
0.0
 46
0.0
 47
0.0
 48
0.0
 49
0.0
140
0.0
141
0.0
142
1.0
143
1.0
 70
  1712
 72
     0
 73
     0
 74
     0
  7

 75
     0
 76
     0
 77
     2
 78
   300
147
1.0
148
0.0
149
0.0
100
AcDbLayout
  1
Model
 70
     1
 71
     0
 10
0.0
 20
0.0
 11
12.0
 21
9.0
 12
0.0
 22
0.0
 32
0.0
 14
0.0235960188985009
 24
0.0403032184933705
 34
0.0
 15
1843.196296081258
 25
2785.094470527986
 35
5.000000000000003
146
0.0
 13
0.0
 23
0.0
 33
0.0
 16
1.0
 26
0.0
 36
0.0
 17
0.0
 27
1.0
 37
0.0
 76
     0
330
1F
331
29
  0
MLINESTYLE
  5
18
102
{ACAD_REACTORS
330
17
102
}
330
17
100
AcDbMlineStyle
  2
Standard
 70
     0
  3

 62
   256
 51
90.0
 52
90.0
 71
     2
 49
0.5
 62
   256
  6
BYLAYER
 49
-0.5
 62
   256
  6
BYLAYER
  0
ACDBPLACEHOLDER
  5
F
102
{ACAD_REACTORS
330
E
102
}
330
E
  0
SCALE
  5
16C
102
{ACAD_REACTORS
330
16B
102
}
330
16B
100
AcDbScale
 70
     0
300
1:1
140
1.0
141
1.0
290
     1
  0
SCALE
  5
16D
102
{ACAD_REACTORS
330
16B
102
}
330
16B
100
AcDbScale
 70
     0
300
1:2
140
1.0
141
2.0
290
     0
  0
SCALE
  5
16E
102
{ACAD_REACTORS
330
16B
102
}
330
16B
100
AcDbScale
 70
     0
300
1:4
140
1.0
141
4.0
290
     0
  0
SCALE
  5
16F
102
{ACAD_REACTORS
330
16B
102
}
330
16B
100
AcDbScale
 70
     0
300
1:5
140
1.0
141
5.0
290
     0
  0
SCALE
  5
170
102
{ACAD_REACTORS
330
16B
102
}
330
16B
100
AcDbScale
 70
     0
300
1:8
140
1.0
141
8.0
290
     0
  0
SCALE
  5
171
102
{ACAD_REACTORS
330
16B
102
}
330
16B
100
AcDbScale
 70
     0
300
1:10
140
1.0
141
10.0
290
     0
  0
SCALE
  5
172
102
{ACAD_REACTORS
330
16B
102
}
330
16B
100
AcDbScale
 70
     0
300
1:16
140
1.0
141
16.0
290
     0
  0
SCALE
  5
173
102
{ACAD_REACTORS
330
16B
102
}
330
16B
100
AcDbScale
 70
     0
300
1:20
140
1.0
141
20.0
290
     0
  0
SCALE
  5
174
102
{ACAD_REACTORS
330
16B
102
}
330
16B
100
AcDbScale
 70
     0
300
1:30
140
1.0
141
30.0
290
     0
  0
SCALE
  5
175
102
{ACAD_REACTORS
330
16B
102
}
330
16B
100
AcDbScale
 70
     0
300
1:40
140
1.0
141
40.0
290
     0
  0
SCALE
  5
176
102
{ACAD_REACTORS
330
16B
102
}
330
16B
100
AcDbScale
 70
     0
300
1:50
140
1.0
141
50.0
290
     0
  0
SCALE
  5
177
102
{ACAD_REACTORS
330
16B
102
}
330
16B
100
AcDbScale
 70
     0
300
1:100
140
1.0
141
100.0
290
     0
  0
SCALE
  5
178
102
{ACAD_REACTORS
330
16B
102
}
330
16B
100
AcDbScale
 70
     0
300
2:1
140
2.0
141
1.0
290
     0
  0
SCALE
  5
179
102
{ACAD_REACTORS
330
16B
102
}
330
16B
100
AcDbScale
 70
     0
300
4:1
140
4.0
141
1.0
290
     0
  0
SCALE
  5
17A
102
{ACAD_REACTORS
330
16B
102
}
330
16B
100
AcDbScale
 70
     0
300
8:1
140
8.0
141
1.0
290
     0
  0
SCALE
  5
17B
102
{ACAD_REACTORS
330
16B
102
}
330
16B
100
AcDbScale
 70
     0
300
10:1
140
10.0
141
1.0
290
     0
  0
SCALE
  5
17C
102
{ACAD_REACTORS
330
16B
102
}
330
16B
100
AcDbScale
 70
     0
300
100:1
140
100.0
141
1.0
290
     0
  0
SCALE
  5
17D
102
{ACAD_REACTORS
330
16B
102
}
330
16B
100
AcDbScale
 70
     0
300
1/128" = 1'-0"
140
0.0078125
141
12.0
290
     0
  0
SCALE
  5
17E
102
{ACAD_REACTORS
330
16B
102
}
330
16B
100
AcDbScale
 70
     0
300
1/64" = 1'-0"
140
0.015625
141
12.0
290
     0
  0
SCALE
  5
17F
102
{ACAD_REACTORS
330
16B
102
}
330
16B
100
AcDbScale
 70
     0
300
1/32" = 1'-0"
140
0.03125
141
12.0
290
     0
  0
SCALE
  5
180
102
{ACAD_REACTORS
330
16B
102
}
330
16B
100
AcDbScale
 70
     0
300
1/16" = 1'-0"
140
0.0625
141
12.0
290
     0
  0
SCALE
  5
181
102
{ACAD_REACTORS
330
16B
102
}
330
16B
100
AcDbScale
 70
     0
300
3/32" = 1'-0"
140
0.09375
141
12.0
290
     0
  0
SCALE
  5
182
102
{ACAD_REACTORS
330
16B
102
}
330
16B
100
AcDbScale
 70
     0
300
1/8" = 1'-0"
140
0.125
141
12.0
290
     0
  0
SCALE
  5
183
102
{ACAD_REACTORS
330
16B
102
}
330
16B
100
AcDbScale
 70
     0
300
3/16" = 1'-0"
140
0.1875
141
12.0
290
     0
  0
SCALE
  5
184
102
{ACAD_REACTORS
330
16B
102
}
330
16B
100
AcDbScale
 70
     0
300
1/4" = 1'-0"
140
0.25
141
12.0
290
     0
  0
SCALE
  5
185
102
{ACAD_REACTORS
330
16B
102
}
330
16B
100
AcDbScale
 70
     0
300
3/8" = 1'-0"
140
0.375
141
12.0
290
     0
  0
SCALE
  5
186
102
{ACAD_REACTORS
330
16B
102
}
330
16B
100
AcDbScale
 70
     0
300
1/2" = 1'-0"
140
0.5
141
12.0
290
     0
  0
SCALE
  5
187
102
{ACAD_REACTORS
330
16B
102
}
330
16B
100
AcDbScale
 70
     0
300
3/4" = 1'-0"
140
0.75
141
12.0
290
     0
  0
SCALE
  5
188
102
{ACAD_REACTORS
330
16B
102
}
330
16B
100
AcDbScale
 70
     0
300
1" = 1'-0"
140
1.0
141
12.0
290
     0
  0
SCALE
  5
189
102
{ACAD_REACTORS
330
16B
102
}
330
16B
100
AcDbScale
 70
     0
300
1-1/2" = 1'-0"
140
1.5
141
12.0
290
     0
  0
SCALE
  5
18A
102
{ACAD_REACTORS
330
16B
102
}
330
16B
100
AcDbScale
 70
     0
300
3" = 1'-0"
140
3.0
141
12.0
290
     0
  0
SCALE
  5
18B
102
{ACAD_REACTORS
330
16B
102
}
330
16B
100
AcDbScale
 70
     0
300
6" = 1'-0"
140
6.0
141
12.0
290
     0
  0
SCALE
  5
18C
102
{ACAD_REACTORS
330
16B
102
}
330
16B
100
AcDbScale
 70
     0
300
1'-0" = 1'-0"
140
12.0
141
12.0
290
     0
  0
VISUALSTYLE
  5
2F
102
{ACAD_REACTORS
330
2A
102
}
330
2A
100
AcDbVisualStyle
  2
2dWireframe
 70
     4
 71
     0
 72
     2
 73
     0
 90
        0
 40
-0.6
 41
-30.0
 62
     5
 63
     7
421
 16777215
 74
     1
 91
        4
 64
     7
 65
   257
 75
     1
175
     1
 42
1.0
 92
        0
 66
   257
 43
1.0
 76
     1
 77
     6
 78
     2
 67
     7
 79
     5
170
     0
171
     0
290
     0
174
     0
 93
        1
 44
0.0
173
     0
291
     0
 45
0.0
1001
ACAD
1000
AcDbSavedByObjectVersion
1070
     0
  0
VISUALSTYLE
  5
31
102
{ACAD_REACTORS
330
2A
102
}
330
2A
100
AcDbVisualStyle
  2
3D Hidden
 70
     6
 71
     1
 72
     2
 73
     2
 90
        0
 40
-0.6
 41
-30.0
 62
     5
 63
     7
421
 16777215
 74
     2
 91
        2
 64
     7
 65
   257
 75
     2
175
     1
 42
40.0
 92
        0
 66
   257
 43
1.0
 76
     1
 77
     6
 78
     2
 67
     7
 79
     3
170
     0
171
     0
290
     0
174
     0
 93
        1
 44
0.0
173
     0
291
     0
 45
0.0
1001
ACAD
1000
AcDbSavedByObjectVersion
1070
     0
  0
VISUALSTYLE
  5
30
102
{ACAD_REACTORS
330
2A
102
}
330
2A
100
AcDbVisualStyle
  2
3dWireframe
 70
     5
 71
     0
 72
     2
 73
     0
 90
        0
 40
-0.6
 41
-30.0
 62
     5
 63
     7
421
 16777215
 74
     1
 91
        4
 64
     7
 65
   257
 75
     1
175
     1
 42
1.0
 92
        0
 66
   257
 43
1.0
 76
     1
 77
     6
 78
     2
 67
     7
 79
     5
170
     0
171
     0
290
     0
174
     0
 93
        1
 44
0.0
173
     0
291
     0
 45
0.0
1001
ACAD
1000
AcDbSavedByObjectVersion
1070
     0
  0
VISUALSTYLE
  5
32
102
{ACAD_REACTORS
330
2A
102
}
330
2A
100
AcDbVisualStyle
  2
Basic
 70
     7
 71
     1
 72
     0
 73
     1
 90
        0
 40
-0.6
 41
-30.0
 62
     5
 63
     7
421
 16777215
 74
     0
 91
        4
 64
     7
 65
   257
 75
     1
175
     1
 42
1.0
 92
        8
 66
     7
 43
1.0
 76
     1
 77
     6
 78
     2
 67
     7
 79
     5
170
     0
171
     0
290
     0
174
     0
 93
        1
 44
0.0
173
     0
291
     1
 45
0.0
1001
ACAD
1000
AcDbSavedByObjectVersion
1070
     0
  0
VISUALSTYLE
  5
36
102
{ACAD_REACTORS
330
2A
102
}
330
2A
100
AcDbVisualStyle
  2
Brighten
 70
    12
 71
     2
 72
     2
 73
     0
 90
        0
 40
-0.6
 41
-30.0
 62
     5
 63
     7
421
 16777215
 74
     1
 91
        4
 64
     7
 65
   257
 75
     1
175
     1
 42
1.0
 92
        8
 66
     7
 43
1.0
 76
     1
 77
     6
 78
     2
 67
     7
 79
     5
170
     0
171
     0
290
     0
174
     0
 93
        1
 44
50.0
173
     0
291
     1
 45
0.0
1001
ACAD
1000
AcDbSavedByObjectVersion
1070
     0
  0
VISUALSTYLE
  5
3A
102
{ACAD_REACTORS
330
2A
102
}
330
2A
100
AcDbVisualStyle
  2
ColorChange
 70
    16
 71
     2
 72
     2
 73
     3
 90
        0
 40
-0.6
 41
-30.0
 62
     5
 63
     8
421
  8421504
 74
     1
 91
        4
 64
     7
 65
   257
 75
     1
175
     1
 42
1.0
 92
        8
 66
     8
424
  8421504
 43
1.0
 76
     1
 77
     6
 78
     2
 67
     7
 79
     5
170
     0
171
     0
290
     0
174
     0
 93
        1
 44
0.0
173
     0
291
     1
 45
0.0
1001
ACAD
1000
AcDbSavedByObjectVersion
1070
     0
  0
VISUALSTYLE
  5
34
102
{ACAD_REACTORS
330
2A
102
}
330
2A
100
AcDbVisualStyle
  2
Conceptual
 70
     9
 71
     3
 72
     2
 73
     0
 90
        0
 40
-0.6
 41
-30.0
 62
     5
 63
     7
421
 16777215
 74
     2
 91
        2
 64
     7
 65
   257
 75
     1
175
     1
 42
40.0
 92
        8
 66
     7
 43
1.0
 76
     1
 77
     6
 78
     2
 67
     7
 79
     3
170
     0
171
     0
290
     0
174
     0
 93
        1
 44
0.0
173
     0
291
     0
 45
0.0
1001
ACAD
1000
AcDbSavedByObjectVersion
1070
     0
  0
VISUALSTYLE
  5
35
102
{ACAD_REACTORS
330
2A
102
}
330
2A
100
AcDbVisualStyle
  2
Dim
 70
    11
 71
     2
 72
     2
 73
     0
 90
        0
 40
-0.6
 41
-30.0
 62
     5
 63
     7
421
 16777215
 74
     1
 91
        4
 64
     7
 65
   257
 75
     1
175
     1
 42
1.0
 92
        8
 66
     7
 43
1.0
 76
     1
 77
     6
 78
     2
 67
     7
 79
     5
170
     0
171
     0
290
     0
174
     0
 93
        1
 44
-50.0
173
     0
291
     1
 45
0.0
1001
ACAD
1000
AcDbSavedByObjectVersion
1070
     0
  0
VISUALSTYLE
  5
39
102
{ACAD_REACTORS
330
2A
102
}
330
2A
100
AcDbVisualStyle
  2
Facepattern
 70
    15
 71
     2
 72
     2
 73
     0
 90
        0
 40
-0.6
 41
-30.0
 62
     5
 63
     7
421
 16777215
 74
     1
 91
        4
 64
     7
 65
   257
 75
     1
175
     1
 42
1.0
 92
        8
 66
     7
 43
1.0
 76
     1
 77
     6
 78
     2
 67
     7
 79
     5
170
     0
171
     0
290
     0
174
     0
 93
        1
 44
0.0
173
     0
291
     1
 45
0.0
1001
ACAD
1000
AcDbSavedByObjectVersion
1070
     0
  0
VISUALSTYLE
  5
2B
102
{ACAD_REACTORS
330
2A
102
}
330
2A
100
AcDbVisualStyle
  2
Flat
 70
     0
 71
     2
 72
     1
 73
     1
 90
        2
 40
-0.6
 41
30.0
 62
     5
 63
     7
421
 16777215
 74
     0
 91
        4
 64
     7
 65
   257
 75
     1
175
     1
 42
1.0
 92
        8
 66
     7
 43
1.0
 76
     1
 77
     6
 78
     2
 67
     7
 79
     5
170
     0
171
     0
290
     0
174
     0
 93
       13
 44
0.0
173
     0
291
     1
 45
0.0
1001
ACAD
1000
AcDbSavedByObjectVersion
1070
     0
  0
VISUALSTYLE
  5
2C
102
{ACAD_REACTORS
330
2A
102
}
330
2A
100
AcDbVisualStyle
  2
FlatWithEdges
 70
     1
 71
     2
 72
     1
 73
     1
 90
        2
 40
-0.6
 41
30.0
 62
     5
 63
     7
421
 16777215
 74
     1
 91
        4
 64
     7
 65
   257
 75
     1
175
     1
 42
1.0
 92
        0
 66
   257
 43
1.0
 76
     1
 77
     6
 78
     2
 67
     7
 79
     5
170
     0
171
     0
290
     0
174
     0
 93
       13
 44
0.0
173
     0
291
     1
 45
0.0
1001
ACAD
1000
AcDbSavedByObjectVersion
1070
     0
  0
VISUALSTYLE
  5
2D
102
{ACAD_REACTORS
330
2A
102
}
330
2A
100
AcDbVisualStyle
  2
Gouraud
 70
     2
 71
     2
 72
     2
 73
     1
 90
        2
 40
-0.6
 41
30.0
 62
     5
 63
     7
421
 16777215
 74
     0
 91
        4
 64
     7
 65
   257
 75
     1
175
     1
 42
1.0
 92
        0
 66
     7
 43
1.0
 76
     1
 77
     6
 78
     2
 67
     7
 79
     5
170
     0
171
     0
290
     0
174
     0
 93
       13
 44
0.0
173
     0
291
     1
 45
0.0
1001
ACAD
1000
AcDbSavedByObjectVersion
1070
     0
  0
VISUALSTYLE
  5
2E
102
{ACAD_REACTORS
330
2A
102
}
330
2A
100
AcDbVisualStyle
  2
GouraudWithEdges
 70
     3
 71
     2
 72
     2
 73
     1
 90
        2
 40
-0.6
 41
30.0
 62
     5
 63
     7
421
 16777215
 74
     1
 91
        4
 64
     7
 65
   257
 75
     1
175
     1
 42
1.0
 92
        0
 66
   257
 43
1.0
 76
     1
 77
     6
 78
     2
 67
     7
 79
     5
170
     0
171
     0
290
     0
174
     0
 93
       13
 44
0.0
173
     0
291
     1
 45
0.0
1001
ACAD
1000
AcDbSavedByObjectVersion
1070
     0
  0
VISUALSTYLE
  5
38
102
{ACAD_REACTORS
330
2A
102
}
330
2A
100
AcDbVisualStyle
  2
Linepattern
 70
    14
 71
     2
 72
     2
 73
     0
 90
        0
 40
-0.6
 41
-30.0
 62
     5
 63
     7
421
 16777215
 74
     1
 91
        4
 64
     7
 65
   257
 75
     7
175
     7
 42
1.0
 92
        8
 66
     7
 43
1.0
 76
     1
 77
     6
 78
     2
 67
     7
 79
     5
170
     0
171
     0
290
     0
174
     0
 93
        1
 44
0.0
173
     0
291
     1
 45
0.0
1001
ACAD
1000
AcDbSavedByObjectVersion
1070
     0
  0
VISUALSTYLE
  5
33
102
{ACAD_REACTORS
330
2A
102
}
330
2A
100
AcDbVisualStyle
  2
Realistic
 70
     8
 71
     2
 72
     2
 73
     0
 90
        0
 40
-0.6
 41
-30.0
 62
     5
 63
     7
421
 16777215
 74
     1
 91
        0
 64
     7
 65
   257
 75
     1
175
     1
 42
1.0
 92
        8
 66
     8
424
  7895160
 43
1.0
 76
     1
 77
     6
 78
     2
 67
     7
 79
     5
170
     0
171
     0
290
     0
174
     0
 93
       13
 44
0.0
173
     0
291
     0
 45
0.0
1001
ACAD
1000
AcDbSavedByObjectVersion
1070
     0
  0
VISUALSTYLE
  5
37
102
{ACAD_REACTORS
330
2A
102
}
330
2A
100
AcDbVisualStyle
  2
Thicken
 70
    13
 71
     2
 72
     2
 73
     0
 90
        0
 40
-0.6
 41
-30.0
 62
     5
 63
     7
421
 16777215
 74
     1
 91
        4
 64
     7
 65
   257
 75
     1
175
     1
 42
1.0
 92
       12
 66
     7
 43
1.0
 76
     1
 77
     6
 78
     2
 67
     7
 79
     5
170
     0
171
     0
290
     0
174
     0
 93
        1
 44
0.0
173
     0
291
     1
 45
0.0
1001
ACAD
1000
AcDbSavedByObjectVersion
1070
     0
  0
DICTIONARYVAR
  5
18E
102
{ACAD_REACTORS
330
18D
102
}
330
18D
100
DictionaryVariables
280
     0
  1
1:1
  0
ENDSEC
  0
EOF
