  0
SECTION
  2
HEADER
  9
$ACADVER
  1
AC1015
  9
$ACADMAINTVER
 70
    20
  9
$DWGCODEPAGE
  3
ANSI_1252
  9
$INSBASE
 10
0.0
 20
0.0
 30
0.0
  9
$EXTMIN
 10
-140.1282599082025
 20
-1129.735945147604
 30
0.0
  9
$EXTMAX
 10
904.403486557897
 20
784.2202303175255
 30
0.0
  9
$LIMMIN
 10
0.0
 20
0.0
  9
$LIMMAX
 10
0.0
 20
0.0
  9
$ORTHOMODE
 70
     0
  9
$REGENMODE
 70
     1
  9
$FILLMODE
 70
     1
  9
$QTEXTMODE
 70
     0
  9
$MIRRTEXT
 70
     1
  9
$LTSCALE
 40
1.0
  9
$ATTMODE
 70
     1
  9
$TEXTSIZE
 40
0.0
  9
$TRACEWID
 40
0.05
  9
$TEXTSTYLE
  7
STANDARD
  9
$CLAYER
  8
0
  9
$CELTYPE
  6
CONTINUOUS
  9
$CECOLOR
 62
   256
  9
$CELTSCALE
 40
1.0
  9
$DISPSILH
 70
     0
  9
$DIMSCALE
 40
1.0
  9
$DIMASZ
 40
6.0
  9
$DIMEXO
 40
1.0
  9
$DIMDLI
 40
0.38
  9
$DIMRND
 40
0.0
  9
$DIMDLE
 40
1.0
  9
$DIMEXE
 40
0.18
  9
$DIMTP
 40
0.0
  9
$DIMTM
 40
0.0
  9
$DIMTXT
 40
3.5
  9
$DIMCEN
 40
0.09
  9
$DIMTSZ
 40
0.0
  9
$DIMTOL
 70
     0
  9
$DIMLIM
 70
     0
  9
$DIMTIH
 70
     1
  9
$DIMTOH
 70
     1
  9
$DIMSE1
 70
     0
  9
$DIMSE2
 70
     0
  9
$DIMTAD
 70
     1
  9
$DIMZIN
 70
     0
  9
$DIMBLK
  1

  9
$DIMASO
 70
     1
  9
$DIMSHO
 70
     1
  9
$DIMPOST
  1

  9
$DIMAPOST
  1

  9
$DIMALT
 70
     0
  9
$DIMALTD
 70
     2
  9
$DIMALTF
 40
0.0394
  9
$DIMLFAC
 40
20.0
  9
$DIMTOFL
 70
     0
  9
$DIMTVP
 40
0.0
  9
$DIMTIX
 70
     0
  9
$DIMSOXD
 70
     0
  9
$DIMSAH
 70
     0
  9
$DIMBLK1
  1

  9
$DIMBLK2
  1

  9
$DIMSTYLE
  2
STANDARD
  9
$DIMCLRD
 70
     0
  9
$DIMCLRE
 70
     0
  9
$DIMCLRT
 70
     0
  9
$DIMTFAC
 40
1.0
  9
$DIMGAP
 40
1.0
  9
$DIMJUST
 70
     0
  9
$DIMSD1
 70
     0
  9
$DIMSD2
 70
     0
  9
$DIMTOLJ
 70
     1
  9
$DIMTZIN
 70
     0
  9
$DIMALTZ
 70
     0
  9
$DIMALTTZ
 70
     0
  9
$DIMUPT
 70
     0
  9
$DIMDEC
 70
     4
  9
$DIMTDEC
 70
     4
  9
$DIMALTU
 70
     2
  9
$DIMALTTD
 70
     2
  9
$DIMTXSTY
  7
STANDARD
  9
$DIMAUNIT
 70
     0
  9
$DIMADEC
 70
     0
  9
$DIMALTRND
 40
0.0
  9
$DIMAZIN
 70
     0
  9
$DIMDSEP
 70
    46
  9
$DIMATFIT
 70
     3
  9
$DIMFRAC
 70
     0
  9
$DIMLDRBLK
  1

  9
$DIMLUNIT
 70
     2
  9
$DIMLWD
 70
    -2
  9
$DIMLWE
 70
    -2
  9
$DIMTMOVE
 70
     0
  9
$LUNITS
 70
     2
  9
$LUPREC
 70
     2
  9
$SKETCHINC
 40
0.1
  9
$FILLETRAD
 40
0.0
  9
$AUNITS
 70
     0
  9
$AUPREC
 70
     2
  9
$MENU
  1
acad
  9
$ELEVATION
 40
0.0
  9
$PELEVATION
 40
0.0
  9
$THICKNESS
 40
0.0
  9
$LIMCHECK
 70
     0
  9
$CHAMFERA
 40
0.0
  9
$CHAMFERB
 40
0.0
  9
$CHAMFERC
 40
0.0
  9
$CHAMFERD
 40
0.0
  9
$SKPOLY
 70
     0
  9
$TDCREATE
 40
2444972.041666667
  9
$TDUCREATE
 40
2444972.000000000
  9
$TDUPDATE
 40
2453781.465325695
  9
$TDUUPDATE
 40
2453781.423659028
  9
$TDINDWG
 40
0.0004975116
  9
$TDUSRTIMER
 40
0.0004975116
  9
$USRTIMER
 70
     1
  9
$ANGBASE
 50
0.0
  9
$ANGDIR
 70
     0
  9
$PDMODE
 70
     0
  9
$PDSIZE
 40
-1.0
  9
$PLINEWID
 40
0.0
  9
$SPLFRAME
 70
     0
  9
$SPLINETYPE
 70
     6
  9
$SPLINESEGS
 70
     8
  9
$HANDSEED
  5
12D
  9
$SURFTAB1
 70
     6
  9
$SURFTAB2
 70
     6
  9
$SURFTYPE
 70
     6
  9
$SURFU
 70
     6
  9
$SURFV
 70
     6
  9
$UCSBASE
  2

  9
$UCSNAME
  2

  9
$UCSORG
 10
0.0
 20
0.0
 30
0.0
  9
$UCSXDIR
 10
1.0
 20
0.0
 30
0.0
  9
$UCSYDIR
 10
0.0
 20
1.0
 30
0.0
  9
$UCSORTHOREF
  2

  9
$UCSORTHOVIEW
 70
     1
  9
$UCSORGTOP
 10
0.0
 20
0.0
 30
0.0
  9
$UCSORGBOTTOM
 10
0.0
 20
0.0
 30
0.0
  9
$UCSORGLEFT
 10
0.0
 20
0.0
 30
0.0
  9
$UCSORGRIGHT
 10
0.0
 20
0.0
 30
0.0
  9
$UCSORGFRONT
 10
0.0
 20
0.0
 30
0.0
  9
$UCSORGBACK
 10
0.0
 20
0.0
 30
0.0
  9
$PUCSBASE
  2

  9
$PUCSNAME
  2

  9
$PUCSORG
 10
0.0
 20
0.0
 30
0.0
  9
$PUCSXDIR
 10
1.0
 20
0.0
 30
0.0
  9
$PUCSYDIR
 10
0.0
 20
1.0
 30
0.0
  9
$PUCSORTHOREF
  2

  9
$PUCSORTHOVIEW
 70
     0
  9
$PUCSORGTOP
 10
0.0
 20
0.0
 30
0.0
  9
$PUCSORGBOTTOM
 10
0.0
 20
0.0
 30
0.0
  9
$PUCSORGLEFT
 10
0.0
 20
0.0
 30
0.0
  9
$PUCSORGRIGHT
 10
0.0
 20
0.0
 30
0.0
  9
$PUCSORGFRONT
 10
0.0
 20
0.0
 30
0.0
  9
$PUCSORGBACK
 10
0.0
 20
0.0
 30
0.0
  9
$USERI1
 70
     0
  9
$USERI2
 70
     0
  9
$USERI3
 70
     0
  9
$USERI4
 70
     0
  9
$USERI5
 70
     0
  9
$USERR1
 40
0.0
  9
$USERR2
 40
0.0
  9
$USERR3
 40
0.0
  9
$USERR4
 40
0.0
  9
$USERR5
 40
0.0
  9
$WORLDVIEW
 70
     1
  9
$SHADEDGE
 70
     3
  9
$SHADEDIF
 70
    70
  9
$TILEMODE
 70
     1
  9
$MAXACTVP
 70
    16
  9
$PINSBASE
 10
0.0
 20
0.0
 30
0.0
  9
$PLIMCHECK
 70
     0
  9
$PEXTMIN
 10
1.000000000000000E+20
 20
1.000000000000000E+20
 30
1.000000000000000E+20
  9
$PEXTMAX
 10
-1.000000000000000E+20
 20
-1.000000000000000E+20
 30
-1.000000000000000E+20
  9
$PLIMMIN
 10
0.0
 20
0.0
  9
$PLIMMAX
 10
12.0
 20
9.0
  9
$UNITMODE
 70
     0
  9
$VISRETAIN
 70
     0
  9
$PLINEGEN
 70
     1
  9
$PSLTSCALE
 70
     1
  9
$TREEDEPTH
 70
  3020
  9
$CMLSTYLE
  2
STANDARD
  9
$CMLJUST
 70
     0
  9
$CMLSCALE
 40
1.0
  9
$PROXYGRAPHICS
 70
     0
  9
$MEASUREMENT
 70
     0
  9
$CELWEIGHT
370
    -1
  9
$ENDCAPS
280
     0
  9
$JOINSTYLE
280
     0
  9
$LWDISPLAY
290
     0
  9
$INSUNITS
 70
     0
  9
$HYPERLINKBASE
  1

  9
$STYLESHEET
  1

  9
$XEDIT
290
     1
  9
$CEPSNTYPE
380
     0
  9
$PSTYLEMODE
290
     1
  9
$FINGERPRINTGUID
  2
{3E03E755-4C34-4DA2-8B46-C1EAF88B5FC7}
  9
$VERSIONGUID
  2
{808E32F8-0518-471A-B434-313E98B732F7}
  9
$EXTNAMES
290
     1
  9
$PSVPSCALE
 40
0.0
  9
$OLESTARTUP
290
     0
  0
ENDSEC
  0
SECTION
  2
CLASSES
  0
CLASS
  1
IMAGE
  2
AcDbRasterImage
  3
ISM
 90
    32895
280
     0
281
     1
  0
CLASS
  1
DICTIONARYVAR
  2
AcDbDictionaryVar
  3
ObjectDBX Classes
 90
        0
280
     0
281
     0
  0
CLASS
  1
RASTERVARIABLES
  2
AcDbRasterVariables
  3
ISM
 90
    32768
280
     0
281
     0
  0
CLASS
  1
IMAGEDEF
  2
AcDbRasterImageDef
  3
ISM
 90
    32768
280
     0
281
     0
  0
CLASS
  1
IMAGEDEF_REACTOR
  2
AcDbRasterImageDefReactor
  3
ISM
 90
    32769
280
     0
281
     0
  0
CLASS
  1
IDBUFFER
  2
AcDbIdBuffer
  3
ObjectDBX Classes
 90
    32768
280
     0
281
     0
  0
CLASS
  1
SPATIAL_FILTER
  2
AcDbSpatialFilter
  3
ObjectDBX Classes
 90
    32768
280
     0
281
     0
  0
CLASS
  1
SORTENTSTABLE
  2
AcDbSortentsTable
  3
ObjectDBX Classes
 90
    32768
280
     0
281
     0
  0
CLASS
  1
LAYER_INDEX
  2
AcDbLayerIndex
  3
ObjectDBX Classes
 90
    32768
280
     0
281
     0
  0
CLASS
  1
SPATIAL_INDEX
  2
AcDbSpatialIndex
  3
ObjectDBX Classes
 90
    32768
280
     0
281
     0
  0
CLASS
  1
OBJECT_PTR
  2
CAseDLPNTableRecord
  3
ASE-LPNTableRecord
 90
    32769
280
     0
281
     0
  0
CLASS
  1
LAYOUT
  2
AcDbLayout
  3
ObjectDBX Classes
 90
        0
280
     0
281
     0
  0
CLASS
  1
PLOTSETTINGS
  2
AcDbPlotSettings
  3
ObjectDBX Classes
 90
    32768
280
     0
281
     0
  0
CLASS
  1
ACDBDICTIONARYWDFLT
  2
AcDbDictionaryWithDefault
  3
ObjectDBX Classes
 90
        0
280
     0
281
     0
  0
CLASS
  1
ACDBPLACEHOLDER
  2
AcDbPlaceHolder
  3
ObjectDBX Classes
 90
        0
280
     0
281
     0
  0
CLASS
  1
VBA_PROJECT
  2
AcDbVbaProject
  3
acad
 90
    32768
280
     0
281
     0
  0
CLASS
  1
WIPEOUT
  2
AcDbWipeout
  3
"WipeOut|Product Desc: Object Enabler for WipeOut entity^I^I^I^I^I^I|Company: Autodesk, Inc.^I^I^I^I^I^I|WEB Address: www.autodesk.com"
 90
    32895
280
     0
281
     1
  0
CLASS
  1
WIPEOUTVARIABLES
  2
AcDbWipeoutVariables
  3
"WipeOut|Product Desc:     WipeOut Dbx Application|Company:          Autodesk, Inc.|WEB Address:      www.autodesk.com"
 90
    32768
280
     0
281
     0
  0
CLASS
  1
RTEXT
  2
RText
  3
RText|AutoCAD Express Tool|expresstools@autodesk.com
 90
    32768
280
     0
281
     1
  0
CLASS
  1
ARCALIGNEDTEXT
  2
AcDbArcAlignedText
  3
ATEXT|AutoCAD Express Tool|expresstools@autodesk.com
 90
    32768
280
     0
281
     1
  0
ENDSEC
  0
SECTION
  2
TABLES
  0
TABLE
  2
VPORT
  5
7
330
0
100
AcDbSymbolTable
 70
     3
  0
VPORT
  5
127
330
7
100
AcDbSymbolTableRecord
100
AcDbViewportTableRecord
  2
*Active
 70
     0
 10
0.0
 20
0.0
 11
1.0
 21
1.0
 12
382.1376133248473
 22
-172.7578574150393
 13
0.0
 23
0.0
 14
1.0
 24
1.0
 15
0.0
 25
0.0
 16
0.0
 26
0.0
 36
1.0
 17
0.0
 27
0.0
 37
0.0
 40
1928.870119689533
 41
1.569570871261378
 42
50.0
 43
0.0
 44
0.0
 50
0.0
 51
0.0
 71
     0
 72
  2000
 73
     1
 74
     1
 75
     0
 76
     0
 77
     0
 78
     0
281
     0
 65
     1
110
0.0
120
0.0
130
0.0
111
1.0
121
0.0
131
0.0
112
0.0
122
1.0
132
0.0
 79
     1
146
0.0
  0
ENDTAB
  0
TABLE
  2
LTYPE
  5
4
330
0
100
AcDbSymbolTable
 70
     6
  0
LTYPE
  5
11
330
4
100
AcDbSymbolTableRecord
100
AcDbLinetypeTableRecord
  2
BYBLOCK
 70
     0
  3

 72
    65
 73
     0
 40
0.0
  0
LTYPE
  5
12
330
4
100
AcDbSymbolTableRecord
100
AcDbLinetypeTableRecord
  2
BYLAYER
 70
     0
  3

 72
    65
 73
     0
 40
0.0
  0
LTYPE
  5
13
330
4
100
AcDbSymbolTableRecord
100
AcDbLinetypeTableRecord
  2
CONTINUOUS
 70
     0
  3
Solid line
 72
    65
 73
     0
 40
0.0
  0
LTYPE
  5
1E
330
4
100
AcDbSymbolTableRecord
100
AcDbLinetypeTableRecord
  2
HIDDEN
 70
     0
  3
Hidden __ __ __ __ __ __ __ __ __ __ __ __ __ __
 72
    65
 73
     2
 40
1.905
 49
1.27
 74
     0
 49
-0.635
 74
     0
  0
LTYPE
  5
1F
330
4
100
AcDbSymbolTableRecord
100
AcDbLinetypeTableRecord
  2
PHANTOM
 70
     0
  3
Phantom ______  __  __  ______  __  __  ______
 72
    65
 73
     6
 40
12.7
 49
6.349999999999999
 74
     0
 49
-1.27
 74
     0
 49
1.27
 74
     0
 49
-1.27
 74
     0
 49
1.27
 74
     0
 49
-1.27
 74
     0
  0
LTYPE
  5
20
330
4
100
AcDbSymbolTableRecord
100
AcDbLinetypeTableRecord
  2
CENTER
 70
     0
  3
Center ____ _ ____ _ ____ _ ____ _ ____ _ ____
 72
    65
 73
     4
 40
10.16
 49
6.349999999999999
 74
     0
 49
-1.27
 74
     0
 49
1.27
 74
     0
 49
-1.27
 74
     0
  0
LTYPE
  5
21
330
4
100
AcDbSymbolTableRecord
100
AcDbLinetypeTableRecord
  2
CENTERX2
 70
     0
  3
Center (2x) ________  __  ________  __  _____
 72
    65
 73
     4
 40
20.32
 49
12.7
 74
     0
 49
-2.54
 74
     0
 49
2.54
 74
     0
 49
-2.54
 74
     0
  0
LTYPE
  5
22
330
4
100
AcDbSymbolTableRecord
100
AcDbLinetypeTableRecord
  2
DOT2
 70
     0
  3
Dot (.5x) ........................................
 72
    65
 73
     2
 40
0.635
 49
0.0
 74
     0
 49
-0.635
 74
     0
  0
ENDTAB
  0
TABLE
  2
LAYER
  5
2
330
0
100
AcDbSymbolTable
 70
     2
  0
LAYER
  5
14
330
2
100
AcDbSymbolTableRecord
100
AcDbLayerTableRecord
  2
0
 70
     0
 62
     7
  6
CONTINUOUS
370
    -3
390
10E
  0
LAYER
  5
26
330
2
100
AcDbSymbolTableRecord
100
AcDbLayerTableRecord
  2
DEFPOINTS
 70
     0
 62
     7
  6
CONTINUOUS
290
     0
370
    -3
390
10E
  0
ENDTAB
  0
TABLE
  2
STYLE
  5
3
330
0
100
AcDbSymbolTable
 70
     1
  0
STYLE
  5
17
330
3
100
AcDbSymbolTableRecord
100
AcDbTextStyleTableRecord
  2
STANDARD
 70
     0
 40
0.0
 41
1.0
 50
0.0
 71
     0
 42
0.0
  3
Century Gothic
  4

  0
ENDTAB
  0
TABLE
  2
VIEW
  5
5
330
0
100
AcDbSymbolTable
 70
     0
  0
ENDTAB
  0
TABLE
  2
UCS
  5
6
330
0
100
AcDbSymbolTable
 70
     0
  0
ENDTAB
  0
TABLE
  2
APPID
  5
8
330
0
100
AcDbSymbolTable
 70
     2
  0
APPID
  5
16
330
8
100
AcDbSymbolTableRecord
100
AcDbRegAppTableRecord
  2
ACAD
 70
     0
  0
APPID
  5
119
330
8
100
AcDbSymbolTableRecord
100
AcDbRegAppTableRecord
  2
DCO15
 70
     0
  0
ENDTAB
  0
TABLE
  2
DIMSTYLE
  5
9
330
0
100
AcDbSymbolTable
 70
     1
100
AcDbDimStyleTable
 71
     0
  0
DIMSTYLE
105
18
330
9
100
AcDbSymbolTableRecord
100
AcDbDimStyleTableRecord
  2
STANDARD
 70
     0
289
     0
340
17
  0
ENDTAB
  0
TABLE
  2
BLOCK_RECORD
  5
1
330
0
100
AcDbSymbolTable
 70
     0
  0
BLOCK_RECORD
  5
A
330
1
100
AcDbSymbolTableRecord
100
AcDbBlockTableRecord
  2
*MODEL_SPACE
340
113
  0
BLOCK_RECORD
  5
B
330
1
100
AcDbSymbolTableRecord
100
AcDbBlockTableRecord
  2
*PAPER_SPACE
340
114
  0
ENDTAB
  0
ENDSEC
  0
SECTION
  2
BLOCKS
  0
BLOCK
  5
D
330
A
100
AcDbEntity
  8
0
100
AcDbBlockBegin
  2
*MODEL_SPACE
 70
     0
 10
0.0
 20
0.0
 30
0.0
  3
*MODEL_SPACE
  1

  0
ENDBLK
  5
E
330
A
100
AcDbEntity
  8
0
100
AcDbBlockEnd
  0
BLOCK
  5
F
330
B
100
AcDbEntity
 67
     1
  8
0
100
AcDbBlockBegin
  2
*PAPER_SPACE
 70
     0
 10
0.0
 20
0.0
 30
0.0
  3
*PAPER_SPACE
  1

  0
ENDBLK
  5
10
330
B
100
AcDbEntity
 67
     1
  8
0
100
AcDbBlockEnd
  0
ENDSEC
  0
SECTION
  2
ENTITIES
  0
LINE
  5
27
330
A
100
AcDbEntity
  8
0
  6
Continuous
 62
     7
100
AcDbLine
 10
-5.150000000000002
 20
781.7202303175251
 30
0.0
 11
24.84999999999997
 21
751.7202303175252
 31
0.0
  0
LINE
  5
28
330
A
100
AcDbEntity
  8
0
  6
Continuous
 62
     7
100
AcDbLine
 10
114.85
 20
751.7202303175252
 30
0.0
 11
144.8499999999999
 21
781.7202303175251
 31
0.0
  0
ARC
  5
29
330
A
100
AcDbEntity
  8
0
  6
Continuous
 62
     7
100
AcDbCircle
 10
-40.14999999999997
 20
32.88867001559565
 30
0.0
 40
94.99999999999998
100
AcDbArc
 50
294.9010623703678
 51
0.0
  0
ARC
  5
2A
330
A
100
AcDbEntity
  8
0
  6
Continuous
 62
     7
100
AcDbCircle
 10
179.8499999999999
 20
32.88867001559565
 30
0.0
 40
94.99999999999998
100
AcDbArc
 50
180.0000000000004
 51
245.0989376296339
  0
LINE
  5
2B
330
A
100
AcDbEntity
  8
0
  6
Continuous
 62
     7
100
AcDbLine
 10
122.85
 20
781.7202303175251
 30
0.0
 11
122.85
 21
784.2202303175252
 31
0.0
  0
LINE
  5
2C
330
A
100
AcDbEntity
  8
0
  6
Continuous
 62
     7
100
AcDbLine
 10
16.85
 20
784.2202303175252
 30
0.0
 11
16.85
 21
781.7202303175251
 31
0.0
  0
LINE
  5
2D
330
A
100
AcDbEntity
  8
0
  6
Continuous
 62
     7
100
AcDbLine
 10
84.84999999999997
 20
201.7202303175252
 30
0.0
 11
78.35
 21
251.7202303175252
 31
0.0
  0
LINE
  5
2E
330
A
100
AcDbEntity
  8
0
  6
Continuous
 62
     7
100
AcDbLine
 10
61.34999999999999
 20
251.7202303175252
 30
0.0
 11
54.85000000000002
 21
201.7202303175252
 31
0.0
  0
LINE
  5
2F
330
A
100
AcDbEntity
  8
0
  6
Continuous
 62
     7
100
AcDbLine
 10
54.85000000000002
 20
201.7202303175252
 30
0.0
 11
54.85000000000001
 21
32.88867001559565
 31
0.0
  0
LINE
  5
30
330
A
100
AcDbEntity
  8
0
  6
Continuous
 62
     7
100
AcDbLine
 10
84.84999999999997
 20
32.88867001559565
 30
0.0
 11
84.84999999999997
 21
201.7202303175252
 31
0.0
  0
LINE
  5
31
330
A
100
AcDbEntity
  8
0
  6
Continuous
 62
     7
100
AcDbLine
 10
73.09999999999999
 20
251.7202303175252
 30
0.0
 11
73.09999999999999
 21
336.7202303175253
 31
0.0
  0
LINE
  5
32
330
A
100
AcDbEntity
  8
0
  6
Continuous
 62
     7
100
AcDbLine
 10
66.6
 20
336.7202303175253
 30
0.0
 11
66.6
 21
251.7202303175252
 31
0.0
  0
LINE
  5
33
330
A
100
AcDbEntity
  8
0
  6
Continuous
 62
     7
100
AcDbLine
 10
70.35
 20
336.7202303175253
 30
0.0
 11
70.35
 21
751.7202303175252
 31
0.0
  0
LINE
  5
34
330
A
100
AcDbEntity
  8
0
  6
Continuous
 62
     7
100
AcDbLine
 10
69.34999999999999
 20
751.7202303175252
 30
0.0
 11
69.34999999999999
 21
336.7202303175253
 31
0.0
  0
ARC
  5
35
330
A
100
AcDbEntity
  8
0
  6
Continuous
 62
     7
100
AcDbCircle
 10
274.8282599082023
 20
-376.7797696824749
 30
0.0
 40
5.000000000000031
100
AcDbArc
 50
270.0000000000008
 51
0.4982598032875348
  0
ARC
  5
36
330
A
100
AcDbEntity
  8
0
  6
Continuous
 62
     7
100
AcDbCircle
 10
-135.1282599082023
 20
-376.7797696824749
 30
0.0
 40
5.000000000000002
100
AcDbArc
 50
179.5017401967124
 51
270.0000000000008
  0
LINE
  5
37
330
A
100
AcDbEntity
  8
0
  6
Continuous
 62
     7
100
AcDbLine
 10
-135.1282599082023
 20
-381.7797696824749
 30
0.0
 11
274.8282599082023
 21
-381.7797696824749
 31
0.0
  0
LWPOLYLINE
  5
38
330
A
100
AcDbEntity
  8
0
  6
Continuous
 62
     7
100
AcDbPolyline
 90
       38
 70
   128
 43
0.0
 10
279.8280708464359
 20
-376.7362888600321
 10
279.6188397951976
 20
-365.4090502299719
 10
279.1884280121644
 20
-354.0990729229567
 10
278.5372893244784
 20
-342.8182822042445
 10
277.666110294222
 20
-331.578572564689
 10
276.5758094945048
 20
-320.3917951791631
 10
275.2675365409177
 20
-309.2697454106525
 10
273.7426708793762
 20
-298.2241503732004
 10
272.0028203316297
 20
-287.2666565668102
 10
270.0498193999698
 20
-276.4088175973518
 10
267.8857273329278
 20
-265.6620819944129
 10
265.5128259539984
 20
-255.0377811399441
 10
262.9336172556794
 20
-244.5471173204248
 10
260.1508207613658
 20
-234.2011519151469
 10
257.1673706578778
 20
-224.0107937330721
 10
253.9864127016482
 20
-213.9867875105597
 10
250.6113009018294
 20
-204.1397025820923
 10
247.0455939838189
 20
-194.479921735946
 10
243.2930516369313
 20
-185.0176302665555
 10
239.3576305501731
 20
-175.7628052351166
 10
235.2434802403017
 20
-166.7252049497515
 10
230.9549386765654
 20
-157.9143586763259
 10
226.4965277067386
 20
-149.3395565907706
 10
221.872948289276
 20
-141.0098399834991
 10
217.0890755366112
 20
-132.9339917262507
 10
212.1499535748273
 20
-125.1205270114114
 10
207.0607902251194
 20
-117.5776843735754
 10
201.8269515126558
 20
-110.3134170028166
 10
196.45395600863
 20
-103.3353843588269
 10
190.9474690114658
 20
-96.65094409476482
 10
185.3132965733151
 20
-90.26714429932974
 10
179.5573793781428
 20
-84.19071606524147
 10
173.6857864778569
 20
-78.42806639196115
 10
167.7047088930862
 20
-72.9852714301365
 10
161.620453085355
 20
-67.86807007489537
 10
155.4394343075353
 20
-63.08185791474175
 10
149.1681698395904
 20
-58.63168154243531
 10
142.8132721167404
 20
-54.52223323385268
  0
LWPOLYLINE
  5
60
330
A
100
AcDbEntity
  8
0
  6
Continuous
 62
     7
100
AcDbPolyline
 90
       38
 70
   128
 43
0.0
 10
-3.113272116740131
 20
-54.52223323385252
 10
-9.468169839590215
 20
-58.63168154243514
 10
-15.73943430753505
 20
-63.08185791474158
 10
-21.92045308535472
 20
-67.86807007489514
 10
-28.00470889308595
 20
-72.98527143013622
 10
-33.98578647785661
 20
-78.42806639196087
 10
-39.85737937814257
 20
-84.19071606524125
 10
-45.61329657331487
 20
-90.26714429932948
 10
-51.24746901146561
 20
-96.65094409476454
 10
-56.75395600862976
 20
-103.3353843588266
 10
-62.12695151265562
 20
-110.3134170028163
 10
-67.36079022511915
 20
-117.5776843735751
 10
-72.44995357482712
 20
-125.120527011411
 10
-77.389075536611
 20
-132.9339917262504
 10
-82.17294828927585
 20
-141.0098399834987
 10
-86.79652770673845
 20
-149.3395565907702
 10
-91.25493867656526
 20
-157.9143586763255
 10
-95.5434802403016
 20
-166.7252049497511
 10
-99.65763055017292
 20
-175.7628052351162
 10
-103.5930516369311
 20
-185.017630266555
 10
-107.3455939838188
 20
-194.4799217359456
 10
-110.9113009018293
 20
-204.139702582092
 10
-114.286412701648
 20
-213.9867875105594
 10
-117.4673706578776
 20
-224.0107937330718
 10
-120.4508207613656
 20
-234.2011519151465
 10
-123.2336172556793
 20
-244.5471173204243
 10
-125.8128259539983
 20
-255.0377811399437
 10
-128.1857273329277
 20
-265.6620819944125
 10
-130.3498193999697
 20
-276.4088175973514
 10
-132.3028203316296
 20
-287.2666565668097
 10
-134.0426708793762
 20
-298.2241503732
 10
-135.5675365409176
 20
-309.2697454106521
 10
-136.8758094945047
 20
-320.3917951791626
 10
-137.966110294222
 20
-331.5785725646886
 10
-138.8372893244784
 20
-342.8182822042439
 10
-139.4884280121643
 20
-354.0990729229563
 10
-139.9188397951977
 20
-365.4090502299714
 10
-140.1280708464358
 20
-376.7362888600316
  0
ARC
  5
88
330
A
100
AcDbEntity
  8
0
  6
Continuous
 62
     7
100
AcDbCircle
 10
140.1915582901271
 20
-58.77976968247467
 30
0.0
 40
5.000000000000025
100
AcDbArc
 50
58.37599093043785
 51
90.0
  0
ARC
  5
89
330
A
100
AcDbEntity
  8
0
  6
Continuous
 62
     7
100
AcDbCircle
 10
-0.491558290127106
 20
-58.77976968247467
 30
0.0
 40
5.000000000000022
100
AcDbArc
 50
90.0
 51
121.6240090695621
  0
LINE
  5
8A
330
A
100
AcDbEntity
  8
0
  6
Continuous
 62
     7
100
AcDbLine
 10
114.85
 20
751.7202303175252
 30
0.0
 11
24.84999999999997
 21
751.7202303175252
 31
0.0
  0
LINE
  5
8B
330
A
100
AcDbEntity
  8
0
  6
Continuous
 62
     7
100
AcDbLine
 10
144.8499999999999
 20
781.7202303175251
 30
0.0
 11
-5.150000000000002
 21
781.7202303175251
 31
0.0
  0
LINE
  5
8C
330
A
100
AcDbEntity
  8
0
  6
Continuous
 62
     7
100
AcDbLine
 10
69.84999999999999
 20
-53.27976968247527
 30
0.0
 11
139.8499999999999
 21
-53.27976968247478
 31
0.0
  0
LINE
  5
8D
330
A
100
AcDbEntity
  8
0
  6
Continuous
 62
     7
100
AcDbLine
 10
-0.1499999999999974
 20
-53.27976968247478
 30
0.0
 11
69.84999999999999
 21
-53.27976968247527
 31
0.0
  0
LINE
  5
8E
330
A
100
AcDbEntity
  8
0
  6
Continuous
 62
     7
100
AcDbLine
 10
122.85
 20
784.2202303175252
 30
0.0
 11
16.85
 21
784.2202303175252
 31
0.0
  0
LINE
  5
8F
330
A
100
AcDbEntity
  8
0
  6
Continuous
 62
     7
100
AcDbLine
 10
69.84999999999999
 20
201.7202303175251
 30
0.0
 11
84.84999999999997
 21
201.7202303175252
 31
0.0
  0
LINE
  5
90
330
A
100
AcDbEntity
  8
0
  6
Continuous
 62
     7
100
AcDbLine
 10
54.85000000000002
 20
201.7202303175252
 30
0.0
 11
69.84999999999999
 21
201.7202303175251
 31
0.0
  0
LINE
  5
91
330
A
100
AcDbEntity
  8
0
  6
Continuous
 62
     7
100
AcDbLine
 10
69.84999999999999
 20
251.7202303175252
 30
0.0
 11
78.35
 21
251.7202303175252
 31
0.0
  0
LINE
  5
92
330
A
100
AcDbEntity
  8
0
  6
Continuous
 62
     7
100
AcDbLine
 10
61.34999999999999
 20
251.7202303175252
 30
0.0
 11
69.84999999999999
 21
251.7202303175252
 31
0.0
  0
LINE
  5
93
330
A
100
AcDbEntity
  8
0
  6
Continuous
 62
     7
100
AcDbLine
 10
69.84999999999999
 20
336.7202303175252
 30
0.0
 11
73.09999999999999
 21
336.7202303175253
 31
0.0
  0
LINE
  5
94
330
A
100
AcDbEntity
  8
0
  6
Continuous
 62
     7
100
AcDbLine
 10
66.6
 20
336.7202303175253
 30
0.0
 11
69.84999999999999
 21
336.7202303175252
 31
0.0
  0
LINE
  5
95
330
A
100
AcDbEntity
  8
0
  6
Continuous
 62
     7
100
AcDbLine
 10
140.1915582901271
 20
-53.77976968247466
 30
0.0
 11
-0.491558290127106
 21
-53.77976968247466
 31
0.0
  0
LINE
  5
96
330
A
100
AcDbEntity
  8
0
  6
PHANTOM
 62
     7
100
AcDbLine
 10
69.84999999999999
 20
32.88867001559554
 30
0.0
 11
84.84999999999997
 21
32.88867001559565
 31
0.0
  0
LINE
  5
97
330
A
100
AcDbEntity
  8
0
  6
PHANTOM
 62
     7
100
AcDbLine
 10
54.85000000000001
 20
32.88867001559565
 30
0.0
 11
69.84999999999999
 21
32.88867001559554
 31
0.0
  0
LINE
  5
98
330
A
100
AcDbEntity
  8
0
  6
PHANTOM
 62
     7
100
AcDbLine
 10
279.8280708464358
 20
-376.7362888600321
 30
0.0
 11
-140.1280708464358
 21
-376.7362888600321
 31
0.0
  0
LINE
  5
99
330
A
100
AcDbEntity
  8
0
  6
PHANTOM
 62
     7
100
AcDbLine
 10
142.8132721167401
 20
-54.52223323385252
 30
0.0
 11
-3.113272116740131
 21
-54.52223323385252
 31
0.0
  0
CIRCLE
  5
9A
330
A
100
AcDbEntity
  8
0
  6
Continuous
 62
     7
100
AcDbCircle
 10
69.84999999999999
 20
-919.7576852394012
 30
0.0
 40
209.9782599082023
  0
CIRCLE
  5
9B
330
A
100
AcDbEntity
  8
0
  6
Continuous
 62
     7
100
AcDbCircle
 10
69.84999999999999
 20
-919.7576852394091
 30
0.0
 40
53.00000000000011
  0
CIRCLE
  5
9C
330
A
100
AcDbEntity
  8
0
  6
Continuous
 62
     7
100
AcDbCircle
 10
69.84999999999999
 20
-919.7576852394091
 30
0.0
 40
75.00000000000011
  0
CIRCLE
  5
9D
330
A
100
AcDbEntity
  8
0
  6
PHANTOM
 62
     7
100
AcDbCircle
 10
69.84999999999999
 20
-919.7576852394012
 30
0.0
 40
209.9780708464358
  0
LINE
  5
9E
330
A
100
AcDbEntity
  8
0
  6
Continuous
 62
     7
100
AcDbLine
 10
619.4254157114649
 20
781.7202303175258
 30
0.0
 11
649.4254157114646
 21
751.7202303175255
 31
0.0
  0
LINE
  5
9F
330
A
100
AcDbEntity
  8
0
  6
Continuous
 62
     7
100
AcDbLine
 10
739.4254157114646
 20
751.7202303175248
 30
0.0
 11
769.4254157114648
 21
781.7202303175247
 31
0.0
  0
ARC
  5
A0
330
A
100
AcDbEntity
  8
0
  6
Continuous
 62
     7
100
AcDbCircle
 10
584.4254157114597
 20
32.88867001559643
 30
0.0
 40
95.0
100
AcDbArc
 50
294.9010623703674
 51
360.0000000000008
  0
ARC
  5
A1
330
A
100
AcDbEntity
  8
0
  6
Continuous
 62
     7
100
AcDbCircle
 10
804.4254157114597
 20
32.88867001559487
 30
0.0
 40
95.0
100
AcDbArc
 50
180.0000000000004
 51
245.0989376296335
  0
LINE
  5
A2
330
A
100
AcDbEntity
  8
0
  6
Continuous
 62
     7
100
AcDbLine
 10
747.4254157114649
 20
781.720230317525
 30
0.0
 11
747.4254157114649
 21
784.2202303175248
 31
0.0
  0
LINE
  5
A3
330
A
100
AcDbEntity
  8
0
  6
Continuous
 62
     7
100
AcDbLine
 10
641.4254157114648
 20
784.2202303175255
 30
0.0
 11
641.4254157114648
 21
781.7202303175255
 31
0.0
  0
LINE
  5
A4
330
A
100
AcDbEntity
  8
0
  6
Continuous
 62
     7
100
AcDbLine
 10
679.4254157114608
 20
201.7202303175253
 30
0.0
 11
679.4254157114596
 21
32.88867001559576
 31
0.0
  0
LINE
  5
A5
330
A
100
AcDbEntity
  8
0
  6
Continuous
 62
     7
100
AcDbLine
 10
709.4254157114597
 20
32.88867001559554
 30
0.0
 11
709.4254157114607
 21
201.7202303175251
 31
0.0
  0
LINE
  5
A6
330
A
100
AcDbEntity
  8
0
  6
Continuous
 62
     7
100
AcDbLine
 10
709.4254157114607
 20
201.7202303175251
 30
0.0
 11
702.9254157114611
 21
251.7202303175252
 31
0.0
  0
LINE
  5
A7
330
A
100
AcDbEntity
  8
0
  6
Continuous
 62
     7
100
AcDbLine
 10
685.9254157114611
 20
251.7202303175253
 30
0.0
 11
679.4254157114608
 21
201.7202303175253
 31
0.0
  0
LINE
  5
A8
330
A
100
AcDbEntity
  8
0
  6
Continuous
 62
     7
100
AcDbLine
 10
697.6754157114611
 20
251.7202303175252
 30
0.0
 11
697.6754157114616
 21
336.7202303175252
 31
0.0
  0
LINE
  5
A9
330
A
100
AcDbEntity
  8
0
  6
Continuous
 62
     7
100
AcDbLine
 10
691.1754157114618
 20
336.7202303175253
 30
0.0
 11
691.1754157114613
 21
251.7202303175252
 31
0.0
  0
LINE
  5
AA
330
A
100
AcDbEntity
  8
0
  6
Continuous
 62
     7
100
AcDbLine
 10
694.9254157114618
 20
336.7202303175253
 30
0.0
 11
694.9254157114646
 21
751.7202303175252
 31
0.0
  0
LINE
  5
AB
330
A
100
AcDbEntity
  8
0
  6
Continuous
 62
     7
100
AcDbLine
 10
693.9254157114646
 20
751.7202303175252
 30
0.0
 11
693.9254157114618
 21
336.7202303175253
 31
0.0
  0
ARC
  5
AC
330
A
100
AcDbEntity
  8
0
  6
Continuous
 62
     7
100
AcDbCircle
 10
899.4036756196635
 20
-376.7797696824749
 30
0.0
 40
5.0
100
AcDbArc
 50
270.0000000000008
 51
0.4982598033211832
  0
ARC
  5
AD
330
A
100
AcDbEntity
  8
0
  6
Continuous
 62
     7
100
AcDbCircle
 10
489.4471558032589
 20
-376.7797696824749
 30
0.0
 40
5.0
100
AcDbArc
 50
179.5017401966788
 51
270.0000000000008
  0
LINE
  5
AE
330
A
100
AcDbEntity
  8
0
  6
Continuous
 62
     7
100
AcDbLine
 10
489.4471558032589
 20
-381.7797696824749
 30
0.0
 11
899.4036756196635
 21
-381.7797696824749
 31
0.0
  0
LWPOLYLINE
  5
AF
330
A
100
AcDbEntity
  8
0
  6
Continuous
 62
     7
100
AcDbPolyline
 90
       38
 70
   128
 43
0.0
 10
904.403486557897
 20
-376.7362888600321
 10
904.1942555066588
 20
-365.4090502299719
 10
903.7638437236255
 20
-354.0990729229567
 10
903.1127050359396
 20
-342.8182822042445
 10
902.2415260056833
 20
-331.578572564689
 10
901.1512252059659
 20
-320.3917951791631
 10
899.8429522523789
 20
-309.2697454106525
 10
898.3180865908375
 20
-298.2241503732004
 10
896.5782360430907
 20
-287.2666565668102
 10
894.625235111431
 20
-276.4088175973518
 10
892.461143044389
 20
-265.6620819944129
 10
890.0882416654596
 20
-255.0377811399441
 10
887.5090329671406
 20
-244.5471173204248
 10
884.7262364728269
 20
-234.2011519151469
 10
881.742786369339
 20
-224.0107937330721
 10
878.5618284131095
 20
-213.9867875105597
 10
875.1867166132907
 20
-204.1397025820923
 10
871.6210096952801
 20
-194.479921735946
 10
867.8684673483925
 20
-185.0176302665555
 10
863.9330462616342
 20
-175.7628052351166
 10
859.818895951763
 20
-166.7252049497515
 10
855.5303543880265
 20
-157.9143586763259
 10
851.0719434181998
 20
-149.3395565907706
 10
846.4483640007372
 20
-141.0098399834991
 10
841.6644912480723
 20
-132.9339917262507
 10
836.7253692862885
 20
-125.1205270114114
 10
831.6362059365804
 20
-117.5776843735754
 10
826.4023672241171
 20
-110.3134170028166
 10
821.0293717200912
 20
-103.3353843588269
 10
815.5228847229269
 20
-96.65094409476482
 10
809.8887122847763
 20
-90.26714429932974
 10
804.132795089604
 20
-84.19071606524147
 10
798.2612021893181
 20
-78.42806639196115
 10
792.2801246045475
 20
-72.9852714301365
 10
786.1958687968161
 20
-67.86807007489537
 10
780.0148500189965
 20
-63.08185791474175
 10
773.7435855510518
 20
-58.63168154243531
 10
767.3886878282015
 20
-54.52223323385268
  0
LWPOLYLINE
  5
D7
330
A
100
AcDbEntity
  8
0
  6
Continuous
 62
     7
100
AcDbPolyline
 90
       38
 70
   128
 43
0.0
 10
621.462143594721
 20
-54.52223323385252
 10
615.107245871871
 20
-58.63168154243514
 10
608.8359814039261
 20
-63.08185791474158
 10
602.6549626261065
 20
-67.86807007489514
 10
596.5707068183752
 20
-72.98527143013622
 10
590.5896292336045
 20
-78.42806639196087
 10
584.7180363333186
 20
-84.19071606524125
 10
578.9621191381463
 20
-90.26714429932948
 10
573.3279466999955
 20
-96.65094409476454
 10
567.8214597028314
 20
-103.3353843588266
 10
562.4484641988056
 20
-110.3134170028163
 10
557.214625486342
 20
-117.5776843735751
 10
552.125462136634
 20
-125.120527011411
 10
547.1863401748501
 20
-132.9339917262504
 10
542.4024674221853
 20
-141.0098399834987
 10
537.7788880047226
 20
-149.3395565907702
 10
533.3204770348959
 20
-157.9143586763255
 10
529.0319354711596
 20
-166.7252049497511
 10
524.9177851612882
 20
-175.7628052351162
 10
520.9823640745301
 20
-185.017630266555
 10
517.2298217276423
 20
-194.4799217359456
 10
513.6641148096319
 20
-204.139702582092
 10
510.2890030098131
 20
-213.9867875105594
 10
507.1080450535835
 20
-224.0107937330718
 10
504.1245949500955
 20
-234.2011519151465
 10
501.3417984557818
 20
-244.5471173204243
 10
498.7625897574629
 20
-255.0377811399437
 10
496.3896883785334
 20
-265.6620819944125
 10
494.2255963114915
 20
-276.4088175973514
 10
492.2725953798316
 20
-287.2666565668097
 10
490.5327448320849
 20
-298.2241503732
 10
489.0078791705435
 20
-309.2697454106521
 10
487.6996062169563
 20
-320.3917951791626
 10
486.6093054172391
 20
-331.5785725646886
 10
485.7381263869828
 20
-342.8182822042439
 10
485.0869876992968
 20
-354.0990729229563
 10
484.6565759162635
 20
-365.4090502299714
 10
484.4473448650253
 20
-376.7362888600316
  0
ARC
  5
FF
330
A
100
AcDbEntity
  8
0
  6
Continuous
 62
     7
100
AcDbCircle
 10
764.7669740015883
 20
-58.77976968247467
 30
0.0
 40
5.000000000000007
100
AcDbArc
 50
58.37599093043849
 51
90.0
  0
ARC
  5
100
330
A
100
AcDbEntity
  8
0
  6
Continuous
 62
     7
100
AcDbCircle
 10
624.083857421334
 20
-58.77976968247467
 30
0.0
 40
5.000000000000055
100
AcDbArc
 50
90.0
 51
121.6240090695627
  0
LINE
  5
101
330
A
100
AcDbEntity
  8
0
  6
Continuous
 62
     7
100
AcDbLine
 10
739.4254157114646
 20
751.7202303175248
 30
0.0
 11
649.4254157114646
 21
751.7202303175255
 31
0.0
  0
LINE
  5
102
330
A
100
AcDbEntity
  8
0
  6
Continuous
 62
     7
100
AcDbLine
 10
769.4254157114648
 20
781.7202303175247
 30
0.0
 11
619.4254157114649
 21
781.7202303175258
 31
0.0
  0
LINE
  5
103
330
A
100
AcDbEntity
  8
0
  6
Continuous
 62
     7
100
AcDbLine
 10
624.4254157114592
 20
-53.27976968247427
 30
0.0
 11
764.425415711459
 21
-53.27976968247527
 31
0.0
  0
LINE
  5
104
330
A
100
AcDbEntity
  8
0
  6
Continuous
 62
     7
100
AcDbLine
 10
747.4254157114649
 20
784.2202303175248
 30
0.0
 11
641.4254157114648
 21
784.2202303175255
 31
0.0
  0
LINE
  5
105
330
A
100
AcDbEntity
  8
0
  6
Continuous
 62
     7
100
AcDbLine
 10
679.4254157114608
 20
201.7202303175253
 30
0.0
 11
709.4254157114607
 21
201.7202303175251
 31
0.0
  0
LINE
  5
106
330
A
100
AcDbEntity
  8
0
  6
Continuous
 62
     7
100
AcDbLine
 10
685.9254157114611
 20
251.7202303175253
 30
0.0
 11
702.9254157114611
 21
251.7202303175252
 31
0.0
  0
LINE
  5
107
330
A
100
AcDbEntity
  8
0
  6
Continuous
 62
     7
100
AcDbLine
 10
691.1754157114618
 20
336.7202303175253
 30
0.0
 11
697.6754157114616
 21
336.7202303175252
 31
0.0
  0
LINE
  5
108
330
A
100
AcDbEntity
  8
0
  6
Continuous
 62
     7
100
AcDbLine
 10
764.7669739853505
 20
-53.77976968247466
 30
0.0
 11
624.083857421334
 21
-53.77976968247466
 31
0.0
  0
LINE
  5
109
330
A
100
AcDbEntity
  8
0
  6
PHANTOM
 62
     7
100
AcDbLine
 10
679.4254157114596
 20
32.88867001559576
 30
0.0
 11
709.4254157114597
 21
32.88867001559554
 31
0.0
  0
LINE
  5
10A
330
A
100
AcDbEntity
  8
0
  6
PHANTOM
 62
     7
100
AcDbLine
 10
904.403486557897
 20
-376.7362888600321
 30
0.0
 11
484.4473448650254
 21
-376.7362888600321
 31
0.0
  0
LINE
  5
10B
330
A
100
AcDbEntity
  8
0
  6
PHANTOM
 62
     7
100
AcDbLine
 10
767.3886878282013
 20
-54.52223323385252
 30
0.0
 11
621.4621435947209
 21
-54.52223323385252
 31
0.0
  0
ENDSEC
  0
SECTION
  2
OBJECTS
  0
DICTIONARY
  5
19
330
0
100
AcDbDictionary
281
     1
  3
ACAD_COLOR
350
110
  3
ACAD_GROUP
350
1A
  3
ACAD_LAYOUT
350
111
  3
ACAD_MATERIAL
350
10F
  3
ACAD_MLINESTYLE
350
1B
  3
ACAD_PLOTSETTINGS
350
112
  3
ACAD_PLOTSTYLENAME
350
10D
  3
ACDBHEADERROUNDTRIPXREC
350
128
  3
AcDbVariableDictionary
350
124
  3
ASE_INDEX_DICTIONARY
350
118
  0
DICTIONARY
  5
110
102
{ACAD_REACTORS
330
19
102
}
330
19
100
AcDbDictionary
281
     1
  0
DICTIONARY
  5
1A
102
{ACAD_REACTORS
330
19
102
}
330
19
100
AcDbDictionary
281
     1
  0
DICTIONARY
  5
111
102
{ACAD_REACTORS
330
19
102
}
330
19
100
AcDbDictionary
281
     1
  3
Layout1
350
114
  3
Model
350
113
  0
DICTIONARY
  5
10F
102
{ACAD_REACTORS
330
19
102
}
330
19
100
AcDbDictionary
281
     1
  0
DICTIONARY
  5
1B
102
{ACAD_REACTORS
330
19
102
}
330
19
100
AcDbDictionary
281
     1
  3
STANDARD
350
1C
  0
DICTIONARY
  5
112
102
{ACAD_REACTORS
330
19
102
}
330
19
100
AcDbDictionary
281
     1
  0
ACDBDICTIONARYWDFLT
  5
10D
102
{ACAD_REACTORS
330
19
102
}
330
19
100
AcDbDictionary
281
     1
  3
Normal
350
10E
100
AcDbDictionaryWithDefault
340
10E
  0
DICTIONARY
  5
128
102
{ACAD_REACTORS
330
19
102
}
330
19
100
AcDbDictionary
281
     1
  0
DICTIONARY
  5
124
102
{ACAD_REACTORS
330
19
102
}
330
19
100
AcDbDictionary
281
     1
  3
DIMASSOC
350
125
  3
PROJECTNAME
350
126
  0
DICTIONARY
  5
118
102
{ACAD_REACTORS
330
19
102
}
330
19
100
AcDbDictionary
281
     1
  3
ASEBlockHierarchyIndexRecord
350
11A
1001
DCO15
1040
1553321100.14
  0
LAYOUT
  5
114
102
{ACAD_XDICTIONARY
360
12B
102
}
102
{ACAD_REACTORS
330
111
102
}
330
111
100
AcDbPlotSettings
  1

  2
ProgeSOFT PDF Wizard
  4

  6

 40
0.0
 41
0.0
 42
0.0
 43
0.0
 44
0.0
 45
0.0
 46
0.0
 47
0.0
 48
0.0
 49
0.0
140
0.0
141
0.0
142
1.0
143
1.0
 70
   688
 72
     0
 73
     0
 74
     5
  7

 75
    16
147
1.0
148
0.0
149
0.0
100
AcDbLayout
  1
Layout1
 70
     1
 71
     1
 10
0.0
 20
0.0
 11
12.0
 21
9.0
 12
0.0
 22
0.0
 32
0.0
 14
1.000000000000000E+20
 24
1.000000000000000E+20
 34
1.000000000000000E+20
 15
-1.000000000000000E+20
 25
-1.000000000000000E+20
 35
-1.000000000000000E+20
146
0.0
 13
0.0
 23
0.0
 33
0.0
 16
1.0
 26
0.0
 36
0.0
 17
0.0
 27
1.0
 37
0.0
 76
     0
330
B
  0
LAYOUT
  5
113
102
{ACAD_XDICTIONARY
360
129
102
}
102
{ACAD_REACTORS
330
111
102
}
330
111
100
AcDbPlotSettings
  1

  2
ProgeSOFT PDF Wizard
  4

  6

 40
0.0
 41
0.0
 42
0.0
 43
0.0
 44
0.0
 45
0.0
 46
0.0
 47
0.0
 48
0.0
 49
0.0
140
0.0
141
0.0
142
1.0
143
1.0
 70
  1712
 72
     0
 73
     0
 74
     0
  7

 75
     0
147
1.0
148
0.0
149
0.0
100
AcDbLayout
  1
Model
 70
     1
 71
     0
 10
0.0
 20
0.0
 11
12.0
 21
9.0
 12
0.0
 22
0.0
 32
0.0
 14
0.0
 24
0.0
 34
0.0
 15
0.0
 25
0.0
 35
0.0
146
0.0
 13
0.0
 23
0.0
 33
0.0
 16
1.0
 26
0.0
 36
0.0
 17
0.0
 27
1.0
 37
0.0
 76
     0
330
A
  0
MLINESTYLE
  5
1C
102
{ACAD_REACTORS
330
1B
102
}
330
1B
100
AcDbMlineStyle
  2
STANDARD
 70
     0
  3

 62
     0
 51
90.0
 52
90.0
 71
     2
 49
0.5
 62
   256
  6
BYLAYER
 49
-0.5
 62
   256
  6
BYLAYER
  0
ACDBPLACEHOLDER
  5
10E
102
{ACAD_REACTORS
330
10D
102
}
330
10D
  0
DICTIONARYVAR
  5
125
102
{ACAD_REACTORS
330
124
102
}
330
124
100
DictionaryVariables
280
     0
  1
1
  0
DICTIONARYVAR
  5
126
102
{ACAD_REACTORS
330
124
102
}
330
124
100
DictionaryVariables
280
     0
  1

  0
XRECORD
  5
11A
102
{ACAD_REACTORS
330
118
102
}
330
118
100
AcDbXrecord
280
     1
  0
DICTIONARY
  5
12B
330
114
100
AcDbDictionary
280
     1
281
     1
  3
ACAD_XREC_ROUNDTRIP
360
12C
  0
DICTIONARY
  5
129
330
113
100
AcDbDictionary
280
     1
281
     1
  3
ACAD_XREC_ROUNDTRIP
360
12A
  0
XRECORD
  5
12C
102
{ACAD_REACTORS
330
12B
102
}
330
12B
100
AcDbXrecord
280
     1
102
SHADEPLOT
 70
     0
102
SHADEPLOTRESLEVEL
 70
     2
102
SHADEPLOTCUSTOMDPI
 70
   300
  0
XRECORD
  5
12A
102
{ACAD_REACTORS
330
129
102
}
330
129
100
AcDbXrecord
280
     1
102
SHADEPLOT
 70
     0
102
SHADEPLOTRESLEVEL
 70
     2
102
SHADEPLOTCUSTOMDPI
 70
   300
  0
ENDSEC
  0
EOF
