  0
SECTION
  2
HEADER
  9
$ACADVER
  1
AC1018
  9
$ACADMAINTVER
 70
    39
  9
$DWGCODEPAGE
  3
ANSI_1252
  9
$INSBASE
 10
0.0
 20
0.0
 30
0.0
  9
$EXTMIN
 10
1877.774100141503
 20
-0.6468770096212211
 30
0.0
  9
$EXTMAX
 10
2968.391622609555
 20
2501.838989688508
 30
0.0
  9
$LIMMIN
 10
0.0
 20
0.0
  9
$LIMMAX
 10
12.0
 20
9.0
  9
$ORTHOMODE
 70
     1
  9
$REGENMODE
 70
     1
  9
$FILLMODE
 70
     1
  9
$QTEXTMODE
 70
     0
  9
$MIRRTEXT
 70
     1
  9
$LTSCALE
 40
1.0
  9
$ATTMODE
 70
     1
  9
$TEXTSIZE
 40
0.2
  9
$TRACEWID
 40
0.05
  9
$TEXTSTYLE
  7
Standard
  9
$CLAYER
  8
0
  9
$CELTYPE
  6
ByLayer
  9
$CECOLOR
 62
     5
  9
$CELTSCALE
 40
1.0
  9
$DISPSILH
 70
     0
  9
$DIMSCALE
 40
1.0
  9
$DIMASZ
 40
0.18
  9
$DIMEXO
 40
0.0625
  9
$DIMDLI
 40
0.38
  9
$DIMRND
 40
0.0
  9
$DIMDLE
 40
0.0
  9
$DIMEXE
 40
0.18
  9
$DIMTP
 40
0.0
  9
$DIMTM
 40
0.0
  9
$DIMTXT
 40
0.18
  9
$DIMCEN
 40
0.09
  9
$DIMTSZ
 40
0.0
  9
$DIMTOL
 70
     0
  9
$DIMLIM
 70
     0
  9
$DIMTIH
 70
     1
  9
$DIMTOH
 70
     1
  9
$DIMSE1
 70
     0
  9
$DIMSE2
 70
     0
  9
$DIMTAD
 70
     0
  9
$DIMZIN
 70
     0
  9
$DIMBLK
  1

  9
$DIMASO
 70
     1
  9
$DIMSHO
 70
     1
  9
$DIMPOST
  1

  9
$DIMAPOST
  1

  9
$DIMALT
 70
     0
  9
$DIMALTD
 70
     2
  9
$DIMALTF
 40
25.4
  9
$DIMLFAC
 40
1.0
  9
$DIMTOFL
 70
     0
  9
$DIMTVP
 40
0.0
  9
$DIMTIX
 70
     0
  9
$DIMSOXD
 70
     0
  9
$DIMSAH
 70
     0
  9
$DIMBLK1
  1

  9
$DIMBLK2
  1

  9
$DIMSTYLE
  2
Standard
  9
$DIMCLRD
 70
     0
  9
$DIMCLRE
 70
     0
  9
$DIMCLRT
 70
     0
  9
$DIMTFAC
 40
1.0
  9
$DIMGAP
 40
0.09
  9
$DIMJUST
 70
     0
  9
$DIMSD1
 70
     0
  9
$DIMSD2
 70
     0
  9
$DIMTOLJ
 70
     1
  9
$DIMTZIN
 70
     0
  9
$DIMALTZ
 70
     0
  9
$DIMALTTZ
 70
     0
  9
$DIMUPT
 70
     0
  9
$DIMDEC
 70
     4
  9
$DIMTDEC
 70
     4
  9
$DIMALTU
 70
     2
  9
$DIMALTTD
 70
     2
  9
$DIMTXSTY
  7
Standard
  9
$DIMAUNIT
 70
     0
  9
$DIMADEC
 70
     0
  9
$DIMALTRND
 40
0.0
  9
$DIMAZIN
 70
     0
  9
$DIMDSEP
 70
    46
  9
$DIMATFIT
 70
     3
  9
$DIMFRAC
 70
     0
  9
$DIMLDRBLK
  1

  9
$DIMLUNIT
 70
     2
  9
$DIMLWD
 70
    -2
  9
$DIMLWE
 70
    -2
  9
$DIMTMOVE
 70
     0
  9
$LUNITS
 70
     2
  9
$LUPREC
 70
     2
  9
$SKETCHINC
 40
0.1
  9
$FILLETRAD
 40
0.5
  9
$AUNITS
 70
     0
  9
$AUPREC
 70
     0
  9
$MENU
  1
.
  9
$ELEVATION
 40
0.0
  9
$PELEVATION
 40
0.0
  9
$THICKNESS
 40
0.0
  9
$LIMCHECK
 70
     0
  9
$CHAMFERA
 40
0.5
  9
$CHAMFERB
 40
0.5
  9
$CHAMFERC
 40
1.0
  9
$CHAMFERD
 40
0.0
  9
$SKPOLY
 70
     0
  9
$TDCREATE
 40
2454992.692996748
  9
$TDUCREATE
 40
2454992.609663414
  9
$TDUPDATE
 40
2454992.744146968
  9
$TDUUPDATE
 40
2454992.660813634
  9
$TDINDWG
 40
0.0506811343
  9
$TDUSRTIMER
 40
0.0506811343
  9
$USRTIMER
 70
     1
  9
$ANGBASE
 50
0.0
  9
$ANGDIR
 70
     0
  9
$PDMODE
 70
     0
  9
$PDSIZE
 40
0.0
  9
$PLINEWID
 40
0.0
  9
$SPLFRAME
 70
     0
  9
$SPLINETYPE
 70
     6
  9
$SPLINESEGS
 70
     8
  9
$HANDSEED
  5
1BD2A
  9
$SURFTAB1
 70
     6
  9
$SURFTAB2
 70
     6
  9
$SURFTYPE
 70
     6
  9
$SURFU
 70
     6
  9
$SURFV
 70
     6
  9
$UCSBASE
  2

  9
$UCSNAME
  2

  9
$UCSORG
 10
0.0
 20
0.0
 30
0.0
  9
$UCSXDIR
 10
1.0
 20
0.0
 30
0.0
  9
$UCSYDIR
 10
0.0
 20
1.0
 30
0.0
  9
$UCSORTHOREF
  2

  9
$UCSORTHOVIEW
 70
     0
  9
$UCSORGTOP
 10
0.0
 20
0.0
 30
0.0
  9
$UCSORGBOTTOM
 10
0.0
 20
0.0
 30
0.0
  9
$UCSORGLEFT
 10
0.0
 20
0.0
 30
0.0
  9
$UCSORGRIGHT
 10
0.0
 20
0.0
 30
0.0
  9
$UCSORGFRONT
 10
0.0
 20
0.0
 30
0.0
  9
$UCSORGBACK
 10
0.0
 20
0.0
 30
0.0
  9
$PUCSBASE
  2

  9
$PUCSNAME
  2

  9
$PUCSORG
 10
0.0
 20
0.0
 30
0.0
  9
$PUCSXDIR
 10
1.0
 20
0.0
 30
0.0
  9
$PUCSYDIR
 10
0.0
 20
1.0
 30
0.0
  9
$PUCSORTHOREF
  2

  9
$PUCSORTHOVIEW
 70
     0
  9
$PUCSORGTOP
 10
0.0
 20
0.0
 30
0.0
  9
$PUCSORGBOTTOM
 10
0.0
 20
0.0
 30
0.0
  9
$PUCSORGLEFT
 10
0.0
 20
0.0
 30
0.0
  9
$PUCSORGRIGHT
 10
0.0
 20
0.0
 30
0.0
  9
$PUCSORGFRONT
 10
0.0
 20
0.0
 30
0.0
  9
$PUCSORGBACK
 10
0.0
 20
0.0
 30
0.0
  9
$USERI1
 70
     0
  9
$USERI2
 70
     0
  9
$USERI3
 70
     0
  9
$USERI4
 70
     0
  9
$USERI5
 70
     0
  9
$USERR1
 40
0.0
  9
$USERR2
 40
0.0
  9
$USERR3
 40
0.0
  9
$USERR4
 40
0.0
  9
$USERR5
 40
0.0
  9
$WORLDVIEW
 70
     1
  9
$SHADEDGE
 70
     3
  9
$SHADEDIF
 70
    70
  9
$TILEMODE
 70
     1
  9
$MAXACTVP
 70
    64
  9
$PINSBASE
 10
0.0
 20
0.0
 30
0.0
  9
$PLIMCHECK
 70
     0
  9
$PEXTMIN
 10
1.000000000000000E+20
 20
1.000000000000000E+20
 30
1.000000000000000E+20
  9
$PEXTMAX
 10
-1.000000000000000E+20
 20
-1.000000000000000E+20
 30
-1.000000000000000E+20
  9
$PLIMMIN
 10
0.0
 20
0.0
  9
$PLIMMAX
 10
12.0
 20
9.0
  9
$UNITMODE
 70
     0
  9
$VISRETAIN
 70
     1
  9
$PLINEGEN
 70
     0
  9
$PSLTSCALE
 70
     1
  9
$TREEDEPTH
 70
  3020
  9
$CMLSTYLE
  2
Standard
  9
$CMLJUST
 70
     0
  9
$CMLSCALE
 40
1.0
  9
$PROXYGRAPHICS
 70
     1
  9
$MEASUREMENT
 70
     0
  9
$CELWEIGHT
370
    -1
  9
$ENDCAPS
280
     0
  9
$JOINSTYLE
280
     0
  9
$LWDISPLAY
290
     0
  9
$INSUNITS
 70
     4
  9
$HYPERLINKBASE
  1

  9
$STYLESHEET
  1

  9
$XEDIT
290
     1
  9
$CEPSNTYPE
380
     0
  9
$PSTYLEMODE
290
     1
  9
$FINGERPRINTGUID
  2
{AE82371E-6B23-4803-BD0C-A5454E5C0257}
  9
$VERSIONGUID
  2
{CEC7C73D-53F2-42CA-A87B-1803FCF09DC4}
  9
$EXTNAMES
290
     1
  9
$PSVPSCALE
 40
0.0
  9
$OLESTARTUP
290
     0
  9
$SORTENTS
280
   127
  9
$INDEXCTL
280
     0
  9
$HIDETEXT
280
     1
  9
$XCLIPFRAME
290
     0
  9
$HALOGAP
280
     0
  9
$OBSCOLOR
 70
   257
  9
$OBSLTYPE
280
     0
  9
$INTERSECTIONDISPLAY
280
     0
  9
$INTERSECTIONCOLOR
 70
   257
  9
$DIMASSOC
280
     2
  9
$PROJECTNAME
  1

  0
ENDSEC
  0
SECTION
  2
CLASSES
  0
CLASS
  1
ACDBDICTIONARYWDFLT
  2
AcDbDictionaryWithDefault
  3
ObjectDBX Classes
 90
        0
 91
        1
280
     0
281
     0
  0
CLASS
  1
TABLESTYLE
  2
AcDbTableStyle
  3
ObjectDBX Classes
 90
     2047
 91
        1
280
     0
281
     0
  0
CLASS
  1
SORTENTSTABLE
  2
AcDbSortentsTable
  3
ObjectDBX Classes
 90
        0
 91
        4
280
     0
281
     0
  0
CLASS
  1
DICTIONARYVAR
  2
AcDbDictionaryVar
  3
ObjectDBX Classes
 90
        0
 91
        1
280
     0
281
     0
  0
ENDSEC
  0
SECTION
  2
TABLES
  0
TABLE
  2
VPORT
  5
8
330
0
100
AcDbSymbolTable
 70
     7
  0
VPORT
  5
1BD29
330
8
100
AcDbSymbolTableRecord
100
AcDbViewportTableRecord
  2
*Active
 70
     0
 10
0.0
 20
0.0
 11
1.0
 21
1.0
 12
220.0412789005195
 22
447.3830531314161
 13
0.0
 23
0.0
 14
0.5
 24
0.5
 15
0.5
 25
0.5
 16
0.0
 26
0.0
 36
1.0
 17
2420.852009337131
 27
1250.919576822446
 37
0.0
 40
2078.571984212693
 41
1.489236790606653
 42
50.0
 43
0.0
 44
0.0
 50
0.0
 51
0.0
 71
     0
 72
   100
 73
     1
 74
     3
 75
     0
 76
     0
 77
     0
 78
     0
281
     0
 65
     1
110
0.0
120
0.0
130
0.0
111
1.0
121
0.0
131
0.0
112
0.0
122
1.0
132
0.0
 79
     0
146
0.0
  0
ENDTAB
  0
TABLE
  2
LTYPE
  5
5
330
0
100
AcDbSymbolTable
 70
     1
  0
LTYPE
  5
14
330
5
100
AcDbSymbolTableRecord
100
AcDbLinetypeTableRecord
  2
ByBlock
 70
     0
  3

 72
    65
 73
     0
 40
0.0
  0
LTYPE
  5
15
330
5
100
AcDbSymbolTableRecord
100
AcDbLinetypeTableRecord
  2
ByLayer
 70
     0
  3

 72
    65
 73
     0
 40
0.0
  0
LTYPE
  5
16
330
5
100
AcDbSymbolTableRecord
100
AcDbLinetypeTableRecord
  2
Continuous
 70
     0
  3
Solid line
 72
    65
 73
     0
 40
0.0
  0
ENDTAB
  0
TABLE
  2
LAYER
  5
2
330
0
100
AcDbSymbolTable
 70
     2
  0
LAYER
  5
10
330
2
100
AcDbSymbolTableRecord
100
AcDbLayerTableRecord
  2
0
 70
     0
 62
     7
  6
Continuous
370
    -3
390
F
  0
LAYER
  5
2A
330
2
100
AcDbSymbolTableRecord
100
AcDbLayerTableRecord
  2
LINEE VISIBILI 2D
 70
     0
 62
     7
  6
Continuous
370
    -3
390
F
  0
ENDTAB
  0
TABLE
  2
STYLE
  5
3
330
0
100
AcDbSymbolTable
 70
     1
  0
STYLE
  5
11
330
3
100
AcDbSymbolTableRecord
100
AcDbTextStyleTableRecord
  2
Standard
 70
     0
 40
0.0
 41
1.0
 50
0.0
 71
     0
 42
0.2
  3
txt
  4

  0
ENDTAB
  0
TABLE
  2
VIEW
  5
6
330
0
100
AcDbSymbolTable
 70
     0
  0
ENDTAB
  0
TABLE
  2
UCS
  5
7
330
0
100
AcDbSymbolTable
 70
     0
  0
ENDTAB
  0
TABLE
  2
APPID
  5
9
330
0
100
AcDbSymbolTable
 70
     1
  0
APPID
  5
12
330
9
100
AcDbSymbolTableRecord
100
AcDbRegAppTableRecord
  2
ACAD
 70
     0
  0
ENDTAB
  0
TABLE
  2
DIMSTYLE
  5
A
330
0
100
AcDbSymbolTable
 70
     1
100
AcDbDimStyleTable
 71
     0
  0
DIMSTYLE
105
27
330
A
100
AcDbSymbolTableRecord
100
AcDbDimStyleTableRecord
  2
Standard
 70
     0
340
11
  0
ENDTAB
  0
TABLE
  2
BLOCK_RECORD
  5
1
330
0
100
AcDbSymbolTable
 70
     4
  0
BLOCK_RECORD
  5
1F
102
{ACAD_XDICTIONARY
360
1BCE2
102
}
330
1
100
AcDbSymbolTableRecord
100
AcDbBlockTableRecord
  2
*Model_Space
340
22
  0
BLOCK_RECORD
  5
1B
330
1
100
AcDbSymbolTableRecord
100
AcDbBlockTableRecord
  2
*Paper_Space
340
1E
  0
BLOCK_RECORD
  5
23
330
1
100
AcDbSymbolTableRecord
100
AcDbBlockTableRecord
  2
*Paper_Space0
340
26
  0
BLOCK_RECORD
  5
1BC9A
102
{ACAD_XDICTIONARY
360
1BCA4
102
}
330
1
100
AcDbSymbolTableRecord
100
AcDbBlockTableRecord
  2
A$C2113452D
340
0
  0
BLOCK_RECORD
  5
1BCB0
102
{ACAD_XDICTIONARY
360
1BCC2
102
}
330
1
100
AcDbSymbolTableRecord
100
AcDbBlockTableRecord
  2
A$C0D4D25D3
340
0
  0
BLOCK_RECORD
  5
1BCC9
102
{ACAD_XDICTIONARY
360
1BCD2
102
}
330
1
100
AcDbSymbolTableRecord
100
AcDbBlockTableRecord
  2
A$C1EFF6AF6
340
0
  0
ENDTAB
  0
ENDSEC
  0
SECTION
  2
BLOCKS
  0
BLOCK
  5
20
330
1F
100
AcDbEntity
  8
0
100
AcDbBlockBegin
  2
*Model_Space
 70
     0
 10
0.0
 20
0.0
 30
0.0
  3
*Model_Space
  1

  0
ENDBLK
  5
21
330
1F
100
AcDbEntity
  8
0
100
AcDbBlockEnd
  0
BLOCK
  5
1C
330
1B
100
AcDbEntity
 67
     1
  8
0
100
AcDbBlockBegin
  2
*Paper_Space
 70
     0
 10
0.0
 20
0.0
 30
0.0
  3
*Paper_Space
  1

  0
ENDBLK
  5
1D
330
1B
100
AcDbEntity
 67
     1
  8
0
100
AcDbBlockEnd
  0
BLOCK
  5
24
330
23
100
AcDbEntity
  8
0
100
AcDbBlockBegin
  2
*Paper_Space0
 70
     0
 10
0.0
 20
0.0
 30
0.0
  3
*Paper_Space0
  1

  0
ENDBLK
  5
25
330
23
100
AcDbEntity
  8
0
100
AcDbBlockEnd
  0
BLOCK
  5
1BCA6
330
1BC9A
100
AcDbEntity
  8
0
 62
     5
100
AcDbBlockBegin
  2
A$C2113452D
 70
     0
 10
0.0
 20
0.0
 30
0.0
  3
A$C2113452D
  1

  0
SPLINE
  5
1BC9B
330
1BC9A
100
AcDbEntity
  8
0
 62
     5
100
AcDbSpline
210
0.0
220
0.0
230
1.0
 70
     8
 71
     3
 72
    29
 73
    25
 74
    23
 42
0.0000000001
 43
0.0000000001
 44
0.0000000001
 40
0.0
 40
0.0
 40
0.0
 40
0.0
 40
1.049857294134904
 40
3.419085806612285
 40
5.760124006096957
 40
6.680867068414586
 40
7.831604483056302
 40
10.10500209444139
 40
11.15963998449729
 40
12.62622172722383
 40
13.5145543247363
 40
14.31127817012387
 40
15.4791253854336
 40
16.39627351665185
 40
16.88160069809107
 40
17.88074471453541
 40
18.96277509147129
 40
19.8601040420701
 40
20.34905589456544
 40
21.81604557187049
 40
23.09108444316272
 40
24.4655816221951
 40
25.61145940378259
 40
26.06988027861118
 40
26.06988027861118
 40
26.06988027861118
 40
26.06988027861118
 10
20.79024787997193
 20
17.9749455598583
 30
0.0
 10
21.14064354705963
 20
17.98292726346652
 30
0.0
 10
22.28178230823306
 20
18.00892139588043
 30
0.0
 10
24.18049598999849
 20
17.62463720801416
 30
0.0
 10
25.97754687061814
 20
17.07779633832917
 30
0.0
 10
27.32997357733055
 20
16.49557092379309
 30
0.0
 10
28.61808714665567
 20
15.83260978814385
 30
0.0
 10
29.87270117293913
 20
15.00686446970044
 30
0.0
 10
31.06683690495069
 20
13.94210204181616
 30
0.0
 10
31.82135677490632
 20
13.08436784350607
 30
0.0
 10
32.38394792768757
 20
12.19296274907597
 30
0.0
 10
32.76893674595368
 20
11.32062674191252
 30
0.0
 10
32.97530351411905
 20
10.36733451422606
 30
0.0
 10
32.90269989021414
 20
9.503492838349295
 30
0.0
 10
32.69192676173074
 20
8.729813000028286
 30
0.0
 10
32.32458637352507
 20
7.949137061383275
 30
0.0
 10
31.73519972057758
 20
7.144715768676157
 30
0.0
 10
31.16777963338658
 20
6.546933386050696
 30
0.0
 10
30.46211866967336
 20
5.908777137482189
 30
0.0
 10
29.593909254842
 20
5.265851041110252
 30
0.0
 10
28.41578468694136
 20
4.560032191895139
 30
0.0
 10
27.28165420218914
 20
3.996649896698201
 30
0.0
 10
26.36586248743296
 20
3.611243678080562
 30
0.0
 10
25.8638157364552
 20
3.427005831154396
 30
0.0
 10
25.72035821383767
 20
3.374360723819386
 30
0.0
 11
20.79024787997193
 21
17.9749455598583
 31
0.0
 11
21.84010517403469
 21
17.97493325212277
 31
0.0
 11
24.17728031883415
 21
17.58653128654148
 31
0.0
 11
26.40957953020504
 21
16.88133621965618
 31
0.0
 11
27.25537577707628
 21
16.51747292721717
 31
0.0
 11
28.27893519522718
 21
15.99161865560677
 31
0.0
 11
30.16585964815045
 21
14.72360729587387
 31
0.0
 11
30.95199182376321
 21
14.02057295701986
 31
0.0
 11
31.91024017133095
 21
12.91033779612714
 31
0.0
 11
32.37990046806549
 21
12.15631259132661
 31
0.0
 11
32.69839130939813
 21
11.42601643920996
 31
0.0
 11
32.92793529013997
 21
10.28095020566192
 31
0.0
 11
32.85480644321416
 21
9.366722189057512
 31
0.0
 11
32.7282358650009
 21
8.898190053794095
 31
0.0
 11
32.31018693430153
 21
7.990707901276685
 31
0.0
 11
31.67972195016775
 21
7.111331053507086
 31
0.0
 11
31.06377450121679
 21
6.458791410486398
 31
0.0
 11
30.70138820008085
 21
6.13053833310915
 31
0.0
 11
29.52861037987884
 21
5.249260341915785
 31
0.0
 11
28.43650426165869
 21
4.591211445668491
 31
0.0
 11
27.20687697142523
 21
3.976997132679045
 31
0.0
 11
26.15001012149054
 21
3.534201071444321
 31
0.0
 11
25.72035821383767
 21
3.374360723819386
 31
0.0
  0
SPLINE
  5
1BC9C
330
1BC9A
100
AcDbEntity
  8
0
 62
     5
100
AcDbSpline
210
0.0
220
0.0
230
1.0
 70
     8
 71
     3
 72
    21
 73
    17
 74
    15
 42
0.0000000001
 43
0.0000000001
 44
0.0000000001
 40
0.0
 40
0.0
 40
0.0
 40
0.0
 40
1.060776523241704
 40
3.978707690256289
 40
6.694645616353447
 40
9.102835795579183
 40
10.31488186123144
 40
11.91143504701377
 40
13.86902922465297
 40
15.40968637452363
 40
16.23263735610807
 40
17.10161690180826
 40
19.94425493999192
 40
22.71750132497166
 40
23.70370811328088
 40
25.62386693982738
 40
25.62386693982738
 40
25.62386693982738
 40
25.62386693982738
 10
20.79024787997193
 20
17.9749455598583
 30
0.0
 10
21.14202598424892
 20
17.93930107550737
 30
0.0
 10
22.46145775718581
 20
17.80560752093204
 30
0.0
 10
24.65791375029221
 20
17.34899394964309
 30
0.0
 10
27.16440163820296
 20
16.37087642537803
 30
0.0
 10
29.01109344485573
 20
15.32790366701573
 30
0.0
 10
30.40770223873675
 20
14.29018385362114
 30
0.0
 10
31.5787725391691
 20
13.20290950028203
 30
0.0
 10
32.54742365551667
 20
11.79858853247083
 30
0.0
 10
32.95888274324722
 20
10.33093318749326
 30
0.0
 10
32.61722357097389
 20
9.283746238420455
 30
0.0
 10
31.85206437132985
 20
7.970133539381663
 30
0.0
 10
30.00590198678475
 20
6.678849349670983
 30
0.0
 10
27.98266817220139
 20
5.838213146119734
 30
0.0
 10
26.1798058093564
 20
5.252697490413098
 30
0.0
 10
25.23676237393653
 20
5.029245708472807
 30
0.0
 10
24.61371853971197
 20
4.881617031197279
 30
0.0
 11
20.79024787997193
 21
17.9749455598583
 31
0.0
 11
21.84458335373976
 21
17.85822563432923
 31
0.0
 11
24.6993723091212
 21
17.25448536263347
 31
0.0
 11
27.23121058300154
 21
16.27157449519556
 31
0.0
 11
29.32168562915001
 21
15.07604364208058
 31
0.0
 11
30.2932513424539
 21
14.3513949478877
 31
0.0
 11
31.45020364564928
 21
13.2511934012779
 31
0.0
 11
32.52272804696494
 21
11.61355291175971
 31
0.0
 11
32.82545953891162
 21
10.10293115326709
 31
0.0
 11
32.59685189578949
 21
9.312370046459449
 31
0.0
 11
32.16150812841319
 21
8.560305384976189
 31
0.0
 11
29.95482895645105
 21
6.768334947676194
 31
0.0
 11
27.4125745475788
 21
5.660256415995007
 31
0.0
 11
26.47390880215323
 21
5.357749477773971
 31
0.0
 11
24.61371853971197
 21
4.881617031197279
 31
0.0
  0
SPLINE
  5
1BC9D
330
1BC9A
100
AcDbEntity
  8
0
 62
     5
100
AcDbSpline
210
0.0
220
0.0
230
1.0
 70
     8
 71
     3
 72
    40
 73
    36
 74
    34
 42
0.0000000001
 43
0.0000000001
 44
0.0000000001
 40
0.0
 40
0.0
 40
0.0
 40
0.0
 40
2.139839624715673
 40
4.975066794153057
 40
8.436601881882685
 40
12.26488596649306
 40
16.01561475380353
 40
20.4412751451358
 40
21.85610008502783
 40
22.94061896243185
 40
23.569119923181
 40
24.77205104370348
 40
26.29780316704757
 40
27.05620601690926
 40
29.40071318305496
 40
31.49374535107827
 40
35.37020880412806
 40
38.2512033498391
 40
41.33544023224371
 40
44.38465359294344
 40
48.0482628732525
 40
54.62732087346529
 40
57.79333930513807
 40
60.80555847359249
 40
65.28341569614858
 40
67.04609306933872
 40
69.86183264046076
 40
71.19787637495557
 40
72.12054484224693
 40
74.0493222281722
 40
77.71771316893373
 40
82.46586762956621
 40
88.05659816627681
 40
93.97706162947576
 40
95.60787563746941
 40
95.60787563746941
 40
95.60787563746941
 40
95.60787563746941
 10
20.42150473515838
 20
18.92946530473448
 30
0.0
 10
21.13491210982669
 20
18.94815183804555
 30
0.0
 10
22.793564141232
 20
18.99159750112232
 30
0.0
 10
25.60158587187345
 20
18.7661311616301
 30
0.0
 10
28.94723224272283
 20
18.33547891430662
 30
0.0
 10
32.54928454201108
 20
17.45644416310368
 30
0.0
 10
36.20893047299631
 20
15.95115984805983
 30
0.0
 10
39.21462482577103
 20
14.40548525800472
 30
0.0
 10
40.38484926402361
 20
12.38104769050018
 30
0.0
 10
40.74769857599888
 20
11.39049594191976
 30
0.0
 10
40.78954761602997
 20
10.41028631645832
 30
0.0
 10
40.49980547416241
 20
9.304947331611494
 30
0.0
 10
39.85363210834567
 20
8.320024328500068
 30
0.0
 10
38.82301540191667
 20
7.17014033056143
 30
0.0
 10
37.4443291022865
 20
6.105350254167909
 30
0.0
 10
35.2242438550326
 20
4.452230259690651
 30
0.0
 10
32.67092620409673
 20
2.943535642098446
 30
0.0
 10
29.63231790754907
 20
1.692935645122801
 30
0.0
 10
26.75148300770491
 20
0.8187499606991295
 30
0.0
 10
23.54240061074808
 20
0.1978560719475624
 30
0.0
 10
19.10910110608653
 20
-0.2071431232250731
 30
0.0
 10
14.64886818927942
 20
0.5920610134789542
 30
0.0
 10
10.58077190641927
 20
1.836072006402005
 30
0.0
 10
7.334001534590356
 20
3.292647514955511
 30
0.0
 10
4.681491823659314
 20
4.910275242817832
 30
0.0
 10
2.355124401463157
 20
6.822401601061095
 30
0.0
 10
0.8642591568808057
 20
8.164777818517706
 30
0.0
 10
0.0935416608515567
 20
9.70169107588071
 30
0.0
 10
-0.1344111851728229
 20
11.10107682553526
 30
0.0
 10
0.6349835832407394
 20
13.26642803885681
 30
0.0
 10
3.447667258784363
 20
15.47607445871026
 30
0.0
 10
7.720659718297241
 20
17.3686237440682
 30
0.0
 10
13.03021501650546
 20
18.60873739092025
 30
0.0
 10
17.41124799238926
 20
18.99016838434276
 30
0.0
 10
19.92809362836492
 20
18.93779565739461
 30
0.0
 10
20.47164498570348
 20
18.92648496498928
 30
0.0
 11
20.42150473515838
 21
18.92946530473448
 31
0.0
 11
22.56121613246842
 21
18.95289084047734
 31
0.0
 11
25.39005615434935
 21
18.7626877045395
 31
0.0
 11
28.81918225897441
 21
18.29012096622378
 31
0.0
 11
32.53319621857097
 21
17.36175716878065
 31
0.0
 11
36.01784964203739
 21
15.97425691498493
 31
0.0
 11
39.67392313172336
 21
13.48034502050615
 31
0.0
 11
40.39823500795793
 21
12.26498420310004
 31
0.0
 11
40.7308022592642
 21
11.23271475242145
 31
0.0
 11
40.75959329615289
 21
10.60487358312983
 31
0.0
 11
40.47516628443506
 21
9.436051716579271
 31
0.0
 11
39.6733679111742
 21
8.137961230316776
 31
0.0
 11
39.16826567319143
 21
7.572234607412092
 31
0.0
 11
37.37550883318329
 21
6.061361758786972
 31
0.0
 11
35.68472066238309
 21
4.827660410055258
 31
0.0
 11
32.33869889354918
 21
2.87033896856429
 31
0.0
 11
29.67999770420325
 21
1.760637405896524
 31
0.0
 11
26.72792030027981
 21
0.8674654470724618
 31
0.0
 11
23.7353685352919
 21
0.2823705377308201
 31
0.0
 11
20.08267874977716
 21
-0.0002781657209567
 31
0.0
 11
13.57465167052038
 21
0.9638731221090921
 31
0.0
 11
10.55476157633401
 21
1.914628889236936
 31
0.0
 11
7.802384370572966
 21
3.138509617090441
 31
0.0
 11
3.998852407229975
 21
5.501632531673166
 31
0.0
 11
2.6288968048583
 21
6.610800314060924
 31
0.0
 11
0.6825953705973263
 21
8.645573043231486
 31
0.0
 11
0.1077663963254167
 21
9.851634613310039
 31
0.0
 11
-0.0281574836966314
 21
10.76423627853619
 31
0.0
 11
0.5319660977489207
 21
12.60989165751822
 31
0.0
 11
3.207145203989881
 21
15.11997309918363
 31
0.0
 11
7.510507766277484
 21
17.1264728972214
 31
0.0
 11
12.94102241714499
 21
18.45529890570479
 31
0.0
 11
18.84096965477825
 21
18.94775216462123
 31
0.0
 11
20.47164498570348
 21
18.92648496498928
 31
0.0
  0
SPLINE
  5
1BC9E
330
1BC9A
100
AcDbEntity
  8
0
 62
     5
100
AcDbSpline
210
0.0
220
0.0
230
1.0
 70
     8
 71
     3
 72
    11
 73
     7
 74
     5
 42
0.0000000001
 43
0.0000000001
 44
0.0000000001
 40
0.0
 40
0.0
 40
0.0
 40
0.0
 40
4.118527961180634
 40
7.573686812649318
 40
11.16374911351051
 40
14.8507535600661
 40
14.8507535600661
 40
14.8507535600661
 40
14.8507535600661
 10
14.93352733397346
 20
2.204407337031746
 30
0.0
 10
13.57117674843421
 20
2.398171924192666
 30
0.0
 10
11.06590866207995
 20
2.75449153944627
 30
0.0
 10
7.521496352560433
 20
3.909470549885895
 30
0.0
 10
4.219248349492687
 20
5.369949599538806
 30
0.0
 10
2.366506826709823
 20
6.95549295227186
 30
0.0
 10
1.427795327980831
 20
7.758825612894845
 30
0.0
 11
14.93352733397346
 21
2.204407337031746
 31
0.0
 11
10.87624654761309
 21
2.912040849280657
 31
0.0
 11
7.58093063212199
 21
3.950797657197426
 31
0.0
 11
4.343113695330387
 21
5.501632531673166
 31
0.0
 11
1.427795327980831
 21
7.758825612894845
 31
0.0
  0
SPLINE
  5
1BC9F
330
1BC9A
100
AcDbEntity
  8
0
 62
     5
100
AcDbSpline
210
0.0
220
0.0
230
1.0
 70
     8
 71
     3
 72
    18
 73
    14
 74
    12
 42
0.0000000001
 43
0.0000000001
 44
0.0000000001
 40
0.0
 40
0.0
 40
0.0
 40
0.0
 40
2.917685375507845
 40
7.666371557144167
 40
9.832940456454617
 40
11.10875487096342
 40
13.02448985528269
 40
15.46585196058843
 40
17.64671674708036
 40
20.49285373632324
 40
24.05492765836028
 40
26.02063949438503
 40
26.46236805742613
 40
26.46236805742613
 40
26.46236805742613
 40
26.46236805742613
 10
16.05426348451618
 20
4.87870739744001
 30
0.0
 10
15.11487445630642
 20
5.121994676250139
 30
0.0
 10
12.64658044920935
 20
5.761244778451548
 30
0.0
 10
9.562305268661972
 20
7.10561160840475
 30
0.0
 10
7.808611694625227
 20
9.44172832927682
 30
0.0
 10
7.889971299590058
 20
11.30545926341628
 30
0.0
 10
8.858113015623843
 20
12.97510334007177
 30
0.0
 10
10.4458286235881
 20
14.48972053603646
 30
0.0
 10
12.52935248335345
 20
15.86759791972302
 30
0.0
 10
15.13901417000926
 20
17.07643165951758
 30
0.0
 10
17.85235153707188
 20
17.79170123215329
 30
0.0
 10
19.84097057926982
 20
18.01310533197382
 30
0.0
 10
20.64307412385442
 20
17.98086176262716
 30
0.0
 10
20.79024787997193
 20
17.9749455598583
 30
0.0
 11
16.05426348451618
 21
4.87870739744001
 31
0.0
 11
13.24530860626277
 21
5.667795759024876
 31
0.0
 11
9.077065421414545
 21
7.942827451909636
 31
0.0
 11
7.930551611203924
 21
9.781176406394507
 31
0.0
 11
7.960165986836884
 21
11.05664706815992
 31
0.0
 11
8.827554002861816
 21
12.76476842210439
 31
0.0
 11
10.55568357591058
 21
14.48924431581157
 31
0.0
 11
12.3672708266796
 21
15.70346128563683
 31
0.0
 11
14.94700582637905
 21
16.90573541946079
 31
0.0
 11
18.39051209169781
 21
17.81712733667687
 31
0.0
 11
20.34873048487275
 21
17.98860254456176
 31
0.0
 11
20.79024787997193
 21
17.9749455598583
 31
0.0
  0
LINE
  5
1BCA0
330
1BC9A
100
AcDbEntity
  8
0
 62
     5
100
AcDbLine
 10
18.84096965477828
 20
18.94775216462123
 30
0.0
 11
18.83994225674064
 21
17.86637489641052
 31
0.0
  0
LINE
  5
1BCA1
330
1BC9A
100
AcDbEntity
  8
0
 62
     5
100
AcDbLine
 10
21.84097973715471
 20
18.95712612646684
 30
0.0
 11
21.83932801509872
 21
17.97496878071025
 31
0.0
  0
ARC
  5
1BCA2
330
1BC9A
100
AcDbEntity
  8
0
 62
     5
100
AcDbCircle
 10
17.1595739452888
 20
33.32521533904287
 30
0.0
 40
31.20032009793789
100
AcDbArc
 50
265.9086467312134
 51
285.9283494815156
  0
ARC
  5
1BCA3
330
1BC9A
100
AcDbEntity
  8
0
 62
     5
100
AcDbCircle
 10
20.32657796683883
 20
26.68758993506154
 30
0.0
 40
22.22341172222746
100
AcDbArc
 50
258.916237570563
 51
281.1227157802574
  0
ENDBLK
  5
1BCA7
330
1BC9A
100
AcDbEntity
  8
0
 62
     5
100
AcDbBlockEnd
  0
BLOCK
  5
1BCC4
330
1BCB0
100
AcDbEntity
  8
0
 62
     5
100
AcDbBlockBegin
  2
A$C0D4D25D3
 70
     0
 10
0.0
 20
0.0
 30
0.0
  3
A$C0D4D25D3
  1

  0
LWPOLYLINE
  5
1BCB1
330
1BCB0
100
AcDbEntity
  8
0
 62
     5
100
AcDbPolyline
 90
        4
 70
     0
 43
0.0
 10
13.29643337551762
 20
5.773947120778622
 10
13.29643337551762
 20
7.373848110301683
 10
27.44062759697211
 20
7.373848110301683
 10
27.44062759697211
 20
5.571023234374674
  0
LWPOLYLINE
  5
1BCB2
330
1BCB0
100
AcDbEntity
  8
0
 62
     5
100
AcDbPolyline
 90
        4
 70
     0
 43
0.0
 10
27.44062759697211
 20
3.525143046320913
 10
27.44062759697211
 20
1.903399973316069
 10
13.29643337551762
 20
1.903399973316069
 10
13.29643337551762
 20
3.720431095359202
  0
LWPOLYLINE
  5
1BCB3
330
1BCB0
100
AcDbEntity
  8
0
 62
     5
100
AcDbPolyline
 90
        4
 70
     0
 43
0.0
 10
13.52802401593392
 20
5.736348924862699
 10
13.52802401593392
 20
6.12293340729083
 10
27.12802401593393
 20
6.12293340729083
 10
27.12802401593393
 20
5.549848091948586
  0
LWPOLYLINE
  5
1BCB4
330
1BCB0
100
AcDbEntity
  8
0
 62
     5
100
AcDbPolyline
 90
        4
 70
     0
 43
0.0
 10
27.12802401593393
 20
3.575622163094156
 10
27.12802401593393
 20
3.151626620957131
 10
13.52802401593392
 20
3.151626620957131
 10
13.52802401593392
 20
3.736119023342972
  0
SPLINE
  5
1BCB5
330
1BCB0
100
AcDbEntity
  8
0
 62
     5
100
AcDbSpline
210
0.0
220
0.0
230
1.0
 70
     8
 71
     3
 72
    18
 73
    14
 74
    12
 42
0.0000000001
 43
0.0000000001
 44
0.0000000001
 40
0.0
 40
0.0
 40
0.0
 40
0.0
 40
0.7694521551997921
 40
2.792365912054524
 40
10.7101331677526
 40
17.68930144917056
 40
25.4801866360867
 40
31.26009887457892
 40
35.56932130423256
 40
38.39699272228609
 40
38.73878222179343
 40
38.90458994741943
 40
38.96112769750793
 40
38.96112769750793
 40
38.96112769750793
 40
38.96112769750793
 10
2.050951051705652
 20
2.647796585488944
 30
0.0
 10
2.298118080742455
 20
2.717393225347635
 30
0.0
 10
3.195094951626586
 20
2.969961605878694
 30
0.0
 10
6.767862609606936
 20
3.282643496111244
 30
0.0
 10
12.38223501974038
 20
3.655889770302316
 30
0.0
 10
19.93243662124996
 20
4.174199464869921
 30
0.0
 10
26.76940677677784
 20
4.518318542791689
 30
0.0
 10
32.72676301864922
 20
4.900873198893727
 30
0.0
 10
36.9884227864615
 20
5.3728716502406
 30
0.0
 10
39.49279953865613
 20
5.704553326974902
 30
0.0
 10
40.51315488861374
 20
6.166707215849427
 30
0.0
 10
40.65760202708459
 20
6.291469623998452
 30
0.0
 10
40.701244941411
 20
6.351451569790913
 30
0.0
 10
40.7123424111274
 20
6.366703709507895
 30
0.0
 11
2.050951051705652
 21
2.647796585488944
 31
0.0
 11
2.795073409034984
 21
2.843598874710096
 31
0.0
 11
4.800685587256594
 21
3.107606181884143
 31
0.0
 11
12.69774306953732
 21
3.679901068248305
 31
0.0
 11
19.66202217335944
 21
4.135539592099355
 31
0.0
 11
27.44062759697211
 21
4.572791989980697
 31
0.0
 11
33.20600117811219
 21
4.982490604286518
 31
0.0
 11
37.49007922412928
 21
5.447327397004592
 31
0.0
 11
40.25223621066216
 21
6.052483930658869
 31
0.0
 11
40.5555136578963
 21
6.210100084566455
 31
0.0
 11
40.67819077874739
 21
6.321646155303863
 31
0.0
 11
40.7123424111274
 21
6.366703709507895
 31
0.0
  0
SPLINE
  5
1BCB6
330
1BCB0
100
AcDbEntity
  8
0
 62
     5
100
AcDbSpline
210
0.0
220
0.0
230
1.0
 70
     8
 71
     3
 72
    34
 73
    30
 74
    28
 42
0.0000000001
 43
0.0000000001
 44
0.0000000001
 40
0.0
 40
0.0
 40
0.0
 40
0.0
 40
0.1209994715794785
 40
0.2001929433849487
 40
0.2807663417566009
 40
0.554052565366589
 40
0.7643229825101394
 40
1.532036493825104
 40
3.423334658890382
 40
6.606967802056537
 40
10.55675863287789
 40
15.41823712117202
 40
17.03177502653403
 40
19.45199170592812
 40
21.41787659516062
 40
22.57745565434769
 40
24.9405681494472
 40
27.54035475313354
 40
29.74898595706191
 40
32.50323817075305
 40
35.52986631491525
 40
38.37579713302981
 40
39.91278837061389
 40
40.37421435990146
 40
41.41119301427521
 40
42.70473542962284
 40
43.13520888328105
 40
43.22535132518425
 40
43.33318807398507
 40
43.33318807398507
 40
43.33318807398507
 40
43.33318807398507
 10
40.7123424111274
 20
6.366703709507891
 30
0.0
 10
40.73463078486367
 20
6.400452097057478
 30
0.0
 10
40.77150677352117
 20
6.456288613943502
 30
0.0
 10
40.79855448002507
 20
6.548336093706616
 30
0.0
 10
40.77229024066094
 20
6.694771850393678
 30
0.0
 10
40.62820730325078
 20
6.835664349645213
 30
0.0
 10
40.28191228790658
 20
7.061362260532174
 30
0.0
 10
39.38555882231611
 20
7.425196955279027
 30
0.0
 10
37.50300100493803
 20
7.915710250794603
 30
0.0
 10
34.53711572784847
 20
8.444479382195499
 30
0.0
 10
30.57276223315149
 20
8.970571610751257
 30
0.0
 10
27.10391573640189
 20
9.20656421898704
 30
0.0
 10
24.14418396708057
 20
9.382270679237215
 30
0.0
 10
22.14394142749376
 20
9.431695199143742
 30
0.0
 10
20.29558582910713
 20
9.392753265117164
 30
0.0
 10
18.46659185808889
 20
9.352050457905516
 30
0.0
 10
16.42614455559884
 20
9.296265787241324
 30
0.0
 10
14.04255927533998
 20
9.086984793595874
 30
0.0
 10
11.5473770852974
 20
8.735304223557502
 30
0.0
 10
8.913319510051735
 20
8.297314195326297
 30
0.0
 10
6.187362357581349
 20
7.362860205957098
 30
0.0
 10
3.898507597399486
 20
6.405766184888978
 30
0.0
 10
2.556339645167255
 20
5.493810656774535
 30
0.0
 10
1.773176619767198
 20
4.854730128042863
 30
0.0
 10
1.067239804735237
 20
4.237728697807369
 30
0.0
 10
0.5156573450929045
 20
3.512743644187942
 30
0.0
 10
0.0791444108456858
 20
3.067552098058008
 30
0.0
 10
0.0152306541887271
 20
2.866271660884542
 30
0.0
 10
0.0053706007375638
 20
2.800988248048859
 30
0.0
 10
-0.0000000450530138
 20
2.765429202849276
 30
0.0
 11
40.7123424111274
 21
6.366703709507891
 31
0.0
 11
40.77278148761919
 21
6.471527324000671
 31
0.0
 11
40.79225916772571
 21
6.548288160071365
 31
0.0
 11
40.78040495569347
 21
6.627984773438882
 31
0.0
 11
40.60881548509889
 21
6.840687414692062
 31
0.0
 11
40.43457601618072
 21
6.958391517410873
 31
0.0
 11
39.73438744832797
 21
7.273224814417162
 31
0.0
 11
37.9148718349035
 21
7.789336896899115
 31
0.0
 11
34.78625862590343
 21
8.378658013724511
 31
0.0
 11
30.87010117842368
 21
8.893010474386798
 31
0.0
 11
26.02322763199122
 21
9.269560493693461
 31
0.0
 11
24.41216517297073
 21
9.35890435288298
 31
0.0
 11
21.99260003923111
 21
9.415058950280851
 31
0.0
 11
20.02692108998653
 21
9.386604316046685
 31
0.0
 11
18.86763976978282
 21
9.360328564260715
 31
0.0
 11
16.50603817674616
 21
9.275838444944135
 31
0.0
 11
13.91597274809408
 21
9.051224420430454
 31
0.0
 11
11.72763643367111
 21
8.752500517898702
 31
0.0
 11
9.021100332109625
 21
8.242042304558122
 31
0.0
 11
6.141309314296464
 21
7.310762745694425
 31
0.0
 11
3.553020139480665
 21
6.127512404885031
 31
0.0
 11
2.280862302455858
 21
5.264983273720979
 31
0.0
 11
1.922408649136485
 21
4.974423603408638
 31
0.0
 11
1.156598666318089
 21
4.275238506426102
 31
0.0
 11
0.3036008795559013
 21
3.302794803129
 31
0.0
 11
0.0467008259876991
 21
2.957382358678771
 31
0.0
 11
0.0191601653537816
 21
2.871550127878684
 31
0.0
 11
-0.0000000450530138
 21
2.765429202849276
 31
0.0
  0
SPLINE
  5
1BCB7
330
1BCB0
100
AcDbEntity
  8
0
 62
     5
100
AcDbSpline
210
0.0
220
0.0
230
1.0
 70
     8
 71
     3
 72
    17
 73
    13
 74
    11
 42
0.0000000001
 43
0.0000000001
 44
0.0000000001
 40
0.0
 40
0.0
 40
0.0
 40
0.0
 40
0.1447966579277114
 40
0.4779028577548507
 40
1.049586835443672
 40
1.473256666579477
 40
2.518286083752704
 40
3.563315500925922
 40
6.617371951308992
 40
10.48182784622567
 40
13.70737110996812
 40
15.60556648591137
 40
15.60556648591137
 40
15.60556648591137
 40
15.60556648591137
 10
0.0000001564776824
 20
2.765429202849272
 30
0.0
 10
0.0123640086698629
 20
2.717750352347977
 30
0.0
 10
0.0531710299096062
 20
2.560385816210594
 30
0.0
 10
0.3718731034560108
 20
2.357513470362771
 30
0.0
 10
0.7575317555090067
 20
2.164457890975494
 30
0.0
 10
1.400799163515443
 20
1.930371574318723
 30
0.0
 10
2.204520935464174
 20
1.698149894855909
 30
0.0
 10
3.874890282095265
 20
1.305166550707369
 30
0.0
 10
6.490361397308134
 20
0.8434186123619156
 30
0.0
 10
9.847809296673233
 20
0.4289765222954145
 30
0.0
 10
12.83460780436074
 20
0.1891202256945412
 30
0.0
 10
14.53847089407747
 20
0.07178377208621
 30
0.0
 10
15.16970235719111
 20
0.0283140462996947
 30
0.0
 11
0.0000001564776824
 21
2.765429202849272
 31
0.0
 11
0.046666889258816
 21
2.628358826040244
 31
0.0
 11
0.2977941018569083
 21
2.409509874806772
 31
0.0
 11
0.8086975264449023
 21
2.152994259121541
 31
0.0
 11
1.205450092874684
 21
2.004388987189411
 31
0.0
 11
2.207123944653275
 21
1.706503140898494
 31
0.0
 11
3.223519902941518
 21
1.463551008302953
 31
0.0
 11
6.227634131487846
 21
0.913497825445205
 31
0.0
 11
10.06206658627073
 21
0.4327202121311551
 31
0.0
 11
13.27617712731747
 21
0.1613850389475644
 31
0.0
 11
15.16970235719111
 21
0.0283140462996947
 31
0.0
  0
SPLINE
  5
1BCB8
330
1BCB0
100
AcDbEntity
  8
0
 62
     5
100
AcDbSpline
210
0.0
220
0.0
230
1.0
 70
     8
 71
     3
 72
    18
 73
    14
 74
     0
 42
0.0000000001
 43
0.0000000001
 40
0.0
 40
0.0
 40
0.0
 40
0.0
 40
0.1209994715794785
 40
0.2001929433849487
 40
0.2807663417566009
 40
0.554052565366589
 40
0.7643229825101394
 40
1.532036493825104
 40
3.423334658890382
 40
6.606967802056537
 40
10.55675863287789
 40
15.41823712117202
 40
15.83884361034361
 40
15.83884361034361
 40
15.83884361034361
 40
15.83884361034361
 10
0.077720201341549
 20
2.928340877412868
 30
0.0
 10
0.0554318276052754
 20
2.894592489863281
 30
0.0
 10
0.0185558389477763
 20
2.838755972977256
 30
0.0
 10
-0.0084918675561312
 20
2.746708493214143
 30
0.0
 10
0.0177723718079932
 20
2.600272736527081
 30
0.0
 10
0.1618553092181685
 20
2.459380237275546
 30
0.0
 10
0.5081503245623651
 20
2.233682326388585
 30
0.0
 10
1.40450379015283
 20
1.869847631641732
 30
0.0
 10
3.287061607530915
 20
1.379334336126156
 30
0.0
 10
6.25294688462047
 20
0.8505652047252603
 30
0.0
 10
10.21730037931745
 20
0.3244729761695027
 30
0.0
 10
13.28919987505216
 20
0.1154854712695545
 30
0.0
 10
15.04673682491437
 20
0.0083418201549996
 30
0.0
 10
15.18669473760778
 20
0.0000000067069941
 30
0.0
  0
SPLINE
  5
1BCB9
330
1BCB0
100
AcDbEntity
  8
0
 62
     5
100
AcDbSpline
210
0.0
220
0.0
230
1.0
 70
     8
 71
     3
 72
    19
 73
    15
 74
     0
 42
0.0000000001
 43
0.0000000001
 40
26.22774665280451
 40
26.22774665280451
 40
26.22774665280451
 40
26.22774665280451
 40
27.54035475313354
 40
29.74898595706191
 40
32.50323817075305
 40
35.52986631491525
 40
38.37579713302981
 40
39.91278837061389
 40
40.37421435990146
 40
41.41119301427521
 40
42.70473542962284
 40
43.13520888328105
 40
43.22535132518425
 40
43.33318807398507
 40
43.33318807398507
 40
43.33318807398507
 40
43.33318807398507
 10
25.56813143455022
 20
0.1110329785570627
 30
0.0
 10
26.00413503191916
 20
0.1488329111657549
 30
0.0
 10
27.17218732676947
 20
0.2679163874280981
 30
0.0
 10
29.24268552717155
 20
0.5597403633632574
 30
0.0
 10
31.87674310241721
 20
0.9977303915944624
 30
0.0
 10
34.60270025488759
 20
1.932184380963661
 30
0.0
 10
36.89155501506946
 20
2.889278402031781
 30
0.0
 10
38.23372296730169
 20
3.801233930146224
 30
0.0
 10
39.01688599270175
 20
4.440314458877896
 30
0.0
 10
39.7228228077337
 20
5.05731588911339
 30
0.0
 10
40.27440526737604
 20
5.782300942732817
 30
0.0
 10
40.71091820162325
 20
6.22749248886275
 30
0.0
 10
40.77483195828022
 20
6.428772926036216
 30
0.0
 10
40.78469201173137
 20
6.494056338871899
 30
0.0
 10
40.79006265752195
 20
6.529615384071483
 30
0.0
  0
SPLINE
  5
1BCBA
330
1BCB0
100
AcDbEntity
  8
0
 62
     5
100
AcDbSpline
210
0.0
220
0.0
230
1.0
 70
     8
 71
     3
 72
    17
 73
    13
 74
    11
 42
0.0000000001
 43
0.0000000001
 44
0.0000000001
 40
0.0
 40
0.0
 40
0.0
 40
0.0
 40
0.8324980563396357
 40
1.176649696652822
 40
1.318866645457956
 40
1.520888940242142
 40
1.79101977783618
 40
3.134564324494849
 40
5.650065344435023
 40
8.234105579514171
 40
10.90606685272359
 40
12.2162048623013
 40
12.2162048623013
 40
12.2162048623013
 40
12.2162048623013
 10
31.85155851150546
 20
1.098002921008628
 30
0.0
 10
32.11409631603655
 20
1.185729721637649
 30
0.0
 10
32.48516628516013
 20
1.309722459593483
 30
0.0
 10
32.86814374936
 20
1.552005952454823
 30
0.0
 10
32.97848555710239
 20
1.765544411863963
 30
0.0
 10
32.91494928101044
 20
1.9836202787233
 30
0.0
 10
32.41543424701227
 20
2.351564942571474
 30
0.0
 10
31.09701632817735
 20
2.782167216803376
 30
0.0
 10
29.01130176831136
 20
3.286364799033513
 30
0.0
 10
26.4476173811955
 20
3.675818998710482
 30
0.0
 10
24.29144412281083
 20
4.050669436030002
 30
0.0
 10
22.97558017549551
 20
4.226017327664862
 30
0.0
 10
22.5426519006374
 20
4.283707988147178
 30
0.0
 11
31.85155851150546
 21
1.098002921008628
 31
0.0
 11
32.62445992762991
 21
1.407318964501499
 31
0.0
 11
32.89510177585075
 21
1.619906220756121
 31
0.0
 11
32.95340540897151
 21
1.749622630251458
 31
0.0
 11
32.90715175153613
 21
1.946278692359189
 31
0.0
 11
32.70874216346846
 21
2.129593462037117
 31
0.0
 11
31.46914635328079
 21
2.647776997303758
 31
0.0
 11
29.02583392952545
 21
3.246082756295628
 31
0.0
 11
26.4785331036007
 21
3.680274463668048
 31
0.0
 11
23.84054568406853
 21
4.105008992428018
 31
0.0
 11
22.5426519006374
 21
4.283707988147178
 31
0.0
  0
SPLINE
  5
1BCBB
330
1BCB0
100
AcDbEntity
  8
0
 62
     5
100
AcDbSpline
210
0.0
220
0.0
230
1.0
 70
     8
 71
     3
 72
     9
 73
     5
 74
     3
 42
0.0000000001
 43
0.0000000001
 44
0.0000000001
 40
0.0
 40
0.0
 40
0.0
 40
0.0
 40
2.296428868613206
 40
4.580503824635588
 40
4.580503824635588
 40
4.580503824635588
 40
4.580503824635588
 10
27.44062759697211
 20
1.903399973316069
 30
0.0
 10
28.20359616597119
 20
1.969304111194798
 30
0.0
 10
29.72542882368703
 20
2.100757847793715
 30
0.0
 10
31.23212291694827
 20
2.351983900235612
 30
0.0
 10
31.98343813827739
 20
2.47725814006851
 30
0.0
 11
27.44062759697211
 21
1.903399973316069
 31
0.0
 11
29.72572822048601
 21
2.131217200532375
 31
0.0
 11
31.98343813827739
 21
2.47725814006851
 31
0.0
  0
SPLINE
  5
1BCBC
330
1BCB0
100
AcDbEntity
  8
0
 62
     5
100
AcDbSpline
210
0.0
220
0.0
230
1.0
 70
     8
 71
     3
 72
    18
 73
    14
 74
    12
 42
0.0000000001
 43
0.0000000001
 44
0.0000000001
 40
0.0
 40
0.0
 40
0.0
 40
0.0
 40
0.7694521551997921
 40
2.792365912054524
 40
10.7101331677526
 40
17.68930144917056
 40
25.4801866360867
 40
31.26009887457892
 40
35.56932130423256
 40
38.39699272228609
 40
38.73878222179343
 40
38.90458994741943
 40
38.96112769750793
 40
38.96112769750793
 40
38.96112769750793
 40
38.96112769750793
 10
38.73911156076328
 20
6.647248001431812
 30
0.0
 10
38.49194453172646
 20
6.577651361573124
 30
0.0
 10
37.5949676608423
 20
6.325082981042069
 30
0.0
 10
34.02220000286202
 20
6.012401090809511
 30
0.0
 10
28.40782759272853
 20
5.639154816618447
 30
0.0
 10
20.85762599121901
 20
5.12084512205083
 30
0.0
 10
14.02065583569107
 20
4.77672604412907
 30
0.0
 10
8.063299593819692
 20
4.394171388027029
 30
0.0
 10
3.801639826007502
 20
3.922172936680141
 30
0.0
 10
1.2972630738127
 20
3.590491259945878
 30
0.0
 10
0.2769077238551887
 20
3.128337371071324
 30
0.0
 10
0.132460585384365
 20
3.003574962922307
 30
0.0
 10
0.0888176710579103
 20
2.943593017129838
 30
0.0
 10
0.0777202013415206
 20
2.92834087741286
 30
0.0
 11
38.73911156076328
 21
6.647248001431812
 31
0.0
 11
37.99498920343395
 21
6.451445712210659
 31
0.0
 11
35.98937702521233
 21
6.187438405036612
 31
0.0
 11
28.0923195429316
 21
5.61514351867245
 31
0.0
 11
21.12804043910948
 21
5.1595049948214
 31
0.0
 11
13.34943501549682
 21
4.722252596940059
 31
0.0
 11
7.58406143435674
 21
4.312553982634238
 31
0.0
 11
3.299983388339654
 21
3.847717189916163
 31
0.0
 11
0.5378264018067683
 21
3.242560656261886
 31
0.0
 11
0.2345489545726309
 21
3.0849445023543
 31
0.0
 11
0.111871833721537
 21
2.973398431616892
 31
0.0
 11
0.0777202013415206
 21
2.92834087741286
 31
0.0
  0
SPLINE
  5
1BCBD
330
1BCB0
100
AcDbEntity
  8
0
 62
     5
100
AcDbSpline
210
0.0
220
0.0
230
1.0
 70
     8
 71
     3
 72
    17
 73
    13
 74
    11
 42
0.0000000001
 43
0.0000000001
 44
0.0000000001
 40
0.0
 40
0.0
 40
0.0
 40
0.0
 40
0.8324980563396357
 40
1.176649696652822
 40
1.318866645457956
 40
1.520888940242142
 40
1.79101977783618
 40
3.134564324494849
 40
5.650065344435023
 40
8.234105579514171
 40
10.90606685272359
 40
12.2162048623013
 40
12.2162048623013
 40
12.2162048623013
 40
12.2162048623013
 10
8.983392833956571
 20
8.185144026956809
 30
0.0
 10
8.720855029425507
 20
8.097417226327792
 30
0.0
 10
8.349785060301911
 20
7.973424488371961
 30
0.0
 10
7.966807596102029
 20
7.731140995510614
 30
0.0
 10
7.856465788359642
 20
7.517602536101474
 30
0.0
 10
7.920002064451622
 20
7.29952666924213
 30
0.0
 10
8.419517098449773
 20
6.931582005393963
 30
0.0
 10
9.737935017284684
 20
6.500979731162058
 30
0.0
 10
11.82364957715063
 20
5.996782148931934
 30
0.0
 10
14.38733396426659
 20
5.607327949254951
 30
0.0
 10
16.54350722265121
 20
5.232477511935432
 30
0.0
 10
17.85937116996652
 20
5.057129620300578
 30
0.0
 10
18.29229944482463
 20
4.99943895981826
 30
0.0
 11
8.983392833956571
 21
8.185144026956809
 31
0.0
 11
8.210491417832116
 21
7.875827983463938
 31
0.0
 11
7.939849569611283
 21
7.663240727209316
 31
0.0
 11
7.881545936490525
 21
7.533524317713979
 31
0.0
 11
7.927799593925897
 21
7.336868255606248
 31
0.0
 11
8.126209181993573
 21
7.15355348592832
 31
0.0
 11
9.365804992181239
 21
6.635369950661679
 31
0.0
 11
11.80911741593658
 21
6.037064191669809
 31
0.0
 11
14.35641824186133
 21
5.602872484297389
 31
0.0
 11
16.9944056613935
 21
5.178137955537419
 31
0.0
 11
18.29229944482463
 21
4.99943895981826
 31
0.0
  0
SPLINE
  5
1BCBE
330
1BCB0
100
AcDbEntity
  8
0
 62
     5
100
AcDbSpline
210
0.0
220
0.0
230
1.0
 70
     8
 71
     3
 72
     9
 73
     5
 74
     3
 42
0.0000000001
 43
0.0000000001
 44
0.0000000001
 40
0.0
 40
0.0
 40
0.0
 40
0.0
 40
2.175014998802312
 40
4.542407711722871
 40
4.542407711722871
 40
4.542407711722871
 40
4.542407711722871
 10
13.29643337551762
 20
7.373848110301683
 30
0.0
 10
12.57322885344757
 20
7.317889515743758
 30
0.0
 10
11.06285315488327
 20
7.201022849722114
 30
0.0
 10
9.568244037835398
 20
6.953473343664146
 30
0.0
 10
8.789290021173229
 20
6.824456545982979
 30
0.0
 11
13.29643337551762
 21
7.373848110301683
 31
0.0
 11
11.13043465553832
 21
7.176010323053994
 31
0.0
 11
8.789290021173229
 21
6.824456545982979
 31
0.0
  0
ARC
  5
1BCBF
330
1BCB0
100
AcDbEntity
  8
0
 62
     5
100
AcDbCircle
 10
20.37911705556438
 20
-20.05253123589683
 30
0.0
 40
21.46918431983393
100
AcDbArc
 50
76.04465382105843
 51
103.9553461789407
  0
LINE
  5
1BCC0
330
1BCB0
100
AcDbEntity
  8
0
 62
     5
100
AcDbLine
 10
18.8594281553548
 20
5.028659036458869
 30
0.0
 11
18.8594281553548
 21
4.086622303498714
 31
0.0
  0
LINE
  5
1BCC1
330
1BCB0
100
AcDbEntity
  8
0
 62
     5
100
AcDbLine
 10
21.85881391371288
 20
5.203985044981422
 30
0.0
 11
21.85881391371288
 21
4.262370711328667
 31
0.0
  0
ENDBLK
  5
1BCC5
330
1BCB0
100
AcDbEntity
  8
0
 62
     5
100
AcDbBlockEnd
  0
BLOCK
  5
1BCD4
330
1BCC9
100
AcDbEntity
  8
0
 62
     5
100
AcDbBlockBegin
  2
A$C1EFF6AF6
 70
     0
 10
0.0
 20
0.0
 30
0.0
  3
A$C1EFF6AF6
  1

  0
LINE
  5
1BCCA
330
1BCC9
100
AcDbEntity
  8
0
 62
     5
100
AcDbLine
 10
9.215054964539831
 20
2.382112612047833
 30
0.0
 11
5.064449924250311
 21
18.78156968207216
 31
0.0
  0
LINE
  5
1BCCB
330
1BCC9
100
AcDbEntity
  8
0
 62
     5
100
AcDbLine
 10
0.000000192679579
 20
3.255377358589186
 30
0.0
 11
3.959583138407481
 21
18.78151385325162
 31
0.0
  0
ARC
  5
1BCCC
330
1BCC9
100
AcDbEntity
  8
0
 62
     5
100
AcDbCircle
 10
4.143535941636827
 20
18.72071096309172
 30
0.0
 40
0.1937411295201135
100
AcDbArc
 50
85.45430704702354
 51
161.7094573967218
  0
LINE
  5
1BCCD
330
1BCC9
100
AcDbEntity
  8
0
 62
     5
100
AcDbLine
 10
4.158890721413115
 20
18.91384266946268
 30
0.0
 11
4.896538653861341
 21
18.91384266946268
 31
0.0
  0
ARC
  5
1BCCE
330
1BCC9
100
AcDbEntity
  8
0
 62
     5
100
AcDbCircle
 10
4.880497121020965
 20
18.72076679191227
 30
0.0
 40
0.1937411295201135
100
AcDbArc
 50
18.29054260327819
 51
85.25054092586328
  0
SPLINE
  5
1BCCF
330
1BCC9
100
AcDbEntity
  8
0
 62
     5
100
AcDbSpline
210
0.0
220
0.0
230
1.0
 70
     8
 71
     3
 72
    20
 73
    16
 74
    14
 42
0.0000000001
 43
0.0000000001
 44
0.0000000001
 40
0.0
 40
0.0
 40
0.0
 40
0.0
 40
0.060688125142629
 40
0.1353391153428736
 40
0.2531707434355733
 40
0.546351360754632
 40
1.884446754450307
 40
7.148083424065602
 40
11.60713904294884
 40
13.03505654594166
 40
15.30479166801151
 40
16.35412901317659
 40
17.3271129496126
 40
17.66633197079134
 40
17.76515673573146
 40
17.76515673573146
 40
17.76515673573146
 40
17.76515673573146
 10
4.080279872217488
 20
18.90383467796597
 30
0.0
 10
4.10037629965609
 20
18.90251027595045
 30
0.0
 10
4.14519285486682
 20
18.89955675915097
 30
0.0
 10
4.230183467684213
 20
18.8773378179479
 30
0.0
 10
4.328176581399674
 20
18.73811739581101
 30
0.0
 10
4.594013955581687
 20
18.22822782385128
 30
0.0
 10
5.191583204643109
 20
15.97516032991514
 30
0.0
 10
5.938874878351668
 20
12.39160584225851
 30
0.0
 10
6.890978462195761
 20
8.787613151845931
 30
0.0
 10
7.733177409413514
 20
6.202843925228094
 30
0.0
 10
8.200731210662439
 20
4.691146917967017
 30
0.0
 10
8.682465390677123
 20
3.342845038947331
 30
0.0
 10
8.956700292848893
 20
2.607115418945575
 30
0.0
 10
9.140986935616098
 20
2.171082803005575
 30
0.0
 10
9.224076945673402
 20
2.050827246384407
 30
0.0
 10
9.242822447773846
 20
2.023697019926629
 30
0.0
 11
4.080279872217488
 21
18.90383467796597
 31
0.0
 11
4.140693303880624
 21
18.89806702610312
 31
0.0
 11
4.211809886712501
 21
18.87536896486006
 31
0.0
 11
4.291114264985878
 21
18.78821904709963
 31
0.0
 11
4.431761390964538
 21
18.53097740909068
 31
0.0
 11
4.846182013784698
 21
17.25867444595221
 31
0.0
 11
6.044024298157268
 21
12.13314570722799
 31
0.0
 11
7.210138522019462
 21
7.829269009505289
 31
0.0
 11
7.643634424416916
 21
6.468743486790678
 31
0.0
 11
8.34226640307304
 21
4.309203979683559
 31
0.0
 11
8.693151511271821
 21
3.320270966379602
 31
0.0
 11
9.040742575994016
 21
2.411492559787653
 31
0.0
 11
9.187903143460488
 21
2.105856646138086
 31
0.0
 11
9.242822447773846
 21
2.023697019926629
 31
0.0
  0
SPLINE
  5
1BCD0
330
1BCC9
100
AcDbEntity
  8
0
 62
     5
100
AcDbSpline
210
0.0
220
0.0
230
1.0
 70
     8
 71
     3
 72
    13
 73
     9
 74
     7
 42
0.0000000001
 43
0.0000000001
 44
0.0000000001
 40
0.0
 40
0.0
 40
0.0
 40
0.0
 40
0.0149793140110395
 40
0.0314786696623828
 40
0.0641257923101595
 40
0.1708142378883433
 40
0.2530504400554858
 40
0.4060363052777293
 40
0.4060363052777293
 40
0.4060363052777293
 40
0.4060363052777293
 10
9.242822447773846
 20
2.023697019926643
 30
0.0
 10
9.247042517660247
 20
2.02081389614802
 30
0.0
 10
9.255910893462328
 20
2.014755080573664
 30
0.0
 10
9.279943327539768
 20
2.01863726387792
 30
0.0
 10
9.297877791321752
 20
2.075937029457683
 30
0.0
 10
9.271661502433431
 20
2.145371195157359
 30
0.0
 10
9.246978048524823
 20
2.256722724650828
 30
0.0
 10
9.227635286098831
 20
2.332698679971542
 30
0.0
 10
9.215054964539831
 20
2.382112612047833
 30
0.0
 11
9.242822447773846
 21
2.023697019926643
 31
0.0
 11
9.256145872304927
 21
2.016851130137439
 31
0.0
 11
9.272453203384941
 21
2.019361048454101
 31
0.0
 11
9.28757123278703
 21
2.048296836056593
 31
0.0
 11
9.271547397771996
 21
2.15377508562161
 31
0.0
 11
9.251797026508967
 21
2.233604377124464
 31
0.0
 11
9.215054964539831
 21
2.382112612047833
 31
0.0
  0
SPLINE
  5
1BCD1
330
1BCC9
100
AcDbEntity
  8
0
 62
     5
100
AcDbSpline
210
0.0
220
0.0
230
1.0
 70
     8
 71
     3
 72
    17
 73
    13
 74
    11
 42
0.0000000001
 43
0.0000000001
 44
0.0000000001
 12
0.9914061398453844
 22
0.1308199750683136
 32
0.0
 13
-0.7211350890809566
 23
0.6927944740658667
 33
0.0
 40
0.0
 40
0.0
 40
0.0
 40
0.0
 40
0.0682971150018772
 40
0.6910882564840988
 40
2.42409332959468
 40
3.388020846429521
 40
4.02042185774681
 40
4.829239149418675
 40
5.306910756570576
 40
6.20226734466296
 40
7.07229381093872
 40
7.380295887241948
 40
7.380295887241948
 40
7.380295887241948
 40
7.380295887241948
 10
9.274893634356686
 20
2.020785190484076
 30
0.0
 10
9.297463694072206
 20
2.023763399444668
 30
0.0
 10
8.939218130815959
 20
1.741103254808479
 30
0.0
 10
8.706031546857332
 20
1.416303634622508
 30
0.0
 10
7.516436587421736
 20
0.6624187171664744
 30
0.0
 10
6.519348356477308
 20
0.3053666656171856
 30
0.0
 10
5.736741625302386
 20
0.0883580299244074
 30
0.0
 10
5.099381128195886
 20
0.0457859814969623
 30
0.0
 10
4.371801294998903
 20
-0.0345777533783505
 30
0.0
 10
3.641165617898082
 20
0.080449542040256
 30
0.0
 10
2.903063214985081
 20
0.0764928295123326
 30
0.0
 10
2.596330480975268
 20
0.3391458505702545
 30
0.0
 10
2.522293446064594
 20
0.4102732293914855
 30
0.0
 11
9.274893634356686
 21
2.020785190484076
 31
0.0
 11
9.22950565372713
 21
1.969751602211736
 31
0.0
 11
8.769668084163811
 21
1.549729917620538
 31
0.0
 11
7.306385930360733
 21
0.6212300943634546
 31
0.0
 11
6.404984015858332
 21
0.2797175085883623
 31
0.0
 11
5.792268984226552
 21
0.123156564775428
 31
0.0
 11
4.988720017541822
 21
0.0309911187161021
 31
0.0
 11
4.512372486022371
 21
-0.0045503147722172
 31
0.0
 11
3.619175199684434
 21
0.0575948983900219
 31
0.0
 11
2.764423865986032
 21
0.2199100534467462
 31
0.0
 11
2.522293446064594
 21
0.4102732293914855
 31
0.0
  0
ENDBLK
  5
1BCD5
330
1BCC9
100
AcDbEntity
  8
0
 62
     5
100
AcDbBlockEnd
  0
ENDSEC
  0
SECTION
  2
ENTITIES
  0
LWPOLYLINE
  5
1BCA9
330
1F
100
AcDbEntity
  8
0
100
AcDbPolyline
 90
        4
 70
     1
 43
0.0
 10
2659.557850436931
 20
2471.838989688508
 10
2849.557850436934
 20
2471.838989688508
 10
2849.557850436934
 20
2501.838989688508
 10
2659.557850436931
 20
2501.838989688508
  0
LINE
  5
1BCAA
330
1F
100
AcDbEntity
  8
0
100
AcDbLine
 10
2674.557842029104
 20
2501.838989688508
 30
0.0
 11
2674.557842029105
 21
2471.838989688508
 31
0.0
  0
LINE
  5
1BCAB
330
1F
100
AcDbEntity
  8
0
100
AcDbLine
 10
2834.557856046668
 20
2501.838989688508
 30
0.0
 11
2834.557856046668
 21
2471.838989688508
 31
0.0
  0
LINE
  5
1BCAC
330
1F
100
AcDbEntity
  8
0
100
AcDbLine
 10
2789.026669961217
 20
2471.838989688508
 30
0.0
 11
2789.026669961217
 21
1565.130354411589
 31
0.0
  0
LINE
  5
1BCAD
330
1F
100
AcDbEntity
  8
0
100
AcDbLine
 10
2792.026669961217
 20
2471.838989688508
 30
0.0
 11
2792.026669961217
 21
1564.883151665758
 31
0.0
  0
LINE
  5
1BCAE
330
1F
100
AcDbEntity
  8
0
100
AcDbLine
 10
2712.036039360633
 20
2471.838989688508
 30
0.0
 11
2712.036039360633
 21
1565.176225312826
 31
0.0
  0
LINE
  5
1BCAF
330
1F
100
AcDbEntity
  8
0
100
AcDbLine
 10
2709.036039360633
 20
2471.838989688508
 30
0.0
 11
2709.036039360633
 21
1564.966624103267
 31
0.0
  0
CIRCLE
  5
1BCC7
330
1F
100
AcDbEntity
  8
0
100
AcDbCircle
 10
2710.536039360633
 20
969.9327268176309
 30
0.0
 40
1.496469597602029
  0
CIRCLE
  5
1BCC8
330
1F
100
AcDbEntity
  8
0
100
AcDbCircle
 10
2790.526669961218
 20
969.9327268192917
 30
0.0
 40
1.496469595941356
  0
LWPOLYLINE
  5
1BCD7
330
1F
100
AcDbEntity
  8
0
100
AcDbPolyline
 90
        4
 70
     1
 43
0.0
 10
1920.207392052296
 20
2501.838989688508
 10
1950.207392052296
 20
2501.838989688508
 10
1950.207392052296
 20
2471.838989688508
 10
1920.207392052296
 20
2471.838989688508
  0
LINE
  5
1BCD8
330
1F
100
AcDbEntity
  8
0
100
AcDbLine
 10
1936.343563446751
 20
2471.838989688508
 30
0.0
 11
1936.34356344675
 21
1565.854840145739
 31
0.0
  0
LINE
  5
1BCD9
330
1F
100
AcDbEntity
  8
0
100
AcDbLine
 10
1933.34356344675
 20
2471.838989688508
 30
0.0
 11
1933.34356344675
 21
1565.854840145738
 31
0.0
  0
LINE
  5
1BCDA
330
1F
100
AcDbEntity
  8
0
100
AcDbLine
 10
1981.580754731199
 20
1400.53753957159
 30
0.0
 11
1940.074704328303
 21
1564.532110271833
 31
0.0
  0
LINE
  5
1BCDB
330
1F
100
AcDbEntity
  8
0
100
AcDbLine
 10
1886.717353082602
 20
1398.614153095206
 30
0.0
 11
1929.026036469875
 21
1564.531551983628
 31
0.0
  0
ARC
  5
1BCDC
330
1F
100
AcDbEntity
  8
0
100
AcDbCircle
 10
1930.865564502169
 20
1563.923523082029
 30
0.0
 40
1.937411295201134
100
AcDbArc
 50
85.45430704702383
 51
161.7094573967217
  0
LINE
  5
1BCDD
330
1F
100
AcDbEntity
  8
0
100
AcDbLine
 10
1931.019112299931
 20
1565.854840145739
 30
0.0
 11
1938.395591624414
 21
1565.854840145739
 31
0.0
  0
ARC
  5
1BCDE
330
1F
100
AcDbEntity
  8
0
100
AcDbCircle
 10
1938.23517629601
 20
1563.924081370235
 30
0.0
 40
1.937411295201134
100
AcDbArc
 50
18.29054260327832
 51
85.25054092586268
  0
SPLINE
  5
1BCDF
330
1F
100
AcDbEntity
  8
0
100
AcDbSpline
210
0.0
220
0.0
230
1.0
 70
     8
 71
     3
 72
    20
 73
    16
 74
    14
 42
0.0000000001
 43
0.0000000001
 44
0.0000000001
 40
0.0
 40
0.0
 40
0.0
 40
0.0
 40
0.060688125142629
 40
0.1353391153428736
 40
0.2531707434355733
 40
0.546351360754632
 40
1.884446754450307
 40
7.148083424065602
 40
11.60713904294884
 40
13.03505654594166
 40
15.30479166801151
 40
16.35412901317659
 40
17.3271129496126
 40
17.66633197079134
 40
17.76515673573146
 40
17.76515673573146
 40
17.76515673573146
 40
17.76515673573146
 10
1930.233003807975
 20
1565.754760230771
 30
0.0
 10
1930.433968082361
 20
1565.741516210616
 30
0.0
 10
1930.882133634468
 20
1565.711981042621
 30
0.0
 10
1931.732039762642
 20
1565.489791630591
 30
0.0
 10
1932.711970899796
 20
1564.097587409222
 30
0.0
 10
1935.370344641617
 20
1558.998691689625
 30
0.0
 10
1941.34603713223
 20
1536.468016750263
 30
0.0
 10
1948.818953869317
 20
1500.632471873697
 30
0.0
 10
1958.339989707758
 20
1464.592544969571
 30
0.0
 10
1966.761979179935
 20
1438.744852703393
 30
0.0
 10
1971.437517192424
 20
1423.627882630782
 30
0.0
 10
1976.254858992572
 20
1410.144863840585
 30
0.0
 10
1978.997208014289
 20
1402.787567640568
 30
0.0
 10
1980.840074441961
 20
1398.427241481167
 30
0.0
 10
1981.670974542534
 20
1397.224685914956
 30
0.0
 10
1981.858429563538
 20
1396.953383650378
 30
0.0
 11
1930.233003807975
 21
1565.754760230771
 31
0.0
 11
1930.837138124606
 21
1565.697083712143
 31
0.0
 11
1931.548303952925
 21
1565.470103099712
 31
0.0
 11
1932.341347735659
 21
1564.598603922108
 31
0.0
 11
1933.747818995446
 21
1562.026187542018
 31
0.0
 11
1937.892025223647
 21
1549.303157910634
 31
0.0
 11
1949.870448067373
 21
1498.047870523392
 31
0.0
 11
1961.531590305995
 21
1455.009103546165
 31
0.0
 11
1965.86654932997
 21
1441.403848319018
 31
0.0
 11
1972.85286911653
 21
1419.808453247947
 31
0.0
 11
1976.361720198518
 21
1409.919123114908
 31
0.0
 11
1979.837630845741
 21
1400.831339048988
 31
0.0
 11
1981.309236520405
 21
1397.774979912493
 31
0.0
 11
1981.858429563538
 21
1396.953383650378
 31
0.0
  0
SPLINE
  5
1BCE0
330
1F
100
AcDbEntity
  8
0
100
AcDbSpline
210
0.0
220
0.0
230
1.0
 70
     8
 71
     3
 72
    13
 73
     9
 74
     7
 42
0.0000000001
 43
0.0000000001
 44
0.0000000001
 40
0.0
 40
0.0
 40
0.0
 40
0.0
 40
0.0149793140110395
 40
0.0314786696623828
 40
0.0641257923101595
 40
0.1708142378883433
 40
0.2530504400554858
 40
0.4060363052777293
 40
0.4060363052777293
 40
0.4060363052777293
 40
0.4060363052777293
 10
1981.858429563538
 20
1396.953383650378
 30
0.0
 10
1981.900630262403
 20
1396.924552412592
 30
0.0
 10
1981.989314020424
 20
1396.863964256848
 30
0.0
 10
1982.229638361197
 20
1396.902786089891
 30
0.0
 10
1982.408982999018
 20
1397.475783745689
 30
0.0
 10
1982.146820110134
 20
1398.170125402685
 30
0.0
 10
1981.899985571048
 20
1399.283640697621
 30
0.0
 10
1981.706557946789
 20
1400.043400250827
 30
0.0
 10
1981.580754731199
 20
1400.53753957159
 30
0.0
 11
1981.858429563538
 21
1396.953383650378
 31
0.0
 11
1981.99166380885
 21
1396.884924752486
 31
0.0
 11
1982.15473711965
 21
1396.910023935653
 31
0.0
 11
1982.30591741367
 21
1397.199381811678
 31
0.0
 11
1982.14567906352
 21
1398.254164307328
 31
0.0
 11
1981.94817535089
 21
1399.052457222357
 31
0.0
 11
1981.580754731199
 21
1400.53753957159
 31
0.0
  0
SPLINE
  5
1BCE1
330
1F
100
AcDbEntity
  8
0
100
AcDbSpline
210
0.0
220
0.0
230
1.0
 70
     8
 71
     3
 72
    14
 73
    10
 74
     0
 42
0.0000000001
 43
0.0000000001
 40
0.0
 40
0.0
 40
0.0
 40
0.0
 40
0.0682971150018772
 40
0.6910882564840988
 40
2.42409332959468
 40
3.388020846429521
 40
4.02042185774681
 40
4.829239149418675
 40
5.241129467979742
 40
5.241129467979742
 40
5.241129467979742
 40
5.241129467979742
 10
1982.179141429367
 20
1396.924265355953
 30
0.0
 10
1982.404842026522
 20
1396.954047445558
 30
0.0
 10
1978.822386393959
 20
1394.127445999197
 30
0.0
 10
1976.490520554374
 20
1390.879449797337
 30
0.0
 10
1964.594570960017
 20
1383.340600622777
 30
0.0
 10
1954.623688650573
 20
1379.770080107284
 30
0.0
 10
1946.797621338824
 20
1377.599993750356
 30
0.0
 10
1940.642509333797
 20
1377.188867350863
 30
0.0
 10
1936.572640147916
 20
1376.748387541444
 30
0.0
 10
1935.207392052296
 20
1376.690983291227
 30
0.0
  0
SPLINE
  5
1BCE4
330
1F
100
AcDbEntity
  8
0
100
AcDbSpline
210
0.0
220
0.0
230
1.0
 70
     8
 71
     3
 72
    29
 73
    25
 74
    23
 42
0.0000000001
 43
0.0000000001
 44
0.0000000001
 40
0.0
 40
0.0
 40
0.0
 40
0.0
 40
1.049857294134904
 40
3.419085806612285
 40
5.760124006096957
 40
6.680867068414586
 40
7.831604483056302
 40
10.10500209444139
 40
11.15963998449729
 40
12.62622172722383
 40
13.5145543247363
 40
14.31127817012387
 40
15.4791253854336
 40
16.39627351665185
 40
16.88160069809107
 40
17.88074471453541
 40
18.96277509147129
 40
19.8601040420701
 40
20.34905589456544
 40
21.81604557187049
 40
23.09108444316272
 40
24.4655816221951
 40
25.61145940378259
 40
26.06988027861118
 40
26.06988027861118
 40
26.06988027861118
 40
26.06988027861118
 10
2754.238188066891
 20
1556.229265027315
 30
0.0
 10
2757.742144737769
 20
1556.309082063398
 30
0.0
 10
2769.153532349503
 20
1556.569023387537
 30
0.0
 10
2788.140669167157
 20
1552.726181508874
 30
0.0
 10
2806.111177973353
 20
1547.257772812024
 30
0.0
 10
2819.635445040478
 20
1541.435518666663
 30
0.0
 10
2832.516580733729
 20
1534.805907310171
 30
0.0
 10
2845.062720996564
 20
1526.548454125737
 30
0.0
 10
2857.004078316679
 20
1515.900829846894
 30
0.0
 10
2864.549277016236
 20
1507.323487863793
 30
0.0
 10
2870.175188544048
 20
1498.409436919492
 30
0.0
 10
2874.025076726709
 20
1489.686076847857
 30
0.0
 10
2876.088744408363
 20
1480.153154570993
 30
0.0
 10
2875.362708169314
 20
1471.514737812225
 30
0.0
 10
2873.25497688448
 20
1463.777939429015
 30
0.0
 10
2869.581573002423
 20
1455.971180042565
 30
0.0
 10
2863.687706472948
 20
1447.926967115494
 30
0.0
 10
2858.013505601038
 20
1441.949143289239
 30
0.0
 10
2850.956895963906
 20
1435.567580803554
 30
0.0
 10
2842.274801815592
 20
1429.138319839835
 30
0.0
 10
2830.493556136586
 20
1422.080131347684
 30
0.0
 10
2819.152251289064
 20
1416.446308395715
 30
0.0
 10
2809.994334141502
 20
1412.592246209538
 30
0.0
 10
2804.973866631724
 20
1410.749867740276
 30
0.0
 10
2803.539291405549
 20
1410.223416666926
 30
0.0
 11
2754.238188066891
 21
1556.229265027315
 31
0.0
 11
2764.736761007519
 21
1556.22914194996
 31
0.0
 11
2788.108512455514
 21
1552.345122294147
 31
0.0
 11
2810.431504569223
 21
1545.293171625294
 31
0.0
 11
2818.889467037935
 21
1541.654538700904
 31
0.0
 11
2829.125061219444
 21
1536.3959959848
 31
0.0
 11
2847.994305748677
 21
1523.715882387471
 31
0.0
 11
2855.855627504804
 21
1516.685538998931
 31
0.0
 11
2865.438110980482
 21
1505.583187390004
 31
0.0
 11
2870.134713947827
 21
1498.042935341998
 31
0.0
 11
2873.319622361154
 21
1490.739973820832
 31
0.0
 11
2875.615062168572
 21
1479.289311485351
 31
0.0
 11
2874.883773699314
 21
1470.147031319308
 31
0.0
 11
2873.618067917182
 21
1465.461709966673
 31
0.0
 11
2869.437578610187
 21
1456.386888441499
 31
0.0
 11
2863.13292876885
 21
1447.593119963803
 31
0.0
 11
2856.97345427934
 21
1441.067723533596
 31
0.0
 11
2853.34959126798
 21
1437.785192759824
 31
0.0
 11
2841.621813065961
 21
1428.97241284789
 31
0.0
 11
2830.700751883759
 21
1422.391923885417
 31
0.0
 11
2818.404478981424
 21
1416.249780755523
 31
0.0
 11
2807.835810482078
 21
1411.821820143176
 31
0.0
 11
2803.539291405549
 21
1410.223416666926
 31
0.0
  0
SPLINE
  5
1BCE5
330
1F
100
AcDbEntity
  8
0
100
AcDbSpline
210
0.0
220
0.0
230
1.0
 70
     8
 71
     3
 72
    21
 73
    17
 74
    15
 42
0.0000000001
 43
0.0000000001
 44
0.0000000001
 40
0.0
 40
0.0
 40
0.0
 40
0.0
 40
1.060776523241704
 40
3.978707690256289
 40
6.694645616353447
 40
9.102835795579183
 40
10.31488186123144
 40
11.91143504701377
 40
13.86902922465297
 40
15.40968637452363
 40
16.23263735610807
 40
17.10161690180826
 40
19.94425493999192
 40
22.71750132497166
 40
23.70370811328088
 40
25.62386693982738
 40
25.62386693982738
 40
25.62386693982738
 40
25.62386693982738
 10
2754.238188066891
 20
1556.229265027315
 30
0.0
 10
2757.755969109661
 20
1555.872820183806
 30
0.0
 10
2770.95028683903
 20
1554.535884638053
 30
0.0
 10
2792.914846770095
 20
1549.969748925163
 30
0.0
 10
2817.979725649202
 20
1540.188573682512
 30
0.0
 10
2836.44664371573
 20
1529.75884609889
 30
0.0
 10
2850.41273165454
 20
1519.381647964944
 30
0.0
 10
2862.123434658863
 20
1508.508904431553
 30
0.0
 10
2871.809945822339
 20
1494.46569475344
 30
0.0
 10
2875.924536699645
 20
1479.789141303665
 30
0.0
 10
2872.507944976911
 20
1469.317271812937
 30
0.0
 10
2864.856352980471
 20
1456.181144822549
 30
0.0
 10
2846.39472913502
 20
1443.268302925442
 30
0.0
 10
2826.162390989186
 20
1434.86194088993
 30
0.0
 10
2808.133767360736
 20
1429.006784332863
 30
0.0
 10
2798.703333006538
 20
1426.77226651346
 30
0.0
 10
2792.472894664292
 20
1425.295979740705
 30
0.0
 11
2754.238188066891
 21
1556.229265027315
 31
0.0
 11
2764.78154280457
 21
1555.062065772025
 31
0.0
 11
2793.329432358384
 21
1549.024663055067
 31
0.0
 11
2818.647815097188
 21
1539.195554380688
 31
0.0
 11
2839.552565558673
 21
1527.240245849538
 31
0.0
 11
2849.268222691712
 21
1519.99375890761
 31
0.0
 11
2860.837745723666
 21
1508.991743441511
 31
0.0
 11
2871.562989736822
 21
1492.615338546329
 31
0.0
 11
2874.590304656289
 21
1477.509120961403
 31
0.0
 11
2872.304228225067
 21
1469.603509893327
 31
0.0
 11
2867.950790551304
 21
1462.082863278494
 31
0.0
 11
2845.883998831683
 21
1444.163158905494
 31
0.0
 11
2820.46145474296
 21
1433.082373588683
 31
0.0
 11
2811.074797288705
 21
1430.057304206472
 31
0.0
 11
2792.472894664292
 21
1425.295979740705
 31
0.0
  0
SPLINE
  5
1BCE6
330
1F
100
AcDbEntity
  8
0
100
AcDbSpline
210
0.0
220
0.0
230
1.0
 70
     8
 71
     3
 72
    40
 73
    36
 74
    34
 42
0.0000000001
 43
0.0000000001
 44
0.0000000001
 40
0.0
 40
0.0
 40
0.0
 40
0.0
 40
2.139839624715673
 40
4.975066794153057
 40
8.436601881882685
 40
12.26488596649306
 40
16.01561475380353
 40
20.4412751451358
 40
21.85610008502783
 40
22.94061896243185
 40
23.569119923181
 40
24.77205104370348
 40
26.29780316704757
 40
27.05620601690926
 40
29.40071318305496
 40
31.49374535107827
 40
35.37020880412806
 40
38.2512033498391
 40
41.33544023224371
 40
44.38465359294344
 40
48.0482628732525
 40
54.62732087346529
 40
57.79333930513807
 40
60.80555847359249
 40
65.28341569614858
 40
67.04609306933872
 40
69.86183264046076
 40
71.19787637495557
 40
72.12054484224693
 40
74.0493222281722
 40
77.71771316893373
 40
82.46586762956621
 40
88.05659816627681
 40
93.97706162947576
 40
95.60787563746941
 40
95.60787563746941
 40
95.60787563746941
 40
95.60787563746941
 10
2750.550756618756
 20
1565.774462476077
 30
0.0
 10
2757.68483036544
 20
1565.961327809188
 30
0.0
 10
2774.271350679492
 20
1566.395784439956
 30
0.0
 10
2802.351567985907
 20
1564.141121045033
 30
0.0
 10
2835.808031694401
 20
1559.834598571798
 30
0.0
 10
2871.828554687283
 20
1551.044251059769
 30
0.0
 10
2908.425013997136
 20
1535.991407909331
 30
0.0
 10
2938.481957524883
 20
1520.53466200878
 30
0.0
 10
2950.184201907408
 20
1500.290286333734
 30
0.0
 10
2953.812695027162
 20
1490.38476884793
 30
0.0
 10
2954.231185427472
 20
1480.582672593316
 30
0.0
 10
2951.333764008797
 20
1469.529282744847
 30
0.0
 10
2944.872030350629
 20
1459.680052713733
 30
0.0
 10
2934.565863286339
 20
1448.181212734346
 30
0.0
 10
2920.779000290038
 20
1437.533311970411
 30
0.0
 10
2898.578147817498
 20
1421.002112025639
 30
0.0
 10
2873.04497130814
 20
1405.915165849717
 30
0.0
 10
2842.658888342663
 20
1393.40916587996
 30
0.0
 10
2813.850539344221
 20
1384.667309035724
 30
0.0
 10
2781.759715374653
 20
1378.458370148208
 30
0.0
 10
2737.426720328038
 20
1374.408378196481
 30
0.0
 10
2692.824391159966
 20
1382.400419563522
 30
0.0
 10
2652.143428331365
 20
1394.840529492753
 30
0.0
 10
2619.675724613076
 20
1409.406284578287
 30
0.0
 10
2593.150627503766
 20
1425.582561856911
 30
0.0
 10
2569.886953281804
 20
1444.703825439343
 30
0.0
 10
2554.978300835981
 20
1458.127587613909
 30
0.0
 10
2547.271125875688
 20
1473.496720187539
 30
0.0
 10
2544.991597415445
 20
1487.490577684085
 30
0.0
 10
2552.68554509958
 20
1509.1440898173
 30
0.0
 10
2580.812381855016
 20
1531.240554015835
 30
0.0
 10
2623.542306450144
 20
1550.166046869414
 30
0.0
 10
2676.637859432227
 20
1562.567183337935
 30
0.0
 10
2720.448189191065
 20
1566.38149327216
 30
0.0
 10
2745.616645550822
 20
1565.857766002678
 30
0.0
 10
2751.052159124207
 20
1565.744659078625
 30
0.0
 11
2750.550756618756
 21
1565.774462476077
 31
0.0
 11
2771.947870591857
 21
1566.008717833506
 31
0.0
 11
2800.236270810666
 21
1564.106686474127
 31
0.0
 11
2834.527531856917
 21
1559.38101909097
 31
0.0
 11
2871.667671452882
 21
1550.097381116539
 31
0.0
 11
2906.514205687546
 21
1536.222378578582
 31
0.0
 11
2943.074940584406
 21
1511.283259633794
 31
0.0
 11
2950.318059346752
 21
1499.129651459733
 31
0.0
 11
2953.643731859814
 21
1488.806956952947
 31
0.0
 11
2953.931642228701
 21
1482.528545260031
 31
0.0
 11
2951.087372111523
 21
1470.840326594525
 31
0.0
 11
2943.069388378914
 21
1457.8594217319
 31
0.0
 11
2938.018365999086
 21
1452.202155502853
 31
0.0
 11
2920.090797599005
 21
1437.093427016602
 31
0.0
 11
2903.182915891003
 21
1424.756413529285
 31
0.0
 11
2869.722698202664
 21
1405.183199114375
 31
0.0
 11
2843.135686309205
 21
1394.086183487698
 31
0.0
 11
2813.61491226997
 21
1385.154463899457
 31
0.0
 11
2783.689394620092
 21
1379.303514806041
 31
0.0
 11
2747.162496764944
 21
1376.477027771523
 31
0.0
 11
2682.082225972376
 21
1386.118540649823
 31
0.0
 11
2651.883325030512
 21
1395.626098321102
 31
0.0
 11
2624.359552972902
 21
1407.864905599637
 31
0.0
 11
2586.324233339472
 21
1431.496134745464
 31
0.0
 11
2572.624677315756
 21
1442.587812569342
 31
0.0
 11
2553.161662973146
 21
1462.935539861047
 31
0.0
 11
2547.413373230427
 21
1474.996155561833
 31
0.0
 11
2546.054134430206
 21
1484.122172214094
 31
0.0
 11
2551.655370244662
 21
1502.578726003915
 31
0.0
 11
2578.407161307071
 21
1527.679540420569
 31
0.0
 11
2621.440786929947
 21
1547.744538400946
 31
0.0
 11
2675.745933438622
 21
1561.03279848578
 31
0.0
 11
2734.745405814955
 21
1565.957331074945
 31
0.0
 11
2751.052159124207
 21
1565.744659078625
 31
0.0
  0
SPLINE
  5
1BCE7
330
1F
100
AcDbEntity
  8
0
100
AcDbSpline
210
0.0
220
0.0
230
1.0
 70
     8
 71
     3
 72
    11
 73
     7
 74
     5
 42
0.0000000001
 43
0.0000000001
 44
0.0000000001
 40
0.0
 40
0.0
 40
0.0
 40
0.0
 40
4.118527961180634
 40
7.573686812649318
 40
11.16374911351051
 40
14.8507535600661
 40
14.8507535600661
 40
14.8507535600661
 40
14.8507535600661
 10
2695.670982606907
 20
1398.52388279905
 30
0.0
 10
2682.047476751515
 20
1400.461528670659
 30
0.0
 10
2656.994795887972
 20
1404.024724823195
 30
0.0
 10
2621.550672792777
 20
1415.574514927591
 30
0.0
 10
2588.528192762099
 20
1430.17930542412
 30
0.0
 10
2570.000777534271
 20
1446.034738951451
 30
0.0
 10
2560.613662546981
 20
1454.068065557681
 30
0.0
 11
2695.670982606907
 21
1398.52388279905
 31
0.0
 11
2655.098174743303
 21
1405.600217921539
 31
0.0
 11
2622.145015588392
 21
1415.987786000707
 31
0.0
 11
2589.766846220476
 21
1431.496134745464
 31
0.0
 11
2560.613662546981
 21
1454.068065557681
 31
0.0
  0
SPLINE
  5
1BCE8
330
1F
100
AcDbEntity
  8
0
100
AcDbSpline
210
0.0
220
0.0
230
1.0
 70
     8
 71
     3
 72
    18
 73
    14
 74
    12
 42
0.0000000001
 43
0.0000000001
 44
0.0000000001
 40
0.0
 40
0.0
 40
0.0
 40
0.0
 40
2.917685375507845
 40
7.666371557144167
 40
9.832940456454617
 40
11.10875487096342
 40
13.02448985528269
 40
15.46585196058843
 40
17.64671674708036
 40
20.49285373632324
 40
24.05492765836028
 40
26.02063949438503
 40
26.46236805742613
 40
26.46236805742613
 40
26.46236805742613
 40
26.46236805742613
 10
2706.878344112335
 20
1425.266883403132
 30
0.0
 10
2697.484453830237
 20
1427.699756191234
 30
0.0
 10
2672.801513759266
 20
1434.092257213248
 30
0.0
 10
2641.958761953791
 20
1447.53592551278
 30
0.0
 10
2624.421826213425
 20
1470.897092721501
 30
0.0
 10
2625.235422263073
 20
1489.534402062895
 30
0.0
 10
2634.916839423411
 20
1506.23084282945
 30
0.0
 10
2650.793995503053
 20
1521.377014789097
 30
0.0
 10
2671.629234100707
 20
1535.155788625963
 30
0.0
 10
2697.725850967265
 20
1547.244126023908
 30
0.0
 10
2724.859224637891
 20
1554.396821750265
 30
0.0
 10
2744.74541505987
 20
1556.610862748471
 30
0.0
 10
2752.766450505716
 20
1556.288427055004
 30
0.0
 10
2754.238188066891
 20
1556.229265027315
 30
0.0
 11
2706.878344112335
 21
1425.266883403132
 31
0.0
 11
2678.7887953298
 21
1433.157767018981
 31
0.0
 11
2637.106363481318
 21
1455.908083947829
 31
0.0
 11
2625.641225379212
 21
1474.291573492677
 31
0.0
 11
2625.937369135541
 21
1487.046280110331
 31
0.0
 11
2634.611249295791
 21
1504.127493649776
 31
0.0
 11
2651.892545026278
 21
1521.372252586848
 31
0.0
 11
2670.008417533968
 21
1533.514422285101
 31
0.0
 11
2695.805767530963
 21
1545.537163623341
 31
0.0
 11
2730.240830184151
 21
1554.651082795501
 31
0.0
 11
2749.8230141159
 21
1556.36583487435
 31
0.0
 11
2754.238188066891
 21
1556.229265027315
 31
0.0
  0
LINE
  5
1BCE9
330
1F
100
AcDbEntity
  8
0
100
AcDbLine
 10
2734.745405814955
 20
1565.957331074945
 30
0.0
 11
2734.735131834579
 21
1555.143558392838
 31
0.0
  0
LINE
  5
1BCEA
330
1F
100
AcDbEntity
  8
0
100
AcDbLine
 10
2764.745506638719
 20
1566.051070693401
 30
0.0
 11
2764.72898941816
 21
1556.229497235835
 31
0.0
  0
ARC
  5
1BCEB
330
1F
100
AcDbEntity
  8
0
100
AcDbCircle
 10
2717.93144872006
 20
1709.731962819161
 30
0.0
 40
312.0032009793789
100
AcDbArc
 50
265.908646731214
 51
285.9283494815157
  0
ARC
  5
1BCEC
330
1F
100
AcDbEntity
  8
0
100
AcDbCircle
 10
2749.601488935561
 20
1643.355708779347
 30
0.0
 40
222.2341172222746
100
AcDbArc
 50
258.9162375705642
 51
281.1227157802575
  0
LWPOLYLINE
  5
1BCED
330
1F
100
AcDbEntity
  8
0
100
AcDbPolyline
 90
        4
 70
     0
 43
0.0
 10
2684.264484167928
 20
983.1366997163621
 10
2684.264484167928
 20
997.261361546028
 10
2825.706426382473
 20
997.261361546028
 10
2825.706426382473
 20
983.136699716362
  0
LWPOLYLINE
  5
1BCEE
330
1F
100
AcDbEntity
  8
0
100
AcDbPolyline
 90
        4
 70
     0
 43
0.0
 10
2825.706426382473
 20
953.1366997163621
 10
2825.706426382473
 20
942.556880176172
 10
2684.264484167928
 20
942.556880176172
 10
2684.264484167928
 20
953.1366997163619
  0
LWPOLYLINE
  5
1BCEF
330
1F
100
AcDbEntity
  8
0
100
AcDbPolyline
 90
        4
 70
     0
 43
0.0
 10
2686.580390572091
 20
983.1366997163621
 10
2686.580390572091
 20
984.7522145159196
 10
2822.580390572091
 20
984.7522145159196
 10
2822.580390572091
 20
983.136699716362
  0
SPLINE
  5
1BCF1
330
1F
100
AcDbEntity
  8
0
100
AcDbSpline
210
0.0
220
0.0
230
1.0
 70
     8
 71
     3
 72
    10
 73
     6
 74
     0
 42
0.0000000001
 43
0.0000000001
 40
0.0
 40
0.0
 40
0.0
 40
0.0
 40
0.7694521551997921
 40
2.792365912054524
 40
9.124427614352764
 40
9.124427614352764
 40
9.124427614352764
 40
9.124427614352764
 10
2571.809660929809
 20
950.0008462979007
 30
0.0
 10
2574.281331220176
 20
950.6968126964876
 30
0.0
 10
2583.251099929018
 20
953.2224965017981
 30
0.0
 10
2613.689059352619
 20
955.8863693305097
 30
0.0
 10
2641.436213095851
 20
957.8245454598468
 30
0.0
 10
2662.471706404994
 20
959.2527212471811
 30
0.0
  0
SPLINE
  5
1BCF2
330
1F
100
AcDbEntity
  8
0
100
AcDbSpline
210
0.0
220
0.0
230
1.0
 70
     8
 71
     3
 72
    34
 73
    30
 74
    28
 42
0.0000000001
 43
0.0000000001
 44
0.0000000001
 40
0.0
 40
0.0
 40
0.0
 40
0.0
 40
0.1209994715794785
 40
0.2001929433849487
 40
0.2807663417566009
 40
0.554052565366589
 40
0.7643229825101394
 40
1.532036493825104
 40
3.423334658890382
 40
6.606967802056537
 40
10.55675863287789
 40
15.41823712117202
 40
17.03177502653403
 40
19.45199170592812
 40
21.41787659516062
 40
22.57745565434769
 40
24.9405681494472
 40
27.54035475313354
 40
29.74898595706191
 40
32.50323817075305
 40
35.52986631491525
 40
38.37579713302981
 40
39.91278837061389
 40
40.37421435990146
 40
41.41119301427521
 40
42.70473542962284
 40
43.13520888328105
 40
43.22535132518425
 40
43.33318807398507
 40
43.33318807398507
 40
43.33318807398507
 40
43.33318807398507
 10
2958.423574524026
 20
987.1899175380901
 30
0.0
 10
2958.646458261388
 20
987.5274014135859
 30
0.0
 10
2959.015218147963
 20
988.0857665824462
 30
0.0
 10
2959.285695213002
 20
989.0062413800775
 30
0.0
 10
2959.023052819361
 20
990.470598946948
 30
0.0
 10
2957.582223445259
 20
991.8795239394635
 30
0.0
 10
2954.119273291818
 20
994.136503048333
 30
0.0
 10
2945.155738635913
 20
997.7748499958016
 30
0.0
 10
2926.330160462132
 20
1002.679982950957
 30
0.0
 10
2896.671307691236
 20
1007.967674264966
 30
0.0
 10
2857.027772744266
 20
1013.228596550524
 30
0.0
 10
2822.339307776771
 20
1015.588522632882
 30
0.0
 10
2792.741990083557
 20
1017.345587235383
 30
0.0
 10
2772.73956468769
 20
1017.839832434448
 30
0.0
 10
2754.256008703823
 20
1017.450413094183
 30
0.0
 10
2735.96606899364
 20
1017.043385022066
 30
0.0
 10
2715.56159596874
 20
1016.485538315424
 30
0.0
 10
2691.725743166151
 20
1014.39272837897
 30
0.0
 10
2666.773921265726
 20
1010.875922678586
 30
0.0
 10
2640.433345513269
 20
1006.496022396274
 30
0.0
 10
2613.173773988564
 20
997.1514825025822
 30
0.0
 10
2590.285226386747
 20
987.5805422919011
 30
0.0
 10
2576.863546864424
 20
978.4609870107566
 30
0.0
 10
2569.031916610424
 20
972.0701817234399
 30
0.0
 10
2561.972548460104
 20
965.900167421085
 30
0.0
 10
2556.456723863681
 20
958.6503168848905
 30
0.0
 10
2552.091594521208
 20
954.1984014235914
 30
0.0
 10
2551.452456954639
 20
952.1855970518567
 30
0.0
 10
2551.353856420127
 20
951.5327629234999
 30
0.0
 10
2551.300149962222
 20
951.1771724715041
 30
0.0
 11
2958.423574524026
 21
987.1899175380901
 31
0.0
 11
2959.027965288944
 21
988.238153683018
 31
0.0
 11
2959.222742090009
 21
989.0057620437248
 31
0.0
 11
2959.104199969686
 21
989.8027281774
 31
0.0
 11
2957.38830526374
 21
991.9297545899318
 31
0.0
 11
2955.645910574559
 21
993.1067956171201
 31
0.0
 11
2948.644024896032
 21
996.2551285871828
 31
0.0
 11
2930.448868761786
 21
1001.416249412002
 31
0.0
 11
2899.162736671786
 21
1007.309460580256
 31
0.0
 11
2860.001162196989
 21
1012.452985186879
 31
0.0
 11
2811.532426732664
 21
1016.218485379946
 31
0.0
 11
2795.421802142459
 21
1017.111923971841
 31
0.0
 11
2771.226150805063
 21
1017.67346994582
 31
0.0
 11
2751.569361312617
 21
1017.388923603478
 31
0.0
 11
2739.97654811058
 21
1017.126166085618
 31
0.0
 11
2716.360532180213
 21
1016.281264892452
 31
0.0
 11
2690.459877893693
 21
1014.035124647316
 31
0.0
 11
2668.576514749463
 21
1011.047885621998
 31
0.0
 11
2641.511153733848
 21
1005.943303488592
 31
0.0
 11
2612.713243555716
 21
996.6305078999555
 31
0.0
 11
2586.830351807558
 21
984.7980044918616
 31
0.0
 11
2574.10877343731
 21
976.172713180221
 31
0.0
 11
2570.524236904117
 21
973.2671164770975
 31
0.0
 11
2562.866137075932
 21
966.2752655072722
 31
0.0
 11
2554.336159208311
 21
956.5508284743012
 31
0.0
 11
2551.767158672629
 21
953.0967040297989
 31
0.0
 11
2551.49175206629
 21
952.2383817217981
 31
0.0
 11
2551.300149962222
 21
951.1771724715041
 31
0.0
  0
SPLINE
  5
1BCF4
330
1F
100
AcDbEntity
  8
0
100
AcDbSpline
210
0.0
220
0.0
230
1.0
 70
     8
 71
     3
 72
    18
 73
    14
 74
     0
 42
0.0000000001
 43
0.0000000001
 40
0.0
 40
0.0
 40
0.0
 40
0.0
 40
0.1209994715794785
 40
0.2001929433849487
 40
0.2807663417566009
 40
0.554052565366589
 40
0.7643229825101394
 40
1.532036493825104
 40
3.423334658890382
 40
6.606967802056537
 40
10.55675863287789
 40
15.41823712117202
 40
15.83884361034361
 40
15.83884361034361
 40
15.83884361034361
 40
15.83884361034361
 10
2552.077352426167
 20
952.80628921714
 30
0.0
 10
2551.854468688805
 20
952.468805341644
 30
0.0
 10
2551.485708802229
 20
951.9104401727839
 30
0.0
 10
2551.21523173719
 20
950.9899653751526
 30
0.0
 10
2551.477874130832
 20
949.5256078082821
 30
0.0
 10
2552.918703504933
 20
948.1166828157666
 30
0.0
 10
2556.381653658375
 20
945.8597037068971
 30
0.0
 10
2565.34518831428
 20
942.2213567594285
 30
0.0
 10
2584.170766488061
 20
937.3162238042727
 30
0.0
 10
2613.829619258956
 20
932.0285324902638
 30
0.0
 10
2653.473154205926
 20
926.7676102047062
 30
0.0
 10
2684.192149163273
 20
924.6777351557069
 30
0.0
 10
2701.767518661896
 20
923.6062986445611
 30
0.0
 10
2703.16709778883
 20
923.5228805100812
 30
0.0
  0
SPLINE
  5
1BCF5
330
1F
100
AcDbEntity
  8
0
100
AcDbSpline
210
0.0
220
0.0
230
1.0
 70
     8
 71
     3
 72
    19
 73
    15
 74
     0
 42
0.0000000001
 43
0.0000000001
 40
26.22774665280451
 40
26.22774665280451
 40
26.22774665280451
 40
26.22774665280451
 40
27.54035475313354
 40
29.74898595706191
 40
32.50323817075305
 40
35.52986631491525
 40
38.37579713302981
 40
39.91278837061389
 40
40.37421435990146
 40
41.41119301427521
 40
42.70473542962284
 40
43.13520888328105
 40
43.22535132518425
 40
43.33318807398507
 40
43.33318807398507
 40
43.33318807398507
 40
43.33318807398507
 10
2806.981464758254
 20
924.6332102285819
 30
0.0
 10
2811.341500731943
 20
925.0112095546688
 30
0.0
 10
2823.022023680446
 20
926.2020443172922
 30
0.0
 10
2843.727005684467
 20
929.1202840766437
 30
0.0
 10
2870.067581436924
 20
933.5001843589559
 30
0.0
 10
2897.327152961628
 20
942.8447242526479
 30
0.0
 10
2920.215700563446
 20
952.4156644633292
 30
0.0
 10
2933.637380085768
 20
961.5352197444734
 30
0.0
 10
2941.469010339769
 20
967.9260250317902
 30
0.0
 10
2948.528378490088
 20
974.0960393341451
 30
0.0
 10
2954.044203086512
 20
981.3458898703395
 30
0.0
 10
2958.409332428984
 20
985.7978053316386
 30
0.0
 10
2959.048469995554
 20
987.8106097033734
 30
0.0
 10
2959.147070530065
 20
988.4634438317302
 30
0.0
 10
2959.200776987971
 20
988.819034283726
 30
0.0
  0
SPLINE
  5
1BCF6
330
1F
100
AcDbEntity
  8
0
100
AcDbSpline
210
0.0
220
0.0
230
1.0
 70
     8
 71
     3
 72
    14
 73
    10
 74
     0
 42
0.0000000001
 43
0.0000000001
 40
0.0
 40
0.0
 40
0.0
 40
0.0
 40
0.8324980563396357
 40
1.176649696652822
 40
1.318866645457956
 40
1.520888940242142
 40
1.79101977783618
 40
3.134564324494849
 40
5.50779859002823
 40
5.50779859002823
 40
5.50779859002823
 40
5.50779859002823
 10
2869.815735527807
 20
934.5029096530975
 30
0.0
 10
2872.441113573117
 20
935.3801776593877
 30
0.0
 10
2876.151813264353
 20
936.6201050389459
 30
0.0
 10
2879.981587906352
 20
939.0429399675594
 30
0.0
 10
2881.085005983776
 20
941.1783245616508
 30
0.0
 10
2880.449643222856
 20
943.3590832302442
 30
0.0
 10
2875.454492882875
 20
947.038529868726
 30
0.0
 10
2862.724561757345
 20
951.1961927881687
 30
0.0
 10
2850.698899856615
 20
954.1403880438361
 30
0.0
 10
2842.952354382595
 20
955.7056004328654
 30
0.0
  0
SPLINE
  5
1BCF7
330
1F
100
AcDbEntity
  8
0
100
AcDbSpline
210
0.0
220
0.0
230
1.0
 70
     8
 71
     3
 72
     9
 73
     5
 74
     3
 42
0.0000000001
 43
0.0000000001
 44
0.0000000001
 40
0.0
 40
0.0
 40
0.0
 40
0.0
 40
2.296428868613206
 40
4.580503824635588
 40
4.580503824635588
 40
4.580503824635588
 40
4.580503824635588
 10
2825.706426382473
 20
942.556880176172
 30
0.0
 10
2833.336112072464
 20
943.2159215549592
 30
0.0
 10
2848.554438649622
 20
944.5304589209483
 30
0.0
 10
2863.621379582235
 20
947.0427194453673
 30
0.0
 10
2871.134531795526
 20
948.2954618436963
 30
0.0
 11
2825.706426382473
 21
942.556880176172
 31
0.0
 11
2848.557432617612
 21
944.835052448335
 31
0.0
 11
2871.134531795526
 21
948.2954618436963
 31
0.0
  0
SPLINE
  5
1BCF8
330
1F
100
AcDbEntity
  8
0
100
AcDbSpline
210
0.0
220
0.0
230
1.0
 70
     8
 71
     3
 72
    10
 73
     6
 74
     0
 42
0.0000000001
 43
0.0000000001
 40
0.0
 40
0.0
 40
0.0
 40
0.0
 40
0.7694521551997921
 40
2.792365912054524
 40
9.611484846126872
 40
9.611484846126872
 40
9.611484846126872
 40
9.611484846126872
 10
2938.691266020385
 20
989.9953604573294
 30
0.0
 10
2936.219595730017
 20
989.2993940587425
 30
0.0
 10
2927.249827021175
 20
986.7737102534318
 30
0.0
 10
2895.187105049795
 20
983.9676412694556
 30
0.0
 10
2865.830068473421
 20
981.9473902815206
 30
0.0
 10
2843.174968665429
 20
980.4145334757686
 30
0.0
  0
SPLINE
  5
1BCF9
330
1F
100
AcDbEntity
  8
0
100
AcDbSpline
210
0.0
220
0.0
230
1.0
 70
     8
 71
     3
 72
    15
 73
    11
 74
     0
 42
0.0000000001
 43
0.0000000001
 40
0.0
 40
0.0
 40
0.0
 40
0.0
 40
0.8324980563396357
 40
1.176649696652822
 40
1.318866645457956
 40
1.520888940242142
 40
1.79101977783618
 40
3.134564324494849
 40
5.650065344435023
 40
6.0738208430629
 40
6.0738208430629
 40
6.0738208430629
 40
6.0738208430629
 10
2641.134078752318
 20
1005.374320712579
 30
0.0
 10
2638.508700707007
 20
1004.497052706289
 30
0.0
 10
2634.798001015771
 20
1003.257125326731
 30
0.0
 10
2630.968226373772
 20
1000.834290398117
 30
0.0
 10
2629.864808296348
 20
998.698905804026
 30
0.0
 10
2630.500171057267
 20
996.5181471354325
 30
0.0
 10
2635.495321397249
 20
992.8387004969508
 30
0.0
 10
2648.679500585599
 20
988.5326777546318
 30
0.0
 10
2662.543510492818
 20
985.1812123097706
 30
0.0
 10
2672.162795910101
 20
983.3578658784681
 30
0.0
 10
2673.551349484925
 20
983.102885620719
 30
0.0
  0
SPLINE
  5
1BCFA
330
1F
100
AcDbEntity
  8
0
100
AcDbSpline
210
0.0
220
0.0
230
1.0
 70
     8
 71
     3
 72
     9
 73
     5
 74
     3
 42
0.0000000001
 43
0.0000000001
 44
0.0000000001
 40
0.0
 40
0.0
 40
0.0
 40
0.0
 40
2.175014998802312
 40
4.542407711722871
 40
4.542407711722871
 40
4.542407711722871
 40
4.542407711722871
 10
2684.264484167928
 20
997.261361546028
 30
0.0
 10
2677.032438947227
 20
996.7017756004489
 30
0.0
 10
2661.928681961584
 20
995.5331089402324
 30
0.0
 10
2646.982590791106
 20
993.0576138796528
 30
0.0
 10
2639.193050624484
 20
991.7674459028409
 30
0.0
 11
2684.264484167928
 21
997.261361546028
 31
0.0
 11
2662.604496968135
 21
995.2829836735512
 31
0.0
 11
2639.193050624484
 21
991.7674459028409
 31
0.0
  0
SPLINE
  5
1BD0C
330
1F
100
AcDbEntity
  8
0
100
AcDbSpline
210
0.0
220
0.0
230
1.0
 70
     8
 71
     3
 72
    10
 73
     6
 74
     0
 42
0.0000000001
 43
0.0000000001
 40
0.0
 40
0.0
 40
0.0
 40
0.0
 40
0.6352011525882692
 40
1.118976473116172
 40
1.301412634042219
 40
1.301412634042219
 40
1.301412634042219
 40
1.301412634042219
 10
1886.717353082602
 20
1398.614153095206
 30
0.0
 10
1886.677564183075
 20
1398.396848488581
 30
0.0
 10
1886.607471674141
 20
1398.014042598948
 30
0.0
 10
1886.836591115791
 20
1397.632296556382
 30
0.0
 10
1886.982685794771
 20
1397.44723218107
 30
0.0
 10
1887.02471400912
 20
1397.398218309635
 30
0.0
  0
ARC
  5
1BD0F
330
1F
100
AcDbEntity
  8
0
100
AcDbCircle
 10
1890.068499694105
 20
1399.794571887936
 30
0.0
 40
3.873905234818701
100
AcDbArc
 50
211.2170494696611
 51
231.3059372830926
  0
SPLINE
  5
1BD10
330
1F
100
AcDbEntity
  8
0
100
AcDbSpline
210
0.0
220
0.0
230
1.0
 70
     8
 71
     3
 72
    13
 73
     9
 74
     0
 42
0.0000000001
 43
0.0000000001
 40
0.8576135306277606
 40
0.8576135306277606
 40
0.8576135306277606
 40
0.8576135306277606
 40
6.910882564841006
 40
24.24093329594668
 40
33.88020846429524
 40
40.20421857746805
 40
48.29239149418668
 40
52.4112946797962
 40
52.4112946797962
 40
52.4112946797962
 40
52.4112946797962
 10
1887.646682198973
 20
1396.77100747013
 30
0.0
 10
1891.302739993694
 20
1393.625935157328
 30
0.0
 10
1893.986845172211
 20
1390.839789793269
 30
0.0
 10
1905.820213144574
 20
1383.340600622777
 30
0.0
 10
1915.791095454019
 20
1379.770080107284
 30
0.0
 10
1923.617162765768
 20
1377.599993750356
 30
0.0
 10
1929.772274770795
 20
1377.188867350863
 30
0.0
 10
1933.842143956675
 20
1376.748387541444
 30
0.0
 10
1935.207392052295
 20
1376.690983291226
 30
0.0
  0
ARC
  5
1BD12
330
1F
100
AcDbEntity
  8
0
100
AcDbCircle
 10
2746.684866233371
 20
1708.477307252565
 30
0.0
 40
786.1598108737273
100
AcDbArc
 50
266.8267780349895
 51
274.3987706637541
  0
LINE
  5
1BD18
330
1F
100
AcDbEntity
  8
0
100
AcDbLine
 10
2674.557842029105
 20
983.1366913085352
 30
0.0
 11
2834.557856046668
 21
983.1366989956917
 31
0.0
  0
LINE
  5
1BD1B
330
1F
100
AcDbEntity
  8
0
100
AcDbLine
 10
2659.557850436931
 20
969.1757803247853
 30
0.0
 11
2659.557850436931
 21
968.1366997163619
 31
0.0
  0
LINE
  5
1BD1D
330
1F
100
AcDbEntity
  8
0
100
AcDbLine
 10
2674.557842029104
 20
953.1366997163619
 30
0.0
 11
2834.557856046667
 21
953.1366997163621
 31
0.0
  0
ARC
  5
1BD1E
330
1F
100
AcDbEntity
  8
0
100
AcDbCircle
 10
2674.557842029105
 20
968.1366997163621
 30
0.0
 40
14.99999159217304
100
AcDbArc
 50
90.0
 51
270.0
  0
SPLINE
  5
1BD21
330
1F
100
AcDbEntity
  8
0
100
AcDbSpline
210
0.0
220
0.0
230
1.0
 70
     8
 71
     3
 72
    13
 73
     9
 74
     0
 42
0.0000000001
 43
0.0000000001
 40
27.84578300225851
 40
27.84578300225851
 40
27.84578300225851
 40
27.84578300225851
 40
31.26009887457892
 40
35.56932130423256
 40
38.39699272228609
 40
38.73878222179343
 40
38.90458994741943
 40
38.96112769750793
 40
38.96112769750793
 40
38.96112769750793
 40
38.96112769750793
 10
2849.335000624133
 20
970.7127101675622
 30
0.0
 10
2860.697869217745
 20
971.469253532873
 30
0.0
 10
2886.372625537939
 20
973.3960349632566
 30
0.0
 10
2921.184378277366
 20
977.2515969454174
 30
0.0
 10
2946.228145799314
 20
980.5684137127601
 30
0.0
 10
2956.431699298889
 20
985.1899526015055
 30
0.0
 10
2957.876170683598
 20
986.4375766829958
 30
0.0
 10
2958.312599826862
 20
987.0373961409203
 30
0.0
 10
2958.423574524026
 20
987.1899175380901
 30
0.0
  0
SPLINE
  5
1BD26
330
1F
100
AcDbEntity
  8
0
100
AcDbSpline
210
0.0
220
0.0
230
1.0
 70
     8
 71
     3
 72
    13
 73
     9
 74
     0
 42
0.0000000001
 43
0.0000000001
 40
28.00323039185414
 40
28.00323039185414
 40
28.00323039185414
 40
28.00323039185414
 40
31.26009887457892
 40
35.56932130423256
 40
38.39699272228609
 40
38.73878222179343
 40
38.90458994741943
 40
38.96112769750793
 40
38.96112769750793
 40
38.96112769750793
 40
38.96112769750793
 10
2659.594052949189
 20
969.1782198251756
 30
0.0
 10
2648.756357510249
 20
968.4480246742959
 30
0.0
 10
2623.608833053506
 20
966.5426382782225
 30
0.0
 10
2589.316548672826
 20
962.7446098098127
 30
0.0
 10
2564.272781150879
 20
959.4277930424699
 30
0.0
 10
2554.069227651303
 20
954.8062541537245
 30
0.0
 10
2552.624756266595
 20
953.5586300722343
 30
0.0
 10
2552.188327123331
 20
952.9588106143096
 30
0.0
 10
2552.077352426167
 20
952.8062892171398
 30
0.0
  0
ARC
  5
1BD27
330
1F
100
AcDbEntity
  8
0
100
AcDbCircle
 10
2834.557856046668
 20
968.1366997163621
 30
0.0
 40
14.99999439026623
100
AcDbArc
 50
269.9999999999983
 51
90.00000000000175
  0
ENDSEC
  0
SECTION
  2
OBJECTS
  0
DICTIONARY
  5
C
330
0
100
AcDbDictionary
281
     1
  3
ACAD_COLOR
350
1BC94
  3
ACAD_GROUP
350
D
  3
ACAD_LAYOUT
350
1A
  3
ACAD_MATERIAL
350
1BC93
  3
ACAD_MLINESTYLE
350
17
  3
ACAD_PLOTSETTINGS
350
19
  3
ACAD_PLOTSTYLENAME
350
E
  3
ACAD_TABLESTYLE
350
1BC95
  3
AcDbVariableDictionary
350
1BD00
  0
DICTIONARY
  5
1BCE2
330
1F
100
AcDbDictionary
280
     1
281
     1
  3
ACAD_SORTENTS
360
1BCE3
  0
DICTIONARY
  5
1BCA4
330
1BC9A
100
AcDbDictionary
280
     1
281
     1
  3
ACAD_SORTENTS
360
1BCA5
  0
DICTIONARY
  5
1BCC2
330
1BCB0
100
AcDbDictionary
280
     1
281
     1
  3
ACAD_SORTENTS
360
1BCC3
  0
DICTIONARY
  5
1BCD2
330
1BCC9
100
AcDbDictionary
280
     1
281
     1
  3
ACAD_SORTENTS
360
1BCD3
  0
DICTIONARY
  5
1BC94
102
{ACAD_REACTORS
330
C
102
}
330
C
100
AcDbDictionary
281
     1
  0
DICTIONARY
  5
D
102
{ACAD_REACTORS
330
C
102
}
330
C
100
AcDbDictionary
281
     1
  0
DICTIONARY
  5
1A
102
{ACAD_REACTORS
330
C
102
}
330
C
100
AcDbDictionary
281
     1
  3
Layout1
350
1E
  3
Layout2
350
26
  3
Model
350
22
  0
DICTIONARY
  5
1BC93
102
{ACAD_REACTORS
330
C
102
}
330
C
100
AcDbDictionary
281
     1
  0
DICTIONARY
  5
17
102
{ACAD_REACTORS
330
C
102
}
330
C
100
AcDbDictionary
281
     1
  3
Standard
350
18
  0
DICTIONARY
  5
19
102
{ACAD_REACTORS
330
C
102
}
330
C
100
AcDbDictionary
281
     1
  0
ACDBDICTIONARYWDFLT
  5
E
102
{ACAD_REACTORS
330
C
102
}
330
C
100
AcDbDictionary
281
     1
  3
Normal
350
F
100
AcDbDictionaryWithDefault
340
F
  0
DICTIONARY
  5
1BC95
102
{ACAD_REACTORS
330
C
102
}
330
C
100
AcDbDictionary
281
     1
  3
Standard
350
1BC96
  0
DICTIONARY
  5
1BD00
102
{ACAD_REACTORS
330
C
102
}
330
C
100
AcDbDictionary
281
     1
  3
CTABLESTYLE
350
1BD01
  0
SORTENTSTABLE
  5
1BCE3
102
{ACAD_REACTORS
330
1BCE2
102
}
330
1BCE2
100
AcDbSortentsTable
330
1F
331
1BD1B
  5
1BD1C
331
1BCF9
  5
1BCF2
331
1BCAC
  5
1BCD9
331
1BCE8
  5
1BCAD
331
1BCAA
  5
1BCD7
331
1BCF7
  5
1BCED
331
1BCE6
  5
1BCAB
331
1BCF5
  5
1BCEA
331
1BCE4
  5
1BCA9
331
1BCC8
  5
1BCF8
331
1BD26
  5
1BCF1
331
1BCE0
  5
1BD0E
331
1BCD7
  5
1BD12
331
1BCF1
  5
1BCE4
331
1BCDE
  5
1BCFE
331
1BCEF
  5
1BCE0
331
1BCDC
  5
1BCFB
331
1BD0F
  5
1BD18
331
1BCED
  5
1BCDE
331
1BCDA
  5
1BCF9
331
1BD1E
  5
1BD26
331
1BCAF
  5
1BCDC
331
1BCEB
  5
1BCC6
331
1BCD8
  5
1BD13
331
1BCFA
  5
1BCF4
331
1BCAD
  5
1BCDA
331
1BCE9
  5
1BCAE
331
1BCF8
  5
1BCEF
331
1BCAB
  5
1BCD8
331
1BCE7
  5
1BCAC
331
1BD18
  5
1BD25
331
1BCA9
  5
1BCC8
331
1BCF6
  5
1BCEB
331
1BCE5
  5
1BCAA
331
1BCF4
  5
1BCE9
331
1BCE1
  5
1BD10
331
1BCC7
  5
1BCF7
331
1BCF2
  5
1BCE8
331
1BCDF
  5
1BD07
331
1BD12
  5
1BD19
331
1BCDD
  5
1BCFC
331
1BD21
  5
1BCE7
331
1BD10
  5
1BD16
331
1BCEE
  5
1BCDF
331
1BCDB
  5
1BCFA
331
1BCEC
  5
1BCC7
331
1BD1D
  5
1BD24
331
1BCD9
  5
1BD14
331
1BCAE
  5
1BCDB
331
1BD0C
  5
1BD17
331
1BCEA
  5
1BCAF
  0
SORTENTSTABLE
  5
1BCA5
102
{ACAD_REACTORS
330
1BCA4
102
}
330
1BCA4
100
AcDbSortentsTable
330
1BC9A
  0
SORTENTSTABLE
  5
1BCC3
102
{ACAD_REACTORS
330
1BCC2
102
}
330
1BCC2
100
AcDbSortentsTable
330
1BCB0
  0
SORTENTSTABLE
  5
1BCD3
102
{ACAD_REACTORS
330
1BCD2
102
}
330
1BCD2
100
AcDbSortentsTable
330
1BCC9
  0
LAYOUT
  5
1E
102
{ACAD_REACTORS
330
1A
102
}
330
1A
100
AcDbPlotSettings
  1

  2
none_device
  4

  6

 40
0.0
 41
0.0
 42
0.0
 43
0.0
 44
0.0
 45
0.0
 46
0.0
 47
0.0
 48
0.0
 49
0.0
140
0.0
141
0.0
142
1.0
143
1.0
 70
   688
 72
     0
 73
     0
 74
     5
  7

 75
    16
147
1.0
 76
     0
 77
     2
 78
   300
148
0.0
149
0.0
100
AcDbLayout
  1
Layout1
 70
     1
 71
     1
 10
0.0
 20
0.0
 11
12.0
 21
9.0
 12
0.0
 22
0.0
 32
0.0
 14
1.000000000000000E+20
 24
1.000000000000000E+20
 34
1.000000000000000E+20
 15
-1.000000000000000E+20
 25
-1.000000000000000E+20
 35
-1.000000000000000E+20
146
0.0
 13
0.0
 23
0.0
 33
0.0
 16
1.0
 26
0.0
 36
0.0
 17
0.0
 27
1.0
 37
0.0
 76
     0
330
1B
  0
LAYOUT
  5
26
102
{ACAD_REACTORS
330
1A
102
}
330
1A
100
AcDbPlotSettings
  1

  2
none_device
  4

  6

 40
0.0
 41
0.0
 42
0.0
 43
0.0
 44
0.0
 45
0.0
 46
0.0
 47
0.0
 48
0.0
 49
0.0
140
0.0
141
0.0
142
1.0
143
1.0
 70
   688
 72
     0
 73
     0
 74
     5
  7

 75
    16
147
1.0
 76
     0
 77
     2
 78
   300
148
0.0
149
0.0
100
AcDbLayout
  1
Layout2
 70
     1
 71
     2
 10
0.0
 20
0.0
 11
0.0
 21
0.0
 12
0.0
 22
0.0
 32
0.0
 14
0.0
 24
0.0
 34
0.0
 15
0.0
 25
0.0
 35
0.0
146
0.0
 13
0.0
 23
0.0
 33
0.0
 16
1.0
 26
0.0
 36
0.0
 17
0.0
 27
1.0
 37
0.0
 76
     0
330
23
  0
LAYOUT
  5
22
102
{ACAD_REACTORS
330
1A
102
}
330
1A
100
AcDbPlotSettings
  1

  2
none_device
  4

  6

 40
0.0
 41
0.0
 42
0.0
 43
0.0
 44
0.0
 45
0.0
 46
0.0
 47
0.0
 48
0.0
 49
0.0
140
0.0
141
0.0
142
1.0
143
1.0
 70
  1712
 72
     0
 73
     0
 74
     0
  7

 75
     0
147
1.0
 76
     0
 77
     2
 78
   300
148
0.0
149
0.0
100
AcDbLayout
  1
Model
 70
     1
 71
     0
 10
0.0
 20
0.0
 11
12.0
 21
9.0
 12
0.0
 22
0.0
 32
0.0
 14
1887.389454669182
 24
0.0001639563842665
 34
0.0
 15
2954.314564005081
 25
2501.838989688508
 35
0.0
146
0.0
 13
0.0
 23
0.0
 33
0.0
 16
1.0
 26
0.0
 36
0.0
 17
0.0
 27
1.0
 37
0.0
 76
     0
330
1F
  0
MLINESTYLE
  5
18
102
{ACAD_REACTORS
330
17
102
}
330
17
100
AcDbMlineStyle
  2
STANDARD
 70
     0
  3

 62
   256
 51
90.0
 52
90.0
 71
     2
 49
0.5
 62
   256
  6
BYLAYER
 49
-0.5
 62
   256
  6
BYLAYER
  0
ACDBPLACEHOLDER
  5
F
102
{ACAD_REACTORS
330
E
102
}
330
E
  0
TABLESTYLE
  5
1BC96
102
{ACAD_REACTORS
330
1BC95
102
}
330
1BC95
100
AcDbTableStyle
  3
Standard
 70
     0
 71
     0
 40
0.06
 41
0.06
280
     0
281
     0
  7
Standard
140
0.18
170
     2
 62
     0
 63
     7
283
     0
274
    -2
284
     1
 64
     0
275
    -2
285
     1
 65
     0
276
    -2
286
     1
 66
     0
277
    -2
287
     1
 67
     0
278
    -2
288
     1
 68
     0
279
    -2
289
     1
 69
     0
  7
Standard
140
0.25
170
     5
 62
     0
 63
     7
283
     0
274
    -2
284
     1
 64
     0
275
    -2
285
     1
 65
     0
276
    -2
286
     1
 66
     0
277
    -2
287
     1
 67
     0
278
    -2
288
     1
 68
     0
279
    -2
289
     1
 69
     0
  7
Standard
140
0.18
170
     5
 62
     0
 63
     7
283
     0
274
    -2
284
     1
 64
     0
275
    -2
285
     1
 65
     0
276
    -2
286
     1
 66
     0
277
    -2
287
     1
 67
     0
278
    -2
288
     1
 68
     0
279
    -2
289
     1
 69
     0
  0
DICTIONARYVAR
  5
1BD01
102
{ACAD_REACTORS
330
1BD00
102
}
330
1BD00
100
DictionaryVariables
280
     0
  1
STANDARD
  0
ENDSEC
  0
EOF
