  0
SECTION
  2
HEADER
  9
$ACADVER
  1
AC1018
  9
$ACADMAINTVER
 70
     0
  9
$DWGCODEPAGE
  3
ANSI_1252
  9
$INSBASE
 10
0.0
 20
0.0
 30
0.0
  9
$EXTMIN
 10
161.6415954761145
 20
0.0
 30
0.0
  9
$EXTMAX
 10
261.5413454761145
 20
226.6916023260907
 30
0.0
  9
$LIMMIN
 10
0.0
 20
0.0
  9
$LIMMAX
 10
12.0
 20
9.0
  9
$ORTHOMODE
 70
     0
  9
$REGENMODE
 70
     1
  9
$FILLMODE
 70
     1
  9
$QTEXTMODE
 70
     0
  9
$MIRRTEXT
 70
     1
  9
$LTSCALE
 40
1.0
  9
$ATTMODE
 70
     1
  9
$TEXTSIZE
 40
0.2
  9
$TRACEWID
 40
0.05
  9
$TEXTSTYLE
  7
Standard
  9
$CLAYER
  8
PREDEFINITO
  9
$CELTYPE
  6
ByLayer
  9
$CECOLOR
 62
   256
  9
$CELTSCALE
 40
1.0
  9
$DISPSILH
 70
     0
  9
$DIMSCALE
 40
1.0
  9
$DIMASZ
 40
0.18
  9
$DIMEXO
 40
0.0625
  9
$DIMDLI
 40
0.38
  9
$DIMRND
 40
0.0
  9
$DIMDLE
 40
0.0
  9
$DIMEXE
 40
0.18
  9
$DIMTP
 40
0.0
  9
$DIMTM
 40
0.0
  9
$DIMTXT
 40
0.18
  9
$DIMCEN
 40
0.09
  9
$DIMTSZ
 40
0.0
  9
$DIMTOL
 70
     0
  9
$DIMLIM
 70
     0
  9
$DIMTIH
 70
     1
  9
$DIMTOH
 70
     1
  9
$DIMSE1
 70
     0
  9
$DIMSE2
 70
     0
  9
$DIMTAD
 70
     0
  9
$DIMZIN
 70
     0
  9
$DIMBLK
  1

  9
$DIMASO
 70
     1
  9
$DIMSHO
 70
     1
  9
$DIMPOST
  1

  9
$DIMAPOST
  1

  9
$DIMALT
 70
     0
  9
$DIMALTD
 70
     2
  9
$DIMALTF
 40
25.4
  9
$DIMLFAC
 40
1.0
  9
$DIMTOFL
 70
     0
  9
$DIMTVP
 40
0.0
  9
$DIMTIX
 70
     0
  9
$DIMSOXD
 70
     0
  9
$DIMSAH
 70
     0
  9
$DIMBLK1
  1

  9
$DIMBLK2
  1

  9
$DIMSTYLE
  2
Standard
  9
$DIMCLRD
 70
     0
  9
$DIMCLRE
 70
     0
  9
$DIMCLRT
 70
     0
  9
$DIMTFAC
 40
1.0
  9
$DIMGAP
 40
0.09
  9
$DIMJUST
 70
     0
  9
$DIMSD1
 70
     0
  9
$DIMSD2
 70
     0
  9
$DIMTOLJ
 70
     1
  9
$DIMTZIN
 70
     0
  9
$DIMALTZ
 70
     0
  9
$DIMALTTZ
 70
     0
  9
$DIMUPT
 70
     0
  9
$DIMDEC
 70
     4
  9
$DIMTDEC
 70
     4
  9
$DIMALTU
 70
     2
  9
$DIMALTTD
 70
     2
  9
$DIMTXSTY
  7
Standard
  9
$DIMAUNIT
 70
     0
  9
$DIMADEC
 70
     0
  9
$DIMALTRND
 40
0.0
  9
$DIMAZIN
 70
     0
  9
$DIMDSEP
 70
    46
  9
$DIMATFIT
 70
     3
  9
$DIMFRAC
 70
     0
  9
$DIMLDRBLK
  1

  9
$DIMLUNIT
 70
     2
  9
$DIMLWD
 70
    -2
  9
$DIMLWE
 70
    -2
  9
$DIMTMOVE
 70
     0
  9
$LUNITS
 70
     2
  9
$LUPREC
 70
     3
  9
$SKETCHINC
 40
0.1
  9
$FILLETRAD
 40
0.5
  9
$AUNITS
 70
     0
  9
$AUPREC
 70
     0
  9
$MENU
  1
.
  9
$ELEVATION
 40
0.0
  9
$PELEVATION
 40
0.0
  9
$THICKNESS
 40
0.0
  9
$LIMCHECK
 70
     0
  9
$CHAMFERA
 40
0.5
  9
$CHAMFERB
 40
0.5
  9
$CHAMFERC
 40
1.0
  9
$CHAMFERD
 40
0.0
  9
$SKPOLY
 70
     0
  9
$TDCREATE
 40
2455869.434609965
  9
$TDUCREATE
 40
2455869.392943298
  9
$TDUPDATE
 40
2455869.434609977
  9
$TDUUPDATE
 40
2455869.39294331
  9
$TDINDWG
 40
0.0000000116
  9
$TDUSRTIMER
 40
0.0000000116
  9
$USRTIMER
 70
     1
  9
$ANGBASE
 50
0.0
  9
$ANGDIR
 70
     0
  9
$PDMODE
 70
     0
  9
$PDSIZE
 40
0.0
  9
$PLINEWID
 40
0.0
  9
$SPLFRAME
 70
     0
  9
$SPLINETYPE
 70
     6
  9
$SPLINESEGS
 70
     8
  9
$HANDSEED
  5
11A
  9
$SURFTAB1
 70
     6
  9
$SURFTAB2
 70
     6
  9
$SURFTYPE
 70
     6
  9
$SURFU
 70
     6
  9
$SURFV
 70
     6
  9
$UCSBASE
  2

  9
$UCSNAME
  2

  9
$UCSORG
 10
0.0
 20
0.0
 30
0.0
  9
$UCSXDIR
 10
1.0
 20
0.0
 30
0.0
  9
$UCSYDIR
 10
0.0
 20
1.0
 30
0.0
  9
$UCSORTHOREF
  2

  9
$UCSORTHOVIEW
 70
     0
  9
$UCSORGTOP
 10
0.0
 20
0.0
 30
0.0
  9
$UCSORGBOTTOM
 10
0.0
 20
0.0
 30
0.0
  9
$UCSORGLEFT
 10
0.0
 20
0.0
 30
0.0
  9
$UCSORGRIGHT
 10
0.0
 20
0.0
 30
0.0
  9
$UCSORGFRONT
 10
0.0
 20
0.0
 30
0.0
  9
$UCSORGBACK
 10
0.0
 20
0.0
 30
0.0
  9
$PUCSBASE
  2

  9
$PUCSNAME
  2

  9
$PUCSORG
 10
0.0
 20
0.0
 30
0.0
  9
$PUCSXDIR
 10
1.0
 20
0.0
 30
0.0
  9
$PUCSYDIR
 10
0.0
 20
1.0
 30
0.0
  9
$PUCSORTHOREF
  2

  9
$PUCSORTHOVIEW
 70
     0
  9
$PUCSORGTOP
 10
0.0
 20
0.0
 30
0.0
  9
$PUCSORGBOTTOM
 10
0.0
 20
0.0
 30
0.0
  9
$PUCSORGLEFT
 10
0.0
 20
0.0
 30
0.0
  9
$PUCSORGRIGHT
 10
0.0
 20
0.0
 30
0.0
  9
$PUCSORGFRONT
 10
0.0
 20
0.0
 30
0.0
  9
$PUCSORGBACK
 10
0.0
 20
0.0
 30
0.0
  9
$USERI1
 70
     0
  9
$USERI2
 70
     0
  9
$USERI3
 70
     0
  9
$USERI4
 70
     0
  9
$USERI5
 70
     0
  9
$USERR1
 40
0.0
  9
$USERR2
 40
0.0
  9
$USERR3
 40
0.0
  9
$USERR4
 40
0.0
  9
$USERR5
 40
0.0
  9
$WORLDVIEW
 70
     1
  9
$SHADEDGE
 70
     3
  9
$SHADEDIF
 70
    70
  9
$TILEMODE
 70
     1
  9
$MAXACTVP
 70
    64
  9
$PINSBASE
 10
0.0
 20
0.0
 30
0.0
  9
$PLIMCHECK
 70
     0
  9
$PEXTMIN
 10
1.000000000000000E+20
 20
1.000000000000000E+20
 30
1.000000000000000E+20
  9
$PEXTMAX
 10
-1.000000000000000E+20
 20
-1.000000000000000E+20
 30
-1.000000000000000E+20
  9
$PLIMMIN
 10
0.0
 20
0.0
  9
$PLIMMAX
 10
12.0
 20
9.0
  9
$UNITMODE
 70
     0
  9
$VISRETAIN
 70
     1
  9
$PLINEGEN
 70
     0
  9
$PSLTSCALE
 70
     1
  9
$TREEDEPTH
 70
  3020
  9
$CMLSTYLE
  2
Standard
  9
$CMLJUST
 70
     0
  9
$CMLSCALE
 40
1.0
  9
$PROXYGRAPHICS
 70
     1
  9
$MEASUREMENT
 70
     0
  9
$CELWEIGHT
370
    -1
  9
$ENDCAPS
280
     0
  9
$JOINSTYLE
280
     0
  9
$LWDISPLAY
290
     0
  9
$INSUNITS
 70
     4
  9
$HYPERLINKBASE
  1

  9
$STYLESHEET
  1

  9
$XEDIT
290
     1
  9
$CEPSNTYPE
380
     0
  9
$PSTYLEMODE
290
     1
  9
$FINGERPRINTGUID
  2
{41D4B0EA-917D-4F31-8194-17F104E8AD3A}
  9
$VERSIONGUID
  2
{FAEB1C32-E019-11D5-929B-00C0DF256EC4}
  9
$EXTNAMES
290
     1
  9
$PSVPSCALE
 40
0.0
  9
$OLESTARTUP
290
     0
  9
$SORTENTS
280
   127
  9
$INDEXCTL
280
     0
  9
$HIDETEXT
280
     1
  9
$XCLIPFRAME
290
     0
  9
$HALOGAP
280
     0
  9
$OBSCOLOR
 70
   257
  9
$OBSLTYPE
280
     0
  9
$INTERSECTIONDISPLAY
280
     0
  9
$INTERSECTIONCOLOR
 70
   257
  9
$DIMASSOC
280
     2
  9
$PROJECTNAME
  1

  0
ENDSEC
  0
SECTION
  2
CLASSES
  0
CLASS
  1
ACDBDICTIONARYWDFLT
  2
AcDbDictionaryWithDefault
  3
ObjectDBX Classes
 90
        0
 91
        3
280
     0
281
     0
  0
CLASS
  1
VISUALSTYLE
  2
AcDbVisualStyle
  3
ObjectDBX Classes
 90
     4095
 91
        3
280
     0
281
     0
  0
CLASS
  1
SCALE
  2
AcDbScale
  3
ObjectDBX Classes
 90
     1153
 91
        3
280
     0
281
     0
  0
ENDSEC
  0
SECTION
  2
TABLES
  0
TABLE
  2
VPORT
  5
8
330
0
100
AcDbSymbolTable
 70
     1
  0
VPORT
  5
29
330
8
100
AcDbSymbolTableRecord
100
AcDbViewportTableRecord
  2
*Active
 70
     0
 10
0.0
 20
0.0
 11
1.0
 21
1.0
 12
0.0
 22
0.0
 13
0.0
 23
0.0
 14
0.5
 24
0.5
 15
0.5
 25
0.5
 16
0.0
 26
0.0
 36
1.0
 17
211.5914704761145
 27
113.3458011630454
 37
0.0
 40
231.2254343726125
 41
0.4406857112258462
 42
50.0
 43
0.0
 44
0.0
 50
0.0
 51
0.0
 71
     0
 72
   100
 73
     1
 74
     3
 75
     0
 76
     0
 77
     0
 78
     0
281
     0
 65
     1
110
0.0
120
0.0
130
0.0
111
1.0
121
0.0
131
0.0
112
0.0
122
1.0
132
0.0
 79
     0
146
0.0
  0
ENDTAB
  0
TABLE
  2
LTYPE
  5
5
330
0
100
AcDbSymbolTable
 70
     1
  0
LTYPE
  5
14
330
5
100
AcDbSymbolTableRecord
100
AcDbLinetypeTableRecord
  2
ByBlock
 70
     0
  3

 72
    65
 73
     0
 40
0.0
  0
LTYPE
  5
15
330
5
100
AcDbSymbolTableRecord
100
AcDbLinetypeTableRecord
  2
ByLayer
 70
     0
  3

 72
    65
 73
     0
 40
0.0
  0
LTYPE
  5
16
330
5
100
AcDbSymbolTableRecord
100
AcDbLinetypeTableRecord
  2
Continuous
 70
     0
  3
Solid line
 72
    65
 73
     0
 40
0.0
  0
ENDTAB
  0
TABLE
  2
LAYER
  5
2
330
0
100
AcDbSymbolTable
 70
     3
  0
LAYER
  5
10
330
2
100
AcDbSymbolTableRecord
100
AcDbLayerTableRecord
  2
0
 70
     0
 62
     7
  6
Continuous
370
    -3
390
F
  0
LAYER
  5
5D
330
2
100
AcDbSymbolTableRecord
100
AcDbLayerTableRecord
  2
LINEE VISIBILI 2D
 70
     0
 62
     7
  6
Continuous
370
    -3
390
F
  0
LAYER
  5
6A
330
2
100
AcDbSymbolTableRecord
100
AcDbLayerTableRecord
  2
PREDEFINITO
 70
     0
 62
     7
  6
Continuous
370
    -3
390
F
  0
ENDTAB
  0
TABLE
  2
STYLE
  5
3
330
0
100
AcDbSymbolTable
 70
     1
  0
STYLE
  5
11
330
3
100
AcDbSymbolTableRecord
100
AcDbTextStyleTableRecord
  2
Standard
 70
     0
 40
0.0
 41
1.0
 50
0.0
 71
     0
 42
0.2
  3
txt
  4

  0
ENDTAB
  0
TABLE
  2
VIEW
  5
6
330
0
100
AcDbSymbolTable
 70
     0
  0
ENDTAB
  0
TABLE
  2
UCS
  5
7
330
0
100
AcDbSymbolTable
 70
     0
  0
ENDTAB
  0
TABLE
  2
APPID
  5
9
330
0
100
AcDbSymbolTable
 70
     1
  0
APPID
  5
12
330
9
100
AcDbSymbolTableRecord
100
AcDbRegAppTableRecord
  2
ACAD
 70
     0
  0
ENDTAB
  0
TABLE
  2
DIMSTYLE
  5
A
330
0
100
AcDbSymbolTable
 70
     1
100
AcDbDimStyleTable
  0
DIMSTYLE
105
27
330
A
100
AcDbSymbolTableRecord
100
AcDbDimStyleTableRecord
  2
Standard
 70
     0
340
11
  0
ENDTAB
  0
TABLE
  2
BLOCK_RECORD
  5
1
330
0
100
AcDbSymbolTable
 70
     1
  0
BLOCK_RECORD
  5
1F
330
1
100
AcDbSymbolTableRecord
100
AcDbBlockTableRecord
  2
*Model_Space
340
22
  0
BLOCK_RECORD
  5
1B
330
1
100
AcDbSymbolTableRecord
100
AcDbBlockTableRecord
  2
*Paper_Space
340
1E
  0
BLOCK_RECORD
  5
23
330
1
100
AcDbSymbolTableRecord
100
AcDbBlockTableRecord
  2
*Paper_Space0
340
26
  0
ENDTAB
  0
ENDSEC
  0
SECTION
  2
BLOCKS
  0
BLOCK
  5
20
330
1F
100
AcDbEntity
  8
0
100
AcDbBlockBegin
  2
*Model_Space
 70
     0
 10
0.0
 20
0.0
 30
0.0
  3
*Model_Space
  1

  0
ENDBLK
  5
21
330
1F
100
AcDbEntity
  8
0
100
AcDbBlockEnd
  0
BLOCK
  5
1C
330
1B
100
AcDbEntity
 67
     1
  8
0
100
AcDbBlockBegin
  2
*Paper_Space
 70
     0
 10
0.0
 20
0.0
 30
0.0
  3
*Paper_Space
  1

  0
ENDBLK
  5
1D
330
1B
100
AcDbEntity
 67
     1
  8
0
100
AcDbBlockEnd
  0
BLOCK
  5
24
330
23
100
AcDbEntity
  8
0
100
AcDbBlockBegin
  2
*Paper_Space0
 70
     0
 10
0.0
 20
0.0
 30
0.0
  3
*Paper_Space0
  1

  0
ENDBLK
  5
25
330
23
100
AcDbEntity
  8
0
100
AcDbBlockEnd
  0
ENDSEC
  0
SECTION
  2
ENTITIES
  0
SPLINE
  5
5E
330
1F
100
AcDbEntity
  8
LINEE VISIBILI 2D
100
AcDbSpline
210
0.0
220
0.0
230
1.0
 70
    24
 71
     2
 72
     6
 73
     3
 74
     0
 42
0.0000000001
 43
0.0000000001
 40
0.0
 40
0.0
 40
0.0
 40
0.0999999999999943
 40
0.0999999999999943
 40
0.0999999999999943
 10
258.934185531762
 20
171.3915954761145
 30
0.0
 10
258.934185531762
 20
171.4415954761145
 30
0.0
 10
258.934185531762
 20
171.4915954761145
 30
0.0
  0
SPLINE
  5
5F
330
1F
100
AcDbEntity
  8
LINEE VISIBILI 2D
100
AcDbSpline
210
0.0
220
0.0
230
1.0
 70
    24
 71
     2
 72
     6
 73
     3
 74
     0
 42
0.0000000001
 43
0.0000000001
 40
0.0
 40
0.0
 40
0.0
 40
0.1001061682934317
 40
0.1001061682934317
 40
0.1001061682934317
 10
164.238727061892
 20
171.4916990370974
 30
0.0
 10
164.2390883128261
 20
171.441647256606
 30
0.0
 10
164.2394495637602
 20
171.3915954761145
 30
0.0
  0
SPLINE
  5
60
330
1F
100
AcDbEntity
  8
LINEE VISIBILI 2D
100
AcDbSpline
210
0.0
220
0.0
230
1.0
 70
     8
 71
     3
 72
    27
 73
    23
 74
     0
 42
0.0000000001
 43
0.0000000001
 40
0.0
 40
0.0
 40
0.0
 40
0.0
 40
4.270188471584486
 40
6.122262793086395
 40
10.58078517752272
 40
14.99746977154655
 40
18.95518626600422
 40
22.01664599506363
 40
25.47884778764268
 40
29.21286704248127
 40
38.33332417248296
 40
43.28837551790512
 40
47.83206732179779
 40
51.8123784289747
 40
52.78617594342685
 40
55.77220941857726
 40
57.99549319716112
 40
60.17581945419382
 40
62.38239009712974
 40
63.67817782845452
 40
65.63944157872105
 40
73.21169019018977
 40
73.21169019018977
 40
73.21169019018977
 40
73.21169019018977
 10
213.9674860417763
 20
223.7179845620232
 30
0.0
 10
213.9649413843008
 20
222.2946305972233
 30
0.0
 10
213.9479743243889
 20
220.2537569953679
 30
0.0
 10
214.0726449907969
 20
216.7272847912236
 30
0.0
 10
214.7583213103717
 20
213.2000293568767
 30
0.0
 10
216.3418397505767
 20
209.196031508374
 30
0.0
 10
218.7337571648586
 20
206.1647161315758
 30
0.0
 10
221.6086596070816
 20
204.1347797667334
 30
0.0
 10
224.7452238257346
 20
202.7527547833515
 30
0.0
 10
229.9318762983321
 20
201.102655043381
 30
0.0
 10
235.7485603473233
 20
199.8618341053563
 30
0.0
 10
241.5850196653485
 20
197.7069013850019
 30
0.0
 10
245.5130335940288
 20
195.4784890843889
 30
0.0
 10
247.7719647977978
 20
193.2028181509309
 30
0.0
 10
249.2202110425848
 20
190.9864316391338
 30
0.0
 10
250.1185990411848
 20
189.1218194980489
 30
0.0
 10
250.8562692499671
 20
186.7677553965193
 30
0.0
 10
251.3094986813138
 20
184.6092463505894
 30
0.0
 10
251.5105000991582
 20
182.7229857199268
 30
0.0
 10
251.5741044629141
 20
180.9028036634213
 30
0.0
 10
251.6250311406031
 20
177.2934289791931
 30
0.0
 10
251.6470415174664
 20
174.1153073697828
 30
0.0
 10
251.5951591205914
 20
171.5915921094027
 30
0.0
  0
SPLINE
  5
61
330
1F
100
AcDbEntity
  8
LINEE VISIBILI 2D
100
AcDbSpline
210
0.0
220
0.0
230
1.0
 70
     8
 71
     3
 72
    24
 73
    20
 74
     0
 42
0.0000000001
 43
0.0000000001
 40
0.0
 40
0.0
 40
0.0
 40
0.0
 40
9.45816847179669
 40
11.26313868614111
 40
12.93537623618843
 40
17.23338567897977
 40
21.03543638781357
 40
24.8404096743182
 40
29.23400545611145
 40
34.14770682183126
 40
43.19503838337694
 40
47.03998803978794
 40
50.66099354712362
 40
53.7888605308655
 40
57.93795521756904
 40
62.55207261885472
 40
66.97318968920345
 40
68.89848002480328
 40
73.21179278797081
 40
73.21179278797081
 40
73.21179278797081
 40
73.21179278797081
 10
250.9952821868631
 20
171.5915918987814
 30
0.0
 10
251.0480715288269
 20
174.743766474319
 30
0.0
 10
251.0363118186614
 20
178.4989929383086
 30
0.0
 10
250.9132740818004
 20
182.8092590293155
 30
0.0
 10
250.5878158153316
 20
185.3843430187765
 30
0.0
 10
249.7867982344697
 20
188.5550118727474
 30
0.0
 10
247.9702726158673
 20
192.1254528133449
 30
0.0
 10
245.1285973577905
 20
195.0079433545446
 30
0.0
 10
241.2930221749341
 20
197.1629334672166
 30
0.0
 10
235.5454263620045
 20
199.2848619045396
 30
0.0
 10
229.7232270749195
 20
200.5220640100678
 30
0.0
 10
224.4796688053266
 20
202.1990145373386
 30
0.0
 10
221.2401136768729
 20
203.6328408341397
 30
0.0
 10
218.2710263591605
 20
205.7700322909592
 30
0.0
 10
215.790329016389
 20
208.9225179130028
 30
0.0
 10
214.178154001166
 20
213.0482645197247
 30
0.0
 10
213.4788599394868
 20
216.6463481285164
 30
0.0
 10
213.3457800399909
 20
220.2005454190817
 30
0.0
 10
213.3665920909122
 20
222.2802643918329
 30
0.0
 10
213.3675456435689
 20
223.7179747417576
 30
0.0
  0
SPLINE
  5
62
330
1F
100
AcDbEntity
  8
LINEE VISIBILI 2D
100
AcDbSpline
210
0.0
220
0.0
230
1.0
 70
    24
 71
     2
 72
     6
 73
     3
 74
     0
 42
0.0000000001
 43
0.0000000001
 40
0.0
 40
0.0
 40
0.0
 40
51.00000723708254
 40
51.00000723708254
 40
51.00000723708254
 10
260.081470979271
 20
222.5916023260907
 30
0.0
 10
260.081470979271
 20
197.0915987075495
 30
0.0
 10
260.081470979271
 20
171.5915950890082
 30
0.0
  0
SPLINE
  5
63
330
1F
100
AcDbEntity
  8
LINEE VISIBILI 2D
100
AcDbSpline
210
0.0
220
0.0
230
1.0
 70
    24
 71
     2
 72
     6
 73
     3
 74
     0
 42
0.0000000001
 43
0.0000000001
 40
0.0
 40
0.0
 40
0.0
 40
0.0999999999999943
 40
0.0999999999999943
 40
0.0999999999999943
 10
260.081470979271
 20
171.4915954761145
 30
0.0
 10
260.081470979271
 20
171.4415954761145
 30
0.0
 10
260.081470979271
 20
171.3915954761145
 30
0.0
  0
SPLINE
  5
64
330
1F
100
AcDbEntity
  8
LINEE VISIBILI 2D
100
AcDbSpline
210
0.0
220
0.0
230
1.0
 70
    24
 71
     2
 72
     6
 73
     3
 74
     0
 42
0.0000000001
 43
0.0000000001
 40
0.0
 40
0.0
 40
0.0
 40
0.0999999999999943
 40
0.0999999999999943
 40
0.0999999999999943
 10
260.001470979271
 20
171.3915954761145
 30
0.0
 10
260.001470979271
 20
171.4415954761145
 30
0.0
 10
260.001470979271
 20
171.4915954761145
 30
0.0
  0
SPLINE
  5
65
330
1F
100
AcDbEntity
  8
LINEE VISIBILI 2D
100
AcDbSpline
210
0.0
220
0.0
230
1.0
 70
    24
 71
     2
 72
     6
 73
     3
 74
     0
 42
0.0000000001
 43
0.0000000001
 40
0.0
 40
0.0
 40
0.0
 40
51.00000726517109
 40
51.00000726517109
 40
51.00000726517109
 10
260.001470979271
 20
171.5915950609196
 30
0.0
 10
260.001470979271
 20
197.0915986935051
 30
0.0
 10
260.001470979271
 20
222.5916023260907
 30
0.0
  0
SPLINE
  5
66
330
1F
100
AcDbEntity
  8
LINEE VISIBILI 2D
100
AcDbSpline
210
0.0
220
0.0
230
1.0
 70
    24
 71
     2
 72
     6
 73
     3
 74
     0
 42
0.0000000001
 43
0.0000000001
 40
0.0
 40
0.0
 40
0.0
 40
51.00004125937392
 40
51.00004125937392
 40
51.00004125937392
 10
163.1814722593348
 20
222.5916023260907
 30
0.0
 10
163.1814722593348
 20
197.0915816964038
 30
0.0
 10
163.1814722593348
 20
171.5915610667168
 30
0.0
  0
SPLINE
  5
67
330
1F
100
AcDbEntity
  8
LINEE VISIBILI 2D
100
AcDbSpline
210
0.0
220
0.0
230
1.0
 70
    24
 71
     2
 72
     6
 73
     3
 74
     0
 42
0.0000000001
 43
0.0000000001
 40
0.0
 40
0.0
 40
0.0
 40
0.0999999999999943
 40
0.0999999999999943
 40
0.0999999999999943
 10
163.1814722593348
 20
171.4915954761145
 30
0.0
 10
163.1814722593348
 20
171.4415954761145
 30
0.0
 10
163.1814722593348
 20
171.3915954761145
 30
0.0
  0
SPLINE
  5
68
330
1F
100
AcDbEntity
  8
LINEE VISIBILI 2D
100
AcDbSpline
210
0.0
220
0.0
230
1.0
 70
    24
 71
     2
 72
     6
 73
     3
 74
     0
 42
0.0000000001
 43
0.0000000001
 40
0.0
 40
0.0
 40
0.0
 40
0.0999999999999943
 40
0.0999999999999943
 40
0.0999999999999943
 10
163.1014722593348
 20
171.3915954761145
 30
0.0
 10
163.1014722593348
 20
171.4415954761145
 30
0.0
 10
163.1014722593348
 20
171.4915954761145
 30
0.0
  0
SPLINE
  5
69
330
1F
100
AcDbEntity
  8
LINEE VISIBILI 2D
100
AcDbSpline
210
0.0
220
0.0
230
1.0
 70
    24
 71
     2
 72
     6
 73
     3
 74
     0
 42
0.0000000001
 43
0.0000000001
 40
0.0
 40
0.0
 40
0.0
 40
51.00004128746255
 40
51.00004128746255
 40
51.00004128746255
 10
163.1014722593348
 20
171.5915610386282
 30
0.0
 10
163.1014722593348
 20
197.0915816823594
 30
0.0
 10
163.1014722593348
 20
222.5916023260907
 30
0.0
  0
POLYLINE
  5
6B
330
1F
100
AcDbEntity
  8
PREDEFINITO
100
AcDb2dPolyline
 66
     1
 10
0.0
 20
0.0
 30
0.0
  0
VERTEX
  5
6D
330
6B
100
AcDbEntity
  8
PREDEFINITO
100
AcDbVertex
100
AcDb2dVertex
 10
161.8914704761145
 20
171.4915954761145
 30
0.0
  0
VERTEX
  5
6E
330
6B
100
AcDbEntity
  8
PREDEFINITO
100
AcDbVertex
100
AcDb2dVertex
 10
161.8914704761145
 20
171.3915954761145
 30
0.0
  0
SEQEND
  5
6C
330
6B
100
AcDbEntity
  8
PREDEFINITO
  0
SPLINE
  5
6F
330
1F
100
AcDbEntity
  8
LINEE VISIBILI 2D
100
AcDbSpline
210
0.0
220
0.0
230
1.0
 70
    24
 71
     2
 72
     6
 73
     3
 74
     0
 42
0.0000000001
 43
0.0000000001
 40
0.0
 40
0.0
 40
0.0
 40
1.0
 40
1.0
 40
1.0
 10
163.4414750059169
 20
223.5916023260907
 30
0.0
 10
163.4414749102615
 20
223.0916023260907
 30
0.0
 10
163.4414748146062
 20
222.5916023260907
 30
0.0
  0
SPLINE
  5
70
330
1F
100
AcDbEntity
  8
LINEE VISIBILI 2D
100
AcDbSpline
210
0.0
220
0.0
230
1.0
 70
    24
 71
     2
 72
     6
 73
     3
 74
     0
 42
0.0000000001
 43
0.0000000001
 40
0.0
 40
0.0
 40
0.0
 40
0.299999617378603
 40
0.299999617378603
 40
0.299999617378603
 10
163.4414748146062
 20
222.5916023260907
 30
0.0
 10
163.291474223616
 20
222.5916023260907
 30
0.0
 10
163.1414736326258
 20
222.5916023260907
 30
0.0
  0
SPLINE
  5
71
330
1F
100
AcDbEntity
  8
LINEE VISIBILI 2D
100
AcDbSpline
210
0.0
220
0.0
230
1.0
 70
    24
 71
     2
 72
     6
 73
     3
 74
     0
 42
0.0000000001
 43
0.0000000001
 40
0.0
 40
0.0
 40
0.0
 40
0.2999972534180131
 40
0.2999972534180131
 40
0.2999972534180131
 10
163.1414736326258
 20
222.5916023260907
 30
0.0
 10
162.9914743192713
 20
222.5916023260907
 30
0.0
 10
162.8414750059168
 20
222.5916023260907
 30
0.0
  0
SPLINE
  5
72
330
1F
100
AcDbEntity
  8
LINEE VISIBILI 2D
100
AcDbSpline
210
0.0
220
0.0
230
1.0
 70
    24
 71
     2
 72
     6
 73
     3
 74
     0
 42
0.0000000001
 43
0.0000000001
 40
0.0
 40
0.0
 40
0.0
 40
1.0
 40
1.0
 40
1.0
 10
162.8414750059168
 20
222.5916023260907
 30
0.0
 10
162.8414750059168
 20
223.0916023260907
 30
0.0
 10
162.8414750059168
 20
223.5916023260907
 30
0.0
  0
SPLINE
  5
73
330
1F
100
AcDbEntity
  8
LINEE VISIBILI 2D
100
AcDbSpline
210
0.0
220
0.0
230
1.0
 70
    24
 71
     2
 72
     6
 73
     3
 74
     0
 42
0.0000000001
 43
0.0000000001
 40
0.0
 40
0.0
 40
0.0
 40
1.0
 40
1.0
 40
1.0
 10
260.341473725853
 20
223.5916023260907
 30
0.0
 10
260.341473725853
 20
223.0916023260907
 30
0.0
 10
260.341473725853
 20
222.5916023260907
 30
0.0
  0
SPLINE
  5
74
330
1F
100
AcDbEntity
  8
LINEE VISIBILI 2D
100
AcDbSpline
210
0.0
220
0.0
230
1.0
 70
    24
 71
     2
 72
     6
 73
     3
 74
     0
 42
0.0000000001
 43
0.0000000001
 40
0.0
 40
0.0
 40
0.0
 40
0.3000000000000114
 40
0.3000000000000114
 40
0.3000000000000114
 10
260.341473725853
 20
222.5916023260907
 30
0.0
 10
260.1914731804471
 20
222.5916023260907
 30
0.0
 10
260.0414726350411
 20
222.5916023260907
 30
0.0
  0
SPLINE
  5
75
330
1F
100
AcDbEntity
  8
LINEE VISIBILI 2D
100
AcDbSpline
210
0.0
220
0.0
230
1.0
 70
    24
 71
     2
 72
     6
 73
     3
 74
     0
 42
0.0000000001
 43
0.0000000001
 40
0.0
 40
0.0
 40
0.0
 40
0.2999978183762551
 40
0.2999978183762551
 40
0.2999978183762551
 10
260.0414726350411
 20
222.5916023260907
 30
0.0
 10
259.8914731804471
 20
222.5916023260907
 30
0.0
 10
259.741473725853
 20
222.5916023260907
 30
0.0
  0
SPLINE
  5
76
330
1F
100
AcDbEntity
  8
LINEE VISIBILI 2D
100
AcDbSpline
210
0.0
220
0.0
230
1.0
 70
    24
 71
     2
 72
     6
 73
     3
 74
     0
 42
0.0000000001
 43
0.0000000001
 40
0.0
 40
0.0
 40
0.0
 40
1.0
 40
1.0
 40
1.0
 10
259.741473725853
 20
222.5916023260907
 30
0.0
 10
259.741473725853
 20
223.0916023260907
 30
0.0
 10
259.741473725853
 20
223.5916023260907
 30
0.0
  0
SPLINE
  5
77
330
1F
100
AcDbEntity
  8
PREDEFINITO
100
AcDbSpline
210
0.0
220
0.0
230
1.0
 70
    12
 71
     2
 72
     6
 73
     3
 74
     0
 42
0.0000000001
 43
0.0000000001
 40
-0.1534792867572495
 40
-0.1534792867572495
 40
-0.1534792867572495
 40
0.0
 40
0.0
 40
0.0
 10
261.2839930910482
 20
171.4915954761145
 30
0.0
 41
1.0
 10
261.275693528885
 20
171.5832884049683
 30
0.0
 41
0.7679970527444447
 10
261.1840012800149
 20
171.5915954761145
 30
0.0
 41
1.0
  0
SPLINE
  5
78
330
1F
100
AcDbEntity
  8
PREDEFINITO
100
AcDbSpline
210
0.0
220
0.0
230
1.0
 70
    24
 71
     2
 72
     6
 73
     3
 74
     0
 42
0.0000000001
 43
0.0000000001
 40
0.0
 40
0.0
 40
0.0
 40
99.19626458528624
 40
99.19626458528624
 40
99.19626458528624
 10
261.1840012800149
 20
171.5915954761145
 30
0.0
 10
211.5858689873748
 20
171.591578061851
 30
0.0
 10
161.9877366947347
 20
171.5915606475876
 30
0.0
  0
SPLINE
  5
79
330
1F
100
AcDbEntity
  8
PREDEFINITO
100
AcDbSpline
210
0.0
220
0.0
230
1.0
 70
    12
 71
     2
 72
     6
 73
     3
 74
     0
 42
0.0000000001
 43
0.0000000001
 40
-0.1530509425214031
 40
-0.1530509425214031
 40
-0.1530509425214031
 40
0.0
 40
0.0
 40
0.0
 10
161.9877366947347
 20
171.5915606475876
 30
0.0
 41
1.0
 10
161.8922126060403
 20
171.5872154605051
 30
0.0
 41
0.7256695196621632
 10
161.8914704761145
 20
171.4915954761145
 30
0.0
 41
1.0
  0
SPLINE
  5
7A
330
1F
100
AcDbEntity
  8
PREDEFINITO
100
AcDbSpline
210
0.0
220
0.0
230
1.0
 70
    24
 71
     2
 72
     6
 73
     3
 74
     0
 42
0.0000000001
 43
0.0000000001
 40
0.0
 40
0.0
 40
0.0
 40
99.39252261493377
 40
99.39252261493377
 40
99.39252261493377
 10
161.8914704761145
 20
171.4915954761145
 30
0.0
 10
211.5877317835814
 20
171.4915954761145
 30
0.0
 10
261.2839930910483
 20
171.4915954761145
 30
0.0
  0
POLYLINE
  5
7B
330
1F
100
AcDbEntity
  8
PREDEFINITO
100
AcDb2dPolyline
 66
     1
 10
0.0
 20
0.0
 30
0.0
  0
VERTEX
  5
7D
330
7B
100
AcDbEntity
  8
PREDEFINITO
100
AcDbVertex
100
AcDb2dVertex
 10
261.2839930910483
 20
171.4915954761145
 30
0.0
  0
VERTEX
  5
7E
330
7B
100
AcDbEntity
  8
PREDEFINITO
100
AcDbVertex
100
AcDb2dVertex
 10
261.2839930910483
 20
171.3915954761145
 30
0.0
  0
SEQEND
  5
7C
330
7B
100
AcDbEntity
  8
PREDEFINITO
  0
SPLINE
  5
7F
330
1F
100
AcDbEntity
  8
LINEE VISIBILI 2D
100
AcDbSpline
210
0.0
220
0.0
230
1.0
 70
    24
 71
     2
 72
     6
 73
     3
 74
     0
 42
0.0000000001
 43
0.0000000001
 40
0.0
 40
0.0
 40
0.0
 40
0.2000000000000171
 40
0.2000000000000171
 40
0.2000000000000171
 10
163.9414748146062
 20
226.6916023260907
 30
0.0
 10
163.9414749102615
 20
226.5916023260907
 30
0.0
 10
163.9414750059169
 20
226.4916023260907
 30
0.0
  0
SPLINE
  5
80
330
1F
100
AcDbEntity
  8
LINEE VISIBILI 2D
100
AcDbSpline
210
0.0
220
0.0
230
1.0
 70
    24
 71
     2
 72
     6
 73
     3
 74
     0
 42
0.0000000001
 43
0.0000000001
 40
0.0
 40
0.0
 40
0.0
 40
1.600000000000108
 40
1.600000000000108
 40
1.600000000000108
 10
163.9414750059169
 20
226.4916023260907
 30
0.0
 10
163.1414750059168
 20
226.4916023260907
 30
0.0
 10
162.3414750059168
 20
226.4916023260907
 30
0.0
  0
SPLINE
  5
81
330
1F
100
AcDbEntity
  8
LINEE VISIBILI 2D
100
AcDbSpline
210
0.0
220
0.0
230
1.0
 70
    24
 71
     2
 72
     6
 73
     3
 74
     0
 42
0.0000000001
 43
0.0000000001
 40
0.0
 40
0.0
 40
0.0
 40
0.2000000000000171
 40
0.2000000000000171
 40
0.2000000000000171
 10
162.3414750059168
 20
226.4916023260907
 30
0.0
 10
162.3414750059168
 20
226.5916023260907
 30
0.0
 10
162.3414750059168
 20
226.6916023260907
 30
0.0
  0
SPLINE
  5
82
330
1F
100
AcDbEntity
  8
LINEE VISIBILI 2D
100
AcDbSpline
210
0.0
220
0.0
230
1.0
 70
    24
 71
     2
 72
     6
 73
     3
 74
     0
 42
0.0000000001
 43
0.0000000001
 40
0.0
 40
0.0
 40
0.0
 40
0.7999996172625572
 40
0.7999996172625572
 40
0.7999996172625572
 10
162.3414750059168
 20
226.6916023260907
 30
0.0
 10
162.7414748145481
 20
226.6916023260907
 30
0.0
 10
163.1414746231794
 20
226.6916023260907
 30
0.0
  0
SPLINE
  5
83
330
1F
100
AcDbEntity
  8
LINEE VISIBILI 2D
100
AcDbSpline
210
0.0
220
0.0
230
1.0
 70
    24
 71
     2
 72
     6
 73
     3
 74
     0
 42
0.0000000001
 43
0.0000000001
 40
0.0
 40
0.0
 40
0.0
 40
0.7999996173786599
 40
0.7999996173786599
 40
0.7999996173786599
 10
163.1414750059168
 20
226.6916023260907
 30
0.0
 10
163.5414749102615
 20
226.6916023260907
 30
0.0
 10
163.9414748146062
 20
226.6916023260907
 30
0.0
  0
SPLINE
  5
84
330
1F
100
AcDbEntity
  8
LINEE VISIBILI 2D
100
AcDbSpline
210
0.0
220
0.0
230
1.0
 70
    12
 71
     2
 72
     6
 73
     3
 74
     0
 42
0.0000000001
 43
0.0000000001
 40
0.0
 40
0.0
 40
0.0
 40
7.500000556370584
 40
7.500000556370584
 40
7.500000556370584
 10
213.2214699201411
 20
226.6915437740975
 30
0.0
 41
1.0
 10
216.9714701983227
 20
226.6915501130943
 30
0.0
 41
0.9999999999993482
 10
220.72147047648
 20
226.6915650153299
 30
0.0
 41
1.0
  0
SPLINE
  5
85
330
1F
100
AcDbEntity
  8
LINEE VISIBILI 2D
100
AcDbSpline
210
0.0
220
0.0
230
1.0
 70
    24
 71
     2
 72
     6
 73
     3
 74
     0
 42
0.0000000001
 43
0.0000000001
 40
-4.384995411333716
 40
-4.384995411333716
 40
-4.384995411333716
 40
0.0
 40
0.0
 40
0.0
 10
220.72147047648
 20
226.6915650153299
 30
0.0
 10
219.1075453920211
 20
225.2047723785683
 30
0.0
 10
217.4936203075622
 20
223.7179797418066
 30
0.0
  0
SPLINE
  5
86
330
1F
100
AcDbEntity
  8
LINEE VISIBILI 2D
100
AcDbSpline
210
0.0
220
0.0
230
1.0
 70
    12
 71
     2
 72
     6
 73
     3
 74
     0
 42
0.0000000001
 43
0.0000000001
 40
0.0
 40
0.0
 40
0.0
 40
4.272149878593929
 40
4.272149878593929
 40
4.272149878593929
 10
217.4936203075622
 20
223.7179797418066
 30
0.0
 41
1.0
 10
215.3575453688895
 20
223.7180770397066
 30
0.0
 41
0.999999998882305
 10
213.2214704305663
 20
223.7179723507326
 30
0.0
 41
1.0
  0
SPLINE
  5
87
330
1F
100
AcDbEntity
  8
LINEE VISIBILI 2D
100
AcDbSpline
210
0.0
220
0.0
230
1.0
 70
    24
 71
     2
 72
     6
 73
     3
 74
     0
 42
0.0000000001
 43
0.0000000001
 40
0.0
 40
0.0
 40
0.0
 40
4.277294030166063
 40
4.277294030166063
 40
4.277294030166063
 10
213.2214704305663
 20
223.7179723507326
 30
0.0
 10
211.0828234157698
 20
223.7179373444452
 30
0.0
 10
208.9441764009732
 20
223.7179023381578
 30
0.0
  0
SPLINE
  5
88
330
1F
100
AcDbEntity
  8
LINEE VISIBILI 2D
100
AcDbSpline
210
0.0
220
0.0
230
1.0
 70
    24
 71
     2
 72
     6
 73
     3
 74
     0
 42
0.0000000001
 43
0.0000000001
 40
-4.385024053989165
 40
-4.385024053989165
 40
-4.385024053989165
 40
0.0
 40
0.0
 40
0.0
 10
208.9441764009732
 20
223.7179023381578
 30
0.0
 10
207.3328234383631
 20
225.20472802343
 30
0.0
 10
205.7214704757531
 20
226.6915537087022
 30
0.0
  0
SPLINE
  5
89
330
1F
100
AcDbEntity
  8
LINEE VISIBILI 2D
100
AcDbSpline
210
0.0
220
0.0
230
1.0
 70
    12
 71
     2
 72
     6
 73
     3
 74
     0
 42
0.0000000001
 43
0.0000000001
 40
0.0
 40
0.0
 40
0.0
 40
7.499999444458968
 40
7.499999444458968
 40
7.499999444458968
 10
205.7214704757531
 20
226.6915537087022
 30
0.0
 41
1.0
 10
209.4714701979115
 20
226.691521846934
 30
0.0
 41
0.9999999999742823
 10
213.2214699201411
 20
226.6915437740975
 30
0.0
 41
1.0
  0
SPLINE
  5
8A
330
1F
100
AcDbEntity
  8
LINEE VISIBILI 2D
100
AcDbSpline
210
0.0
220
0.0
230
1.0
 70
    24
 71
     2
 72
     6
 73
     3
 74
     0
 42
0.0000000001
 43
0.0000000001
 40
-99.89974999999998
 40
-99.89974999999998
 40
-99.89974999999998
 40
0.0
 40
0.0
 40
0.0
 10
161.6415954761145
 20
171.3915954761145
 30
0.0
 10
211.5914704761145
 20
171.3915954761145
 30
0.0
 10
261.5413454761145
 20
171.3915954761145
 30
0.0
  0
SPLINE
  5
8B
330
1F
100
AcDbEntity
  8
LINEE VISIBILI 2D
100
AcDbSpline
210
0.0
220
0.0
230
1.0
 70
    24
 71
     2
 72
     6
 73
     3
 74
     0
 42
0.0000000001
 43
0.0000000001
 40
0.0
 40
0.0
 40
0.0
 40
9.750000000089031
 40
9.750000000089031
 40
9.750000000089031
 10
261.5413454761145
 20
171.3915954761145
 30
0.0
 10
261.5413246427812
 20
166.5165954761145
 30
0.0
 10
261.5413038094479
 20
161.6415954761145
 30
0.0
  0
SPLINE
  5
8C
330
1F
100
AcDbEntity
  8
LINEE VISIBILI 2D
100
AcDbSpline
210
0.0
220
0.0
230
1.0
 70
    24
 71
     2
 72
     6
 73
     3
 74
     0
 42
0.0000000001
 43
0.0000000001
 40
0.0
 40
0.0
 40
0.0
 40
99.89966666666669
 40
99.89966666666669
 40
99.89966666666669
 10
261.5413038094479
 20
161.6415954761145
 30
0.0
 10
211.5914704761145
 20
161.6415954761145
 30
0.0
 10
161.6416371427812
 20
161.6415954761145
 30
0.0
  0
SPLINE
  5
8D
330
1F
100
AcDbEntity
  8
LINEE VISIBILI 2D
100
AcDbSpline
210
0.0
220
0.0
230
1.0
 70
    24
 71
     2
 72
     6
 73
     3
 74
     0
 42
0.0000000001
 43
0.0000000001
 40
0.0
 40
0.0
 40
0.0
 40
9.750000000089031
 40
9.750000000089031
 40
9.750000000089031
 10
161.6416371427812
 20
161.6415954761145
 30
0.0
 10
161.6416163094478
 20
166.5165954761145
 30
0.0
 10
161.6415954761145
 20
171.3915954761145
 30
0.0
  0
SPLINE
  5
8E
330
1F
100
AcDbEntity
  8
LINEE VISIBILI 2D
100
AcDbSpline
210
0.0
220
0.0
230
1.0
 70
    24
 71
     2
 72
     6
 73
     3
 74
     0
 42
0.0000000001
 43
0.0000000001
 40
0.0
 40
0.0
 40
0.0
 40
2.900000093896125
 40
2.900000093896125
 40
2.900000093896125
 10
259.441473725853
 20
226.4916024199868
 30
0.0
 10
259.441473725853
 20
225.0416023730388
 30
0.0
 10
259.441473725853
 20
223.5916023260907
 30
0.0
  0
SPLINE
  5
8F
330
1F
100
AcDbEntity
  8
LINEE VISIBILI 2D
100
AcDbSpline
210
0.0
220
0.0
230
1.0
 70
    24
 71
     2
 72
     6
 73
     3
 74
     0
 42
0.0000000001
 43
0.0000000001
 40
0.0
 40
0.0
 40
0.0
 40
1.199999999999989
 40
1.199999999999989
 40
1.199999999999989
 10
259.441473725853
 20
223.5916023260907
 30
0.0
 10
260.0414737258531
 20
223.5916023260907
 30
0.0
 10
260.641473725853
 20
223.5916023260907
 30
0.0
  0
SPLINE
  5
90
330
1F
100
AcDbEntity
  8
LINEE VISIBILI 2D
100
AcDbSpline
210
0.0
220
0.0
230
1.0
 70
    24
 71
     2
 72
     6
 73
     3
 74
     0
 42
0.0000000001
 43
0.0000000001
 40
0.0
 40
0.0
 40
0.0
 40
2.90000006357829
 40
2.90000006357829
 40
2.90000006357829
 10
260.641473725853
 20
223.5916023260907
 30
0.0
 10
260.641473725853
 20
225.0416023578799
 30
0.0
 10
260.641473725853
 20
226.491602389669
 30
0.0
  0
SPLINE
  5
91
330
1F
100
AcDbEntity
  8
LINEE VISIBILI 2D
100
AcDbSpline
210
0.0
220
0.0
230
1.0
 70
    24
 71
     2
 72
     6
 73
     3
 74
     0
 42
0.0000000001
 43
0.0000000001
 40
0.0
 40
0.0
 40
0.0
 40
0.2000000000000171
 40
0.2000000000000171
 40
0.2000000000000171
 10
260.841473725853
 20
226.6916023260907
 30
0.0
 10
260.841473725853
 20
226.5916023260907
 30
0.0
 10
260.841473725853
 20
226.4916023260907
 30
0.0
  0
SPLINE
  5
92
330
1F
100
AcDbEntity
  8
LINEE VISIBILI 2D
100
AcDbSpline
210
0.0
220
0.0
230
1.0
 70
    24
 71
     2
 72
     6
 73
     3
 74
     0
 42
0.0000000001
 43
0.0000000001
 40
0.0
 40
0.0
 40
0.0
 40
1.600000000000023
 40
1.600000000000023
 40
1.600000000000023
 10
260.841473725853
 20
226.4916023260907
 30
0.0
 10
260.041473725853
 20
226.4916023260907
 30
0.0
 10
259.241473725853
 20
226.4916023260907
 30
0.0
  0
SPLINE
  5
93
330
1F
100
AcDbEntity
  8
LINEE VISIBILI 2D
100
AcDbSpline
210
0.0
220
0.0
230
1.0
 70
    24
 71
     2
 72
     6
 73
     3
 74
     0
 42
0.0000000001
 43
0.0000000001
 40
0.0
 40
0.0
 40
0.0
 40
0.2000000000000171
 40
0.2000000000000171
 40
0.2000000000000171
 10
259.241473725853
 20
226.4916023260907
 30
0.0
 10
259.241473725853
 20
226.5916023260907
 30
0.0
 10
259.241473725853
 20
226.6916023260907
 30
0.0
  0
SPLINE
  5
94
330
1F
100
AcDbEntity
  8
LINEE VISIBILI 2D
100
AcDbSpline
210
0.0
220
0.0
230
1.0
 70
    24
 71
     2
 72
     6
 73
     3
 74
     0
 42
0.0000000001
 43
0.0000000001
 40
0.0
 40
0.0
 40
0.0
 40
0.8000000000000114
 40
0.8000000000000114
 40
0.8000000000000114
 10
259.241473725853
 20
226.6916023260907
 30
0.0
 10
259.641473725853
 20
226.6916023260907
 30
0.0
 10
260.041473725853
 20
226.6916023260907
 30
0.0
  0
SPLINE
  5
95
330
1F
100
AcDbEntity
  8
LINEE VISIBILI 2D
100
AcDbSpline
210
0.0
220
0.0
230
1.0
 70
    24
 71
     2
 72
     6
 73
     3
 74
     0
 42
0.0000000001
 43
0.0000000001
 40
0.0
 40
0.0
 40
0.0
 40
0.8000000000000114
 40
0.8000000000000114
 40
0.8000000000000114
 10
260.041473725853
 20
226.6916023260907
 30
0.0
 10
260.441473725853
 20
226.6916023260907
 30
0.0
 10
260.841473725853
 20
226.6916023260907
 30
0.0
  0
SPLINE
  5
96
330
1F
100
AcDbEntity
  8
LINEE VISIBILI 2D
100
AcDbSpline
210
0.0
220
0.0
230
1.0
 70
    24
 71
     2
 72
     6
 73
     3
 74
     0
 42
0.0000000001
 43
0.0000000001
 40
0.0
 40
0.0
 40
0.0
 40
2.900000093896125
 40
2.900000093896125
 40
2.900000093896125
 10
162.5414750059168
 20
226.4916024199868
 30
0.0
 10
162.5414750059168
 20
225.0416023730388
 30
0.0
 10
162.5414750059168
 20
223.5916023260907
 30
0.0
  0
SPLINE
  5
97
330
1F
100
AcDbEntity
  8
LINEE VISIBILI 2D
100
AcDbSpline
210
0.0
220
0.0
230
1.0
 70
    24
 71
     2
 72
     6
 73
     3
 74
     0
 42
0.0000000001
 43
0.0000000001
 40
0.0
 40
0.0
 40
0.0
 40
1.200000000000017
 40
1.200000000000017
 40
1.200000000000017
 10
162.5414750059168
 20
223.5916023260907
 30
0.0
 10
163.1414750059168
 20
223.5916023260907
 30
0.0
 10
163.7414750059168
 20
223.5916023260907
 30
0.0
  0
SPLINE
  5
98
330
1F
100
AcDbEntity
  8
LINEE VISIBILI 2D
100
AcDbSpline
210
0.0
220
0.0
230
1.0
 70
    24
 71
     2
 72
     6
 73
     3
 74
     0
 42
0.0000000001
 43
0.0000000001
 40
0.0
 40
0.0
 40
0.0
 40
2.90000006357829
 40
2.90000006357829
 40
2.90000006357829
 10
163.7414750059168
 20
223.5916023260907
 30
0.0
 10
163.7414750059168
 20
225.0416023578799
 30
0.0
 10
163.7414750059168
 20
226.491602389669
 30
0.0
  0
SPLINE
  5
99
330
1F
100
AcDbEntity
  8
LINEE VISIBILI 2D
100
AcDbSpline
210
0.0
220
0.0
230
1.0
 70
    24
 71
     2
 72
     6
 73
     3
 74
     0
 42
0.0000000001
 43
0.0000000001
 40
0.0
 40
0.0
 40
0.0
 40
84.93380703085641
 40
84.93380703085641
 40
84.93380703085641
 10
260.6413276165088
 20
92.42068347121024
 30
0.0
 10
260.6379490131618
 20
49.95378009018035
 30
0.0
 10
260.6345704098148
 20
7.486876709150458
 30
0.0
  0
SPLINE
  5
9A
330
1F
100
AcDbEntity
  8
LINEE VISIBILI 2D
100
AcDbSpline
210
0.0
220
0.0
230
1.0
 70
    24
 71
     2
 72
     6
 73
     3
 74
     0
 42
0.0000000001
 43
0.0000000001
 40
0.0
 40
0.0
 40
0.0
 40
84.94982993255323
 40
84.94982993255323
 40
84.94982993255323
 10
259.4412997007443
 20
92.4210477510603
 30
0.0
 10
259.4379349132417
 20
49.94613291805994
 30
0.0
 10
259.4345701257392
 20
7.471218085059579
 30
0.0
  0
SPLINE
  5
9B
330
1F
100
AcDbEntity
  8
LINEE VISIBILI 2D
100
AcDbSpline
210
0.0
220
0.0
230
1.0
 70
    24
 71
     2
 72
     6
 73
     3
 74
     0
 42
0.0000000001
 43
0.0000000001
 40
0.0
 40
0.0
 40
0.0
 40
84.94170906424542
 40
84.94170906424542
 40
84.94170906424542
 10
162.5414704761145
 20
7.479145376039293
 30
0.0
 10
162.5414704761145
 20
49.94999990816201
 30
0.0
 10
162.5414704761145
 20
92.42085444028471
 30
0.0
  0
SPLINE
  5
9C
330
1F
100
AcDbEntity
  8
LINEE VISIBILI 2D
100
AcDbSpline
210
0.0
220
0.0
230
1.0
 70
    24
 71
     2
 72
     6
 73
     3
 74
     0
 42
0.0000000001
 43
0.0000000001
 40
0.0
 40
0.0
 40
0.0
 40
84.9477141109396
 40
84.9477141109396
 40
84.9477141109396
 10
163.7414704761145
 20
7.47313092442266
 30
0.0
 10
163.7414704761145
 20
49.94698797989246
 30
0.0
 10
163.7414704761145
 20
92.42084503536226
 30
0.0
  0
SPLINE
  5
9D
330
1F
100
AcDbEntity
  8
LINEE VISIBILI 2D
100
AcDbSpline
210
0.0
220
0.0
230
1.0
 70
    24
 71
     2
 72
     6
 73
     3
 74
     0
 42
0.0000000001
 43
0.0000000001
 40
0.0
 40
0.0
 40
0.0
 40
99.89966666666675
 40
99.89966666666675
 40
99.89966666666675
 10
161.6416371427812
 20
99.9
 30
0.0
 10
211.5914808927812
 20
99.9
 30
0.0
 10
261.5413246427812
 20
99.9
 30
0.0
  0
SPLINE
  5
9E
330
1F
100
AcDbEntity
  8
LINEE VISIBILI 2D
100
AcDbSpline
210
0.0
220
0.0
230
1.0
 70
    24
 71
     2
 72
     6
 73
     3
 74
     0
 42
0.0000000001
 43
0.0000000001
 40
0.0
 40
0.0
 40
0.0
 40
99.9
 40
99.9
 40
99.9
 10
261.5413246427812
 20
99.9
 30
0.0
 10
261.5413246427812
 20
49.95
 30
0.0
 10
261.5413246427812
 20
0.0
 30
0.0
  0
SPLINE
  5
9F
330
1F
100
AcDbEntity
  8
LINEE VISIBILI 2D
100
AcDbSpline
210
0.0
220
0.0
230
1.0
 70
    24
 71
     2
 72
     6
 73
     3
 74
     0
 42
0.0000000001
 43
0.0000000001
 40
0.0
 40
0.0
 40
0.0
 40
99.89966666666669
 40
99.89966666666669
 40
99.89966666666669
 10
261.5413246427812
 20
0.0
 30
0.0
 10
211.5914704761145
 20
0.0
 30
0.0
 10
161.6416163094478
 20
0.0
 30
0.0
  0
SPLINE
  5
A0
330
1F
100
AcDbEntity
  8
LINEE VISIBILI 2D
100
AcDbSpline
210
0.0
220
0.0
230
1.0
 70
    24
 71
     2
 72
     6
 73
     3
 74
     0
 42
0.0000000001
 43
0.0000000001
 40
0.0
 40
0.0
 40
0.0
 40
99.9
 40
99.9
 40
99.9
 10
161.6416163094478
 20
0.0
 30
0.0
 10
161.6416267261145
 20
49.95
 30
0.0
 10
161.6416371427812
 20
99.9
 30
0.0
  0
SPLINE
  5
A1
330
1F
100
AcDbEntity
  8
LINEE VISIBILI 2D
100
AcDbSpline
210
0.0
220
0.0
230
1.0
 70
    24
 71
     2
 72
     6
 73
     3
 74
     0
 42
0.0000000001
 43
0.0000000001
 40
0.0
 40
0.0
 40
0.0
 40
1.180095828002474
 40
1.180095828002474
 40
1.180095828002474
 10
218.1712422345532
 20
57.78192835626596
 30
0.0
 10
218.5586037556809
 20
58.22702114745325
 30
0.0
 10
218.9459652768085
 20
58.67211393864054
 30
0.0
  0
SPLINE
  5
A2
330
1F
100
AcDbEntity
  8
LINEE VISIBILI 2D
100
AcDbSpline
210
0.0
220
0.0
230
1.0
 70
    24
 71
     2
 72
     6
 73
     3
 74
     0
 42
0.0000000001
 43
0.0000000001
 40
0.0
 40
0.0
 40
0.0
 40
0.2648778979728641
 40
0.2648778979728641
 40
0.2648778979728641
 10
218.9459652768085
 20
58.67211393864054
 30
0.0
 10
219.0329103396309
 20
58.77201704799875
 30
0.0
 10
219.1198554024534
 20
58.87192015735697
 30
0.0
  0
SPLINE
  5
A3
330
1F
100
AcDbEntity
  8
LINEE VISIBILI 2D
100
AcDbSpline
210
0.0
220
0.0
230
1.0
 70
    24
 71
     2
 72
     6
 73
     3
 74
     0
 42
0.0000000001
 43
0.0000000001
 40
0.0
 40
0.0
 40
0.0
 40
0.3984872919295859
 40
0.3984872919295859
 40
0.3984872919295859
 10
219.1198554024534
 20
58.87192015735697
 30
0.0
 10
219.2506571907247
 20
59.02221627388155
 30
0.0
 10
219.381458978996
 20
59.17251239040614
 30
0.0
  0
SPLINE
  5
A4
330
1F
100
AcDbEntity
  8
LINEE VISIBILI 2D
100
AcDbSpline
210
0.0
220
0.0
230
1.0
 70
    24
 71
     2
 72
     6
 73
     3
 74
     0
 42
0.0000000001
 43
0.0000000001
 40
0.0
 40
0.0
 40
0.0
 40
0.2698627982288236
 40
0.2698627982288236
 40
0.2698627982288236
 10
219.381458978996
 20
59.17251239040614
 30
0.0
 10
219.4700403150259
 20
59.27429563742697
 30
0.0
 10
219.5586216510557
 20
59.37607888444781
 30
0.0
  0
SPLINE
  5
A5
330
1F
100
AcDbEntity
  8
LINEE VISIBILI 2D
100
AcDbSpline
210
0.0
220
0.0
230
1.0
 70
    24
 71
     2
 72
     6
 73
     3
 74
     0
 42
0.0000000001
 43
0.0000000001
 40
0.0
 40
0.0
 40
0.0
 40
0.4055301173161487
 40
0.4055301173161487
 40
0.4055301173161487
 10
219.5586216510557
 20
59.37607888444781
 30
0.0
 10
219.6917352202543
 20
59.52903131912819
 30
0.0
 10
219.8248487894529
 20
59.68198375380858
 30
0.0
  0
SPLINE
  5
A6
330
1F
100
AcDbEntity
  8
LINEE VISIBILI 2D
100
AcDbSpline
210
0.0
220
0.0
230
1.0
 70
    12
 71
     2
 72
     6
 73
     3
 74
     0
 42
0.0000000001
 43
0.0000000001
 40
0.0
 40
0.0
 40
0.0
 40
4.081344007576265
 40
4.081344007576265
 40
4.081344007576265
 10
219.8248487894529
 20
59.68198375380858
 30
0.0
 41
1.0
 10
221.1645329184444
 20
61.22133059062627
 30
0.0
 41
0.9999999999999994
 10
222.5042171339481
 20
62.76067734494917
 30
0.0
 41
1.0
  0
SPLINE
  5
A7
330
1F
100
AcDbEntity
  8
LINEE VISIBILI 2D
100
AcDbSpline
210
0.0
220
0.0
230
1.0
 70
    24
 71
     2
 72
     6
 73
     3
 74
     0
 42
0.0000000001
 43
0.0000000001
 40
0.0
 40
0.0
 40
0.0
 40
0.1435527060745913
 40
0.1435527060745913
 40
0.1435527060745913
 10
222.5042171339481
 20
62.76067734494917
 30
0.0
 10
222.5513377130953
 20
62.81482063472065
 30
0.0
 10
222.5984582922424
 20
62.86896392449214
 30
0.0
  0
SPLINE
  5
A8
330
1F
100
AcDbEntity
  8
LINEE VISIBILI 2D
100
AcDbSpline
210
0.0
220
0.0
230
1.0
 70
    24
 71
     2
 72
     6
 73
     3
 74
     0
 42
0.0000000001
 43
0.0000000001
 40
0.0
 40
0.0
 40
0.0
 40
0.5785007778752328
 40
0.5785007778752328
 40
0.5785007778752328
 10
222.5984582922424
 20
62.86896392449214
 30
0.0
 10
222.7883487713381
 20
63.08715510887225
 30
0.0
 10
222.9782392504337
 20
63.30534629325237
 30
0.0
  0
SPLINE
  5
A9
330
1F
100
AcDbEntity
  8
LINEE VISIBILI 2D
100
AcDbSpline
210
0.0
220
0.0
230
1.0
 70
    24
 71
     2
 72
     6
 73
     3
 74
     0
 42
0.0000000001
 43
0.0000000001
 40
0.0
 40
0.0
 40
0.0
 40
0.1443058704069105
 40
0.1443058704069105
 40
0.1443058704069105
 10
222.9782392504337
 20
63.30534629325237
 30
0.0
 10
223.0256070535371
 20
63.35977365044401
 30
0.0
 10
223.0729748566405
 20
63.41420100763565
 30
0.0
  0
SPLINE
  5
AA
330
1F
100
AcDbEntity
  8
LINEE VISIBILI 2D
100
AcDbSpline
210
0.0
220
0.0
230
1.0
 70
    24
 71
     2
 72
     6
 73
     3
 74
     0
 42
0.0000000001
 43
0.0000000001
 40
0.0
 40
0.0
 40
0.0
 40
2.040704665257628
 40
2.040704665257628
 40
2.040704665257628
 10
223.0729748566405
 20
63.41420100763565
 30
0.0
 10
223.7428277131308
 20
64.18388667874332
 30
0.0
 10
224.412680569621
 20
64.95357234985099
 30
0.0
  0
SPLINE
  5
AB
330
1F
100
AcDbEntity
  8
LINEE VISIBILI 2D
100
AcDbSpline
210
0.0
220
0.0
230
1.0
 70
    24
 71
     2
 72
     6
 73
     3
 74
     0
 42
0.0000000001
 43
0.0000000001
 40
0.0
 40
0.0
 40
0.0
 40
0.1456530858430049
 40
0.1456530858430049
 40
0.1456530858430049
 10
224.412680569621
 20
64.95357234985099
 30
0.0
 10
224.4604905927901
 20
65.0085078301203
 30
0.0
 10
224.5083006159592
 20
65.06344331038962
 30
0.0
  0
SPLINE
  5
AC
330
1F
100
AcDbEntity
  8
LINEE VISIBILI 2D
100
AcDbSpline
210
0.0
220
0.0
230
1.0
 70
    24
 71
     2
 72
     6
 73
     3
 74
     0
 42
0.0000000001
 43
0.0000000001
 40
0.0
 40
0.0
 40
0.0
 40
1.0272893110996
 40
1.0272893110996
 40
1.0272893110996
 10
224.5083006159592
 20
65.06344331038962
 30
0.0
 10
224.8455040877328
 20
65.45090253283976
 30
0.0
 10
225.1827075595064
 20
65.83836175528991
 30
0.0
  0
SPLINE
  5
AD
330
1F
100
AcDbEntity
  8
LINEE VISIBILI 2D
100
AcDbSpline
210
0.0
220
0.0
230
1.0
 70
    12
 71
     2
 72
     6
 73
     3
 74
     0
 42
0.0000000001
 43
0.0000000001
 40
0.0
 40
0.0
 40
0.0
 40
3.539838607248387
 40
3.539838607248387
 40
3.539838607248387
 10
225.1827075595064
 20
65.83836175528991
 30
0.0
 41
1.0
 10
226.3446449775168
 20
67.17347065171387
 30
0.0
 41
0.9999999999999997
 10
227.506582459672
 20
68.50857950175089
 30
0.0
 41
1.0
  0
SPLINE
  5
AE
330
1F
100
AcDbEntity
  8
LINEE VISIBILI 2D
100
AcDbSpline
210
0.0
220
0.0
230
1.0
 70
    24
 71
     2
 72
     6
 73
     3
 74
     0
 42
0.0000000001
 43
0.0000000001
 40
0.0
 40
0.0
 40
0.0
 40
2.520629487940357
 40
2.520629487940357
 40
2.520629487940357
 10
227.506582459672
 20
68.50857950175089
 30
0.0
 10
228.3339687587306
 20
69.45927671180455
 30
0.0
 10
229.1613550577892
 20
70.40997392185821
 30
0.0
  0
SPLINE
  5
AF
330
1F
100
AcDbEntity
  8
LINEE VISIBILI 2D
100
AcDbSpline
210
0.0
220
0.0
230
1.0
 70
    12
 71
     2
 72
     6
 73
     3
 74
     0
 42
0.0000000001
 43
0.0000000001
 40
0.0
 40
0.0
 40
0.0
 40
9.359239686666116
 40
9.359239686666116
 40
9.359239686666116
 10
229.1613550577892
 20
70.40997392185821
 30
0.0
 41
1.0
 10
232.2334871858432
 20
73.93996629355046
 30
0.0
 41
0.9999999999999999
 10
235.3056193834976
 20
77.4699585816244
 30
0.0
 41
1.0
  0
SPLINE
  5
B0
330
1F
100
AcDbEntity
  8
LINEE VISIBILI 2D
100
AcDbSpline
210
0.0
220
0.0
230
1.0
 70
    24
 71
     2
 72
     6
 73
     3
 74
     0
 42
0.0000000001
 43
0.0000000001
 40
0.0
 40
0.0
 40
0.0
 40
0.1498948207936619
 40
0.1498948207936619
 40
0.1498948207936619
 10
235.3056193834976
 20
77.4699585816244
 30
0.0
 10
235.3548217352352
 20
77.52649389925948
 30
0.0
 10
235.4040240869728
 20
77.58302921689456
 30
0.0
  0
SPLINE
  5
B1
330
1F
100
AcDbEntity
  8
LINEE VISIBILI 2D
100
AcDbSpline
210
0.0
220
0.0
230
1.0
 70
    12
 71
     2
 72
     6
 73
     3
 74
     0
 42
0.0000000001
 43
0.0000000001
 40
0.0
 40
0.0
 40
0.0
 40
11.0879477406852
 40
11.0879477406852
 40
11.0879477406852
 10
235.4040240869728
 20
77.58302921689456
 30
0.0
 41
1.0
 10
239.0435976698316
 20
81.76503236310838
 30
0.0
 41
0.9999999999999992
 10
242.6831709466107
 20
85.94703577819516
 30
0.0
 41
1.0
  0
SPLINE
  5
B2
330
1F
100
AcDbEntity
  8
LINEE VISIBILI 2D
100
AcDbSpline
210
0.0
220
0.0
230
1.0
 70
    24
 71
     2
 72
     6
 73
     3
 74
     0
 42
0.0000000001
 43
0.0000000001
 40
0.0
 40
0.0
 40
0.0
 40
1.128638042380574
 40
1.128638042380574
 40
1.128638042380574
 10
242.6831709466107
 20
85.94703577819516
 30
0.0
 10
243.0536417353683
 20
86.37272034541178
 30
0.0
 10
243.4241125241258
 20
86.7984049126284
 30
0.0
  0
SPLINE
  5
B3
330
1F
100
AcDbEntity
  8
LINEE VISIBILI 2D
100
AcDbSpline
210
0.0
220
0.0
230
1.0
 70
    24
 71
     2
 72
     6
 73
     3
 74
     0
 42
0.0000000001
 43
0.0000000001
 40
0.0
 40
0.0
 40
0.0
 40
0.5590161747302339
 40
0.5590161747302339
 40
0.5590161747302339
 10
243.4241125241258
 20
86.7984049126284
 30
0.0
 10
243.6076072813219
 20
87.00924714008873
 30
0.0
 10
243.7911020385179
 20
87.22008936754906
 30
0.0
  0
SPLINE
  5
B4
330
1F
100
AcDbEntity
  8
LINEE VISIBILI 2D
100
AcDbSpline
210
0.0
220
0.0
230
1.0
 70
    24
 71
     2
 72
     6
 73
     3
 74
     0
 42
0.0000000001
 43
0.0000000001
 40
0.0
 40
0.0
 40
0.0
 40
0.1388727330119397
 40
0.1388727330119397
 40
0.1388727330119397
 10
243.7911020385179
 20
87.22008936754906
 30
0.0
 10
243.8366864412711
 20
87.27246752384521
 30
0.0
 10
243.8822708440243
 20
87.32484568014135
 30
0.0
  0
SPLINE
  5
B5
330
1F
100
AcDbEntity
  8
LINEE VISIBILI 2D
100
AcDbSpline
210
0.0
220
0.0
230
1.0
 70
    24
 71
     2
 72
     6
 73
     3
 74
     0
 42
0.0000000001
 43
0.0000000001
 40
0.0
 40
0.0
 40
0.0
 40
0.6231679165637771
 40
0.6231679165637771
 40
0.6231679165637771
 10
243.8822708440243
 20
87.32484568014135
 30
0.0
 10
244.0868231452478
 20
87.55988380320338
 30
0.0
 10
244.2913754464713
 20
87.79492192626539
 30
0.0
  0
SPLINE
  5
B6
330
1F
100
AcDbEntity
  8
LINEE VISIBILI 2D
100
AcDbSpline
210
0.0
220
0.0
230
1.0
 70
    24
 71
     2
 72
     6
 73
     3
 74
     0
 42
0.0000000001
 43
0.0000000001
 40
0.0
 40
0.0
 40
0.0
 40
2.221552082252966
 40
2.221552082252966
 40
2.221552082252966
 10
244.2913754464713
 20
87.79492192626539
 30
0.0
 10
245.0205907598422
 20
88.63281717048508
 30
0.0
 10
245.7498060732131
 20
89.47071241470478
 30
0.0
  0
SPLINE
  5
B7
330
1F
100
AcDbEntity
  8
LINEE VISIBILI 2D
100
AcDbSpline
210
0.0
220
0.0
230
1.0
 70
    24
 71
     2
 72
     6
 73
     3
 74
     0
 42
0.0000000001
 43
0.0000000001
 40
0.0
 40
0.0
 40
0.0
 40
0.1307817792339845
 40
0.1307817792339845
 40
0.1307817792339845
 10
245.7498060732131
 20
89.47071241470478
 30
0.0
 10
245.7927346520244
 20
89.52003893232872
 30
0.0
 10
245.8356632308356
 20
89.56936544995266
 30
0.0
  0
SPLINE
  5
B8
330
1F
100
AcDbEntity
  8
LINEE VISIBILI 2D
100
AcDbSpline
210
0.0
220
0.0
230
1.0
 70
    24
 71
     2
 72
     6
 73
     3
 74
     0
 42
0.0000000001
 43
0.0000000001
 40
0.0
 40
0.0
 40
0.0
 40
0.772378644086435
 40
0.772378644086435
 40
0.772378644086435
 10
245.8356632308356
 20
89.56936544995266
 30
0.0
 10
246.0891933370643
 20
89.8606808746374
 30
0.0
 10
246.3427234432931
 20
90.15199629932214
 30
0.0
  0
SPLINE
  5
B9
330
1F
100
AcDbEntity
  8
LINEE VISIBILI 2D
100
AcDbSpline
210
0.0
220
0.0
230
1.0
 70
    12
 71
     2
 72
     6
 73
     3
 74
     0
 42
0.0000000001
 43
0.0000000001
 40
0.0
 40
0.0
 40
0.0
 40
2.648771267164197
 40
2.648771267164197
 40
2.648771267164197
 10
246.3427234432931
 20
90.15199629932214
 30
0.0
 41
1.0
 10
247.2121716915637
 20
91.15102435334138
 30
0.0
 41
0.9999999999999989
 10
248.0816200259854
 20
92.15005233158585
 30
0.0
 41
1.0
  0
SPLINE
  5
BA
330
1F
100
AcDbEntity
  8
LINEE VISIBILI 2D
100
AcDbSpline
210
0.0
220
0.0
230
1.0
 70
    24
 71
     2
 72
     6
 73
     3
 74
     0
 42
0.0000000001
 43
0.0000000001
 40
0.0
 40
0.0
 40
0.0
 40
0.062148713046092
 40
0.062148713046092
 40
0.062148713046092
 10
248.0816200259854
 20
92.15005233158585
 30
0.0
 10
248.1020200881442
 20
92.17349274813628
 30
0.0
 10
248.1224201503029
 20
92.19693316468671
 30
0.0
  0
SPLINE
  5
BB
330
1F
100
AcDbEntity
  8
LINEE VISIBILI 2D
100
AcDbSpline
210
0.0
220
0.0
230
1.0
 70
    12
 71
     2
 72
     6
 73
     3
 74
     0
 42
0.0000000001
 43
0.0000000001
 40
0.0
 40
0.0
 40
0.0
 40
4.53667514902793
 40
4.53667514902793
 40
4.53667514902793
 10
248.1224201503029
 20
92.19693316468671
 30
0.0
 41
1.0
 10
249.6115577227672
 20
93.90802189483144
 30
0.0
 41
0.9999999999857603
 10
251.1016688024264
 20
95.62019081576162
 30
0.0
 41
1.0
  0
SPLINE
  5
BC
330
1F
100
AcDbEntity
  8
LINEE VISIBILI 2D
100
AcDbSpline
210
0.0
220
0.0
230
1.0
 70
    12
 71
     2
 72
     6
 73
     3
 74
     0
 42
0.0000000001
 43
0.0000000001
 40
0.0
 40
0.0
 40
0.0
 40
0.470209976877957
 40
0.470209976877957
 40
0.470209976877957
 10
251.1016688024264
 20
95.62019081576162
 30
0.0
 41
1.0
 10
251.2995745891304
 20
95.84627447361713
 30
0.0
 41
0.7081865702771837
 10
251.5251630781445
 20
95.65001251154544
 30
0.0
 41
1.0
  0
SPLINE
  5
BD
330
1F
100
AcDbEntity
  8
LINEE VISIBILI 2D
100
AcDbSpline
210
0.0
220
0.0
230
1.0
 70
    12
 71
     2
 72
     6
 73
     3
 74
     0
 42
0.0000000001
 43
0.0000000001
 40
0.0
 40
0.0
 40
0.0
 40
0.4702274936544255
 40
0.4702274936544255
 40
0.4702274936544255
 10
251.5251630781445
 20
95.65001251154544
 30
0.0
 41
1.0
 10
251.7507438846135
 20
95.4536796703117
 30
0.0
 41
0.7080901127979314
 10
251.5543992948882
 20
95.22681604759224
 30
0.0
 41
1.0
  0
SPLINE
  5
BE
330
1F
100
AcDbEntity
  8
LINEE VISIBILI 2D
100
AcDbSpline
210
0.0
220
0.0
230
1.0
 70
    12
 71
     2
 72
     6
 73
     3
 74
     0
 42
0.0000000001
 43
0.0000000001
 40
0.0
 40
0.0
 40
0.0
 40
0.1767730997095358
 40
0.1767730997095358
 40
0.1767730997095358
 10
251.5543992948882
 20
95.22681604759224
 30
0.0
 41
1.0
 10
251.4957346822941
 20
95.15940520863532
 30
0.0
 41
0.999999999997384
 10
251.4377107236198
 20
95.09273135759733
 30
0.0
 41
1.0
  0
SPLINE
  5
BF
330
1F
100
AcDbEntity
  8
LINEE VISIBILI 2D
100
AcDbSpline
210
0.0
220
0.0
230
1.0
 70
    12
 71
     2
 72
     6
 73
     3
 74
     0
 42
0.0000000001
 43
0.0000000001
 40
0.0
 40
0.0
 40
0.0
 40
0.0676693774858351
 40
0.0676693774858351
 40
0.0676693774858351
 10
251.4377107236198
 20
95.09273135759733
 30
0.0
 41
1.0
 10
251.4154987201469
 20
95.06720856262699
 30
0.0
 41
0.9999999999997039
 10
251.3932866775162
 20
95.0416858017393
 30
0.0
 41
1.0
  0
SPLINE
  5
C0
330
1F
100
AcDbEntity
  8
LINEE VISIBILI 2D
100
AcDbSpline
210
0.0
220
0.0
230
1.0
 70
    12
 71
     2
 72
     6
 73
     3
 74
     0
 42
0.0000000001
 43
0.0000000001
 40
0.0
 40
0.0
 40
0.0
 40
0.203625689242238
 40
0.203625689242238
 40
0.203625689242238
 10
251.3932866775162
 20
95.0416858017393
 30
0.0
 41
1.0
 10
251.326447834238
 20
94.96488460149591
 30
0.0
 41
0.9999999999997358
 10
251.2596088789743
 20
94.88808349814755
 30
0.0
 41
1.0
  0
SPLINE
  5
C1
330
1F
100
AcDbEntity
  8
LINEE VISIBILI 2D
100
AcDbSpline
210
0.0
220
0.0
230
1.0
 70
    12
 71
     2
 72
     6
 73
     3
 74
     0
 42
0.0000000001
 43
0.0000000001
 40
0.0
 40
0.0
 40
0.0
 40
0.3292422163185057
 40
0.3292422163185057
 40
0.3292422163185057
 10
251.2596088789743
 20
94.88808349814755
 30
0.0
 41
1.0
 10
251.1515370336663
 20
94.76390384748021
 30
0.0
 41
0.9999999999999339
 10
251.0434650983425
 20
94.63972427569578
 30
0.0
 41
1.0
  0
SPLINE
  5
C2
330
1F
100
AcDbEntity
  8
LINEE VISIBILI 2D
100
AcDbSpline
210
0.0
220
0.0
230
1.0
 70
    24
 71
     2
 72
     6
 73
     3
 74
     0
 42
0.0000000001
 43
0.0000000001
 40
0.0
 40
0.0
 40
0.0
 40
0.0325516190258364
 40
0.0325516190258364
 40
0.0325516190258364
 10
251.0434650983425
 20
94.63972427569578
 30
0.0
 10
251.0327802104548
 20
94.62744685237003
 30
0.0
 10
251.0220953225671
 20
94.61516942904427
 30
0.0
  0
SPLINE
  5
C3
330
1F
100
AcDbEntity
  8
LINEE VISIBILI 2D
100
AcDbSpline
210
0.0
220
0.0
230
1.0
 70
    12
 71
     2
 72
     6
 73
     3
 74
     0
 42
0.0000000001
 43
0.0000000001
 40
0.0
 40
0.0
 40
0.0
 40
0.7332177571750857
 40
0.7332177571750857
 40
0.7332177571750857
 10
251.0220953225671
 20
94.61516942904427
 30
0.0
 41
1.0
 10
250.7814206410113
 20
94.33862328995889
 30
0.0
 41
0.9999999999999685
 10
250.5407458207872
 20
94.062077271677
 30
0.0
 41
1.0
  0
SPLINE
  5
C4
330
1F
100
AcDbEntity
  8
LINEE VISIBILI 2D
100
AcDbSpline
210
0.0
220
0.0
230
1.0
 70
    12
 71
     2
 72
     6
 73
     3
 74
     0
 42
0.0000000001
 43
0.0000000001
 40
0.0
 40
0.0
 40
0.0
 40
1.502005968893205
 40
1.502005968893205
 40
1.502005968893205
 10
250.5407458207872
 20
94.062077271677
 30
0.0
 41
1.0
 10
250.04772037187
 20
93.49556920696476
 30
0.0
 41
0.9999999999999837
 10
249.5546947182986
 20
92.92906132014498
 30
0.0
 41
1.0
  0
SPLINE
  5
C5
330
1F
100
AcDbEntity
  8
LINEE VISIBILI 2D
100
AcDbSpline
210
0.0
220
0.0
230
1.0
 70
    24
 71
     2
 72
     6
 73
     3
 74
     0
 42
0.0000000001
 43
0.0000000001
 40
0.0
 40
0.0
 40
0.0
 40
0.0209525721042561
 40
0.0209525721042561
 40
0.0209525721042561
 10
249.5546947182986
 20
92.92906132014498
 30
0.0
 10
249.5478171463745
 20
92.92115869088315
 30
0.0
 10
249.5409395744503
 20
92.91325606162133
 30
0.0
  0
SPLINE
  5
C6
330
1F
100
AcDbEntity
  8
LINEE VISIBILI 2D
100
AcDbSpline
210
0.0
220
0.0
230
1.0
 70
    24
 71
     2
 72
     6
 73
     3
 74
     0
 42
0.0000000001
 43
0.0000000001
 40
0.0
 40
0.0
 40
0.0
 40
0.4143434335132211
 40
0.4143434335132211
 40
0.4143434335132211
 10
249.5409395744503
 20
92.91325606162133
 30
0.0
 10
249.4049334948473
 20
92.75697917102056
 30
0.0
 10
249.2689274152443
 20
92.60070228041978
 30
0.0
  0
SPLINE
  5
C7
330
1F
100
AcDbEntity
  8
LINEE VISIBILI 2D
100
AcDbSpline
210
0.0
220
0.0
230
1.0
 70
    24
 71
     2
 72
     6
 73
     3
 74
     0
 42
0.0000000001
 43
0.0000000001
 40
0.0
 40
0.0
 40
0.0
 40
0.0462326984131704
 40
0.0462326984131704
 40
0.0462326984131704
 10
249.2689274152443
 20
92.60070228041978
 30
0.0
 10
249.2537517716608
 20
92.58326480804932
 30
0.0
 10
249.2385761280772
 20
92.56582733567886
 30
0.0
  0
SPLINE
  5
C8
330
1F
100
AcDbEntity
  8
LINEE VISIBILI 2D
100
AcDbSpline
210
0.0
220
0.0
230
1.0
 70
    24
 71
     2
 72
     6
 73
     3
 74
     0
 42
0.0000000001
 43
0.0000000001
 40
0.0
 40
0.0
 40
0.0
 40
0.4164381223048114
 40
0.4164381223048114
 40
0.4164381223048114
 10
249.2385761280772
 20
92.56582733567886
 30
0.0
 10
249.1018824693791
 20
92.40876040376514
 30
0.0
 10
248.9651888106811
 20
92.25169347185144
 30
0.0
  0
SPLINE
  5
C9
330
1F
100
AcDbEntity
  8
LINEE VISIBILI 2D
100
AcDbSpline
210
0.0
220
0.0
230
1.0
 70
    24
 71
     2
 72
     6
 73
     3
 74
     0
 42
0.0000000001
 43
0.0000000001
 40
0.0
 40
0.0
 40
0.0
 40
0.1348120814493023
 40
0.1348120814493023
 40
0.1348120814493023
 10
248.9651888106811
 20
92.25169347185144
 30
0.0
 10
248.9209374411911
 20
92.20084673523318
 30
0.0
 10
248.8766860717012
 20
92.14999999861493
 30
0.0
  0
SPLINE
  5
CA
330
1F
100
AcDbEntity
  8
LINEE VISIBILI 2D
100
AcDbSpline
210
0.0
220
0.0
230
1.0
 70
    24
 71
     2
 72
     6
 73
     3
 74
     0
 42
0.0000000001
 43
0.0000000001
 40
0.0
 40
0.0
 40
0.0
 40
0.4597259452790579
 40
0.4597259452790579
 40
0.4597259452790579
 10
248.8766860717012
 20
92.14999999861493
 30
0.0
 10
248.7257834005675
 20
91.97660631354955
 30
0.0
 10
248.5748807294337
 20
91.80321262848418
 30
0.0
  0
SPLINE
  5
CB
330
1F
100
AcDbEntity
  8
LINEE VISIBILI 2D
100
AcDbSpline
210
0.0
220
0.0
230
1.0
 70
    12
 71
     2
 72
     6
 73
     3
 74
     0
 42
0.0000000001
 43
0.0000000001
 40
0.0
 40
0.0
 40
0.0
 40
2.965699652170775
 40
2.965699652170775
 40
2.965699652170775
 10
248.5748807294337
 20
91.80321262848418
 30
0.0
 41
1.0
 10
247.6014050712456
 20
90.68464714143427
 30
0.0
 41
0.9999999999999988
 10
246.6279292986846
 20
89.5660817537194
 30
0.0
 41
1.0
  0
SPLINE
  5
CC
330
1F
100
AcDbEntity
  8
LINEE VISIBILI 2D
100
AcDbSpline
210
0.0
220
0.0
230
1.0
 70
    24
 71
     2
 72
     6
 73
     3
 74
     0
 42
0.0000000001
 43
0.0000000001
 40
0.0
 40
0.0
 40
0.0
 40
0.7792987198708237
 40
0.7792987198708237
 40
0.7792987198708237
 10
246.6279292986846
 20
89.5660817537194
 30
0.0
 10
246.3721284745928
 20
89.27215563765878
 30
0.0
 10
246.1163276505011
 20
88.97822952159815
 30
0.0
  0
SPLINE
  5
CD
330
1F
100
AcDbEntity
  8
LINEE VISIBILI 2D
100
AcDbSpline
210
0.0
220
0.0
230
1.0
 70
    24
 71
     2
 72
     6
 73
     3
 74
     0
 42
0.0000000001
 43
0.0000000001
 40
0.0
 40
0.0
 40
0.0
 40
0.3970572601905775
 40
0.3970572601905775
 40
0.3970572601905775
 10
246.1163276505011
 20
88.97822952159815
 30
0.0
 10
245.985995633074
 20
88.82847244430002
 30
0.0
 10
245.855663615647
 20
88.67871536700187
 30
0.0
  0
SPLINE
  5
CE
330
1F
100
AcDbEntity
  8
LINEE VISIBILI 2D
100
AcDbSpline
210
0.0
220
0.0
230
1.0
 70
    24
 71
     2
 72
     6
 73
     3
 74
     0
 42
0.0000000001
 43
0.0000000001
 40
0.0
 40
0.0
 40
0.0
 40
2.177672619725172
 40
2.177672619725172
 40
2.177672619725172
 10
245.855663615647
 20
88.67871536700187
 30
0.0
 10
245.1408537046519
 20
87.85736812199136
 30
0.0
 10
244.4260437936569
 20
87.03602087698084
 30
0.0
  0
SPLINE
  5
CF
330
1F
100
AcDbEntity
  8
LINEE VISIBILI 2D
100
AcDbSpline
210
0.0
220
0.0
230
1.0
 70
    24
 71
     2
 72
     6
 73
     3
 74
     0
 42
0.0000000001
 43
0.0000000001
 40
0.0
 40
0.0
 40
0.0
 40
0.417522755520687
 40
0.417522755520687
 40
0.417522755520687
 10
244.4260437936569
 20
87.03602087698084
 30
0.0
 10
244.2889940866303
 20
86.87854487826995
 30
0.0
 10
244.1519443796037
 20
86.72106887955906
 30
0.0
  0
SPLINE
  5
D0
330
1F
100
AcDbEntity
  8
LINEE VISIBILI 2D
100
AcDbSpline
210
0.0
220
0.0
230
1.0
 70
    12
 71
     2
 72
     6
 73
     3
 74
     0
 42
0.0000000001
 43
0.0000000001
 40
0.0
 40
0.0
 40
0.0
 40
7.329139540466718
 40
7.329139540466718
 40
7.329139540466718
 10
244.1519443796037
 20
86.72106887955906
 30
0.0
 41
1.0
 10
241.7461917968824
 20
83.9567559324693
 30
0.0
 41
0.9999999999999994
 10
239.3404394063293
 20
81.19244280635762
 30
0.0
 41
1.0
  0
SPLINE
  5
D1
330
1F
100
AcDbEntity
  8
LINEE VISIBILI 2D
100
AcDbSpline
210
0.0
220
0.0
230
1.0
 70
    12
 71
     2
 72
     6
 73
     3
 74
     0
 42
0.0000000001
 43
0.0000000001
 40
0.0
 40
0.0
 40
0.0
 40
5.457274186170254
 40
5.457274186170254
 40
5.457274186170254
 10
239.3404394063293
 20
81.19244280635762
 30
0.0
 41
1.0
 10
237.5491171804044
 20
79.1341364545242
 30
0.0
 41
0.9999999999999999
 10
235.75779502535
 20
77.07583003714723
 30
0.0
 41
1.0
  0
SPLINE
  5
D2
330
1F
100
AcDbEntity
  8
LINEE VISIBILI 2D
100
AcDbSpline
210
0.0
220
0.0
230
1.0
 70
    12
 71
     2
 72
     6
 73
     3
 74
     0
 42
0.0000000001
 43
0.0000000001
 40
0.0
 40
0.0
 40
0.0
 40
7.130411269390606
 40
7.130411269390606
 40
7.130411269390606
 10
235.75779502535
 20
77.07583003714723
 30
0.0
 41
1.0
 10
233.4172742371348
 20
74.3864707049265
 30
0.0
 41
1.0
 10
231.0767533818096
 20
71.69711140903998
 30
0.0
 41
1.0
  0
SPLINE
  5
D3
330
1F
100
AcDbEntity
  8
LINEE VISIBILI 2D
100
AcDbSpline
210
0.0
220
0.0
230
1.0
 70
    12
 71
     2
 72
     6
 73
     3
 74
     0
 42
0.0000000001
 43
0.0000000001
 40
0.0
 40
0.0
 40
0.0
 40
4.749015303572379
 40
4.749015303572379
 40
4.749015303572379
 10
231.0767533818096
 20
71.69711140903998
 30
0.0
 41
1.0
 10
229.5179135160436
 20
69.9059372689371
 30
0.0
 41
0.9999999999999998
 10
227.9590735733964
 20
68.11476317109022
 30
0.0
 41
1.0
  0
SPLINE
  5
D4
330
1F
100
AcDbEntity
  8
LINEE VISIBILI 2D
100
AcDbSpline
210
0.0
220
0.0
230
1.0
 70
    12
 71
     2
 72
     6
 73
     3
 74
     0
 42
0.0000000001
 43
0.0000000001
 40
0.0
 40
0.0
 40
0.0
 40
8.051474814361448
 40
8.051474814361448
 40
8.051474814361448
 10
227.9590735733964
 20
68.11476317109022
 30
0.0
 41
1.0
 10
225.316218222045
 20
65.07800877926054
 30
0.0
 41
0.999999999999998
 10
222.6733624838488
 20
62.04125471230597
 30
0.0
 41
1.0
  0
SPLINE
  5
D5
330
1F
100
AcDbEntity
  8
LINEE VISIBILI 2D
100
AcDbSpline
210
0.0
220
0.0
230
1.0
 70
    24
 71
     2
 72
     6
 73
     3
 74
     0
 42
0.0000000001
 43
0.0000000001
 40
0.0
 40
0.0
 40
0.0
 40
0.1433636141448826
 40
0.1433636141448826
 40
0.1433636141448826
 10
222.6733624838488
 20
62.04125471230597
 30
0.0
 10
222.6263041031548
 20
61.98718262430897
 30
0.0
 10
222.5792457224607
 20
61.93311053631197
 30
0.0
  0
SPLINE
  5
D6
330
1F
100
AcDbEntity
  8
LINEE VISIBILI 2D
100
AcDbSpline
210
0.0
220
0.0
230
1.0
 70
    24
 71
     2
 72
     6
 73
     3
 74
     0
 42
0.0000000001
 43
0.0000000001
 40
0.0
 40
0.0
 40
0.0
 40
1.139943903624943
 40
1.139943903624943
 40
1.139943903624943
 10
222.5792457224607
 20
61.93311053631197
 30
0.0
 10
222.2050649165238
 20
61.50316082982535
 30
0.0
 10
221.8308841105869
 20
61.07321112333872
 30
0.0
  0
SPLINE
  5
D7
330
1F
100
AcDbEntity
  8
LINEE VISIBILI 2D
100
AcDbSpline
210
0.0
220
0.0
230
1.0
 70
    24
 71
     2
 72
     6
 73
     3
 74
     0
 42
0.0000000001
 43
0.0000000001
 40
0.0
 40
0.0
 40
0.0
 40
0.9850165267544503
 40
0.9850165267544503
 40
0.9850165267544503
 10
221.8308841105869
 20
61.07321112333872
 30
0.0
 10
221.5075574220906
 20
60.70169498254862
 30
0.0
 10
221.1842307335943
 20
60.33017884175852
 30
0.0
  0
SPLINE
  5
D8
330
1F
100
AcDbEntity
  8
LINEE VISIBILI 2D
100
AcDbSpline
210
0.0
220
0.0
230
1.0
 70
    12
 71
     2
 72
     6
 73
     3
 74
     0
 42
0.0000000001
 43
0.0000000001
 40
0.0
 40
0.0
 40
0.0
 40
3.240630191685341
 40
3.240630191685341
 40
3.240630191685341
 10
221.1842307335943
 20
60.33017884175852
 30
0.0
 41
1.0
 10
220.1205102622634
 20
59.10791873640144
 30
0.0
 41
0.9999999999999999
 10
219.0567897654857
 20
57.88565864321458
 30
0.0
 41
1.0
  0
SPLINE
  5
D9
330
1F
100
AcDbEntity
  8
LINEE VISIBILI 2D
100
AcDbSpline
210
0.0
220
0.0
230
1.0
 70
    24
 71
     2
 72
     6
 73
     3
 74
     0
 42
0.0000000001
 43
0.0000000001
 40
0.0
 40
0.0
 40
0.0
 40
0.6362327445928885
 40
0.6362327445928885
 40
0.6362327445928885
 10
219.0567897654857
 20
57.88565864321458
 30
0.0
 10
218.8479495820219
 20
57.6456923895655
 30
0.0
 10
218.6391093985581
 20
57.40572613591642
 30
0.0
  0
SPLINE
  5
DA
330
1F
100
AcDbEntity
  8
LINEE VISIBILI 2D
100
AcDbSpline
210
0.0
220
0.0
230
1.0
 70
    24
 71
     2
 72
     6
 73
     3
 74
     0
 42
0.0000000001
 43
0.0000000001
 40
0.0
 40
0.0
 40
0.0
 40
0.0502580011666869
 40
0.0502580011666869
 40
0.0502580011666869
 10
218.6391093985581
 20
57.40572613591642
 30
0.0
 10
218.6226124634008
 20
57.38677045600953
 30
0.0
 10
218.6061155282435
 20
57.36781477610264
 30
0.0
  0
SPLINE
  5
DB
330
1F
100
AcDbEntity
  8
LINEE VISIBILI 2D
100
AcDbSpline
210
0.0
220
0.0
230
1.0
 70
    12
 71
     2
 72
     6
 73
     3
 74
     0
 42
0.0000000001
 43
0.0000000001
 40
0.0
 40
0.0
 40
0.0
 40
11.78097240261274
 40
11.78097240261274
 40
11.78097240261274
 10
213.2214704760755
 20
59.64999481626145
 30
0.0
 41
1.0
 10
205.721470525507
 20
59.64999481468741
 30
0.0
 41
0.7071067836061717
 10
205.7214704757531
 20
52.1499948641189
 30
0.0
 41
1.0
  0
SPLINE
  5
DC
330
1F
100
AcDbEntity
  8
LINEE VISIBILI 2D
100
AcDbSpline
210
0.0
220
0.0
230
1.0
 70
    12
 71
     2
 72
     6
 73
     3
 74
     0
 42
0.0000000001
 43
0.0000000001
 40
0.0
 40
0.0
 40
0.0
 40
11.78096957624764
 40
11.78096957624764
 40
11.78096957624764
 10
205.7214704757531
 20
52.1499948641189
 30
0.0
 41
1.0
 10
205.7214758774439
 20
44.65000082142122
 30
0.0
 41
0.7071073165989796
 10
213.2214699201411
 20
44.64999486530393
 30
0.0
 41
1.0
  0
SPLINE
  5
DD
330
1F
100
AcDbEntity
  8
LINEE VISIBILI 2D
100
AcDbSpline
210
0.0
220
0.0
230
1.0
 70
    12
 71
     2
 72
     6
 73
     3
 74
     0
 42
0.0000000001
 43
0.0000000001
 40
0.0
 40
0.0
 40
0.0
 40
11.78097247990706
 40
11.78097247990706
 40
11.78097247990706
 10
213.2214699201411
 20
44.64999486530393
 30
0.0
 41
1.0
 10
220.7214697231589
 20
44.64999470477613
 30
0.0
 41
0.7071068091310893
 10
220.72147047648
 20
52.14999450779393
 30
0.0
 41
1.0
  0
SPLINE
  5
DE
330
1F
100
AcDbEntity
  8
LINEE VISIBILI 2D
100
AcDbSpline
210
0.0
220
0.0
230
1.0
 70
    12
 71
     2
 72
     6
 73
     3
 74
     0
 42
0.0000000001
 43
0.0000000001
 40
0.0
 40
0.0
 40
0.0
 40
11.78097275877955
 40
11.78097275877955
 40
11.78097275877955
 10
220.72147047648
 20
52.14999450779393
 30
0.0
 41
1.0
 10
220.7214707824913
 20
59.64999481420971
 30
0.0
 41
0.70710676685776
 10
213.2214704760755
 20
59.64999481626145
 30
0.0
 41
1.0
  0
SPLINE
  5
DF
330
1F
100
AcDbEntity
  8
PREDEFINITO
100
AcDbSpline
210
0.0
220
0.0
230
1.0
 70
    24
 71
     2
 72
     6
 73
     3
 74
     0
 42
0.0000000001
 43
0.0000000001
 40
0.0
 40
0.0
 40
0.0
 40
94.7002935608875
 40
94.7002935608875
 40
94.7002935608875
 10
164.2414704761145
 20
97.3000000000001
 30
0.0
 10
211.5916172564763
 20
97.2999119219632
 30
0.0
 10
258.9417640368382
 20
97.2998238439263
 30
0.0
  0
POLYLINE
  5
E0
330
1F
100
AcDbEntity
  8
PREDEFINITO
100
AcDb2dPolyline
 66
     1
 10
0.0
 20
0.0
 30
0.0
  0
VERTEX
  5
E2
330
E0
100
AcDbEntity
  8
PREDEFINITO
100
AcDbVertex
100
AcDb2dVertex
 10
258.9417640368382
 20
97.2998238439263
 30
0.0
  0
VERTEX
  5
E3
330
E0
100
AcDbEntity
  8
PREDEFINITO
100
AcDbVertex
100
AcDb2dVertex
 10
258.9417634329325
 20
97.29227749519264
 30
0.0
  0
SEQEND
  5
E1
330
E0
100
AcDbEntity
  8
PREDEFINITO
  0
SPLINE
  5
E4
330
1F
100
AcDbEntity
  8
PREDEFINITO
100
AcDbSpline
210
0.0
220
0.0
230
1.0
 70
    24
 71
     2
 72
     6
 73
     3
 74
     0
 42
0.0000000001
 43
0.0000000001
 40
0.0
 40
0.0
 40
0.0
 40
94.69274720883071
 40
94.69274720883071
 40
94.69274720883071
 10
258.9417634329325
 20
97.29227749519264
 30
0.0
 10
258.9379744823472
 20
49.94590404238495
 30
0.0
 10
258.934185531762
 20
2.59953058957727
 30
0.0
  0
SPLINE
  5
E5
330
1F
100
AcDbEntity
  8
PREDEFINITO
100
AcDbSpline
210
0.0
220
0.0
230
1.0
 70
    24
 71
     2
 72
     6
 73
     3
 74
     0
 42
0.0000000001
 43
0.0000000001
 40
0.0
 40
0.0
 40
0.0
 40
94.69545860305682
 40
94.69545860305682
 40
94.69545860305682
 10
258.934185531762
 20
2.59953058957727
 30
0.0
 10
211.586456296827
 20
2.602041783044935
 30
0.0
 10
164.238727061892
 20
2.604552976512601
 30
0.0
  0
SPLINE
  5
E6
330
1F
100
AcDbEntity
  8
PREDEFINITO
100
AcDbSpline
210
0.0
220
0.0
230
1.0
 70
    24
 71
     2
 72
     6
 73
     3
 74
     0
 42
0.0000000001
 43
0.0000000001
 40
-94.69544706322714
 40
-94.69544706322714
 40
-94.69544706322714
 40
0.0
 40
0.0
 40
0.0
 10
164.238727061892
 20
2.604552976512601
 30
0.0
 10
164.2400987690032
 20
49.95227648825635
 30
0.0
 10
164.2414704761145
 20
97.3000000000001
 30
0.0
  0
SPLINE
  5
E7
330
1F
100
AcDbEntity
  8
LINEE VISIBILI 2D
100
AcDbSpline
210
0.0
220
0.0
230
1.0
 70
    24
 71
     2
 72
     6
 73
     3
 74
     0
 42
0.0000000001
 43
0.0000000001
 40
0.0
 40
0.0
 40
0.0
 40
5.520854440285007
 40
5.520854440285007
 40
5.520854440285007
 10
162.5414704761145
 20
93.47914555971494
 30
0.0
 10
162.5414704761145
 20
96.23957277985744
 30
0.0
 10
162.5414704761145
 20
98.99999999999994
 30
0.0
  0
SPLINE
  5
E8
330
1F
100
AcDbEntity
  8
LINEE VISIBILI 2D
100
AcDbSpline
210
0.0
220
0.0
230
1.0
 70
    24
 71
     2
 72
     6
 73
     3
 74
     0
 42
0.0000000001
 43
0.0000000001
 40
0.0
 40
0.0
 40
0.0
 40
98.1003805630789
 40
98.1003805630789
 40
98.1003805630789
 10
162.5414704761145
 20
98.99999999999994
 30
0.0
 10
211.5916607575211
 20
98.99988581663763
 30
0.0
 10
260.6418510389276
 20
98.99977163327532
 30
0.0
  0
SPLINE
  5
E9
330
1F
100
AcDbEntity
  8
LINEE VISIBILI 2D
100
AcDbSpline
210
0.0
220
0.0
230
1.0
 70
    24
 71
     2
 72
     6
 73
     3
 74
     0
 42
0.0000000001
 43
0.0000000001
 40
0.0
 40
0.0
 40
0.0
 40
5.520550575524958
 40
5.520550575524958
 40
5.520550575524958
 10
260.6418510389276
 20
98.99977163327532
 30
0.0
 10
260.6416314355529
 20
96.2394963542485
 30
0.0
 10
260.6414118321782
 20
93.47922107522167
 30
0.0
  0
SPLINE
  5
EA
330
1F
100
AcDbEntity
  8
LINEE VISIBILI 2D
100
AcDbSpline
210
0.0
220
0.0
230
1.0
 70
    12
 71
     2
 72
     6
 73
     3
 74
     0
 42
0.0000000001
 43
0.0000000001
 40
0.0
 40
0.0
 40
0.0
 40
1.256637061435873
 40
1.256637061435873
 40
1.256637061435873
 10
163.1414750059168
 20
7.750000250183684
 30
0.0
 41
1.0
 10
162.3414750059169
 20
7.750000250183639
 30
0.0
 41
0.7071067811865857
 10
162.3414750059168
 20
6.950000250183699
 30
0.0
 41
1.0
  0
SPLINE
  5
EB
330
1F
100
AcDbEntity
  8
LINEE VISIBILI 2D
100
AcDbSpline
210
0.0
220
0.0
230
1.0
 70
    12
 71
     2
 72
     6
 73
     3
 74
     0
 42
0.0000000001
 43
0.0000000001
 40
0.0
 40
0.0
 40
0.0
 40
1.256637061435883
 40
1.256637061435883
 40
1.256637061435883
 10
162.3414750059168
 20
6.950000250183699
 30
0.0
 41
1.0
 10
162.3414750059168
 20
6.150000250183739
 30
0.0
 41
0.7071067811865707
 10
163.1414750059168
 20
6.150000250183703
 30
0.0
 41
1.0
  0
SPLINE
  5
EC
330
1F
100
AcDbEntity
  8
LINEE VISIBILI 2D
100
AcDbSpline
210
0.0
220
0.0
230
1.0
 70
    12
 71
     2
 72
     6
 73
     3
 74
     0
 42
0.0000000001
 43
0.0000000001
 40
0.0
 40
0.0
 40
0.0
 40
1.25663706143599
 40
1.25663706143599
 40
1.25663706143599
 10
163.1414750059168
 20
6.150000250183703
 30
0.0
 41
1.0
 10
163.9414750059168
 20
6.150000250183724
 30
0.0
 41
0.7071067811866335
 10
163.9414750059169
 20
6.950000250183699
 30
0.0
 41
1.0
  0
SPLINE
  5
ED
330
1F
100
AcDbEntity
  8
LINEE VISIBILI 2D
100
AcDbSpline
210
0.0
220
0.0
230
1.0
 70
    12
 71
     2
 72
     6
 73
     3
 74
     0
 42
0.0000000001
 43
0.0000000001
 40
0.0
 40
0.0
 40
0.0
 40
1.256637061435997
 40
1.256637061435997
 40
1.256637061435997
 10
163.9414750059169
 20
6.950000250183699
 30
0.0
 41
1.0
 10
163.9414750059168
 20
7.750000250183756
 30
0.0
 41
0.7071067811865397
 10
163.1414750059168
 20
7.750000250183684
 30
0.0
 41
1.0
  0
SPLINE
  5
EE
330
1F
100
AcDbEntity
  8
LINEE VISIBILI 2D
100
AcDbSpline
210
0.0
220
0.0
230
1.0
 70
    24
 71
     2
 72
     6
 73
     3
 74
     0
 42
0.0000000001
 43
0.0000000001
 40
0.0
 40
0.0
 40
0.0
 40
5.513638056723448
 40
5.513638056723448
 40
5.513638056723448
 10
260.6344849761304
 20
6.413029427818894
 30
0.0
 10
260.6342656477306
 20
3.656210408181889
 30
0.0
 10
260.6340463193307
 20
0.8993913885448848
 30
0.0
  0
SPLINE
  5
EF
330
1F
100
AcDbEntity
  8
LINEE VISIBILI 2D
100
AcDbSpline
210
0.0
220
0.0
230
1.0
 70
    24
 71
     2
 72
     6
 73
     3
 74
     0
 42
0.0000000001
 43
0.0000000001
 40
0.0
 40
0.0
 40
0.0
 40
98.09257556417967
 40
98.09257556417967
 40
98.09257556417967
 10
260.6340463193307
 20
0.8993913885448848
 30
0.0
 10
211.5877585497001
 20
0.9034077601892411
 30
0.0
 10
162.5414707800695
 20
0.9074241318335974
 30
0.0
  0
SPLINE
  5
F0
330
1F
100
AcDbEntity
  8
LINEE VISIBILI 2D
100
AcDbSpline
210
0.0
220
0.0
230
1.0
 70
    24
 71
     2
 72
     6
 73
     3
 74
     0
 42
0.0000000001
 43
0.0000000001
 40
0.0
 40
0.0
 40
0.0
 40
5.513430684400848
 40
5.513430684400848
 40
5.513430684400848
 10
162.5414707800695
 20
0.9074241318335974
 30
0.0
 10
162.541470628092
 20
3.66413962602394
 30
0.0
 10
162.5414704761145
 20
6.420855120214283
 30
0.0
  0
SPLINE
  5
F1
330
1F
100
AcDbEntity
  8
LINEE VISIBILI 2D
100
AcDbSpline
210
0.0
220
0.0
230
1.0
 70
    24
 71
     2
 72
     6
 73
     3
 74
     0
 42
0.0000000001
 43
0.0000000001
 40
0.0
 40
0.0
 40
0.0
 40
4.838760014903386
 40
4.838760014903386
 40
4.838760014903386
 10
248.3666029863218
 20
91.56389252511043
 30
0.0
 10
250.7859829937735
 20
91.56389252511042
 30
0.0
 10
253.2053630012252
 20
91.5638925251104
 30
0.0
  0
SPLINE
  5
F2
330
1F
100
AcDbEntity
  8
LINEE VISIBILI 2D
100
AcDbSpline
210
0.0
220
0.0
230
1.0
 70
    24
 71
     2
 72
     6
 73
     3
 74
     0
 42
0.0000000001
 43
0.0000000001
 40
0.0
 40
0.0
 40
0.0
 40
83.22778505022131
 40
83.22778505022131
 40
83.22778505022131
 10
253.2053630012252
 20
91.5638925251104
 30
0.0
 10
253.2019553930098
 20
49.95000013951798
 30
0.0
 10
253.1985477847944
 20
8.336107753925553
 30
0.0
  0
SPLINE
  5
F3
330
1F
100
AcDbEntity
  8
LINEE VISIBILI 2D
100
AcDbSpline
210
0.0
220
0.0
230
1.0
 70
    24
 71
     2
 72
     6
 73
     3
 74
     0
 42
0.0000000001
 43
0.0000000001
 40
0.0
 40
0.0
 40
0.0
 40
83.22299681392826
 40
83.22299681392826
 40
83.22299681392826
 10
253.1985477847944
 20
8.336107753925553
 30
0.0
 10
211.5870494466958
 20
8.338501744894721
 30
0.0
 10
169.9755511085971
 20
8.340895735863889
 30
0.0
  0
SPLINE
  5
F4
330
1F
100
AcDbEntity
  8
LINEE VISIBILI 2D
100
AcDbSpline
210
0.0
220
0.0
230
1.0
 70
    24
 71
     2
 72
     6
 73
     3
 74
     0
 42
0.0000000001
 43
0.0000000001
 40
0.0
 40
0.0
 40
0.0
 40
83.22299681392815
 40
83.22299681392815
 40
83.22299681392815
 10
169.9755511085971
 20
8.340895735863889
 30
0.0
 10
169.9765645298005
 20
49.95239413048735
 30
0.0
 10
169.9775779510038
 20
91.56389252511082
 30
0.0
  0
SPLINE
  5
F5
330
1F
100
AcDbEntity
  8
LINEE VISIBILI 2D
100
AcDbSpline
210
0.0
220
0.0
230
1.0
 70
    24
 71
     2
 72
     6
 73
     3
 74
     0
 42
0.0000000001
 43
0.0000000001
 40
0.0
 40
0.0
 40
0.0
 40
77.59391055722148
 40
77.59391055722148
 40
77.59391055722148
 10
169.9775779510038
 20
91.56389252511082
 30
0.0
 10
208.7745332296146
 20
91.56389252511062
 30
0.0
 10
247.5714885082253
 20
91.56389252511043
 30
0.0
  0
SPLINE
  5
F6
330
1F
100
AcDbEntity
  8
PREDEFINITO
100
AcDbSpline
210
0.0
220
0.0
230
1.0
 70
    24
 71
     2
 72
     6
 73
     3
 74
     0
 42
0.0000000001
 43
0.0000000001
 40
0.0
 40
0.0
 40
0.0
 40
4.329388943645778
 40
4.329388943645778
 40
4.329388943645778
 10
259.4344875534502
 20
6.428878578158411
 30
0.0
 10
259.4343160701898
 20
4.264184113127822
 30
0.0
 10
259.4341445869293
 20
2.099489648097233
 30
0.0
  0
SPLINE
  5
F7
330
1F
100
AcDbEntity
  8
PREDEFINITO
100
AcDbSpline
210
0.0
220
0.0
230
1.0
 70
    24
 71
     2
 72
     6
 73
     3
 74
     0
 42
0.0000000001
 43
0.0000000001
 40
0.0
 40
0.0
 40
0.0
 40
95.69267383177832
 40
95.69267383177832
 40
95.69267383177832
 10
259.4341445869293
 20
2.099489648097233
 30
0.0
 10
211.5878078314538
 20
2.103407608203462
 30
0.0
 10
163.7414710759783
 20
2.10732556830969
 30
0.0
  0
POLYLINE
  5
F8
330
1F
100
AcDbEntity
  8
PREDEFINITO
100
AcDb2dPolyline
 66
     1
 10
0.0
 20
0.0
 30
0.0
  0
VERTEX
  5
FA
330
F8
100
AcDbEntity
  8
PREDEFINITO
100
AcDbVertex
100
AcDb2dVertex
 10
163.7414710759783
 20
2.10732556830969
 30
0.0
  0
VERTEX
  5
FB
330
F8
100
AcDbEntity
  8
PREDEFINITO
100
AcDbVertex
100
AcDb2dVertex
 10
163.7414704761145
 20
2.122390640895
 30
0.0
  0
SEQEND
  5
F9
330
F8
100
AcDbEntity
  8
PREDEFINITO
  0
SPLINE
  5
FC
330
1F
100
AcDbEntity
  8
PREDEFINITO
100
AcDbSpline
210
0.0
220
0.0
230
1.0
 70
    24
 71
     2
 72
     6
 73
     3
 74
     0
 42
0.0000000001
 43
0.0000000001
 40
0.0
 40
0.0
 40
0.0
 40
4.30441703434186
 40
4.30441703434186
 40
4.30441703434186
 10
163.7414704761145
 20
2.122390640895
 30
0.0
 10
163.7414704761145
 20
4.27459915806593
 30
0.0
 10
163.7414704761145
 20
6.42680767523686
 30
0.0
  0
SPLINE
  5
FD
330
1F
100
AcDbEntity
  8
LINEE VISIBILI 2D
100
AcDbSpline
210
0.0
220
0.0
230
1.0
 70
    12
 71
     2
 72
     6
 73
     3
 74
     0
 42
0.0000000001
 43
0.0000000001
 40
0.0
 40
0.0
 40
0.0
 40
1.256637061435911
 40
1.256637061435911
 40
1.256637061435911
 10
260.0414742908112
 20
93.7499999999996
 30
0.0
 41
1.0
 10
259.2414742908112
 20
93.74999999999955
 30
0.0
 41
0.7071067811865978
 10
259.2414742908112
 20
92.94999999999959
 30
0.0
 41
1.0
  0
SPLINE
  5
FE
330
1F
100
AcDbEntity
  8
LINEE VISIBILI 2D
100
AcDbSpline
210
0.0
220
0.0
230
1.0
 70
    12
 71
     2
 72
     6
 73
     3
 74
     0
 42
0.0000000001
 43
0.0000000001
 40
0.0
 40
0.0
 40
0.0
 40
1.256637061435868
 40
1.256637061435868
 40
1.256637061435868
 10
259.2414742908112
 20
92.94999999999959
 30
0.0
 41
1.0
 10
259.2414742908113
 20
92.14999999999966
 30
0.0
 41
0.7071067811866166
 10
260.0414742908112
 20
92.14999999999961
 30
0.0
 41
1.0
  0
SPLINE
  5
FF
330
1F
100
AcDbEntity
  8
LINEE VISIBILI 2D
100
AcDbSpline
210
0.0
220
0.0
230
1.0
 70
    12
 71
     2
 72
     6
 73
     3
 74
     0
 42
0.0000000001
 43
0.0000000001
 40
0.0
 40
0.0
 40
0.0
 40
1.256637061435937
 40
1.256637061435937
 40
1.256637061435937
 10
260.0414742908112
 20
92.14999999999961
 30
0.0
 41
1.0
 10
260.8414742908112
 20
92.14999999999952
 30
0.0
 41
0.7071067811864973
 10
260.8414742908112
 20
92.94999999999959
 30
0.0
 41
1.0
  0
SPLINE
  5
100
330
1F
100
AcDbEntity
  8
LINEE VISIBILI 2D
100
AcDbSpline
210
0.0
220
0.0
230
1.0
 70
    12
 71
     2
 72
     6
 73
     3
 74
     0
 42
0.0000000001
 43
0.0000000001
 40
0.0
 40
0.0
 40
0.0
 40
1.256637061435963
 40
1.256637061435963
 40
1.256637061435963
 10
260.8414742908112
 20
92.94999999999959
 30
0.0
 41
1.0
 10
260.8414742908112
 20
93.74999999999964
 30
0.0
 41
0.707106781186535
 10
260.0414742908112
 20
93.7499999999996
 30
0.0
 41
1.0
  0
SPLINE
  5
101
330
1F
100
AcDbEntity
  8
LINEE VISIBILI 2D
100
AcDbSpline
210
0.0
220
0.0
230
1.0
 70
    12
 71
     2
 72
     6
 73
     3
 74
     0
 42
0.0000000001
 43
0.0000000001
 40
0.0
 40
0.0
 40
0.0
 40
1.25663706143589
 40
1.25663706143589
 40
1.25663706143589
 10
260.041473725853
 20
7.750000250183697
 30
0.0
 41
1.0
 10
259.241473725853
 20
7.750000250183639
 30
0.0
 41
0.7071067811865993
 10
259.241473725853
 20
6.950000250183699
 30
0.0
 41
1.0
  0
SPLINE
  5
102
330
1F
100
AcDbEntity
  8
LINEE VISIBILI 2D
100
AcDbSpline
210
0.0
220
0.0
230
1.0
 70
    12
 71
     2
 72
     6
 73
     3
 74
     0
 42
0.0000000001
 43
0.0000000001
 40
0.0
 40
0.0
 40
0.0
 40
1.256637061435877
 40
1.256637061435877
 40
1.256637061435877
 10
259.241473725853
 20
6.950000250183699
 30
0.0
 41
1.0
 10
259.241473725853
 20
6.150000250183745
 30
0.0
 41
0.7071067811865731
 10
260.041473725853
 20
6.150000250183745
 30
0.0
 41
1.0
  0
SPLINE
  5
103
330
1F
100
AcDbEntity
  8
LINEE VISIBILI 2D
100
AcDbSpline
210
0.0
220
0.0
230
1.0
 70
    12
 71
     2
 72
     6
 73
     3
 74
     0
 42
0.0000000001
 43
0.0000000001
 40
0.0
 40
0.0
 40
0.0
 40
1.256637061435943
 40
1.256637061435943
 40
1.256637061435943
 10
260.041473725853
 20
6.150000250183695
 30
0.0
 41
1.0
 10
260.8414737258531
 20
6.150000250183637
 30
0.0
 41
0.707106781186493
 10
260.841473725853
 20
6.950000250183699
 30
0.0
 41
1.0
  0
SPLINE
  5
104
330
1F
100
AcDbEntity
  8
LINEE VISIBILI 2D
100
AcDbSpline
210
0.0
220
0.0
230
1.0
 70
    12
 71
     2
 72
     6
 73
     3
 74
     0
 42
0.0000000001
 43
0.0000000001
 40
0.0
 40
0.0
 40
0.0
 40
1.256637061435947
 40
1.256637061435947
 40
1.256637061435947
 10
260.841473725853
 20
6.950000250183699
 30
0.0
 41
1.0
 10
260.8414737258531
 20
7.750000250183755
 30
0.0
 41
0.7071067811865028
 10
260.041473725853
 20
7.750000250183697
 30
0.0
 41
1.0
  0
SPLINE
  5
105
330
1F
100
AcDbEntity
  8
LINEE VISIBILI 2D
100
AcDbSpline
210
0.0
220
0.0
230
1.0
 70
    12
 71
     2
 72
     6
 73
     3
 74
     0
 42
0.0000000001
 43
0.0000000001
 40
0.0
 40
0.0
 40
0.0
 40
1.256637061435911
 40
1.256637061435911
 40
1.256637061435911
 10
163.1414746232953
 20
93.7499999999996
 30
0.0
 41
1.0
 10
162.3414746232953
 20
93.74999999999959
 30
0.0
 41
0.7071067811865287
 10
162.3414746232953
 20
92.94999999999959
 30
0.0
 41
1.0
  0
SPLINE
  5
106
330
1F
100
AcDbEntity
  8
LINEE VISIBILI 2D
100
AcDbSpline
210
0.0
220
0.0
230
1.0
 70
    12
 71
     2
 72
     6
 73
     3
 74
     0
 42
0.0000000001
 43
0.0000000001
 40
0.0
 40
0.0
 40
0.0
 40
1.256637061435854
 40
1.256637061435854
 40
1.256637061435854
 10
162.3414746232953
 20
92.94999999999959
 30
0.0
 41
1.0
 10
162.3414746232954
 20
92.14999999999971
 30
0.0
 41
0.707106781186623
 10
163.1414746232953
 20
92.14999999999961
 30
0.0
 41
1.0
  0
SPLINE
  5
107
330
1F
100
AcDbEntity
  8
LINEE VISIBILI 2D
100
AcDbSpline
210
0.0
220
0.0
230
1.0
 70
    12
 71
     2
 72
     6
 73
     3
 74
     0
 42
0.0000000001
 43
0.0000000001
 40
0.0
 40
0.0
 40
0.0
 40
1.256637061435933
 40
1.256637061435933
 40
1.256637061435933
 10
163.1414746232953
 20
92.14999999999961
 30
0.0
 41
1.0
 10
163.9414746232953
 20
92.14999999999958
 30
0.0
 41
0.7071067811865287
 10
163.9414746232953
 20
92.94999999999959
 30
0.0
 41
1.0
  0
SPLINE
  5
108
330
1F
100
AcDbEntity
  8
LINEE VISIBILI 2D
100
AcDbSpline
210
0.0
220
0.0
230
1.0
 70
    12
 71
     2
 72
     6
 73
     3
 74
     0
 42
0.0000000001
 43
0.0000000001
 40
0.0
 40
0.0
 40
0.0
 40
1.256637061435949
 40
1.256637061435949
 40
1.256637061435949
 10
163.9414746232953
 20
92.94999999999959
 30
0.0
 41
1.0
 10
163.9414746232953
 20
93.74999999999962
 30
0.0
 41
0.7071067811865412
 10
163.1414746232953
 20
93.7499999999996
 30
0.0
 41
1.0
  0
SPLINE
  5
109
330
1F
100
AcDbEntity
  8
PREDEFINITO
100
AcDbSpline
210
0.0
220
0.0
230
1.0
 70
    24
 71
     2
 72
     6
 73
     3
 74
     0
 42
0.0000000001
 43
0.0000000001
 40
0.0
 40
0.0
 40
0.0
 40
99.39149629169167
 40
99.39149629169167
 40
99.39149629169167
 10
161.8914704761145
 20
99.65000000000005
 30
0.0
 10
161.8914704761145
 20
49.95425185415422
 30
0.0
 10
161.8914704761145
 20
0.2585037083083762
 30
0.0
  0
POLYLINE
  5
10A
330
1F
100
AcDbEntity
  8
PREDEFINITO
100
AcDb2dPolyline
 66
     1
 10
0.0
 20
0.0
 30
0.0
  0
VERTEX
  5
10C
330
10A
100
AcDbEntity
  8
PREDEFINITO
100
AcDbVertex
100
AcDb2dVertex
 10
161.8914704761145
 20
0.2585037083083762
 30
0.0
  0
VERTEX
  5
10D
330
10A
100
AcDbEntity
  8
PREDEFINITO
100
AcDbVertex
100
AcDb2dVertex
 10
161.8914704761145
 20
0.25
 30
0.0
  0
SEQEND
  5
10B
330
10A
100
AcDbEntity
  8
PREDEFINITO
  0
SPLINE
  5
10E
330
1F
100
AcDbEntity
  8
PREDEFINITO
100
AcDbSpline
210
0.0
220
0.0
230
1.0
 70
    24
 71
     2
 72
     6
 73
     3
 74
     0
 42
0.0000000001
 43
0.0000000001
 40
0.0
 40
0.0
 40
0.0
 40
99.39252261713729
 40
99.39252261713729
 40
99.39252261713729
 10
161.8914704761145
 20
0.25
 30
0.0
 10
211.5877317835814
 20
0.2496690823106285
 30
0.0
 10
261.2839930910483
 20
0.2493381646212569
 30
0.0
  0
SPLINE
  5
10F
330
1F
100
AcDbEntity
  8
PREDEFINITO
100
AcDbSpline
210
0.0
220
0.0
230
1.0
 70
    24
 71
     2
 72
     6
 73
     3
 74
     0
 42
0.0000000001
 43
0.0000000001
 40
0.0
 40
0.0
 40
0.0
 40
99.40033105775917
 40
99.40033105775917
 40
99.40033105775917
 10
261.2839930910483
 20
0.2493381646212569
 30
0.0
 10
261.2878973121857
 20
49.94950354015182
 30
0.0
 10
261.2918015333231
 20
99.6496689156824
 30
0.0
  0
SPLINE
  5
110
330
1F
100
AcDbEntity
  8
PREDEFINITO
100
AcDbSpline
210
0.0
220
0.0
230
1.0
 70
    24
 71
     2
 72
     6
 73
     3
 74
     0
 42
0.0000000001
 43
0.0000000001
 40
0.0
 40
0.0
 40
0.0
 40
99.40033105775998
 40
99.40033105775998
 40
99.40033105775998
 10
261.2918015333231
 20
99.6496689156824
 30
0.0
 10
211.5916360047188
 20
99.64983445784122
 30
0.0
 10
161.8914704761145
 20
99.65000000000005
 30
0.0
  0
SPLINE
  5
111
330
1F
100
AcDbEntity
  8
PREDEFINITO
100
AcDbSpline
210
0.0
220
0.0
230
1.0
 70
    24
 71
     2
 72
     6
 73
     3
 74
     0
 42
0.0000000001
 43
0.0000000001
 40
0.0
 40
0.0
 40
0.0
 40
4.316246033481974
 40
4.316246033481974
 40
4.316246033481974
 10
163.7414704761145
 20
93.47915496463641
 30
0.0
 10
163.7414704761145
 20
95.6372779813774
 30
0.0
 10
163.7414704761145
 20
97.79540099811838
 30
0.0
  0
POLYLINE
  5
112
330
1F
100
AcDbEntity
  8
PREDEFINITO
100
AcDb2dPolyline
 66
     1
 10
0.0
 20
0.0
 30
0.0
  0
VERTEX
  5
114
330
112
100
AcDbEntity
  8
PREDEFINITO
100
AcDbVertex
100
AcDb2dVertex
 10
163.7414704761145
 20
97.79540099811838
 30
0.0
  0
VERTEX
  5
115
330
112
100
AcDbEntity
  8
PREDEFINITO
100
AcDbVertex
100
AcDb2dVertex
 10
163.7414704761145
 20
97.8000000000001
 30
0.0
  0
SEQEND
  5
113
330
112
100
AcDbEntity
  8
PREDEFINITO
  0
SPLINE
  5
116
330
1F
100
AcDbEntity
  8
PREDEFINITO
100
AcDbSpline
210
0.0
220
0.0
230
1.0
 70
    24
 71
     2
 72
     6
 73
     3
 74
     0
 42
0.0000000001
 43
0.0000000001
 40
0.0
 40
0.0
 40
0.0
 40
95.70025531581067
 40
95.70025531581067
 40
95.70025531581067
 10
163.7414704761145
 20
97.8000000000001
 30
0.0
 10
211.5915981338495
 20
97.79987233181139
 30
0.0
 10
259.4417257915845
 20
97.79974466362268
 30
0.0
  0
SPLINE
  5
117
330
1F
100
AcDbEntity
  8
PREDEFINITO
100
AcDbSpline
210
0.0
220
0.0
230
1.0
 70
    24
 71
     2
 72
     6
 73
     3
 74
     0
 42
0.0000000001
 43
0.0000000001
 40
0.0
 40
0.0
 40
0.0
 40
4.320697364201495
 40
4.320697364201495
 40
4.320697364201495
 10
259.4417257915845
 20
97.79974466362268
 30
0.0
 10
259.4415546525898
 20
95.63939598830059
 30
0.0
 10
259.4413835135952
 20
93.47904731297851
 30
0.0
  0
ENDSEC
  0
SECTION
  2
OBJECTS
  0
DICTIONARY
  5
C
330
0
100
AcDbDictionary
281
     1
  3
ACAD_GROUP
350
D
  3
ACAD_LAYOUT
350
1A
  3
ACAD_MLEADERSTYLE
350
119
  3
ACAD_MLINESTYLE
350
17
  3
ACAD_PLOTSETTINGS
350
19
  3
ACAD_PLOTSTYLENAME
350
E
  3
ACAD_SCALELIST
350
3B
  3
ACAD_TABLESTYLE
350
118
  3
ACAD_VISUALSTYLE
350
2A
  0
DICTIONARY
  5
D
102
{ACAD_REACTORS
330
C
102
}
330
C
100
AcDbDictionary
281
     1
  0
DICTIONARY
  5
1A
102
{ACAD_REACTORS
330
C
102
}
330
C
100
AcDbDictionary
281
     1
  3
Layout1
350
1E
  3
Layout2
350
26
  3
Model
350
22
  0
DICTIONARY
  5
119
102
{ACAD_REACTORS
330
C
102
}
330
C
100
AcDbDictionary
281
     1
  0
DICTIONARY
  5
17
102
{ACAD_REACTORS
330
C
102
}
330
C
100
AcDbDictionary
281
     1
  3
Standard
350
18
  0
DICTIONARY
  5
19
102
{ACAD_REACTORS
330
C
102
}
330
C
100
AcDbDictionary
281
     1
  0
ACDBDICTIONARYWDFLT
  5
E
102
{ACAD_REACTORS
330
C
102
}
330
C
100
AcDbDictionary
281
     1
  3
Normal
350
F
100
AcDbDictionaryWithDefault
340
F
  0
DICTIONARY
  5
3B
102
{ACAD_REACTORS
330
C
102
}
330
C
100
AcDbDictionary
281
     1
  3
A0
350
3C
  3
A1
350
3D
  3
A2
350
3E
  3
A3
350
3F
  3
A4
350
40
  3
A5
350
41
  3
A6
350
42
  3
A7
350
43
  3
A8
350
44
  3
A9
350
45
  3
B0
350
46
  3
B1
350
47
  3
B2
350
48
  3
B3
350
49
  3
B4
350
4A
  3
B5
350
4B
  3
B6
350
4C
  3
B7
350
4D
  3
B8
350
4E
  3
B9
350
4F
  3
C0
350
50
  3
C1
350
51
  3
C2
350
52
  3
C3
350
53
  3
C4
350
54
  3
C5
350
55
  3
C6
350
56
  3
C7
350
57
  3
C8
350
58
  3
C9
350
59
  3
D0
350
5A
  3
D1
350
5B
  3
D2
350
5C
  0
DICTIONARY
  5
118
102
{ACAD_REACTORS
330
C
102
}
330
C
100
AcDbDictionary
281
     1
  0
DICTIONARY
  5
2A
102
{ACAD_REACTORS
330
C
102
}
330
C
100
AcDbDictionary
281
     1
  3
2dWireframe
350
2F
  3
3D Hidden
350
31
  3
3dWireframe
350
30
  3
Basic
350
32
  3
Brighten
350
36
  3
ColorChange
350
3A
  3
Conceptual
350
34
  3
Dim
350
35
  3
Facepattern
350
39
  3
Flat
350
2B
  3
FlatWithEdges
350
2C
  3
Gouraud
350
2D
  3
GouraudWithEdges
350
2E
  3
Linepattern
350
38
  3
Realistic
350
33
  3
Thicken
350
37
  0
LAYOUT
  5
1E
102
{ACAD_REACTORS
330
1A
102
}
330
1A
100
AcDbPlotSettings
  1

  2
none_device
  4

  6

 40
0.0
 41
0.0
 42
0.0
 43
0.0
 44
0.0
 45
0.0
 46
0.0
 47
0.0
 48
0.0
 49
0.0
140
0.0
141
0.0
142
1.0
143
1.0
 70
   688
 72
     0
 73
     0
 74
     5
  7

 75
    16
 76
     0
 77
     2
 78
   300
147
1.0
148
0.0
149
0.0
100
AcDbLayout
  1
Layout1
 70
     1
 71
     1
 10
0.0
 20
0.0
 11
12.0
 21
9.0
 12
0.0
 22
0.0
 32
0.0
 14
1.000000000000000E+20
 24
1.000000000000000E+20
 34
1.000000000000000E+20
 15
-1.000000000000000E+20
 25
-1.000000000000000E+20
 35
-1.000000000000000E+20
146
0.0
 13
0.0
 23
0.0
 33
0.0
 16
1.0
 26
0.0
 36
0.0
 17
0.0
 27
1.0
 37
0.0
 76
     0
330
1B
  0
LAYOUT
  5
26
102
{ACAD_REACTORS
330
1A
102
}
330
1A
100
AcDbPlotSettings
  1

  2
none_device
  4

  6

 40
0.0
 41
0.0
 42
0.0
 43
0.0
 44
0.0
 45
0.0
 46
0.0
 47
0.0
 48
0.0
 49
0.0
140
0.0
141
0.0
142
1.0
143
1.0
 70
   688
 72
     0
 73
     0
 74
     5
  7

 75
    16
 76
     0
 77
     2
 78
   300
147
1.0
148
0.0
149
0.0
100
AcDbLayout
  1
Layout2
 70
     1
 71
     2
 10
0.0
 20
0.0
 11
0.0
 21
0.0
 12
0.0
 22
0.0
 32
0.0
 14
0.0
 24
0.0
 34
0.0
 15
0.0
 25
0.0
 35
0.0
146
0.0
 13
0.0
 23
0.0
 33
0.0
 16
1.0
 26
0.0
 36
0.0
 17
0.0
 27
1.0
 37
0.0
 76
     0
330
23
  0
LAYOUT
  5
22
102
{ACAD_REACTORS
330
1A
102
}
330
1A
100
AcDbPlotSettings
  1

  2
none_device
  4

  6

 40
0.0
 41
0.0
 42
0.0
 43
0.0
 44
0.0
 45
0.0
 46
0.0
 47
0.0
 48
0.0
 49
0.0
140
0.0
141
0.0
142
1.0
143
1.0
 70
  1712
 72
     0
 73
     0
 74
     0
  7

 75
     0
 76
     0
 77
     2
 78
   300
147
1.0
148
0.0
149
0.0
100
AcDbLayout
  1
Model
 70
     1
 71
     0
 10
0.0
 20
0.0
 11
12.0
 21
9.0
 12
0.0
 22
0.0
 32
0.0
 14
161.6415954761145
 24
0.0
 34
0.0
 15
261.5413454761145
 25
226.6916023260907
 35
0.0
146
0.0
 13
0.0
 23
0.0
 33
0.0
 16
1.0
 26
0.0
 36
0.0
 17
0.0
 27
1.0
 37
0.0
 76
     0
330
1F
331
29
  0
MLINESTYLE
  5
18
102
{ACAD_REACTORS
330
17
102
}
330
17
100
AcDbMlineStyle
  2
Standard
 70
     0
  3

 62
   256
 51
90.0
 52
90.0
 71
     2
 49
0.5
 62
   256
  6
BYLAYER
 49
-0.5
 62
   256
  6
BYLAYER
  0
ACDBPLACEHOLDER
  5
F
102
{ACAD_REACTORS
330
E
102
}
330
E
  0
SCALE
  5
3C
102
{ACAD_REACTORS
330
3B
102
}
330
3B
100
AcDbScale
 70
     0
300
1:1
140
1.0
141
1.0
290
     1
  0
SCALE
  5
3D
102
{ACAD_REACTORS
330
3B
102
}
330
3B
100
AcDbScale
 70
     0
300
1:2
140
1.0
141
2.0
290
     0
  0
SCALE
  5
3E
102
{ACAD_REACTORS
330
3B
102
}
330
3B
100
AcDbScale
 70
     0
300
1:4
140
1.0
141
4.0
290
     0
  0
SCALE
  5
3F
102
{ACAD_REACTORS
330
3B
102
}
330
3B
100
AcDbScale
 70
     0
300
1:5
140
1.0
141
5.0
290
     0
  0
SCALE
  5
40
102
{ACAD_REACTORS
330
3B
102
}
330
3B
100
AcDbScale
 70
     0
300
1:8
140
1.0
141
8.0
290
     0
  0
SCALE
  5
41
102
{ACAD_REACTORS
330
3B
102
}
330
3B
100
AcDbScale
 70
     0
300
1:10
140
1.0
141
10.0
290
     0
  0
SCALE
  5
42
102
{ACAD_REACTORS
330
3B
102
}
330
3B
100
AcDbScale
 70
     0
300
1:16
140
1.0
141
16.0
290
     0
  0
SCALE
  5
43
102
{ACAD_REACTORS
330
3B
102
}
330
3B
100
AcDbScale
 70
     0
300
1:20
140
1.0
141
20.0
290
     0
  0
SCALE
  5
44
102
{ACAD_REACTORS
330
3B
102
}
330
3B
100
AcDbScale
 70
     0
300
1:30
140
1.0
141
30.0
290
     0
  0
SCALE
  5
45
102
{ACAD_REACTORS
330
3B
102
}
330
3B
100
AcDbScale
 70
     0
300
1:40
140
1.0
141
40.0
290
     0
  0
SCALE
  5
46
102
{ACAD_REACTORS
330
3B
102
}
330
3B
100
AcDbScale
 70
     0
300
1:50
140
1.0
141
50.0
290
     0
  0
SCALE
  5
47
102
{ACAD_REACTORS
330
3B
102
}
330
3B
100
AcDbScale
 70
     0
300
1:100
140
1.0
141
100.0
290
     0
  0
SCALE
  5
48
102
{ACAD_REACTORS
330
3B
102
}
330
3B
100
AcDbScale
 70
     0
300
2:1
140
2.0
141
1.0
290
     0
  0
SCALE
  5
49
102
{ACAD_REACTORS
330
3B
102
}
330
3B
100
AcDbScale
 70
     0
300
4:1
140
4.0
141
1.0
290
     0
  0
SCALE
  5
4A
102
{ACAD_REACTORS
330
3B
102
}
330
3B
100
AcDbScale
 70
     0
300
8:1
140
8.0
141
1.0
290
     0
  0
SCALE
  5
4B
102
{ACAD_REACTORS
330
3B
102
}
330
3B
100
AcDbScale
 70
     0
300
10:1
140
10.0
141
1.0
290
     0
  0
SCALE
  5
4C
102
{ACAD_REACTORS
330
3B
102
}
330
3B
100
AcDbScale
 70
     0
300
100:1
140
100.0
141
1.0
290
     0
  0
SCALE
  5
4D
102
{ACAD_REACTORS
330
3B
102
}
330
3B
100
AcDbScale
 70
     0
300
1/128" = 1'-0"
140
0.0078125
141
12.0
290
     0
  0
SCALE
  5
4E
102
{ACAD_REACTORS
330
3B
102
}
330
3B
100
AcDbScale
 70
     0
300
1/64" = 1'-0"
140
0.015625
141
12.0
290
     0
  0
SCALE
  5
4F
102
{ACAD_REACTORS
330
3B
102
}
330
3B
100
AcDbScale
 70
     0
300
1/32" = 1'-0"
140
0.03125
141
12.0
290
     0
  0
SCALE
  5
50
102
{ACAD_REACTORS
330
3B
102
}
330
3B
100
AcDbScale
 70
     0
300
1/16" = 1'-0"
140
0.0625
141
12.0
290
     0
  0
SCALE
  5
51
102
{ACAD_REACTORS
330
3B
102
}
330
3B
100
AcDbScale
 70
     0
300
3/32" = 1'-0"
140
0.09375
141
12.0
290
     0
  0
SCALE
  5
52
102
{ACAD_REACTORS
330
3B
102
}
330
3B
100
AcDbScale
 70
     0
300
1/8" = 1'-0"
140
0.125
141
12.0
290
     0
  0
SCALE
  5
53
102
{ACAD_REACTORS
330
3B
102
}
330
3B
100
AcDbScale
 70
     0
300
3/16" = 1'-0"
140
0.1875
141
12.0
290
     0
  0
SCALE
  5
54
102
{ACAD_REACTORS
330
3B
102
}
330
3B
100
AcDbScale
 70
     0
300
1/4" = 1'-0"
140
0.25
141
12.0
290
     0
  0
SCALE
  5
55
102
{ACAD_REACTORS
330
3B
102
}
330
3B
100
AcDbScale
 70
     0
300
3/8" = 1'-0"
140
0.375
141
12.0
290
     0
  0
SCALE
  5
56
102
{ACAD_REACTORS
330
3B
102
}
330
3B
100
AcDbScale
 70
     0
300
1/2" = 1'-0"
140
0.5
141
12.0
290
     0
  0
SCALE
  5
57
102
{ACAD_REACTORS
330
3B
102
}
330
3B
100
AcDbScale
 70
     0
300
3/4" = 1'-0"
140
0.75
141
12.0
290
     0
  0
SCALE
  5
58
102
{ACAD_REACTORS
330
3B
102
}
330
3B
100
AcDbScale
 70
     0
300
1" = 1'-0"
140
1.0
141
12.0
290
     0
  0
SCALE
  5
59
102
{ACAD_REACTORS
330
3B
102
}
330
3B
100
AcDbScale
 70
     0
300
1-1/2" = 1'-0"
140
1.5
141
12.0
290
     0
  0
SCALE
  5
5A
102
{ACAD_REACTORS
330
3B
102
}
330
3B
100
AcDbScale
 70
     0
300
3" = 1'-0"
140
3.0
141
12.0
290
     0
  0
SCALE
  5
5B
102
{ACAD_REACTORS
330
3B
102
}
330
3B
100
AcDbScale
 70
     0
300
6" = 1'-0"
140
6.0
141
12.0
290
     0
  0
SCALE
  5
5C
102
{ACAD_REACTORS
330
3B
102
}
330
3B
100
AcDbScale
 70
     0
300
1'-0" = 1'-0"
140
12.0
141
12.0
290
     0
  0
VISUALSTYLE
  5
2F
102
{ACAD_REACTORS
330
2A
102
}
330
2A
100
AcDbVisualStyle
  2
2dWireframe
 70
     4
 71
     0
 72
     2
 73
     0
 90
        0
 40
-0.6
 41
-30.0
 62
     5
 63
     7
421
 16777215
 74
     1
 91
        4
 64
     7
 65
   257
 75
     1
175
     1
 42
1.0
 92
        0
 66
   257
 43
1.0
 76
     1
 77
     6
 78
     2
 67
     7
 79
     5
170
     0
171
     0
290
     0
174
     0
 93
        1
 44
0.0
173
     0
291
     0
 45
0.0
1001
ACAD
1000
AcDbSavedByObjectVersion
1070
     0
  0
VISUALSTYLE
  5
31
102
{ACAD_REACTORS
330
2A
102
}
330
2A
100
AcDbVisualStyle
  2
3D Hidden
 70
     6
 71
     1
 72
     2
 73
     2
 90
        0
 40
-0.6
 41
-30.0
 62
     5
 63
     7
421
 16777215
 74
     2
 91
        2
 64
     7
 65
   257
 75
     2
175
     1
 42
40.0
 92
        0
 66
   257
 43
1.0
 76
     1
 77
     6
 78
     2
 67
     7
 79
     3
170
     0
171
     0
290
     0
174
     0
 93
        1
 44
0.0
173
     0
291
     0
 45
0.0
1001
ACAD
1000
AcDbSavedByObjectVersion
1070
     0
  0
VISUALSTYLE
  5
30
102
{ACAD_REACTORS
330
2A
102
}
330
2A
100
AcDbVisualStyle
  2
3dWireframe
 70
     5
 71
     0
 72
     2
 73
     0
 90
        0
 40
-0.6
 41
-30.0
 62
     5
 63
     7
421
 16777215
 74
     1
 91
        4
 64
     7
 65
   257
 75
     1
175
     1
 42
1.0
 92
        0
 66
   257
 43
1.0
 76
     1
 77
     6
 78
     2
 67
     7
 79
     5
170
     0
171
     0
290
     0
174
     0
 93
        1
 44
0.0
173
     0
291
     0
 45
0.0
1001
ACAD
1000
AcDbSavedByObjectVersion
1070
     0
  0
VISUALSTYLE
  5
32
102
{ACAD_REACTORS
330
2A
102
}
330
2A
100
AcDbVisualStyle
  2
Basic
 70
     7
 71
     1
 72
     0
 73
     1
 90
        0
 40
-0.6
 41
-30.0
 62
     5
 63
     7
421
 16777215
 74
     0
 91
        4
 64
     7
 65
   257
 75
     1
175
     1
 42
1.0
 92
        8
 66
     7
 43
1.0
 76
     1
 77
     6
 78
     2
 67
     7
 79
     5
170
     0
171
     0
290
     0
174
     0
 93
        1
 44
0.0
173
     0
291
     1
 45
0.0
1001
ACAD
1000
AcDbSavedByObjectVersion
1070
     0
  0
VISUALSTYLE
  5
36
102
{ACAD_REACTORS
330
2A
102
}
330
2A
100
AcDbVisualStyle
  2
Brighten
 70
    12
 71
     2
 72
     2
 73
     0
 90
        0
 40
-0.6
 41
-30.0
 62
     5
 63
     7
421
 16777215
 74
     1
 91
        4
 64
     7
 65
   257
 75
     1
175
     1
 42
1.0
 92
        8
 66
     7
 43
1.0
 76
     1
 77
     6
 78
     2
 67
     7
 79
     5
170
     0
171
     0
290
     0
174
     0
 93
        1
 44
50.0
173
     0
291
     1
 45
0.0
1001
ACAD
1000
AcDbSavedByObjectVersion
1070
     0
  0
VISUALSTYLE
  5
3A
102
{ACAD_REACTORS
330
2A
102
}
330
2A
100
AcDbVisualStyle
  2
ColorChange
 70
    16
 71
     2
 72
     2
 73
     3
 90
        0
 40
-0.6
 41
-30.0
 62
     5
 63
     8
421
  8421504
 74
     1
 91
        4
 64
     7
 65
   257
 75
     1
175
     1
 42
1.0
 92
        8
 66
     8
424
  8421504
 43
1.0
 76
     1
 77
     6
 78
     2
 67
     7
 79
     5
170
     0
171
     0
290
     0
174
     0
 93
        1
 44
0.0
173
     0
291
     1
 45
0.0
1001
ACAD
1000
AcDbSavedByObjectVersion
1070
     0
  0
VISUALSTYLE
  5
34
102
{ACAD_REACTORS
330
2A
102
}
330
2A
100
AcDbVisualStyle
  2
Conceptual
 70
     9
 71
     3
 72
     2
 73
     0
 90
        0
 40
-0.6
 41
-30.0
 62
     5
 63
     7
421
 16777215
 74
     2
 91
        2
 64
     7
 65
   257
 75
     1
175
     1
 42
40.0
 92
        8
 66
     7
 43
1.0
 76
     1
 77
     6
 78
     2
 67
     7
 79
     3
170
     0
171
     0
290
     0
174
     0
 93
        1
 44
0.0
173
     0
291
     0
 45
0.0
1001
ACAD
1000
AcDbSavedByObjectVersion
1070
     0
  0
VISUALSTYLE
  5
35
102
{ACAD_REACTORS
330
2A
102
}
330
2A
100
AcDbVisualStyle
  2
Dim
 70
    11
 71
     2
 72
     2
 73
     0
 90
        0
 40
-0.6
 41
-30.0
 62
     5
 63
     7
421
 16777215
 74
     1
 91
        4
 64
     7
 65
   257
 75
     1
175
     1
 42
1.0
 92
        8
 66
     7
 43
1.0
 76
     1
 77
     6
 78
     2
 67
     7
 79
     5
170
     0
171
     0
290
     0
174
     0
 93
        1
 44
-50.0
173
     0
291
     1
 45
0.0
1001
ACAD
1000
AcDbSavedByObjectVersion
1070
     0
  0
VISUALSTYLE
  5
39
102
{ACAD_REACTORS
330
2A
102
}
330
2A
100
AcDbVisualStyle
  2
Facepattern
 70
    15
 71
     2
 72
     2
 73
     0
 90
        0
 40
-0.6
 41
-30.0
 62
     5
 63
     7
421
 16777215
 74
     1
 91
        4
 64
     7
 65
   257
 75
     1
175
     1
 42
1.0
 92
        8
 66
     7
 43
1.0
 76
     1
 77
     6
 78
     2
 67
     7
 79
     5
170
     0
171
     0
290
     0
174
     0
 93
        1
 44
0.0
173
     0
291
     1
 45
0.0
1001
ACAD
1000
AcDbSavedByObjectVersion
1070
     0
  0
VISUALSTYLE
  5
2B
102
{ACAD_REACTORS
330
2A
102
}
330
2A
100
AcDbVisualStyle
  2
Flat
 70
     0
 71
     2
 72
     1
 73
     1
 90
        2
 40
-0.6
 41
30.0
 62
     5
 63
     7
421
 16777215
 74
     0
 91
        4
 64
     7
 65
   257
 75
     1
175
     1
 42
1.0
 92
        8
 66
     7
 43
1.0
 76
     1
 77
     6
 78
     2
 67
     7
 79
     5
170
     0
171
     0
290
     0
174
     0
 93
       13
 44
0.0
173
     0
291
     1
 45
0.0
1001
ACAD
1000
AcDbSavedByObjectVersion
1070
     0
  0
VISUALSTYLE
  5
2C
102
{ACAD_REACTORS
330
2A
102
}
330
2A
100
AcDbVisualStyle
  2
FlatWithEdges
 70
     1
 71
     2
 72
     1
 73
     1
 90
        2
 40
-0.6
 41
30.0
 62
     5
 63
     7
421
 16777215
 74
     1
 91
        4
 64
     7
 65
   257
 75
     1
175
     1
 42
1.0
 92
        0
 66
   257
 43
1.0
 76
     1
 77
     6
 78
     2
 67
     7
 79
     5
170
     0
171
     0
290
     0
174
     0
 93
       13
 44
0.0
173
     0
291
     1
 45
0.0
1001
ACAD
1000
AcDbSavedByObjectVersion
1070
     0
  0
VISUALSTYLE
  5
2D
102
{ACAD_REACTORS
330
2A
102
}
330
2A
100
AcDbVisualStyle
  2
Gouraud
 70
     2
 71
     2
 72
     2
 73
     1
 90
        2
 40
-0.6
 41
30.0
 62
     5
 63
     7
421
 16777215
 74
     0
 91
        4
 64
     7
 65
   257
 75
     1
175
     1
 42
1.0
 92
        0
 66
     7
 43
1.0
 76
     1
 77
     6
 78
     2
 67
     7
 79
     5
170
     0
171
     0
290
     0
174
     0
 93
       13
 44
0.0
173
     0
291
     1
 45
0.0
1001
ACAD
1000
AcDbSavedByObjectVersion
1070
     0
  0
VISUALSTYLE
  5
2E
102
{ACAD_REACTORS
330
2A
102
}
330
2A
100
AcDbVisualStyle
  2
GouraudWithEdges
 70
     3
 71
     2
 72
     2
 73
     1
 90
        2
 40
-0.6
 41
30.0
 62
     5
 63
     7
421
 16777215
 74
     1
 91
        4
 64
     7
 65
   257
 75
     1
175
     1
 42
1.0
 92
        0
 66
   257
 43
1.0
 76
     1
 77
     6
 78
     2
 67
     7
 79
     5
170
     0
171
     0
290
     0
174
     0
 93
       13
 44
0.0
173
     0
291
     1
 45
0.0
1001
ACAD
1000
AcDbSavedByObjectVersion
1070
     0
  0
VISUALSTYLE
  5
38
102
{ACAD_REACTORS
330
2A
102
}
330
2A
100
AcDbVisualStyle
  2
Linepattern
 70
    14
 71
     2
 72
     2
 73
     0
 90
        0
 40
-0.6
 41
-30.0
 62
     5
 63
     7
421
 16777215
 74
     1
 91
        4
 64
     7
 65
   257
 75
     7
175
     7
 42
1.0
 92
        8
 66
     7
 43
1.0
 76
     1
 77
     6
 78
     2
 67
     7
 79
     5
170
     0
171
     0
290
     0
174
     0
 93
        1
 44
0.0
173
     0
291
     1
 45
0.0
1001
ACAD
1000
AcDbSavedByObjectVersion
1070
     0
  0
VISUALSTYLE
  5
33
102
{ACAD_REACTORS
330
2A
102
}
330
2A
100
AcDbVisualStyle
  2
Realistic
 70
     8
 71
     2
 72
     2
 73
     0
 90
        0
 40
-0.6
 41
-30.0
 62
     5
 63
     7
421
 16777215
 74
     1
 91
        0
 64
     7
 65
   257
 75
     1
175
     1
 42
1.0
 92
        8
 66
     8
424
  7895160
 43
1.0
 76
     1
 77
     6
 78
     2
 67
     7
 79
     5
170
     0
171
     0
290
     0
174
     0
 93
       13
 44
0.0
173
     0
291
     0
 45
0.0
1001
ACAD
1000
AcDbSavedByObjectVersion
1070
     0
  0
VISUALSTYLE
  5
37
102
{ACAD_REACTORS
330
2A
102
}
330
2A
100
AcDbVisualStyle
  2
Thicken
 70
    13
 71
     2
 72
     2
 73
     0
 90
        0
 40
-0.6
 41
-30.0
 62
     5
 63
     7
421
 16777215
 74
     1
 91
        4
 64
     7
 65
   257
 75
     1
175
     1
 42
1.0
 92
       12
 66
     7
 43
1.0
 76
     1
 77
     6
 78
     2
 67
     7
 79
     5
170
     0
171
     0
290
     0
174
     0
 93
        1
 44
0.0
173
     0
291
     1
 45
0.0
1001
ACAD
1000
AcDbSavedByObjectVersion
1070
     0
  0
ENDSEC
  0
EOF
