  0
SECTION
  2
HEADER
  9
$ACADVER
  1
AC1018
  9
$ACADMAINTVER
 70
     0
  9
$DWGCODEPAGE
  3
ANSI_1252
  9
$INSBASE
 10
0.0
 20
0.0
 30
0.0
  9
$EXTMIN
 10
0.0171384691740518
 20
0.0149588065338253
 30
0.0
  9
$EXTMAX
 10
1063.719353633784
 20
970.1745689469572
 30
0.0
  9
$LIMMIN
 10
0.0
 20
0.0
  9
$LIMMAX
 10
12.0
 20
9.0
  9
$ORTHOMODE
 70
     0
  9
$REGENMODE
 70
     1
  9
$FILLMODE
 70
     1
  9
$QTEXTMODE
 70
     0
  9
$MIRRTEXT
 70
     1
  9
$LTSCALE
 40
1.0
  9
$ATTMODE
 70
     1
  9
$TEXTSIZE
 40
0.2
  9
$TRACEWID
 40
0.05
  9
$TEXTSTYLE
  7
Standard
  9
$CLAYER
  8
Predefinito
  9
$CELTYPE
  6
ByLayer
  9
$CECOLOR
 62
   256
  9
$CELTSCALE
 40
1.0
  9
$DISPSILH
 70
     0
  9
$DIMSCALE
 40
1.0
  9
$DIMASZ
 40
0.18
  9
$DIMEXO
 40
0.0625
  9
$DIMDLI
 40
0.38
  9
$DIMRND
 40
0.0
  9
$DIMDLE
 40
0.0
  9
$DIMEXE
 40
0.18
  9
$DIMTP
 40
0.0
  9
$DIMTM
 40
0.0
  9
$DIMTXT
 40
0.18
  9
$DIMCEN
 40
0.09
  9
$DIMTSZ
 40
0.0
  9
$DIMTOL
 70
     0
  9
$DIMLIM
 70
     0
  9
$DIMTIH
 70
     1
  9
$DIMTOH
 70
     1
  9
$DIMSE1
 70
     0
  9
$DIMSE2
 70
     0
  9
$DIMTAD
 70
     0
  9
$DIMZIN
 70
     0
  9
$DIMBLK
  1

  9
$DIMASO
 70
     1
  9
$DIMSHO
 70
     1
  9
$DIMPOST
  1

  9
$DIMAPOST
  1

  9
$DIMALT
 70
     0
  9
$DIMALTD
 70
     2
  9
$DIMALTF
 40
25.4
  9
$DIMLFAC
 40
1.0
  9
$DIMTOFL
 70
     0
  9
$DIMTVP
 40
0.0
  9
$DIMTIX
 70
     0
  9
$DIMSOXD
 70
     0
  9
$DIMSAH
 70
     0
  9
$DIMBLK1
  1

  9
$DIMBLK2
  1

  9
$DIMSTYLE
  2
Standard
  9
$DIMCLRD
 70
     0
  9
$DIMCLRE
 70
     0
  9
$DIMCLRT
 70
     0
  9
$DIMTFAC
 40
1.0
  9
$DIMGAP
 40
0.09
  9
$DIMJUST
 70
     0
  9
$DIMSD1
 70
     0
  9
$DIMSD2
 70
     0
  9
$DIMTOLJ
 70
     1
  9
$DIMTZIN
 70
     0
  9
$DIMALTZ
 70
     0
  9
$DIMALTTZ
 70
     0
  9
$DIMUPT
 70
     0
  9
$DIMDEC
 70
     4
  9
$DIMTDEC
 70
     4
  9
$DIMALTU
 70
     2
  9
$DIMALTTD
 70
     2
  9
$DIMTXSTY
  7
Standard
  9
$DIMAUNIT
 70
     0
  9
$DIMADEC
 70
     0
  9
$DIMALTRND
 40
0.0
  9
$DIMAZIN
 70
     0
  9
$DIMDSEP
 70
    46
  9
$DIMATFIT
 70
     3
  9
$DIMFRAC
 70
     0
  9
$DIMLDRBLK
  1

  9
$DIMLUNIT
 70
     2
  9
$DIMLWD
 70
    -2
  9
$DIMLWE
 70
    -2
  9
$DIMTMOVE
 70
     2
  9
$LUNITS
 70
     2
  9
$LUPREC
 70
     3
  9
$SKETCHINC
 40
0.1
  9
$FILLETRAD
 40
0.5
  9
$AUNITS
 70
     0
  9
$AUPREC
 70
     0
  9
$MENU
  1
.
  9
$ELEVATION
 40
0.0
  9
$PELEVATION
 40
0.0
  9
$THICKNESS
 40
0.0
  9
$LIMCHECK
 70
     0
  9
$CHAMFERA
 40
0.5
  9
$CHAMFERB
 40
0.5
  9
$CHAMFERC
 40
1.0
  9
$CHAMFERD
 40
0.0
  9
$SKPOLY
 70
     0
  9
$TDCREATE
 40
2458320.47451838
  9
$TDUCREATE
 40
2458320.391185046
  9
$TDUPDATE
 40
2458320.474518391
  9
$TDUUPDATE
 40
2458320.391185058
  9
$TDINDWG
 40
0.0000000116
  9
$TDUSRTIMER
 40
0.0000000116
  9
$USRTIMER
 70
     1
  9
$ANGBASE
 50
0.0
  9
$ANGDIR
 70
     0
  9
$PDMODE
 70
     0
  9
$PDSIZE
 40
0.0
  9
$PLINEWID
 40
0.0
  9
$SPLFRAME
 70
     0
  9
$SPLINETYPE
 70
     6
  9
$SPLINESEGS
 70
     8
  9
$HANDSEED
  5
C7
  9
$SURFTAB1
 70
     6
  9
$SURFTAB2
 70
     6
  9
$SURFTYPE
 70
     6
  9
$SURFU
 70
     6
  9
$SURFV
 70
     6
  9
$UCSBASE
  2

  9
$UCSNAME
  2

  9
$UCSORG
 10
0.0
 20
0.0
 30
0.0
  9
$UCSXDIR
 10
1.0
 20
0.0
 30
0.0
  9
$UCSYDIR
 10
0.0
 20
1.0
 30
0.0
  9
$UCSORTHOREF
  2

  9
$UCSORTHOVIEW
 70
     0
  9
$UCSORGTOP
 10
0.0
 20
0.0
 30
0.0
  9
$UCSORGBOTTOM
 10
0.0
 20
0.0
 30
0.0
  9
$UCSORGLEFT
 10
0.0
 20
0.0
 30
0.0
  9
$UCSORGRIGHT
 10
0.0
 20
0.0
 30
0.0
  9
$UCSORGFRONT
 10
0.0
 20
0.0
 30
0.0
  9
$UCSORGBACK
 10
0.0
 20
0.0
 30
0.0
  9
$PUCSBASE
  2

  9
$PUCSNAME
  2

  9
$PUCSORG
 10
0.0
 20
0.0
 30
0.0
  9
$PUCSXDIR
 10
1.0
 20
0.0
 30
0.0
  9
$PUCSYDIR
 10
0.0
 20
1.0
 30
0.0
  9
$PUCSORTHOREF
  2

  9
$PUCSORTHOVIEW
 70
     0
  9
$PUCSORGTOP
 10
0.0
 20
0.0
 30
0.0
  9
$PUCSORGBOTTOM
 10
0.0
 20
0.0
 30
0.0
  9
$PUCSORGLEFT
 10
0.0
 20
0.0
 30
0.0
  9
$PUCSORGRIGHT
 10
0.0
 20
0.0
 30
0.0
  9
$PUCSORGFRONT
 10
0.0
 20
0.0
 30
0.0
  9
$PUCSORGBACK
 10
0.0
 20
0.0
 30
0.0
  9
$USERI1
 70
     0
  9
$USERI2
 70
     0
  9
$USERI3
 70
     0
  9
$USERI4
 70
     0
  9
$USERI5
 70
     0
  9
$USERR1
 40
0.0
  9
$USERR2
 40
0.0
  9
$USERR3
 40
0.0
  9
$USERR4
 40
0.0
  9
$USERR5
 40
0.0
  9
$WORLDVIEW
 70
     1
  9
$SHADEDGE
 70
     3
  9
$SHADEDIF
 70
    70
  9
$TILEMODE
 70
     1
  9
$MAXACTVP
 70
    64
  9
$PINSBASE
 10
0.0
 20
0.0
 30
0.0
  9
$PLIMCHECK
 70
     0
  9
$PEXTMIN
 10
1.000000000000000E+20
 20
1.000000000000000E+20
 30
1.000000000000000E+20
  9
$PEXTMAX
 10
-1.000000000000000E+20
 20
-1.000000000000000E+20
 30
-1.000000000000000E+20
  9
$PLIMMIN
 10
0.0
 20
0.0
  9
$PLIMMAX
 10
12.0
 20
9.0
  9
$UNITMODE
 70
     0
  9
$VISRETAIN
 70
     1
  9
$PLINEGEN
 70
     0
  9
$PSLTSCALE
 70
     1
  9
$TREEDEPTH
 70
  3020
  9
$CMLSTYLE
  2
Standard
  9
$CMLJUST
 70
     0
  9
$CMLSCALE
 40
1.0
  9
$PROXYGRAPHICS
 70
     1
  9
$MEASUREMENT
 70
     0
  9
$CELWEIGHT
370
    -1
  9
$ENDCAPS
280
     0
  9
$JOINSTYLE
280
     0
  9
$LWDISPLAY
290
     0
  9
$INSUNITS
 70
     4
  9
$HYPERLINKBASE
  1

  9
$STYLESHEET
  1

  9
$XEDIT
290
     1
  9
$CEPSNTYPE
380
     0
  9
$PSTYLEMODE
290
     1
  9
$FINGERPRINTGUID
  2
{5CD8F184-A04C-48F4-B7A0-DE16EF9506BB}
  9
$VERSIONGUID
  2
{FAEB1C32-E019-11D5-929B-00C0DF256EC4}
  9
$EXTNAMES
290
     1
  9
$PSVPSCALE
 40
0.0
  9
$OLESTARTUP
290
     0
  9
$SORTENTS
280
   127
  9
$INDEXCTL
280
     0
  9
$HIDETEXT
280
     1
  9
$XCLIPFRAME
290
     0
  9
$HALOGAP
280
     0
  9
$OBSCOLOR
 70
   257
  9
$OBSLTYPE
280
     0
  9
$INTERSECTIONDISPLAY
280
     0
  9
$INTERSECTIONCOLOR
 70
   257
  9
$DIMASSOC
280
     2
  9
$PROJECTNAME
  1

  0
ENDSEC
  0
SECTION
  2
CLASSES
  0
CLASS
  1
ACDBDICTIONARYWDFLT
  2
AcDbDictionaryWithDefault
  3
ObjectDBX Classes
 90
        0
 91
        4
280
     0
281
     0
  0
CLASS
  1
VISUALSTYLE
  2
AcDbVisualStyle
  3
ObjectDBX Classes
 90
     4095
 91
        4
280
     0
281
     0
  0
ENDSEC
  0
SECTION
  2
TABLES
  0
TABLE
  2
VPORT
  5
8
330
0
100
AcDbSymbolTable
 70
     1
  0
VPORT
  5
29
330
8
100
AcDbSymbolTableRecord
100
AcDbViewportTableRecord
  2
*Active
 70
     0
 10
0.0
 20
0.0
 11
1.0
 21
1.0
 12
531.868246051479
 22
485.0947638767455
 13
0.0
 23
0.0
 14
0.5
 24
0.5
 15
0.5
 25
0.5
 16
0.0
 26
0.0
 36
1.0
 17
0.0
 27
0.0
 37
0.0
 40
989.5628023432317
 41
1.096419809736922
 42
50.0
 43
0.0
 44
0.0
 50
0.0
 51
0.0
 71
     0
 72
   100
 73
     1
 74
     3
 75
     0
 76
     0
 77
     0
 78
     0
281
     0
 65
     1
110
0.0
120
0.0
130
0.0
111
1.0
121
0.0
131
0.0
112
0.0
122
1.0
132
0.0
 79
     0
146
0.0
  0
ENDTAB
  0
TABLE
  2
LTYPE
  5
5
330
0
100
AcDbSymbolTable
 70
     1
  0
LTYPE
  5
14
330
5
100
AcDbSymbolTableRecord
100
AcDbLinetypeTableRecord
  2
ByBlock
 70
     0
  3

 72
    65
 73
     0
 40
0.0
  0
LTYPE
  5
15
330
5
100
AcDbSymbolTableRecord
100
AcDbLinetypeTableRecord
  2
ByLayer
 70
     0
  3

 72
    65
 73
     0
 40
0.0
  0
LTYPE
  5
16
330
5
100
AcDbSymbolTableRecord
100
AcDbLinetypeTableRecord
  2
Continuous
 70
     0
  3
Solid line
 72
    65
 73
     0
 40
0.0
  0
ENDTAB
  0
TABLE
  2
LAYER
  5
2
330
0
100
AcDbSymbolTable
 70
     2
  0
LAYER
  5
10
330
2
100
AcDbSymbolTableRecord
100
AcDbLayerTableRecord
  2
0
 70
     0
 62
     7
  6
Continuous
370
    -3
390
F
  0
LAYER
  5
3B
330
2
100
AcDbSymbolTableRecord
100
AcDbLayerTableRecord
  2
Predefinito
 70
     0
 62
     7
  6
Continuous
370
    -3
390
F
  0
ENDTAB
  0
TABLE
  2
STYLE
  5
3
330
0
100
AcDbSymbolTable
 70
     1
  0
STYLE
  5
11
330
3
100
AcDbSymbolTableRecord
100
AcDbTextStyleTableRecord
  2
Standard
 70
     0
 40
0.0
 41
1.0
 50
0.0
 71
     0
 42
0.2
  3
txt
  4

  0
ENDTAB
  0
TABLE
  2
VIEW
  5
6
330
0
100
AcDbSymbolTable
 70
     0
  0
ENDTAB
  0
TABLE
  2
UCS
  5
7
330
0
100
AcDbSymbolTable
 70
     0
  0
ENDTAB
  0
TABLE
  2
APPID
  5
9
330
0
100
AcDbSymbolTable
 70
     1
  0
APPID
  5
12
330
9
100
AcDbSymbolTableRecord
100
AcDbRegAppTableRecord
  2
ACAD
 70
     0
  0
ENDTAB
  0
TABLE
  2
DIMSTYLE
  5
A
330
0
100
AcDbSymbolTable
 70
     1
100
AcDbDimStyleTable
  0
DIMSTYLE
105
27
330
A
100
AcDbSymbolTableRecord
100
AcDbDimStyleTableRecord
  2
Standard
 70
     0
340
11
  0
ENDTAB
  0
TABLE
  2
BLOCK_RECORD
  5
1
330
0
100
AcDbSymbolTable
 70
     1
  0
BLOCK_RECORD
  5
1F
330
1
100
AcDbSymbolTableRecord
100
AcDbBlockTableRecord
  2
*Model_Space
340
22
  0
BLOCK_RECORD
  5
1B
330
1
100
AcDbSymbolTableRecord
100
AcDbBlockTableRecord
  2
*Paper_Space
340
1E
  0
BLOCK_RECORD
  5
23
330
1
100
AcDbSymbolTableRecord
100
AcDbBlockTableRecord
  2
*Paper_Space0
340
26
  0
ENDTAB
  0
ENDSEC
  0
SECTION
  2
BLOCKS
  0
BLOCK
  5
20
330
1F
100
AcDbEntity
  8
0
100
AcDbBlockBegin
  2
*Model_Space
 70
     0
 10
0.0
 20
0.0
 30
0.0
  3
*Model_Space
  1

  0
ENDBLK
  5
21
330
1F
100
AcDbEntity
  8
0
100
AcDbBlockEnd
  0
BLOCK
  5
1C
330
1B
100
AcDbEntity
 67
     1
  8
0
100
AcDbBlockBegin
  2
*Paper_Space
 70
     0
 10
0.0
 20
0.0
 30
0.0
  3
*Paper_Space
  1

  0
ENDBLK
  5
1D
330
1B
100
AcDbEntity
 67
     1
  8
0
100
AcDbBlockEnd
  0
BLOCK
  5
24
330
23
100
AcDbEntity
  8
0
100
AcDbBlockBegin
  2
*Paper_Space0
 70
     0
 10
0.0
 20
0.0
 30
0.0
  3
*Paper_Space0
  1

  0
ENDBLK
  5
25
330
23
100
AcDbEntity
  8
0
100
AcDbBlockEnd
  0
ENDSEC
  0
SECTION
  2
ENTITIES
  0
SPLINE
  5
3C
330
1F
100
AcDbEntity
  8
Predefinito
100
AcDbSpline
210
0.0
220
0.0
230
1.0
 70
    12
 71
     3
 72
     8
 73
     4
 74
     0
 42
0.0000000001
 43
0.0000000001
 40
-1.0
 40
-1.0
 40
-1.0
 40
-1.0
 40
-0.8525408642582919
 40
-0.8525408642582919
 40
-0.8525408642582919
 40
-0.8525408642582919
 10
262.5393769708268
 20
671.1742831206868
 30
0.0
 41
1.0
 10
258.4470020336846
 20
668.8565114889882
 30
0.0
 41
1.0
 10
256.2851948548478
 20
666.8847637137912
 30
0.0
 41
1.0
 10
256.2721873551085
 20
665.7201388282047
 30
0.0
 41
1.0
  0
SPLINE
  5
3D
330
1F
100
AcDbEntity
  8
Predefinito
100
AcDbSpline
210
0.0
220
0.0
230
1.0
 70
    12
 71
     2
 72
     6
 73
     3
 74
     0
 42
0.0000000001
 43
0.0000000001
 40
0.0
 40
0.0
 40
0.0
 40
13.12127493555437
 40
13.12127493555437
 40
13.12127493555437
 10
274.5225140670105
 20
676.4816883903901
 30
0.0
 41
1.0
 10
268.3077386370977
 20
674.331945511719
 30
0.0
 41
0.9964812881677628
 10
262.5393769708268
 20
671.1742831206868
 30
0.0
 41
1.0
  0
SPLINE
  5
3E
330
1F
100
AcDbEntity
  8
Predefinito
100
AcDbSpline
210
0.0
220
0.0
230
1.0
 70
    12
 71
     2
 72
     6
 73
     3
 74
     0
 42
0.0000000001
 43
0.0000000001
 40
0.0
 40
0.0
 40
0.0
 40
10.33052969097729
 40
10.33052969097729
 40
10.33052969097729
 10
284.5532509018518
 20
678.8421371840092
 30
0.0
 41
1.0
 10
279.3926203522849
 20
678.2792048138539
 30
0.0
 41
0.992510629094731
 10
274.5225140670105
 20
676.4816883903901
 30
0.0
 41
1.0
  0
SPLINE
  5
3F
330
1F
100
AcDbEntity
  8
Predefinito
100
AcDbSpline
210
0.0
220
0.0
230
1.0
 70
    12
 71
     3
 72
     8
 73
     4
 74
     0
 42
0.0000000001
 43
0.0000000001
 40
-0.3254566718226926
 40
-0.3254566718226926
 40
-0.3254566718226926
 40
-0.3254566718226926
 40
-0.2500002562453486
 40
-0.2500002562453486
 40
-0.2500002562453486
 40
-0.2500002562453486
 10
287.4934555298053
 20
678.2988727758578
 30
0.0
 41
1.0
 10
287.0765434258965
 20
678.7378946608251
 30
0.0
 41
1.0
 10
286.0806914770184
 20
678.9319999714834
 30
0.0
 41
1.0
 10
284.5532509018518
 20
678.8421371840092
 30
0.0
 41
1.0
  0
SPLINE
  5
40
330
1F
100
AcDbEntity
  8
Predefinito
100
AcDbSpline
210
0.0
220
0.0
230
1.0
 70
    12
 71
     2
 72
    12
 73
     9
 74
     0
 42
0.0000000001
 43
0.0000000001
 40
0.0
 40
0.0
 40
0.0
 40
14.33356506414226
 40
14.33356506414226
 40
28.66713012828452
 40
28.66713012828452
 40
43.00069519242678
 40
43.00069519242678
 40
57.33426025656904
 40
57.33426025656904
 40
57.33426025656904
 10
121.3271045412483
 20
821.8055171909323
 30
0.0
 41
1.0
 10
113.7676785692841
 20
821.8054770262778
 30
0.0
 41
0.9238790231542536
 10
108.4223430312475
 20
827.1507842216616
 30
0.0
 41
1.0
 10
103.0770074932108
 20
832.4960914170454
 30
0.0
 41
0.9238790231542536
 10
103.0770075753011
 20
840.0555173891163
 30
0.0
 41
1.0
 10
103.0770076573915
 20
847.614943361187
 30
0.0
 41
0.9238790231542536
 10
108.422343311521
 20
852.9602504404774
 30
0.0
 41
1.0
 10
113.7676789656506
 20
858.3055575197676
 30
0.0
 41
0.9238790231542536
 10
121.3271049376138
 20
858.3055171909326
 30
0.0
 41
1.0
  0
SPLINE
  5
41
330
1F
100
AcDbEntity
  8
Predefinito
100
AcDbSpline
210
0.0
220
0.0
230
1.0
 70
    12
 71
     2
 72
     6
 73
     3
 74
     0
 42
0.0000000001
 43
0.0000000001
 40
0.0
 40
0.0
 40
0.0
 40
24.94338981638517
 40
24.94338981638517
 40
24.94338981638517
 10
139.1986028664235
 20
836.357938389855
 30
0.0
 41
1.0
 10
136.1871480915571
 20
821.8062408046874
 30
0.0
 41
0.7754683263858706
 10
121.3271089951206
 20
821.8055171909324
 30
0.0
 41
1.0
  0
SPLINE
  5
42
330
1F
100
AcDbEntity
  8
Predefinito
100
AcDbSpline
210
0.0
220
0.0
230
1.0
 70
    12
 71
     2
 72
     6
 73
     3
 74
     0
 42
0.0000000001
 43
0.0000000001
 40
0.0
 40
0.0
 40
0.0
 40
19.45557588802028
 40
19.45557588802028
 40
19.45557588802028
 10
121.3271085987651
 20
858.3055171909324
 30
0.0
 41
1.0
 10
132.0945350516227
 20
858.3055680023136
 30
0.0
 41
0.8612669424534531
 10
137.3012923314097
 20
848.8807522985629
 30
0.0
 41
1.0
  0
SPLINE
  5
43
330
1F
100
AcDbEntity
  8
Predefinito
100
AcDbSpline
210
0.0
220
0.0
230
1.0
 70
    24
 71
     2
 72
     6
 73
     3
 74
     0
 42
0.0000000001
 43
0.0000000001
 40
0.0
 40
0.0
 40
0.0
 40
3.827882716824617
 40
3.827882716824617
 40
3.827882716824617
 10
19.06777504444119
 20
927.7968484503036
 30
0.0
 10
17.27362933511261
 20
928.4633412838277
 30
0.0
 10
15.47948362578403
 20
929.1298341173518
 30
0.0
  0
SPLINE
  5
44
330
1F
100
AcDbEntity
  8
Predefinito
100
AcDbSpline
210
0.0
220
0.0
230
1.0
 70
    24
 71
     2
 72
     6
 73
     3
 74
     0
 42
0.0000000001
 43
0.0000000001
 40
0.0
 40
0.0
 40
0.0
 40
15.74535605528686
 40
15.74535605528686
 40
15.74535605528686
 10
15.31813934856621
 20
929.1897706118832
 30
0.0
 10
18.0596462724876
 20
936.5696892505289
 30
0.0
 10
20.801153196409
 20
943.9496078891747
 30
0.0
  0
SPLINE
  5
45
330
1F
100
AcDbEntity
  8
Predefinito
100
AcDbSpline
210
0.0
220
0.0
230
1.0
 70
    12
 71
     2
 72
     6
 73
     3
 74
     0
 42
0.0000000001
 43
0.0000000001
 40
0.0
 40
0.0
 40
0.0
 40
9.840108062571753
 40
9.840108062571753
 40
9.840108062571753
 10
20.80113920725216
 20
943.9496158521704
 30
0.0
 41
1.0
 10
22.66866126753652
 20
948.9729618125345
 30
0.0
 41
0.8814853627946555
 10
27.88523919657957
 20
950.2013583256265
 30
0.0
 41
1.0
  0
SPLINE
  5
46
330
1F
100
AcDbEntity
  8
Predefinito
100
AcDbSpline
210
0.0
220
0.0
230
1.0
 70
    12
 71
     2
 72
     6
 73
     3
 74
     0
 42
0.0000000001
 43
0.0000000001
 40
0.0
 40
0.0
 40
0.0
 40
173.4889937638561
 40
173.4889937638561
 40
173.4889937638561
 10
28.0473105824243
 20
950.239840388877
 30
0.0
 41
1.0
 10
112.868113209365
 20
970.1736958045545
 30
0.0
 41
0.9933480726215116
 10
199.9997788037354
 20
970.1745689469572
 30
0.0
 41
1.0
  0
SPLINE
  5
47
330
1F
100
AcDbEntity
  8
Predefinito
100
AcDbSpline
210
0.0
220
0.0
230
1.0
 70
    24
 71
     2
 72
     6
 73
     3
 74
     0
 42
0.0000000001
 43
0.0000000001
 40
0.0
 40
0.0
 40
0.0
 40
3.827882716824708
 40
3.827882716824708
 40
3.827882716824708
 10
384.5207950713485
 20
929.1298341173518
 30
0.0
 10
382.7266493620198
 20
928.4633412838277
 30
0.0
 10
380.9325036526912
 20
927.7968484503036
 30
0.0
  0
SPLINE
  5
48
330
1F
100
AcDbEntity
  8
Predefinito
100
AcDbSpline
210
0.0
220
0.0
230
1.0
 70
    24
 71
     2
 72
     6
 73
     3
 74
     0
 42
0.0000000001
 43
0.0000000001
 40
0.0
 40
0.0
 40
0.0
 40
15.74535605528689
 40
15.74535605528689
 40
15.74535605528689
 10
379.1991255007234
 20
943.9496078891747
 30
0.0
 10
381.9406324246448
 20
936.5696892505289
 30
0.0
 10
384.6821393485662
 20
929.1897706118832
 30
0.0
  0
SPLINE
  5
49
330
1F
100
AcDbEntity
  8
Predefinito
100
AcDbSpline
210
0.0
220
0.0
230
1.0
 70
    12
 71
     2
 72
     6
 73
     3
 74
     0
 42
0.0000000001
 43
0.0000000001
 40
0.0
 40
0.0
 40
0.0
 40
9.840325421838802
 40
9.840325421838802
 40
9.840325421838802
 10
372.1150394899093
 20
950.2013583281284
 30
0.0
 41
1.0
 10
377.3321506246549
 20
948.9735660066018
 30
0.0
 41
0.8814227723079369
 10
379.1991394898802
 20
943.9496158521705
 30
0.0
 41
1.0
  0
SPLINE
  5
4A
330
1F
100
AcDbEntity
  8
Predefinito
100
AcDbSpline
210
0.0
220
0.0
230
1.0
 70
    12
 71
     2
 72
     6
 73
     3
 74
     0
 42
0.0000000001
 43
0.0000000001
 40
0.0
 40
0.0
 40
0.0
 40
173.4890586854073
 40
173.4890586854073
 40
173.4890586854073
 10
200.0004998933964
 20
970.1745689469572
 30
0.0
 41
1.0
 10
287.1322636541057
 20
970.1745425472913
 30
0.0
 41
0.9933469535481761
 10
371.9529681192183
 20
950.2398403901282
 30
0.0
 41
1.0
  0
SPLINE
  5
4B
330
1F
100
AcDbEntity
  8
Predefinito
100
AcDbSpline
210
0.0
220
0.0
230
1.0
 70
    12
 71
     2
 72
     8
 73
     5
 74
     0
 42
0.0000000001
 43
0.0000000001
 40
0.0
 40
0.0
 40
0.0
 40
19.86576304997882
 40
19.86576304997882
 40
39.73152609995763
 40
39.73152609995763
 40
39.73152609995763
 10
199.6003680718971
 20
700.0161900823034
 30
0.0
 41
1.0
 10
188.5545979160337
 20
700.0161038390445
 30
0.0
 41
0.8555021497897601
 10
183.4318483586673
 20
709.8021385475514
 30
0.0
 41
1.0
 10
178.3090988013008
 20
719.5881732560584
 30
0.0
 41
0.8555021497897601
 10
184.6033357930319
 20
728.6651561818727
 30
0.0
 41
1.0
  0
SPLINE
  5
4C
330
1F
100
AcDbEntity
  8
Predefinito
100
AcDbSpline
210
0.0
220
0.0
230
1.0
 70
    12
 71
     2
 72
     8
 73
     5
 74
     0
 42
0.0000000001
 43
0.0000000001
 40
0.0
 40
0.0
 40
0.0
 40
19.99568933961474
 40
19.99568933961474
 40
39.99137867922948
 40
39.99137867922948
 40
39.99137867922948
 10
214.4476313686502
 20
728.8783475381518
 30
0.0
 41
1.0
 10
220.9218860824721
 20
719.8194374350467
 30
0.0
 41
0.8536646656113366
 10
215.8284397515034
 20
709.9180925350278
 30
0.0
 41
1.0
 10
210.7349934205347
 20
700.016747635009
 30
0.0
 41
0.8536646656113366
 10
199.6003705690537
 20
700.0161900823032
 30
0.0
 41
1.0
  0
SPLINE
  5
4D
330
1F
100
AcDbEntity
  8
Predefinito
100
AcDbSpline
210
0.0
220
0.0
230
1.0
 70
    12
 71
     2
 72
     6
 73
     3
 74
     0
 42
0.0000000001
 43
0.0000000001
 40
0.0
 40
0.0
 40
0.0
 40
13.17479622603854
 40
13.17479622603854
 40
13.17479622603854
 10
266.6604323695418
 20
853.7527064712406
 30
0.0
 41
1.0
 10
271.8310368113978
 20
858.3052903077942
 30
0.0
 41
0.9355636650591864
 10
278.720243574989
 20
858.3055171909324
 30
0.0
 41
1.0
  0
SPLINE
  5
4E
330
1F
100
AcDbEntity
  8
Predefinito
100
AcDbSpline
210
0.0
220
0.0
230
1.0
 70
    12
 71
     2
 72
     6
 73
     3
 74
     0
 42
0.0000000001
 43
0.0000000001
 40
0.0
 40
0.0
 40
0.0
 40
19.2286151472894
 40
19.2286151472894
 40
19.2286151472894
 10
278.7202441373814
 20
821.8055171909323
 30
0.0
 41
1.0
 10
268.1051171468663
 20
821.8053301442042
 30
0.0
 41
0.8643951352934292
 10
262.8572826693724
 20
831.0325265958127
 30
0.0
 41
1.0
  0
SPLINE
  5
4F
330
1F
100
AcDbEntity
  8
Predefinito
100
AcDbSpline
210
0.0
220
0.0
230
1.0
 70
    12
 71
     2
 72
     8
 73
     5
 74
     0
 42
0.0000000001
 43
0.0000000001
 40
0.0
 40
0.0
 40
0.0
 40
28.66700345237544
 40
28.66700345237544
 40
57.33400690475088
 40
57.33400690475088
 40
57.33400690475088
 10
278.7202472361355
 20
858.3055171909324
 30
0.0
 41
1.0
 10
296.9702177244907
 20
858.3054878774941
 30
0.0
 41
0.7071073529096379
 10
296.9702179226738
 20
840.0555173891154
 30
0.0
 41
1.0
 10
296.9702181208568
 20
821.8055469007367
 30
0.0
 41
0.7071073529096379
 10
278.7202476325022
 20
821.8055171909324
 30
0.0
 41
1.0
  0
SPLINE
  5
50
330
1F
100
AcDbEntity
  8
Predefinito
100
AcDbSpline
210
0.0
220
0.0
230
1.0
 70
    12
 71
     2
 72
     6
 73
     3
 74
     0
 42
0.0000000001
 43
0.0000000001
 40
0.0
 40
0.0
 40
0.0
 40
2.476893467813169
 40
2.476893467813169
 40
2.476893467813169
 10
351.0794640677775
 20
926.4708231230211
 30
0.0
 41
1.0
 10
351.0699098165792
 20
924.995818317722
 30
0.0
 41
0.7758934711717766
 10
349.6239803457065
 20
924.7042391267065
 30
0.0
 41
1.0
  0
SPLINE
  5
51
330
1F
100
AcDbEntity
  8
Predefinito
100
AcDbSpline
210
0.0
220
0.0
230
1.0
 70
    12
 71
     2
 72
     6
 73
     3
 74
     0
 42
0.0000000001
 43
0.0000000001
 40
0.0
 40
0.0
 40
0.0
 40
1.325914475135024
 40
1.325914475135024
 40
1.325914475135024
 10
351.0797353035887
 20
927.7968484503037
 30
0.0
 41
1.0
 10
351.0796026156743
 20
927.1338912260127
 30
0.0
 41
0.9999999999959303
 10
351.079466144954
 20
926.4709340024899
 30
0.0
 41
1.0
  0
SPLINE
  5
52
330
1F
100
AcDbEntity
  8
Predefinito
100
AcDbSpline
210
0.0
220
0.0
230
1.0
 70
    12
 71
     2
 72
     6
 73
     3
 74
     0
 42
0.0000000001
 43
0.0000000001
 40
0.0
 40
0.0
 40
0.0
 40
3.280214215616024
 40
3.280214215616024
 40
3.280214215616024
 10
386.5163706884946
 20
920.6557274902189
 30
0.0
 41
1.0
 10
388.3254329832175
 20
920.4003321637514
 30
0.0
 41
0.8533888369622883
 10
388.9241260517282
 20
918.6742094077787
 30
0.0
 41
1.0
  0
SPLINE
  5
53
330
1F
100
AcDbEntity
  8
Predefinito
100
AcDbSpline
210
0.0
220
0.0
230
1.0
 70
    12
 71
     2
 72
     6
 73
     3
 74
     0
 42
0.0000000001
 43
0.0000000001
 40
0.0
 40
0.0
 40
0.0
 40
287.4115402569839
 40
287.4115402569839
 40
287.4115402569839
 10
109.7958322935738
 20
674.5388848349033
 30
0.0
 41
1.0
 10
-46.29925710051465
 20
753.4194693619265
 30
0.0
 41
0.7527745807343244
 10
11.0633759927486
 20
918.638571988956
 30
0.0
 41
1.0
  0
SPLINE
  5
54
330
1F
100
AcDbEntity
  8
Predefinito
100
AcDbSpline
210
0.0
220
0.0
230
1.0
 70
    12
 71
     2
 72
     6
 73
     3
 74
     0
 42
0.0000000001
 43
0.0000000001
 40
0.0
 40
0.0
 40
0.0
 40
57.38673790511231
 40
57.38673790511231
 40
57.38673790511231
 10
199.988435805422
 20
653.041581994786
 30
0.0
 41
1.0
 10
171.0965663193248
 20
653.0432119641869
 30
0.0
 41
0.9897260928618205
 10
143.38638841894
 20
661.2216082487591
 30
0.0
 41
1.0
  0
SPLINE
  5
55
330
1F
100
AcDbEntity
  8
Predefinito
100
AcDbSpline
210
0.0
220
0.0
230
1.0
 70
    12
 71
     2
 72
     6
 73
     3
 74
     0
 42
0.0000000001
 43
0.0000000001
 40
0.0
 40
0.0
 40
0.0
 40
3.25795208085721
 40
3.25795208085721
 40
3.25795208085721
 10
11.08351215600082
 20
918.6950156619753
 30
0.0
 41
1.0
 10
11.69204611200614
 20
920.399500012175
 30
0.0
 41
0.8566134910413928
 10
13.48326660359082
 20
920.6585552692443
 30
0.0
 41
1.0
  0
SPLINE
  5
56
330
1F
100
AcDbEntity
  8
Predefinito
100
AcDbSpline
210
0.0
220
0.0
230
1.0
 70
    12
 71
     2
 72
     6
 73
     3
 74
     0
 42
0.0000000001
 43
0.0000000001
 40
0.0
 40
0.0
 40
0.0
 40
57.54123819948087
 40
57.54123819948087
 40
57.54123819948087
 10
256.7620799835231
 20
661.2654264180567
 30
0.0
 41
1.0
 10
228.9825944727264
 20
653.0433015791672
 30
0.0
 41
0.9896711503267832
 10
200.0118652938833
 20
653.0415819947859
 30
0.0
 41
1.0
  0
SPLINE
  5
57
330
1F
100
AcDbEntity
  8
Predefinito
100
AcDbSpline
210
0.0
220
0.0
230
1.0
 70
    12
 71
     2
 72
     6
 73
     3
 74
     0
 42
0.0000000001
 43
0.0000000001
 40
0.0
 40
0.0
 40
0.0
 40
287.317037727078
 40
287.317037727078
 40
287.317037727078
 10
388.9247385448889
 20
918.6736620734937
 30
0.0
 41
1.0
 10
446.290295022234
 20
753.5440256385375
 30
0.0
 41
0.7529312156838521
 10
290.3218199066307
 20
674.5982298720135
 30
0.0
 41
1.0
  0
SPLINE
  5
58
330
1F
100
AcDbEntity
  8
Predefinito
100
AcDbSpline
210
0.0
220
0.0
230
1.0
 70
    12
 71
     2
 72
     8
 73
     5
 74
     0
 42
0.0000000001
 43
0.0000000001
 40
0.0
 40
0.0
 40
0.0
 40
14.46112489867785
 40
14.46112489867785
 40
28.92224979735569
 40
28.92224979735569
 40
28.92224979735569
 10
274.5225134565508
 20
647.2141676754081
 30
0.0
 41
1.0
 10
266.8882993556058
 20
647.214614419773
 30
0.0
 41
0.9225436819584271
 10
261.5280731527732
 20
652.650532023372
 30
0.0
 41
1.0
 10
256.1678469499406
 20
658.0864496269708
 30
0.0
 41
0.9225436819584271
 10
256.2744414241271
 20
665.7199195297555
 30
0.0
 41
1.0
  0
SPLINE
  5
59
330
1F
100
AcDbEntity
  8
Predefinito
100
AcDbSpline
210
0.0
220
0.0
230
1.0
 70
    12
 71
     2
 72
     8
 73
     5
 74
     0
 42
0.0000000001
 43
0.0000000001
 40
0.0
 40
0.0
 40
0.0
 40
21.45193056473214
 40
21.45193056473214
 40
42.90386112946428
 40
42.90386112946428
 40
42.90386112946428
 10
287.4949702093908
 20
678.3006186961946
 30
0.0
 41
1.0
 10
296.0472907563427
 20
669.6573255243356
 30
0.0
 41
0.8322068688158393
 10
291.3645558625258
 20
658.4358863338065
 30
0.0
 41
1.0
 10
286.681820968709
 20
647.214447143277
 30
0.0
 41
0.8322068688158393
 10
274.5225157453659
 20
647.2141676754084
 30
0.0
 41
1.0
  0
SPLINE
  5
5A
330
1F
100
AcDbEntity
  8
Predefinito
100
AcDbSpline
210
0.0
220
0.0
230
1.0
 70
    12
 71
     2
 72
     6
 73
     3
 74
     0
 42
0.0000000001
 43
0.0000000001
 40
0.0
 40
0.0
 40
0.0
 40
2.395532609028844
 40
2.395532609028844
 40
2.395532609028844
 10
50.30135366601775
 20
924.7676069462744
 30
0.0
 41
1.0
 10
48.93664970297187
 20
925.1104648257029
 30
0.0
 41
0.7910709135394062
 10
48.92513857610835
 20
926.517531251355
 30
0.0
 41
1.0
  0
SPLINE
  5
5B
330
1F
100
AcDbEntity
  8
Predefinito
100
AcDbSpline
210
0.0
220
0.0
230
1.0
 70
    12
 71
     2
 72
     6
 73
     3
 74
     0
 42
0.0000000001
 43
0.0000000001
 40
0.0
 40
0.0
 40
0.0
 40
1.279303240271761
 40
1.279303240271761
 40
1.279303240271761
 10
48.92513857764425
 20
926.5175452230659
 30
0.0
 41
1.0
 10
48.92522811623745
 20
927.1571968369367
 30
0.0
 41
0.9999999999961983
 10
48.92532118243578
 20
927.7968484503037
 30
0.0
 41
1.0
  0
SPLINE
  5
5C
330
1F
100
AcDbEntity
  8
Predefinito
100
AcDbSpline
210
0.0
220
0.0
230
1.0
 70
    24
 71
     2
 72
     6
 73
     3
 74
     0
 42
0.0000000001
 43
0.0000000001
 40
0.0
 40
0.0
 40
0.0
 40
4.244556273413427
 40
4.244556273413427
 40
4.244556273413427
 10
11.80430772079402
 20
920.7004415464595
 30
0.0
 10
12.53016400905223
 20
922.6947326832646
 30
0.0
 10
13.25602029731044
 20
924.6890238200697
 30
0.0
  0
SPLINE
  5
5D
330
1F
100
AcDbEntity
  8
Predefinito
100
AcDbSpline
210
0.0
220
0.0
230
1.0
 70
    24
 71
     2
 72
     6
 73
     3
 74
     0
 42
0.0000000001
 43
0.0000000001
 40
0.0
 40
0.0
 40
0.0
 40
4.244350930354289
 40
4.244350930354289
 40
4.244350930354289
 10
386.7442583998206
 20
924.6900696889966
 30
0.0
 10
387.4700907411844
 20
922.6958790969943
 30
0.0
 10
388.1959230825483
 20
920.7016885049921
 30
0.0
  0
SPLINE
  5
5E
330
1F
100
AcDbEntity
  8
Predefinito
100
AcDbSpline
210
0.0
220
0.0
230
1.0
 70
    12
 71
     2
 72
     6
 73
     3
 74
     0
 42
0.0000000001
 43
0.0000000001
 40
0.0
 40
0.0
 40
0.0
 40
15.63543290112132
 40
15.63543290112132
 40
15.63543290112132
 10
199.7326655753442
 20
647.2379065994353
 30
0.0
 41
1.0
 10
191.3989604486193
 20
647.2385068058795
 30
0.0
 41
0.9096620215484004
 10
185.9410872599171
 20
653.5363049731357
 30
0.0
 41
1.0
  0
SPLINE
  5
5F
330
1F
100
AcDbEntity
  8
Predefinito
100
AcDbSpline
210
0.0
220
0.0
230
1.0
 70
    12
 71
     2
 72
     6
 73
     3
 74
     0
 42
0.0000000001
 43
0.0000000001
 40
0.0
 40
0.0
 40
0.0
 40
15.5831691046965
 40
15.5831691046965
 40
15.5831691046965
 10
213.4899401842086
 20
653.4970545955812
 30
0.0
 41
1.0
 10
208.0347460384843
 20
647.2388350514811
 30
0.0
 41
0.9102670776006252
 10
199.7326707456629
 20
647.2379065994354
 30
0.0
 41
1.0
  0
SPLINE
  5
60
330
1F
100
AcDbEntity
  8
Predefinito
100
AcDbSpline
210
0.0
220
0.0
230
1.0
 70
    12
 71
     2
 72
     8
 73
     5
 74
     0
 42
0.0000000001
 43
0.0000000001
 40
0.0
 40
0.0
 40
0.0
 40
21.47000268387547
 40
21.47000268387547
 40
42.94000536775094
 40
42.94000536775094
 40
42.94000536775094
 10
125.6410017013094
 20
647.2344007658882
 30
0.0
 41
1.0
 10
113.4686187484237
 20
647.2344498766251
 30
0.0
 41
0.8319296720792507
 10
108.7918646500409
 20
658.4725492647501
 30
0.0
 41
1.0
 10
104.1151105516582
 20
669.7106486528752
 30
0.0
 41
0.8319296720792507
 10
112.6937450937312
 20
678.3462688476075
 30
0.0
 41
1.0
  0
SPLINE
  5
61
330
1F
100
AcDbEntity
  8
Predefinito
100
AcDbSpline
210
0.0
220
0.0
230
1.0
 70
    12
 71
     2
 72
     8
 73
     5
 74
     0
 42
0.0000000001
 43
0.0000000001
 40
0.0
 40
0.0
 40
0.0
 40
14.45844489735405
 40
14.45844489735405
 40
28.9168897947081
 40
28.9168897947081
 40
28.9168897947081
 10
143.888945645406
 20
665.7346519320781
 30
0.0
 41
1.0
 10
143.993549275029
 20
658.1026922018814
 30
0.0
 41
0.9225654725192446
 10
138.6336141108151
 20
652.6686470899872
 30
0.0
 41
1.0
 10
133.2736789466013
 20
647.2346019780931
 30
0.0
 41
0.9225654725192446
 10
125.6410024041171
 20
647.2344007658884
 30
0.0
 41
1.0
  0
SPLINE
  5
62
330
1F
100
AcDbEntity
  8
Predefinito
100
AcDbSpline
210
0.0
220
0.0
230
1.0
 70
    12
 71
     2
 72
     6
 73
     3
 74
     0
 42
0.0000000001
 43
0.0000000001
 40
0.0
 40
0.0
 40
0.0
 40
7.482309841409051
 40
7.482309841409051
 40
7.482309841409051
 10
139.4889419759358
 20
841.7794151740843
 30
0.0
 41
1.0
 10
139.1306279436587
 20
845.556518425
 30
0.0
 41
0.9792140322656704
 10
137.301427236299
 20
848.8805104054356
 30
0.0
 41
1.0
  0
SPLINE
  5
63
330
1F
100
AcDbEntity
  8
Predefinito
100
AcDbSpline
210
0.0
220
0.0
230
1.0
 70
    12
 71
     2
 72
     6
 73
     3
 74
     0
 42
0.0000000001
 43
0.0000000001
 40
0.0
 40
0.0
 40
0.0
 40
5.44954967626649
 40
5.44954967626649
 40
5.44954967626649
 10
139.1986376624239
 20
836.3579302526826
 30
0.0
 41
1.0
 10
139.7523042626223
 20
839.0467979859272
 30
0.0
 41
0.9888342796827718
 10
139.4889419759357
 20
841.7794151740843
 30
0.0
 41
1.0
  0
SPLINE
  5
64
330
1F
100
AcDbEntity
  8
Predefinito
100
AcDbSpline
210
0.0
220
0.0
230
1.0
 70
    24
 71
     2
 72
     6
 73
     3
 74
     0
 42
0.0000000001
 43
0.0000000001
 40
0.0
 40
0.0
 40
0.0
 40
180.9323643041247
 40
180.9323643041247
 40
180.9323643041247
 10
19.06777504444119
 20
927.7968484503037
 30
0.0
 10
109.5339571965035
 20
927.7968484503037
 30
0.0
 10
200.0001393485659
 20
927.7968484503037
 30
0.0
  0
SPLINE
  5
65
330
1F
100
AcDbEntity
  8
Predefinito
100
AcDbSpline
210
0.0
220
0.0
230
1.0
 70
    24
 71
     2
 72
     6
 73
     3
 74
     0
 42
0.0000000001
 43
0.0000000001
 40
0.0
 40
0.0
 40
0.0
 40
184.6819999999997
 40
184.6819999999997
 40
184.6819999999997
 10
15.31813934856621
 20
929.1897706118832
 30
0.0
 10
107.659139348566
 20
929.1897706118832
 30
0.0
 10
200.0001393485659
 20
929.1897706118832
 30
0.0
  0
SPLINE
  5
66
330
1F
100
AcDbEntity
  8
Predefinito
100
AcDbSpline
210
0.0
220
0.0
230
1.0
 70
    24
 71
     2
 72
     6
 73
     3
 74
     0
 42
0.0000000001
 43
0.0000000001
 40
0.0
 40
0.0
 40
0.0
 40
179.1990001413137
 40
179.1990001413137
 40
179.1990001413137
 10
20.80113920725216
 20
943.9496130858945
 30
0.0
 10
110.400639277909
 20
943.9496130858945
 30
0.0
 10
200.0001393485659
 20
943.9496130858945
 30
0.0
  0
SPLINE
  5
67
330
1F
100
AcDbEntity
  8
Predefinito
100
AcDbSpline
210
0.0
220
0.0
230
1.0
 70
    24
 71
     2
 72
     6
 73
     3
 74
     0
 42
0.0000000001
 43
0.0000000001
 40
0.0
 40
0.0
 40
0.0
 40
172.1149438842397
 40
172.1149438842397
 40
172.1149438842397
 10
27.88519546432622
 20
950.2015442562657
 30
0.0
 10
113.942667406446
 20
950.2015442562657
 30
0.0
 10
200.0001393485659
 20
950.2015442562657
 30
0.0
  0
SPLINE
  5
68
330
1F
100
AcDbEntity
  8
Predefinito
100
AcDbSpline
210
0.0
220
0.0
230
1.0
 70
    24
 71
     2
 72
     6
 73
     3
 74
     0
 42
0.0000000001
 43
0.0000000001
 40
0.0
 40
0.0
 40
0.0
 40
180.9323643041253
 40
180.9323643041253
 40
180.9323643041253
 10
200.0001393485659
 20
927.7968484503037
 30
0.0
 10
290.4663215006285
 20
927.7968484503037
 30
0.0
 10
380.9325036526912
 20
927.7968484503037
 30
0.0
  0
SPLINE
  5
69
330
1F
100
AcDbEntity
  8
Predefinito
100
AcDbSpline
210
0.0
220
0.0
230
1.0
 70
    24
 71
     2
 72
     6
 73
     3
 74
     0
 42
0.0000000001
 43
0.0000000001
 40
0.0
 40
0.0
 40
0.0
 40
184.6820000000004
 40
184.6820000000004
 40
184.6820000000004
 10
200.0001393485659
 20
929.1897706118832
 30
0.0
 10
292.3411393485661
 20
929.1897706118832
 30
0.0
 10
384.6821393485662
 20
929.1897706118832
 30
0.0
  0
SPLINE
  5
6A
330
1F
100
AcDbEntity
  8
Predefinito
100
AcDbSpline
210
0.0
220
0.0
230
1.0
 70
    24
 71
     2
 72
     6
 73
     3
 74
     0
 42
0.0000000001
 43
0.0000000001
 40
0.0
 40
0.0
 40
0.0
 40
179.1990001413143
 40
179.1990001413143
 40
179.1990001413143
 10
200.0001393485659
 20
943.9496130858945
 30
0.0
 10
289.599639419223
 20
943.9496130858945
 30
0.0
 10
379.1991394898802
 20
943.9496130858945
 30
0.0
  0
SPLINE
  5
6B
330
1F
100
AcDbEntity
  8
Predefinito
100
AcDbSpline
210
0.0
220
0.0
230
1.0
 70
    24
 71
     2
 72
     6
 73
     3
 74
     0
 42
0.0000000001
 43
0.0000000001
 40
0.0
 40
0.0
 40
0.0
 40
172.1149438842403
 40
172.1149438842403
 40
172.1149438842403
 10
200.0001393485659
 20
950.2015442562657
 30
0.0
 10
286.0576112906861
 20
950.2015442562657
 30
0.0
 10
372.1150832328062
 20
950.2015442562657
 30
0.0
  0
SPLINE
  5
6C
330
1F
100
AcDbEntity
  8
Predefinito
100
AcDbSpline
210
0.0
220
0.0
230
1.0
 70
    24
 71
     2
 72
     6
 73
     3
 74
     0
 42
0.0000000001
 43
0.0000000001
 40
0.0
 40
0.0
 40
0.0
 40
188.8323621758711
 40
188.8323621758711
 40
188.8323621758711
 10
200.0001505505126
 20
918.6649743738576
 30
0.0
 10
105.5839694625771
 20
918.6649743738576
 30
0.0
 10
11.16778837464151
 20
918.6649743738575
 30
0.0
  0
SPLINE
  5
6D
330
1F
100
AcDbEntity
  8
Predefinito
100
AcDbSpline
210
0.0
220
0.0
230
1.0
 70
    28
 71
     3
 72
     8
 73
     4
 74
     0
 42
0.0000000001
 43
0.0000000001
 40
2135.017083812616
 40
2135.017083812616
 40
2135.017083812616
 40
2135.017083812616
 40
2861.59357830382
 40
2861.59357830382
 40
2861.59357830382
 40
2861.59357830382
 10
388.8325127293722
 20
918.6649743738575
 30
0.0
 41
0.5001220703124998
 10
392.8707006670424
 20
918.6649743738574
 30
0.0
 41
0.494832356770833
 10
296.6938373197258
 20
918.6649743738575
 30
0.0
 41
0.6614583333333331
 10
200.0001505505126
 20
918.6649743738576
 30
0.0
 41
1.0
  0
SPLINE
  5
6E
330
1F
100
AcDbEntity
  8
Predefinito
100
AcDbSpline
210
0.0
220
0.0
230
1.0
 70
    12
 71
     3
 72
     8
 73
     4
 74
     0
 42
0.0000000001
 43
0.0000000001
 40
-1.0
 40
-1.0
 40
-1.0
 40
-1.0
 40
-0.8525408642582919
 40
-0.8525408642582919
 40
-0.8525408642582919
 40
-0.8525408642582919
 10
262.5393769708268
 20
671.1742831206868
 30
0.0
 41
1.0
 10
258.4470020336846
 20
668.8565114889882
 30
0.0
 41
1.0
 10
256.2851948548478
 20
666.8847637137912
 30
0.0
 41
1.0
 10
256.2721873551085
 20
665.7201388282047
 30
0.0
 41
1.0
  0
SPLINE
  5
6F
330
1F
100
AcDbEntity
  8
Predefinito
100
AcDbSpline
210
0.0
220
0.0
230
1.0
 70
    12
 71
     2
 72
     6
 73
     3
 74
     0
 42
0.0000000001
 43
0.0000000001
 40
0.0
 40
0.0
 40
0.0
 40
13.12127493555437
 40
13.12127493555437
 40
13.12127493555437
 10
274.5225140670105
 20
676.4816883903901
 30
0.0
 41
1.0
 10
268.3077386370977
 20
674.331945511719
 30
0.0
 41
0.9964812881677628
 10
262.5393769708268
 20
671.1742831206868
 30
0.0
 41
1.0
  0
SPLINE
  5
70
330
1F
100
AcDbEntity
  8
Predefinito
100
AcDbSpline
210
0.0
220
0.0
230
1.0
 70
    12
 71
     2
 72
     6
 73
     3
 74
     0
 42
0.0000000001
 43
0.0000000001
 40
0.0
 40
0.0
 40
0.0
 40
10.33052969097729
 40
10.33052969097729
 40
10.33052969097729
 10
284.5532509018518
 20
678.8421371840092
 30
0.0
 41
1.0
 10
279.3926203522849
 20
678.2792048138539
 30
0.0
 41
0.992510629094731
 10
274.5225140670105
 20
676.4816883903901
 30
0.0
 41
1.0
  0
SPLINE
  5
71
330
1F
100
AcDbEntity
  8
Predefinito
100
AcDbSpline
210
0.0
220
0.0
230
1.0
 70
    12
 71
     3
 72
     8
 73
     4
 74
     0
 42
0.0000000001
 43
0.0000000001
 40
-0.3254566718226926
 40
-0.3254566718226926
 40
-0.3254566718226926
 40
-0.3254566718226926
 40
-0.2500002562453486
 40
-0.2500002562453486
 40
-0.2500002562453486
 40
-0.2500002562453486
 10
287.4934555298053
 20
678.2988727758578
 30
0.0
 41
1.0
 10
287.0765434258965
 20
678.7378946608251
 30
0.0
 41
1.0
 10
286.0806914770184
 20
678.9319999714834
 30
0.0
 41
1.0
 10
284.5532509018518
 20
678.8421371840092
 30
0.0
 41
1.0
  0
SPLINE
  5
72
330
1F
100
AcDbEntity
  8
Predefinito
100
AcDbSpline
210
0.0
220
0.0
230
1.0
 70
    12
 71
     2
 72
     6
 73
     3
 74
     0
 42
0.0000000001
 43
0.0000000001
 40
0.0
 40
0.0
 40
0.0
 40
33.9995470853518
 40
33.9995470853518
 40
33.9995470853518
 10
11.83598921945508
 20
920.6889105244336
 30
0.0
 41
1.0
 10
28.83576236953934
 20
920.6930805682712
 30
0.0
 41
0.9999999895118455
 10
45.8355360143502
 20
920.692326389642
 30
0.0
 41
1.0
  0
SPLINE
  5
73
330
1F
100
AcDbEntity
  8
Predefinito
100
AcDbSpline
210
0.0
220
0.0
230
1.0
 70
    12
 71
     2
 72
     6
 73
     3
 74
     0
 42
0.0000000001
 43
0.0000000001
 40
0.0
 40
0.0
 40
0.0
 40
33.67746401838716
 40
33.67746401838716
 40
33.67746401838716
 10
47.0281142047142
 20
924.6923048846656
 30
0.0
 41
1.0
 10
30.18938213664493
 20
924.6924927334303
 30
0.0
 41
0.999999994661995
 10
13.35065038929773
 20
924.6892008656225
 30
0.0
 41
1.0
  0
SPLINE
  5
74
330
1F
100
AcDbEntity
  8
Predefinito
100
AcDbSpline
210
0.0
220
0.0
230
1.0
 70
    12
 71
     2
 72
     8
 73
     5
 74
     0
 42
0.0000000001
 43
0.0000000001
 40
0.0
 40
0.0
 40
0.0
 40
51.35338200996467
 40
51.35338200996467
 40
131.570743557272
 40
131.570743557272
 40
131.570743557272
 10
256.5935685188615
 20
920.6950449468568
 30
0.0
 41
1.0
 10
282.2702595236246
 20
920.6948856592571
 30
0.0
 41
0.9999999999839417
 10
307.9469505249331
 20
920.694435344712
 30
0.0
 41
1.0
 10
348.0556313665264
 20
920.6954052110624
 30
0.0
 41
0.9999999970206288
 10
388.1643118798586
 20
920.6901828678573
 30
0.0
 41
1.0
  0
SPLINE
  5
75
330
1F
100
AcDbEntity
  8
Predefinito
100
AcDbSpline
210
0.0
220
0.0
230
1.0
 70
    12
 71
     2
 72
     6
 73
     3
 74
     0
 42
0.0000000001
 43
0.0000000001
 40
0.0
 40
0.0
 40
0.0
 40
210.7580325390335
 40
210.7580325390335
 40
210.7580325390335
 10
45.8355360143502
 20
920.6923263892531
 30
0.0
 41
1.0
 10
151.2145522367125
 20
920.6960031677677
 30
0.0
 41
0.9999999997581749
 10
256.5935685188615
 20
920.6950449462312
 30
0.0
 41
1.0
  0
SPLINE
  5
76
330
1F
100
AcDbEntity
  8
Predefinito
100
AcDbSpline
210
0.0
220
0.0
230
1.0
 70
    12
 71
     2
 72
     6
 73
     3
 74
     0
 42
0.0000000001
 43
0.0000000001
 40
0.0
 40
0.0
 40
0.0
 40
66.74258892596774
 40
66.74258892596774
 40
66.74258892596774
 10
113.7707031009962
 20
924.6942330980673
 30
0.0
 41
1.0
 10
80.39940864048111
 20
924.6936973045521
 30
0.0
 41
0.9999999999176342
 10
47.02811420471421
 20
924.6923048848706
 30
0.0
 41
1.0
  0
SPLINE
  5
77
330
1F
100
AcDbEntity
  8
Predefinito
100
AcDbSpline
210
0.0
220
0.0
230
1.0
 70
    12
 71
     2
 72
     8
 73
     5
 74
     0
 42
0.0000000001
 43
0.0000000001
 40
0.0
 40
0.0
 40
0.0
 40
79.53774602570307
 40
79.53774602570307
 40
272.8789254653765
 40
272.8789254653765
 40
272.8789254653765
 10
386.6496283078336
 20
924.6898925231653
 30
0.0
 41
1.0
 10
346.880755635699
 20
924.6959583366557
 30
0.0
 41
0.999999995402854
 10
307.1118825315939
 20
924.6943975247106
 30
0.0
 41
1.0
 10
210.4412928149206
 20
924.6959314219824
 30
0.0
 41
0.9999999998602591
 10
113.7707031009962
 20
924.6942330979922
 30
0.0
 41
1.0
  0
SPLINE
  5
78
330
1F
100
AcDbEntity
  8
Predefinito
100
AcDbSpline
210
0.0
220
0.0
230
1.0
 70
    12
 71
     2
 72
     6
 73
     3
 74
     0
 42
0.0000000001
 43
0.0000000001
 40
932.908718039317
 40
932.908718039317
 40
932.908718039317
 40
1204.080174806629
 40
1204.080174806629
 40
1204.080174806629
 10
114.2966786064894
 20
678.8655214585956
 30
0.0
 41
1.0
 10
117.9553198982145
 20
679.1398708824318
 30
0.0
 41
0.896058391731836
 10
125.6410017863507
 20
676.5012840600193
 30
0.0
 41
1.0
  0
SPLINE
  5
79
330
1F
100
AcDbEntity
  8
Predefinito
100
AcDbSpline
210
0.0
220
0.0
230
1.0
 70
    12
 71
     2
 72
     6
 73
     3
 74
     0
 42
0.0000000001
 43
0.0000000001
 40
0.0
 40
0.0
 40
0.0
 40
1.716560502509254
 40
1.716560502509254
 40
1.716560502509254
 10
114.2966786064894
 20
678.8655214585956
 30
0.0
 41
1.0
 10
113.4052143162445
 20
678.883798354298
 30
0.0
 41
0.9447942719587503
 10
112.6938558373034
 20
678.3462002328943
 30
0.0
 41
1.0
  0
SPLINE
  5
7A
330
1F
100
AcDbEntity
  8
Predefinito
100
AcDbSpline
210
0.0
220
0.0
230
1.0
 70
    12
 71
     3
 72
    10
 73
     6
 74
     0
 42
0.0000000001
 43
0.0000000001
 40
-0.6721015307246836
 40
-0.6721015307246836
 40
-0.6721015307246836
 40
-0.6721015307246836
 40
-0.5685281729192573
 40
-0.5685281729192573
 40
-0.396418328821476
 40
-0.396418328821476
 40
-0.396418328821476
 40
-0.396418328821476
 10
143.8897318469339
 20
665.7345896205842
 30
0.0
 41
1.0
 10
143.8816932881863
 20
666.5601877811274
 30
0.0
 41
1.0
 10
142.7881448916856
 20
667.7965719213964
 30
0.0
 41
1.0
 10
137.1066512709182
 20
671.7848122720327
 30
0.0
 41
1.0
 10
131.4013096751956
 20
674.5228798764429
 30
0.0
 41
1.0
 10
125.6410017863507
 20
676.5012840600193
 30
0.0
 41
1.0
  0
SPLINE
  5
7B
330
1F
100
AcDbEntity
  8
Predefinito
100
AcDbSpline
210
0.0
220
0.0
230
1.0
 70
    12
 71
     2
 72
     6
 73
     3
 74
     0
 42
0.0000000001
 43
0.0000000001
 40
0.0
 40
0.0
 40
0.0
 40
2.590475255378469
 40
2.590475255378469
 40
2.590475255378469
 10
738.5403443598767
 20
924.7124773214496
 30
0.0
 41
1.0
 10
736.9825341861498
 20
924.9240480719429
 30
0.0
 41
0.7556035178647668
 10
736.9709531081063
 20
926.4961169630742
 30
0.0
 41
1.0
  0
SPLINE
  5
7C
330
1F
100
AcDbEntity
  8
Predefinito
100
AcDbSpline
210
0.0
220
0.0
230
1.0
 70
    12
 71
     2
 72
     6
 73
     3
 74
     0
 42
0.0000000001
 43
0.0000000001
 40
0.0
 40
0.0
 40
0.0
 40
1.27845582091419
 40
1.27845582091419
 40
1.27845582091419
 10
736.970914481848
 20
926.4981595541374
 30
0.0
 41
1.0
 10
736.9710113768447
 20
927.1373874572524
 30
0.0
 41
0.9999999999962033
 10
736.9711117947948
 20
927.7766153598236
 30
0.0
 41
1.0
  0
SPLINE
  5
7D
330
1F
100
AcDbEntity
  8
Predefinito
100
AcDbSpline
210
0.0
220
0.0
230
1.0
 70
    24
 71
     2
 72
     6
 73
     3
 74
     0
 42
0.0000000001
 43
0.0000000001
 40
0.0
 40
0.0
 40
0.0
 40
4.251435105240133
 40
4.251435105240133
 40
4.251435105240133
 10
667.2709208977951
 20
920.6686725500906
 30
0.0
 10
667.9978996936263
 20
922.6662152765246
 30
0.0
 10
668.7248784894574
 20
924.6637580029584
 30
0.0
  0
SPLINE
  5
7E
330
1F
100
AcDbEntity
  8
Predefinito
100
AcDbSpline
210
0.0
220
0.0
230
1.0
 70
    24
 71
     2
 72
     6
 73
     3
 74
     0
 42
0.0000000001
 43
0.0000000001
 40
0.0
 40
0.0
 40
0.0
 40
4.25646187772564
 40
4.25646187772564
 40
4.25646187772564
 10
1042.213116449855
 20
924.6748692059011
 30
0.0
 10
1042.941073796406
 20
922.67500795303
 30
0.0
 10
1043.669031142957
 20
920.6751467001587
 30
0.0
  0
SPLINE
  5
7F
330
1F
100
AcDbEntity
  8
Predefinito
100
AcDbSpline
210
0.0
220
0.0
230
1.0
 70
    12
 71
     2
 72
     6
 73
     3
 74
     0
 42
0.0000000001
 43
0.0000000001
 40
0.0
 40
0.0
 40
0.0
 40
2.6739328587286
 40
2.6739328587286
 40
2.6739328587286
 10
1018.482211550414
 20
926.4451623879758
 30
0.0
 41
1.0
 10
1018.46964229115
 20
924.7985496327469
 30
0.0
 41
0.740357623506909
 10
1016.829465947157
 20
924.6525595215477
 30
0.0
 41
1.0
  0
SPLINE
  5
80
330
1F
100
AcDbEntity
  8
Predefinito
100
AcDbSpline
210
0.0
220
0.0
230
1.0
 70
    12
 71
     2
 72
     6
 73
     3
 74
     0
 42
0.0000000001
 43
0.0000000001
 40
0.0
 40
0.0
 40
0.0
 40
1.329705856016805
 40
1.329705856016805
 40
1.329705856016805
 10
1018.482518627367
 20
927.7766153598229
 30
0.0
 41
1.0
 10
1018.482377655944
 20
927.111762446758
 30
0.0
 41
0.9999999999959076
 10
1018.482232880379
 20
926.4469095345107
 30
0.0
 41
1.0
  0
SPLINE
  5
81
330
1F
100
AcDbEntity
  8
Predefinito
100
AcDbSpline
210
0.0
220
0.0
230
1.0
 70
    12
 71
     2
 72
     6
 73
     3
 74
     0
 42
0.0000000001
 43
0.0000000001
 40
0.0
 40
0.0
 40
0.0
 40
8.94747922264269
 40
8.94747922264269
 40
8.94747922264269
 10
1045.450387200584
 20
821.7852939559502
 30
0.0
 41
1.0
 10
1040.884830598106
 20
821.7900387434071
 30
0.0
 41
0.9701042271253943
 10
1036.859310532008
 20
823.9439927356934
 30
0.0
 41
1.0
  0
SPLINE
  5
82
330
1F
100
AcDbEntity
  8
Predefinito
100
AcDbSpline
210
0.0
220
0.0
230
1.0
 70
    12
 71
     2
 72
     8
 73
     5
 74
     0
 42
0.0000000001
 43
0.0000000001
 40
0.0
 40
0.0
 40
0.0
 40
28.66703296400673
 40
28.66703296400673
 40
57.33406592801397
 40
57.33406592801397
 40
57.33406592801397
 10
1045.469353633784
 20
858.2852841004525
 30
0.0
 41
1.0
 10
1063.719353633784
 20
858.2852841004525
 30
0.0
 41
0.7071067811865431
 10
1063.719353633784
 20
840.0352841004525
 30
0.0
 41
1.0
 10
1063.719353633784
 20
821.7852841004524
 30
0.0
 41
0.7071067811865541
 10
1045.469353633784
 20
821.7852841004519
 30
0.0
 41
1.0
  0
SPLINE
  5
83
330
1F
100
AcDbEntity
  8
Predefinito
100
AcDbSpline
210
0.0
220
0.0
230
1.0
 70
    12
 71
     2
 72
     6
 73
     3
 74
     0
 42
0.0000000001
 43
0.0000000001
 40
0.0
 40
0.0
 40
0.0
 40
6.471488517829075
 40
6.471488517829075
 40
6.471488517829075
 10
1039.114855664234
 20
857.1432604727471
 30
0.0
 41
1.0
 10
1042.180306947409
 20
858.2818757905839
 30
0.0
 41
0.9843232998174832
 10
1045.450387200558
 20
858.2852742449542
 30
0.0
 41
1.0
  0
SPLINE
  5
84
330
1F
100
AcDbEntity
  8
Predefinito
100
AcDbSpline
210
0.0
220
0.0
230
1.0
 70
    24
 71
     2
 72
     6
 73
     3
 74
     0
 42
0.0000000001
 43
0.0000000001
 40
0.0
 40
0.0
 40
0.0
 40
361.8647286082501
 40
361.8647286082501
 40
361.8647286082501
 10
674.5366331655312
 20
927.7766153598236
 30
0.0
 10
855.4689974696562
 20
927.7766153598236
 30
0.0
 10
1036.401361773781
 20
927.7766153598236
 30
0.0
  0
SPLINE
  5
85
330
1F
100
AcDbEntity
  8
Predefinito
100
AcDbSpline
210
0.0
220
0.0
230
1.0
 70
    24
 71
     2
 72
     6
 73
     3
 74
     0
 42
0.0000000001
 43
0.0000000001
 40
0.0
 40
0.0
 40
0.0
 40
369.364
 40
369.364
 40
369.364
 10
670.7869974696562
 20
929.1695375214032
 30
0.0
 10
855.4689974696562
 20
929.1695375214032
 30
0.0
 10
1040.150997469656
 20
929.1695375214032
 30
0.0
  0
SPLINE
  5
86
330
1F
100
AcDbEntity
  8
Predefinito
100
AcDbSpline
210
0.0
220
0.0
230
1.0
 70
    24
 71
     2
 72
     6
 73
     3
 74
     0
 42
0.0000000001
 43
0.0000000001
 40
0.0
 40
0.0
 40
0.0
 40
358.3979853906051
 40
358.3979853906051
 40
358.3979853906051
 10
676.2700047743535
 20
943.9293799954145
 30
0.0
 10
855.4689974696561
 20
943.9293799954145
 30
0.0
 10
1034.667990164959
 20
943.9293799954145
 30
0.0
  0
SPLINE
  5
87
330
1F
100
AcDbEntity
  8
Predefinito
100
AcDbSpline
210
0.0
220
0.0
230
1.0
 70
    24
 71
     2
 72
     6
 73
     3
 74
     0
 42
0.0000000001
 43
0.0000000001
 40
0.0
 40
0.0
 40
0.0
 40
344.229804645941
 40
344.229804645941
 40
344.229804645941
 10
683.3540951466856
 20
950.1813111657857
 30
0.0
 10
855.4689974696562
 20
950.1813111657857
 30
0.0
 10
1027.583899792627
 20
950.1813111657857
 30
0.0
  0
SPLINE
  5
88
330
1F
100
AcDbEntity
  8
Predefinito
100
AcDbSpline
210
0.0
220
0.0
230
1.0
 70
    24
 71
     2
 72
     6
 73
     3
 74
     0
 42
0.0000000001
 43
0.0000000001
 40
0.0
 40
0.0
 40
0.0
 40
3.827882716824668
 40
3.827882716824668
 40
3.827882716824668
 10
1039.989653192438
 20
929.1096010268717
 30
0.0
 10
1038.19550748311
 20
928.4431081933476
 30
0.0
 10
1036.401361773781
 20
927.7766153598236
 30
0.0
  0
SPLINE
  5
89
330
1F
100
AcDbEntity
  8
Predefinito
100
AcDbSpline
210
0.0
220
0.0
230
1.0
 70
    24
 71
     2
 72
     6
 73
     3
 74
     0
 42
0.0000000001
 43
0.0000000001
 40
0.0
 40
0.0
 40
0.0
 40
3.827882716824668
 40
3.827882716824668
 40
3.827882716824668
 10
674.5366331655312
 20
927.7766153598236
 30
0.0
 10
672.7424874562025
 20
928.4431081933476
 30
0.0
 10
670.9483417468739
 20
929.1096010268717
 30
0.0
  0
SPLINE
  5
8A
330
1F
100
AcDbEntity
  8
Predefinito
100
AcDbSpline
210
0.0
220
0.0
230
1.0
 70
    24
 71
     2
 72
     6
 73
     3
 74
     0
 42
0.0000000001
 43
0.0000000001
 40
0.0
 40
0.0
 40
0.0
 40
15.74535864821734
 40
15.74535864821734
 40
15.74535864821734
 10
670.7869974696562
 20
929.1695375214032
 30
0.0
 10
673.5285011220049
 20
936.5494587584088
 30
0.0
 10
676.2700047743535
 20
943.9293799954145
 30
0.0
  0
SPLINE
  5
8B
330
1F
100
AcDbEntity
  8
Predefinito
100
AcDbSpline
210
0.0
220
0.0
230
1.0
 70
    24
 71
     2
 72
     6
 73
     3
 74
     0
 42
0.0000000001
 43
0.0000000001
 40
0.0
 40
0.0
 40
0.0
 40
15.74535864821742
 40
15.74535864821742
 40
15.74535864821742
 10
1034.667990164959
 20
943.9293799954145
 30
0.0
 10
1037.409493817308
 20
936.5494587584088
 30
0.0
 10
1040.150997469656
 20
929.1695375214032
 30
0.0
  0
SPLINE
  5
8C
330
1F
100
AcDbEntity
  8
Predefinito
100
AcDbSpline
210
0.0
220
0.0
230
1.0
 70
    12
 71
     2
 72
     6
 73
     3
 74
     0
 42
0.0000000001
 43
0.0000000001
 40
0.0
 40
0.0
 40
0.0
 40
9.840598189220694
 40
9.840598189220694
 40
9.840598189220694
 10
676.2700047743535
 20
943.9293799954145
 30
0.0
 41
1.0
 10
678.1365697271565
 20
948.9538395125952
 30
0.0
 41
0.8813795080264277
 10
683.3540951466856
 20
950.1813111657857
 30
0.0
 41
1.0
  0
SPLINE
  5
8D
330
1F
100
AcDbEntity
  8
Predefinito
100
AcDbSpline
210
0.0
220
0.0
230
1.0
 70
    12
 71
     2
 72
     6
 73
     3
 74
     0
 42
0.0000000001
 43
0.0000000001
 40
0.0
 40
0.0
 40
0.0
 40
9.840598189220826
 40
9.840598189220826
 40
9.840598189220826
 10
1027.583899792627
 20
950.1813111657857
 30
0.0
 41
1.0
 10
1032.801425212156
 20
948.9538395125958
 30
0.0
 41
0.8813795080263657
 10
1034.667990164959
 20
943.9293799954145
 30
0.0
 41
1.0
  0
SPLINE
  5
8E
330
1F
100
AcDbEntity
  8
Predefinito
100
AcDbSpline
210
0.0
220
0.0
230
1.0
 70
    12
 71
     2
 72
     6
 73
     3
 74
     0
 42
0.0000000001
 43
0.0000000001
 40
0.0
 40
0.0
 40
0.0
 40
173.4893571003897
 40
173.4893571003897
 40
173.4893571003897
 10
855.4689974696563
 20
970.1543375214032
 30
0.0
 41
1.0
 10
942.6009115064618
 20
970.1542480804636
 30
0.0
 41
0.993346946676112
 10
1027.42174545955
 20
950.2194400495863
 30
0.0
 41
1.0
  0
SPLINE
  5
8F
330
1F
100
AcDbEntity
  8
Predefinito
100
AcDbSpline
210
0.0
220
0.0
230
1.0
 70
    12
 71
     2
 72
     6
 73
     3
 74
     0
 42
0.0000000001
 43
0.0000000001
 40
0.0
 40
0.0
 40
0.0
 40
173.4893571003901
 40
173.4893571003901
 40
173.4893571003901
 10
683.5162494797625
 20
950.2194400495865
 30
0.0
 41
1.0
 10
768.3370834328507
 20
970.1542480804638
 30
0.0
 41
0.9933469466761121
 10
855.4689974696563
 20
970.1543375214032
 30
0.0
 41
1.0
  0
SPLINE
  5
90
330
1F
100
AcDbEntity
  8
Predefinito
100
AcDbSpline
210
0.0
220
0.0
230
1.0
 70
    12
 71
     2
 72
     6
 73
     3
 74
     0
 42
0.0000000001
 43
0.0000000001
 40
0.0
 40
0.0
 40
0.0
 40
19.83500749214734
 40
19.83500749214734
 40
19.83500749214734
 10
1011.179752611461
 20
699.9959569918232
 30
0.0
 41
1.0
 10
1000.155024537558
 20
699.9959569918232
 30
0.0
 41
0.855942809253493
 10
995.0254811139796
 20
709.754666607808
 30
0.0
 41
1.0
  0
SPLINE
  5
91
330
1F
100
AcDbEntity
  8
Predefinito
100
AcDbSpline
210
0.0
220
0.0
230
1.0
 70
    12
 71
     2
 72
     8
 73
     5
 74
     0
 42
0.0000000001
 43
0.0000000001
 40
0.0
 40
0.0
 40
0.0
 40
25.3817696993775
 40
25.3817696993775
 40
51.12756002896278
 40
51.12756002896278
 40
51.12756002896278
 10
1017.267311715679
 20
735.4507273812435
 30
0.0
 41
1.0
 10
1031.623657841167
 20
730.3710254392154
 30
0.0
 41
0.7678032839873555
 10
1029.196452517021
 20
715.3371729652447
 30
0.0
 41
1.0
 10
1026.71962356356
 20
699.9959569918227
 30
0.0
 41
0.7613755400964305
 10
1011.179752611461
 20
699.9959569918232
 30
0.0
 41
1.0
  0
SPLINE
  5
92
330
1F
100
AcDbEntity
  8
Predefinito
100
AcDbSpline
210
0.0
220
0.0
230
1.0
 70
    12
 71
     2
 72
     6
 73
     3
 74
     0
 42
0.0000000001
 43
0.0000000001
 40
0.0
 40
0.0
 40
0.0
 40
3.542974987883309
 40
3.542974987883309
 40
3.542974987883309
 10
666.5522778324266
 20
918.6748031142365
 30
0.0
 41
1.0
 10
667.2225506017321
 20
920.5723916581522
 30
0.0
 41
0.8296816767270841
 10
669.2328412299263
 20
920.6664100471363
 30
0.0
 41
1.0
  0
SPLINE
  5
93
330
1F
100
AcDbEntity
  8
Predefinito
100
AcDbSpline
210
0.0
220
0.0
230
1.0
 70
    24
 71
     2
 72
     6
 73
     3
 74
     0
 42
0.0000000001
 43
0.0000000001
 40
0.0
 40
0.0
 40
0.0
 40
377.8546634061663
 40
377.8546634061663
 40
377.8546634061663
 10
1044.396448171967
 20
918.6447412833776
 30
0.0
 10
855.4691164688841
 20
918.6447412833776
 30
0.0
 10
666.5417847658009
 20
918.6447412833776
 30
0.0
  0
SPLINE
  5
94
330
1F
100
AcDbEntity
  8
Predefinito
100
AcDbSpline
210
0.0
220
0.0
230
1.0
 70
    12
 71
     2
 72
     6
 73
     3
 74
     0
 42
0.0000000001
 43
0.0000000001
 40
0.0
 40
0.0
 40
0.0
 40
3.686719530897658
 40
3.686719530897658
 40
3.686719530897658
 10
1044.386705998527
 20
918.673838946812
 30
0.0
 41
1.0
 10
1043.701231148055
 20
920.6898162485898
 30
0.0
 41
0.8102053380179904
 10
1041.571999636483
 20
920.6694834661371
 30
0.0
 41
1.0
  0
SPLINE
  5
95
330
1F
100
AcDbEntity
  8
Predefinito
100
AcDbSpline
210
0.0
220
0.0
230
1.0
 70
    12
 71
     2
 72
     6
 73
     3
 74
     0
 42
0.0000000001
 43
0.0000000001
 40
0.0
 40
0.0
 40
0.0
 40
28.28304990007007
 40
28.28304990007007
 40
28.28304990007007
 10
883.6580301844401
 20
655.017324089259
 30
0.0
 41
1.0
 10
869.634254433161
 20
653.0211158638971
 30
0.0
 41
0.9975014031484761
 10
855.4691164688837
 20
653.0213485720582
 30
0.0
 41
1.0
  0
SPLINE
  5
96
330
1F
100
AcDbEntity
  8
Predefinito
100
AcDbSpline
210
0.0
220
0.0
230
1.0
 70
    12
 71
     2
 72
     6
 73
     3
 74
     0
 42
0.0000000001
 43
0.0000000001
 40
0.0
 40
0.0
 40
0.0
 40
92.28290345812735
 40
92.28290345812735
 40
92.28290345812735
 10
995.025481113936
 20
709.7546666078259
 30
0.0
 41
1.0
 10
961.3735792332886
 20
676.9755098763538
 30
0.0
 41
0.9735048551308595
 10
916.647086938015
 20
662.606637158845
 30
0.0
 41
1.0
  0
SPLINE
  5
97
330
1F
100
AcDbEntity
  8
Predefinito
100
AcDbSpline
210
0.0
220
0.0
230
1.0
 70
    12
 71
     2
 72
     6
 73
     3
 74
     0
 42
0.0000000001
 43
0.0000000001
 40
0.0
 40
0.0
 40
0.0
 40
96.09606867130438
 40
96.09606867130438
 40
96.09606867130438
 10
1053.288400429608
 20
823.5451353077029
 30
0.0
 41
1.0
 10
1046.068663097389
 20
775.0856578951615
 30
0.0
 41
0.9712782714906251
 10
1017.267311715472
 20
735.4507273815581
 30
0.0
 41
1.0
  0
SPLINE
  5
98
330
1F
100
AcDbEntity
  8
Predefinito
100
AcDbSpline
210
0.0
220
0.0
230
1.0
 70
    12
 71
     2
 72
     6
 73
     3
 74
     0
 42
0.0000000001
 43
0.0000000001
 40
0.0
 40
0.0
 40
0.0
 40
64.57488997830636
 40
64.57488997830636
 40
64.57488997830636
 10
1044.396448171967
 20
918.6447412833776
 30
0.0
 41
1.0
 10
1055.084961591347
 20
887.877547545897
 30
0.0
 41
0.9869962183786694
 10
1055.458497821221
 20
855.3087741535675
 30
0.0
 41
1.0
  0
SPLINE
  5
99
330
1F
100
AcDbEntity
  8
Predefinito
100
AcDbSpline
210
0.0
220
0.0
230
1.0
 70
    12
 71
     2
 72
     6
 73
     3
 74
     0
 42
0.0000000001
 43
0.0000000001
 40
0.0
 40
0.0
 40
0.0
 40
278.1917139648709
 40
278.1917139648709
 40
278.1917139648709
 10
757.1059390093145
 20
678.8789475594124
 30
0.0
 41
1.0
 10
611.765002521574
 20
760.9676877474722
 30
0.0
 41
0.7677283273784378
 10
666.5417847658009
 20
918.6447412833775
 30
0.0
 41
1.0
  0
SPLINE
  5
9A
330
1F
100
AcDbEntity
  8
Predefinito
100
AcDbSpline
210
0.0
220
0.0
230
1.0
 70
    12
 71
     2
 72
     6
 73
     3
 74
     0
 42
0.0000000001
 43
0.0000000001
 40
0.0
 40
0.0
 40
0.0
 40
70.70787487995084
 40
70.70787487995084
 40
70.70787487995084
 10
855.4691164688837
 20
653.0213485720582
 30
0.0
 41
1.0
 10
819.7422948075213
 20
653.0207474043369
 30
0.0
 41
0.9844176359775291
 10
786.2247487123924
 20
665.3892513617735
 30
0.0
 41
1.0
  0
SPLINE
  5
9B
330
1F
100
AcDbEntity
  8
Predefinito
100
AcDbSpline
210
0.0
220
0.0
230
1.0
 70
    12
 71
     2
 72
     6
 73
     3
 74
     0
 42
0.0000000001
 43
0.0000000001
 40
0.0
 40
0.0
 40
0.0
 40
15.45645019645794
 40
15.45645019645794
 40
15.45645019645794
 10
896.1763709033103
 20
647.3086153921801
 30
0.0
 41
1.0
 10
888.0021608039102
 20
648.2293385307338
 30
0.0
 41
0.9116708228956172
 10
883.2783363537194
 20
654.9636480284314
 30
0.0
 41
1.0
  0
SPLINE
  5
9C
330
1F
100
AcDbEntity
  8
Predefinito
100
AcDbSpline
210
0.0
220
0.0
230
1.0
 70
    12
 71
     2
 72
     8
 73
     5
 74
     0
 42
0.0000000001
 43
0.0000000001
 40
0.0
 40
0.0
 40
0.0
 40
18.82254016155106
 40
18.82254016155106
 40
280.9339546734465
 40
280.9339546734465
 40
280.9339546734465
 10
682.4819618543911
 20
920.6639596978202
 30
0.0
 41
1.0
 10
691.8932319325756
 20
920.6641807387281
 30
0.0
 41
0.9999999999992418
 10
701.3045020101872
 20
920.6644249576962
 30
0.0
 41
1.0
 10
832.3602092191425
 20
920.667943967297
 30
0.0
 41
0.9999999999971085
 10
963.4159164096573
 20
920.6720932967096
 30
0.0
 41
1.0
  0
SPLINE
  5
9D
330
1F
100
AcDbEntity
  8
Predefinito
100
AcDbSpline
210
0.0
220
0.0
230
1.0
 70
    12
 71
     2
 72
     6
 73
     3
 74
     0
 42
0.0000000001
 43
0.0000000001
 40
0.0
 40
0.0
 40
0.0
 40
15.19743788411805
 40
15.19743788411805
 40
15.19743788411805
 10
667.2845239732152
 20
920.6637218938558
 30
0.0
 41
1.0
 10
674.8832429162601
 20
920.6636837721587
 30
0.0
 41
0.9999999997864893
 10
682.4819618543911
 20
920.6639596978467
 30
0.0
 41
1.0
  0
SPLINE
  5
9E
330
1F
100
AcDbEntity
  8
Predefinito
100
AcDbSpline
210
0.0
220
0.0
230
1.0
 70
    12
 71
     2
 72
     8
 73
     5
 74
     0
 42
0.0000000001
 43
0.0000000001
 40
0.0
 40
0.0
 40
0.0
 40
260.0837683281813
 40
260.0837683281813
 40
293.8530804831018
 40
293.8530804831018
 40
293.8530804831018
 10
962.5807406184481
 20
924.6720717921853
 30
0.0
 41
1.0
 10
832.5388565192842
 20
924.6679545577445
 30
0.0
 41
0.9999999999971085
 10
702.4969724018224
 20
924.6644627669165
 30
0.0
 41
1.0
 10
685.6123163326642
 20
924.6639085686281
 30
0.0
 41
0.9999999999295426
 10
668.7276602551071
 20
924.6637552309278
 30
0.0
 41
1.0
  0
SPLINE
  5
9F
330
1F
100
AcDbEntity
  8
Predefinito
100
AcDbSpline
210
0.0
220
0.0
230
1.0
 70
    12
 71
     2
 72
     6
 73
     3
 74
     0
 42
0.0000000001
 43
0.0000000001
 40
0.0
 40
0.0
 40
0.0
 40
80.25246733677155
 40
80.25246733677155
 40
80.25246733677155
 10
963.4159164096571
 20
920.6720932992175
 30
0.0
 41
1.0
 10
1003.542150064103
 20
920.673182683874
 30
0.0
 41
0.9999999999683045
 10
1043.668383696114
 20
920.6749110273363
 30
0.0
 41
1.0
  0
SPLINE
  5
A0
330
1F
100
AcDbEntity
  8
Predefinito
100
AcDbSpline
210
0.0
220
0.0
230
1.0
 70
    12
 71
     2
 72
     6
 73
     3
 74
     0
 42
0.0000000001
 43
0.0000000001
 40
0.0
 40
0.0
 40
0.0
 40
58.53200203219976
 40
58.53200203219976
 40
58.53200203219976
 10
1021.112742618863
 20
924.6740000061691
 30
0.0
 41
1.0
 10
991.8467416201819
 20
924.6729895674079
 30
0.0
 41
0.9999999999987468
 10
962.5807406184481
 20
924.6720717932773
 30
0.0
 41
1.0
  0
SPLINE
  5
A1
330
1F
100
AcDbEntity
  8
Predefinito
100
AcDbSpline
210
0.0
220
0.0
230
1.0
 70
    12
 71
     2
 72
     6
 73
     3
 74
     0
 42
0.0000000001
 43
0.0000000001
 40
0.0
 40
0.0
 40
0.0
 40
21.01357139738031
 40
21.01357139738031
 40
21.01357139738031
 10
1042.126313996241
 20
924.6748825654504
 30
0.0
 41
1.0
 10
1031.619528316591
 20
924.674226079857
 30
0.0
 41
0.999999999790231
 10
1021.112742618863
 20
924.674000007425
 30
0.0
 41
1.0
  0
SPLINE
  5
A2
330
1F
100
AcDbEntity
  8
Predefinito
100
AcDbSpline
210
0.0
220
0.0
230
1.0
 70
    12
 71
     2
 72
     8
 73
     5
 74
     0
 42
0.0000000001
 43
0.0000000001
 40
0.0
 40
0.0
 40
0.0
 40
15.56191390931766
 40
15.56191390931766
 40
33.70424727892566
 40
33.70424727892566
 40
33.70424727892566
 10
757.1110413986025
 20
678.8713894795219
 30
0.0
 41
1.0
 10
764.1620901779776
 20
675.5811003849286
 30
0.0
 41
0.9999999989505473
 10
771.2134404091278
 20
672.2914573750403
 30
0.0
 41
1.0
 10
779.4338707242871
 20
668.4560186076309
 30
0.0
 41
0.9999999992581612
 10
787.6545964860061
 20
664.6212131294275
 30
0.0
 41
1.0
  0
SPLINE
  5
A3
330
1F
100
AcDbEntity
  8
Predefinito
100
AcDbSpline
210
0.0
220
0.0
230
1.0
 70
    12
 71
     2
 72
     8
 73
     5
 74
     0
 42
0.0000000001
 43
0.0000000001
 40
0.0
 40
0.0
 40
0.0
 40
22.08153899173462
 40
22.08153899173462
 40
43.72577422636388
 40
43.72577422636388
 40
43.72577422636388
 10
769.485465299836
 20
647.2176735089552
 30
0.0
 41
1.0
 10
756.866258936503
 20
647.2176735089552
 30
0.0
 41
0.822517072280351
 10
752.4108125497221
 20
659.0241703109241
 30
0.0
 41
1.0
 10
748.0685436704224
 20
670.5307577964901
 30
0.0
 41
0.8292719131043931
 10
757.1036307438148
 20
678.8748608734742
 30
0.0
 41
1.0
  0
SPLINE
  5
A4
330
1F
100
AcDbEntity
  8
Predefinito
100
AcDbSpline
210
0.0
220
0.0
230
1.0
 70
    12
 71
     2
 72
     8
 73
     5
 74
     0
 42
0.0000000001
 43
0.0000000001
 40
0.0
 40
0.0
 40
0.0
 40
5.711595197942753
 40
5.711595197942753
 40
27.7931341896771
 40
27.7931341896771
 40
27.7931341896771
 10
787.714546035417
 20
664.5941086655282
 30
0.0
 41
1.0
 10
787.5767220194779
 20
661.7180713195227
 30
0.0
 41
0.9877816451697615
 10
786.5601180499496
 20
659.0241703109241
 30
0.0
 41
1.0
 10
782.1046716631689
 20
647.217673508955
 30
0.0
 41
0.8225170722803447
 10
769.485465299836
 20
647.217673508955
 30
0.0
 41
1.0
  0
SPLINE
  5
A5
330
1F
100
AcDbEntity
  8
Predefinito
100
AcDbSpline
210
0.0
220
0.0
230
1.0
 70
    12
 71
     2
 72
     6
 73
     3
 74
     0
 42
0.0000000001
 43
0.0000000001
 40
932.908718039317
 40
932.908718039317
 40
932.908718039317
 40
1204.080174806629
 40
1204.080174806629
 40
1204.080174806629
 10
903.6532879647681
 20
678.8452883681156
 30
0.0
 41
1.0
 10
911.1738090617977
 20
679.1196377919517
 30
0.0
 41
0.896058391731836
 10
913.1717833244213
 20
676.4810509695393
 30
0.0
 41
1.0
  0
SPLINE
  5
A6
330
1F
100
AcDbEntity
  8
Predefinito
100
AcDbSpline
210
0.0
220
0.0
230
1.0
 70
    12
 71
     2
 72
     6
 73
     3
 74
     0
 42
0.0000000001
 43
0.0000000001
 40
0.0
 40
0.0
 40
0.0
 40
2.625841188864344
 40
2.625841188864344
 40
2.625841188864344
 10
881.9824950847392
 20
671.1763826507477
 30
0.0
 41
1.0
 10
881.0303353913698
 20
670.2253476638464
 30
0.0
 41
0.9637933125264907
 10
880.7024016567159
 20
668.9201522402932
 30
0.0
 41
1.0
  0
SPLINE
  5
A7
330
1F
100
AcDbEntity
  8
Predefinito
100
AcDbSpline
210
0.0
220
0.0
230
1.0
 70
    12
 71
     3
 72
    10
 73
     6
 74
     0
 42
0.0000000001
 43
0.0000000001
 40
-0.239712420632738
 40
-0.239712420632738
 40
-0.239712420632738
 40
-0.239712420632738
 40
-0.1364271659491083
 40
-0.1364271659491083
 40
0.0
 40
0.0
 40
0.0
 40
0.0
 10
903.6532879647681
 20
678.8452883681156
 30
0.0
 41
1.0
 10
900.1750708557353
 20
678.7170741487694
 30
0.0
 41
1.0
 10
896.2882433425456
 20
678.036839243562
 30
0.0
 41
1.0
 10
887.8439867928262
 20
675.4227607590099
 30
0.0
 41
1.0
 10
883.9462834087092
 20
673.3296891576115
 30
0.0
 41
1.0
 10
881.9824950847392
 20
671.1763826507477
 30
0.0
 41
1.0
  0
SPLINE
  5
A8
330
1F
100
AcDbEntity
  8
Predefinito
100
AcDbSpline
210
0.0
220
0.0
230
1.0
 70
    12
 71
     2
 72
     8
 73
     5
 74
     0
 42
0.0000000001
 43
0.0000000001
 40
0.0
 40
0.0
 40
0.0
 40
20.24733935328133
 40
20.24733935328133
 40
32.14401377553326
 40
32.14401377553326
 40
32.14401377553326
 10
898.6221859937908
 20
647.2141676754081
 30
0.0
 41
1.0
 10
887.3141100668546
 20
647.214167675408
 30
0.0
 41
0.8500470945901253
 10
882.2802055619242
 20
657.3399953751372
 30
0.0
 41
1.0
 10
879.5343111145379
 20
662.8634323073722
 30
0.0
 41
0.9473513468893491
 10
880.7024016567159
 20
668.9201522402932
 30
0.0
 41
1.0
  0
SPLINE
  5
A9
330
1F
100
AcDbEntity
  8
Predefinito
100
AcDbSpline
210
0.0
220
0.0
230
1.0
 70
    12
 71
     2
 72
     8
 73
     5
 74
     0
 42
0.0000000001
 43
0.0000000001
 40
0.0
 40
0.0
 40
0.0
 40
20.24733859041939
 40
20.24733859041939
 40
40.49467796722791
 40
40.49467796722791
 40
40.49467796722791
 10
913.1717833244213
 20
676.4810509695393
 30
0.0
 41
1.0
 10
919.9980720030727
 20
667.4658217479322
 30
0.0
 41
0.850047077816103
 10
914.9641670221432
 20
657.3399945873803
 30
0.0
 41
1.0
 10
909.9302618402115
 20
647.214167314129
 30
0.0
 41
0.8500471047160166
 10
898.6221859937908
 20
647.2141676754081
 30
0.0
 41
1.0
  0
SPLINE
  5
AA
330
1F
100
AcDbEntity
  8
Predefinito
100
AcDbSpline
210
0.0
220
0.0
230
1.0
 70
    12
 71
     2
 72
     8
 73
     5
 74
     0
 42
0.0000000001
 43
0.0000000001
 40
0.0
 40
0.0
 40
0.0
 40
21.17266841836678
 40
21.17266841836678
 40
42.34533683673357
 40
42.34533683673357
 40
42.34533683673357
 10
1063.719353633784
 20
121.3271330304682
 30
0.0
 41
1.0
 10
1063.719391912238
 20
109.3683952840002
 30
0.0
 41
0.8364219265855732
 10
1052.754889668044
 20
104.5943928722582
 30
0.0
 41
1.0
 10
1041.790387423849
 20
99.82039046051622
 30
0.0
 41
0.8364219265855732
 10
1033.036218658375
 20
107.9675333778741
 30
0.0
 41
1.0
  0
SPLINE
  5
AB
330
1F
100
AcDbEntity
  8
Predefinito
100
AcDbSpline
210
0.0
220
0.0
230
1.0
 70
    12
 71
     2
 72
     6
 73
     3
 74
     0
 42
0.0000000001
 43
0.0000000001
 40
0.0
 40
0.0
 40
0.0
 40
28.17636456398564
 40
28.17636456398564
 40
28.17636456398564
 10
1045.959851073587
 20
139.5704352514138
 30
0.0
 41
1.0
 10
1063.719235417841
 20
139.0929355246432
 30
0.0
 41
0.7165487130250543
 10
1063.719353633784
 20
121.3271330304678
 30
0.0
 41
1.0
  0
SPLINE
  5
AC
330
1F
100
AcDbEntity
  8
Predefinito
100
AcDbSpline
210
0.0
220
0.0
230
1.0
 70
    12
 71
     2
 72
     6
 73
     3
 74
     0
 42
0.0000000001
 43
0.0000000001
 40
0.0
 40
0.0
 40
0.0
 40
28.01230563249629
 40
28.01230563249629
 40
28.01230563249629
 10
1063.700387190301
 20
278.7202716678439
 30
0.0
 41
1.0
 10
1063.700351313863
 20
261.1135756109078
 30
0.0
 41
0.7196788473453808
 10
1046.104987845315
 20
260.481966196553
 30
0.0
 41
1.0
  0
SPLINE
  5
AD
330
1F
100
AcDbEntity
  8
Predefinito
100
AcDbSpline
210
0.0
220
0.0
230
1.0
 70
    12
 71
     2
 72
     8
 73
     5
 74
     0
 42
0.0000000001
 43
0.0000000001
 40
0.0
 40
0.0
 40
0.0
 40
21.25481263003129
 40
21.25481263003129
 40
42.50962526006257
 40
42.50962526006257
 40
42.50962526006257
 10
1032.897286844649
 20
291.9670401868257
 30
0.0
 41
1.0
 10
1041.620354009931
 20
300.2331744873256
 30
0.0
 41
0.8351871854917317
 10
1052.660296089207
 20
295.4854849513346
 30
0.0
 41
1.0
 10
1063.700238168483
 20
290.7377954153436
 30
0.0
 41
0.8351871854917317
 10
1063.700387190301
 20
278.7202716678439
 30
0.0
 41
1.0
  0
SPLINE
  5
AE
330
1F
100
AcDbEntity
  8
Predefinito
100
AcDbSpline
210
0.0
220
0.0
230
1.0
 70
    12
 71
     2
 72
     8
 73
     5
 74
     0
 42
0.0000000001
 43
0.0000000001
 40
0.0
 40
0.0
 40
0.0
 40
268.2660828350822
 40
268.2660828350822
 40
536.5321656701643
 40
536.5321656701643
 40
536.5321656701643
 10
1034.774233202166
 20
111.4013165299607
 30
0.0
 41
1.0
 10
964.4856186300636
 20
-30.84800388141242
 30
0.0
 41
0.7834087562489385
 10
809.9772243941364
 20
5.2423633458464
 30
0.0
 41
1.0
 10
655.4688301582091
 20
41.33273057310527
 30
0.0
 41
0.7834087562489385
 10
655.4689313995802
 20
200.0001768119379
 30
0.0
 41
1.0
  0
SPLINE
  5
AF
330
1F
100
AcDbEntity
  8
Predefinito
100
AcDbSpline
210
0.0
220
0.0
230
1.0
 70
    12
 71
     2
 72
     6
 73
     3
 74
     0
 42
0.0000000001
 43
0.0000000001
 40
0.0
 40
0.0
 40
0.0
 40
67.44503461590514
 40
67.44503461590514
 40
67.44503461590514
 10
1055.469301538187
 20
200.0001768119378
 30
0.0
 41
1.0
 10
1055.469368801179
 20
165.9543963195446
 30
0.0
 41
0.9858182308288055
 10
1044.204590693086
 20
133.8262164221995
 30
0.0
 41
1.0
  0
SPLINE
  5
B0
330
1F
100
AcDbEntity
  8
Predefinito
100
AcDbSpline
210
0.0
220
0.0
230
1.0
 70
    12
 71
     2
 72
     6
 73
     3
 74
     0
 42
0.0000000001
 43
0.0000000001
 40
0.0
 40
0.0
 40
0.0
 40
65.29230204630838
 40
65.29230204630838
 40
65.29230204630838
 10
1044.905906167056
 20
264.1388607228527
 30
0.0
 41
1.0
 10
1055.469341490825
 20
232.9394007094136
 30
0.0
 41
0.986707205692137
 10
1055.469301538187
 20
200.0001768119377
 30
0.0
 41
1.0
  0
SPLINE
  5
B1
330
1F
100
AcDbEntity
  8
Predefinito
100
AcDbSpline
210
0.0
220
0.0
230
1.0
 70
    12
 71
     2
 72
     8
 73
     5
 74
     0
 42
0.0000000001
 43
0.0000000001
 40
0.0
 40
0.0
 40
0.0
 40
269.2035703180861
 40
269.2035703180861
 40
538.4071406361722
 40
538.4071406361722
 40
538.4071406361722
 10
655.4689313995804
 20
200.0001768119378
 30
0.0
 41
1.0
 10
655.468802460434
 20
359.4328365601085
 30
0.0
 41
0.7819497881899377
 10
810.8906476317475
 20
394.9690580522261
 30
0.0
 41
1.0
 10
966.312492803061
 20
430.5052795443438
 30
0.0
 41
0.7819497881899377
 10
1035.596864853033
 20
286.9140235987478
 30
0.0
 41
1.0
  0
SPLINE
  5
B2
330
1F
100
AcDbEntity
  8
Predefinito
100
AcDbSpline
210
0.0
220
0.0
230
1.0
 70
    12
 71
     2
 72
     6
 73
     3
 74
     0
 42
0.0000000001
 43
0.0000000001
 40
0.0
 40
0.0
 40
0.0
 40
3.772306230074506
 40
3.772306230074506
 40
3.772306230074506
 10
1045.797506211601
 20
138.4133384199339
 30
0.0
 41
1.0
 10
1045.288448639987
 20
136.595966516496
 30
0.0
 41
0.9990721151762898
 10
1044.624881321761
 20
134.8291448897304
 30
0.0
 41
1.0
  0
SPLINE
  5
B3
330
1F
100
AcDbEntity
  8
Predefinito
100
AcDbSpline
210
0.0
220
0.0
230
1.0
 70
    12
 71
     2
 72
     6
 73
     3
 74
     0
 42
0.0000000001
 43
0.0000000001
 40
0.0
 40
0.0
 40
0.0
 40
0.388531632453304
 40
0.388531632453304
 40
0.388531632453304
 10
1045.957633912168
 20
139.4889682382167
 30
0.0
 41
1.0
 10
1045.985366712537
 20
139.2947247705738
 30
0.0
 41
0.9851787691506932
 10
1045.945817759764
 20
139.1025386283241
 30
0.0
 41
1.0
  0
SPLINE
  5
B4
330
1F
100
AcDbEntity
  8
Predefinito
100
AcDbSpline
210
0.0
220
0.0
230
1.0
 70
    12
 71
     2
 72
     8
 73
     5
 74
     0
 42
0.0000000001
 43
0.0000000001
 40
0.0
 40
0.0
 40
0.0
 40
0.0675158479635498
 40
0.0675158479635498
 40
0.1350316959270995
 40
0.1350316959270995
 40
0.1350316959270995
 10
1045.869684120786
 20
139.5720480832432
 30
0.0
 41
1.0
 10
1045.90534279596
 20
139.5736873388494
 30
0.0
 41
0.920501236988141
 10
1045.931292121202
 20
139.549174876844
 30
0.0
 41
1.0
 10
1045.957241446443
 20
139.5246624148388
 30
0.0
 41
0.920501236988141
 10
1045.957633912168
 20
139.4889682382167
 30
0.0
 41
1.0
  0
SPLINE
  5
B5
330
1F
100
AcDbEntity
  8
Predefinito
100
AcDbSpline
210
0.0
220
0.0
230
1.0
 70
    12
 71
     2
 72
     6
 73
     3
 74
     0
 42
0.0000000001
 43
0.0000000001
 40
0.0
 40
0.0
 40
0.0
 40
0.8354324275053683
 40
0.8354324275053683
 40
0.8354324275053683
 10
1044.649090116039
 20
135.3786353093517
 30
0.0
 41
1.0
 10
1044.78699295306
 20
135.778079510146
 30
0.0
 41
0.9828285575613963
 10
1044.770624678296
 20
136.2003412081341
 30
0.0
 41
1.0
  0
SPLINE
  5
B6
330
1F
100
AcDbEntity
  8
Predefinito
100
AcDbSpline
210
0.0
220
0.0
230
1.0
 70
    12
 71
     2
 72
     6
 73
     3
 74
     0
 42
0.0000000001
 43
0.0000000001
 40
0.0
 40
0.0
 40
0.0
 40
0.6528180889996968
 40
0.6528180889996968
 40
0.6528180889996968
 10
1044.312425363167
 20
134.2514323086378
 30
0.0
 41
1.0
 10
1044.414043300245
 20
134.5616389010776
 30
0.0
 41
0.9999192607078239
 10
1044.507745363657
 20
134.8743276575777
 30
0.0
 41
1.0
  0
SPLINE
  5
B7
330
1F
100
AcDbEntity
  8
Predefinito
100
AcDbSpline
210
0.0
220
0.0
230
1.0
 70
    12
 71
     2
 72
     8
 73
     5
 74
     0
 42
0.0000000001
 43
0.0000000001
 40
0.0
 40
0.0
 40
0.0
 40
290.0978072251349
 40
290.0978072251349
 40
580.1956144502697
 40
580.1956144502697
 40
580.1956144502697
 10
670.786997469656
 20
200.0001656108468
 30
0.0
 41
1.0
 10
670.7869974696564
 20
15.31816561084709
 30
0.0
 41
0.7071067811865483
 10
855.4689974696561
 20
15.3181656108471
 30
0.0
 41
1.0
 10
1040.150997469656
 20
15.31816561084692
 30
0.0
 41
0.7071067811865471
 10
1040.150997469656
 20
200.0001656108468
 30
0.0
 41
1.0
  0
SPLINE
  5
B8
330
1F
100
AcDbEntity
  8
Predefinito
100
AcDbSpline
210
0.0
220
0.0
230
1.0
 70
    12
 71
     2
 72
     8
 73
     5
 74
     0
 42
0.0000000001
 43
0.0000000001
 40
0.0
 40
0.0
 40
0.0
 40
281.4851253392104
 40
281.4851253392104
 40
562.9702506784206
 40
562.9702506784206
 40
562.9702506784206
 10
676.2700047743533
 20
200.0001656108468
 30
0.0
 41
1.0
 10
676.270001051348
 20
20.80116919253882
 30
0.0
 41
0.7071067811865486
 10
855.4689974696561
 20
20.80116546953306
 30
0.0
 41
1.0
 10
1034.667993887964
 20
20.80116919253864
 30
0.0
 41
0.7071067811865469
 10
1034.667990164958
 20
200.0001656108468
 30
0.0
 41
1.0
  0
SPLINE
  5
B9
330
1F
100
AcDbEntity
  8
Predefinito
100
AcDbSpline
210
0.0
220
0.0
230
1.0
 70
    12
 71
     2
 72
     8
 73
     5
 74
     0
 42
0.0000000001
 43
0.0000000001
 40
0.0
 40
0.0
 40
0.0
 40
270.3574889977301
 40
270.3574889977301
 40
540.71497799546
 40
540.71497799546
 40
540.71497799546
 10
683.3540951466854
 20
200.0001656108468
 30
0.0
 41
1.0
 10
683.3540743660535
 20
27.88524250724417
 30
0.0
 41
0.7071067811865581
 10
855.4689974696561
 20
27.88522172660706
 30
0.0
 41
1.0
 10
1027.583920573259
 20
27.88524250724402
 30
0.0
 41
0.7071067811865567
 10
1027.583899792626
 20
200.0001656108468
 30
0.0
 41
1.0
  0
SPLINE
  5
BA
330
1F
100
AcDbEntity
  8
Predefinito
100
AcDbSpline
210
0.0
220
0.0
230
1.0
 70
    12
 71
     2
 72
     8
 73
     5
 74
     0
 42
0.0000000001
 43
0.0000000001
 40
0.0
 40
0.0
 40
0.0
 40
290.0977960252423
 40
290.0977960252423
 40
580.1955920485681
 40
580.1955920485681
 40
580.1955920485681
 10
1040.150997469656
 20
200.0001768107398
 30
0.0
 41
1.0
 10
1040.150986269764
 20
384.6821656108471
 30
0.0
 41
0.7071068026275107
 10
855.4689974696561
 20
384.6821656108472
 30
0.0
 41
1.0
 10
670.7870086714652
 20
384.6821656108472
 30
0.0
 41
0.7071068026311809
 10
670.7869974696562
 20
200.0001768126565
 30
0.0
 41
1.0
  0
SPLINE
  5
BB
330
1F
100
AcDbEntity
  8
Predefinito
100
AcDbSpline
210
0.0
220
0.0
230
1.0
 70
    12
 71
     2
 72
     8
 73
     5
 74
     0
 42
0.0000000001
 43
0.0000000001
 40
0.0
 40
0.0
 40
0.0
 40
281.4851197383193
 40
281.4851197383193
 40
562.9702394757055
 40
562.9702394757055
 40
562.9702394757055
 10
1034.667990164958
 20
200.000171211738
 30
0.0
 41
1.0
 10
1034.667988287074
 20
379.1991620291554
 30
0.0
 41
0.7071067922369098
 10
855.4689974696561
 20
379.199165752161
 30
0.0
 41
1.0
 10
676.2700066531725
 20
379.1991620291548
 30
0.0
 41
0.7071067922387545
 10
676.2700047743533
 20
200.0001712126712
 30
0.0
 41
1.0
  0
SPLINE
  5
BC
330
1F
100
AcDbEntity
  8
Predefinito
100
AcDbSpline
210
0.0
220
0.0
230
1.0
 70
    12
 71
     2
 72
     8
 73
     5
 74
     0
 42
0.0000000001
 43
0.0000000001
 40
0.0
 40
0.0
 40
0.0
 40
270.3574833968531
 40
270.3574833968531
 40
540.7149667928543
 40
540.7149667928543
 40
540.7149667928543
 10
1027.583899792626
 20
200.000171211724
 30
0.0
 41
1.0
 10
1027.583914972383
 20
372.1150887144514
 30
0.0
 41
0.7071067926917081
 10
855.4689974696562
 20
372.1151094950872
 30
0.0
 41
1.0
 10
683.3540799677813
 20
372.1150887144516
 30
0.0
 41
0.7071067926934591
 10
683.3540951466853
 20
200.0001712125763
 30
0.0
 41
1.0
  0
SPLINE
  5
BD
330
1F
100
AcDbEntity
  8
Predefinito
100
AcDbSpline
210
0.0
220
0.0
230
1.0
 70
    12
 71
     2
 72
     6
 73
     3
 74
     0
 42
0.0000000001
 43
0.0000000001
 40
0.0
 40
0.0
 40
0.0
 40
0.2399929799596296
 40
0.2399929799596296
 40
0.2399929799596296
 10
1032.953296652074
 20
291.9078947980007
 30
0.0
 41
1.0
 10
1033.052370245084
 20
291.8384673688134
 30
0.0
 41
0.9878711750576219
 10
1033.125367124474
 20
291.7419935363263
 30
0.0
 41
1.0
  0
SPLINE
  5
BE
330
1F
100
AcDbEntity
  8
Predefinito
100
AcDbSpline
210
0.0
220
0.0
230
1.0
 70
    12
 71
     2
 72
     6
 73
     3
 74
     0
 42
0.0000000001
 43
0.0000000001
 40
0.0
 40
0.0
 40
0.0
 40
1.358993456840425
 40
1.358993456840425
 40
1.358993456840425
 10
1035.191114274766
 20
287.6196251260757
 30
0.0
 41
1.0
 10
1034.916362538563
 20
288.2490453532644
 30
0.0
 41
0.9841813522488485
 10
1034.439364847237
 20
288.7431420456342
 30
0.0
 41
1.0
  0
SPLINE
  5
BF
330
1F
100
AcDbEntity
  8
Predefinito
100
AcDbSpline
210
0.0
220
0.0
230
1.0
 70
    12
 71
     2
 72
     8
 73
     5
 74
     0
 42
0.0000000001
 43
0.0000000001
 40
0.0
 40
0.0
 40
0.0
 40
296.7636149738844
 40
296.7636149738844
 40
593.5272299477688
 40
593.5272299477688
 40
593.5272299477688
 10
1044.396448171967
 20
200.0001768127935
 30
0.0
 41
1.0
 10
1044.393704482544
 20
11.07558881756195
 30
0.0
 41
0.707111915704284
 10
855.4691164673897
 20
11.07558881905598
 30
0.0
 41
1.0
 10
666.5445284522351
 20
11.07558882055006
 30
0.0
 41
0.707111915704284
 10
666.5417847658006
 20
200.0001768157817
 30
0.0
 41
1.0
  0
SPLINE
  5
C0
330
1F
100
AcDbEntity
  8
Predefinito
100
AcDbSpline
210
0.0
220
0.0
230
1.0
 70
    12
 71
     2
 72
     8
 73
     5
 74
     0
 42
0.0000000001
 43
0.0000000001
 40
0.0
 40
0.0
 40
0.0
 40
296.7636149738846
 40
296.7636149738846
 40
593.5272299477691
 40
593.5272299477691
 40
593.5272299477691
 10
666.5417847658007
 20
200.0001768157817
 30
0.0
 41
1.0
 10
666.544528455223
 20
388.9247648110137
 30
0.0
 41
0.7071119157042833
 10
855.4691164703777
 20
388.9247648095195
 30
0.0
 41
1.0
 10
1044.393704485532
 20
388.9247648080255
 30
0.0
 41
0.7071119157042833
 10
1044.396448171967
 20
200.0001768127936
 30
0.0
 41
1.0
  0
SPLINE
  5
C1
330
1F
100
AcDbEntity
  8
Predefinito
100
AcDbSpline
210
0.0
220
0.0
230
1.0
 70
    12
 71
     2
 72
     6
 73
     3
 74
     0
 42
0.0000000001
 43
0.0000000001
 40
0.0
 40
0.0
 40
0.0
 40
121.7219992374484
 40
121.7219992374484
 40
121.7219992374484
 10
677.5195896049889
 20
256.6338501001492
 30
0.0
 41
1.0
 10
696.6593256303127
 20
316.7730539577103
 30
0.0
 41
0.9473610938918062
 10
748.357254320864
 20
352.9721907546981
 30
0.0
 41
1.0
  0
SPLINE
  5
C2
330
1F
100
AcDbEntity
  8
Predefinito
100
AcDbSpline
210
0.0
220
0.0
230
1.0
 70
    12
 71
     2
 72
     8
 73
     5
 74
     0
 42
0.0000000001
 43
0.0000000001
 40
0.0
 40
0.0
 40
0.0
 40
293.3369761746002
 40
293.3369761746002
 40
464.9519531819907
 40
464.9519531819907
 40
464.9519531819907
 10
962.5807406184479
 20
47.02814046699513
 30
0.0
 41
1.0
 10
809.6087155172822
 20
-60.08360273146404
 30
0.0
 41
0.7071067809947177
 10
702.496972401822
 20
92.8884224278181
 30
0.0
 41
1.0
 10
649.4963008324274
 20
168.5815241003202
 30
0.0
 41
0.8962777657235231
 10
677.5195896049889
 20
256.6338501001493
 30
0.0
 41
1.0
  0
SPLINE
  5
C3
330
1F
100
AcDbEntity
  8
Predefinito
100
AcDbSpline
210
0.0
220
0.0
230
1.0
 70
    12
 71
     2
 72
     6
 73
     3
 74
     0
 42
0.0000000001
 43
0.0000000001
 40
0.0
 40
0.0
 40
0.0
 40
89.63041393064088
 40
89.63041393064088
 40
89.63041393064088
 10
1021.112742618863
 20
113.7707293632771
 30
0.0
 41
1.0
 10
1000.012614281498
 20
73.23811733754837
 30
0.0
 41
0.9713422790572496
 10
962.5807406184479
 20
47.02814046699517
 30
0.0
 41
1.0
  0
SPLINE
  5
C4
330
1F
100
AcDbEntity
  8
Predefinito
100
AcDbSpline
210
0.0
220
0.0
230
1.0
 70
    12
 71
     2
 72
     8
 73
     5
 74
     0
 42
0.0000000001
 43
0.0000000001
 40
0.0
 40
0.0
 40
0.0
 40
293.3369761746001
 40
293.3369761746001
 40
497.0435384886541
 40
497.0435384886541
 40
497.0435384886541
 10
748.3572543208638
 20
352.9721907546981
 30
0.0
 41
1.0
 10
901.3292794220299
 20
460.0839339531575
 30
0.0
 41
0.7071067809947161
 10
1008.44102253749
 20
307.1119087938749
 30
0.0
 41
1.0
 10
1073.438152863169
 20
214.2860209618395
 30
0.0
 41
0.854911414092669
 10
1021.112742618863
 20
113.7707293632771
 30
0.0
 41
1.0
  0
ENDSEC
  0
SECTION
  2
OBJECTS
  0
DICTIONARY
  5
C
330
0
100
AcDbDictionary
281
     1
  3
ACAD_GROUP
350
D
  3
ACAD_LAYOUT
350
1A
  3
ACAD_MLEADERSTYLE
350
C6
  3
ACAD_MLINESTYLE
350
17
  3
ACAD_PLOTSETTINGS
350
19
  3
ACAD_PLOTSTYLENAME
350
E
  3
ACAD_TABLESTYLE
350
C5
  3
ACAD_VISUALSTYLE
350
2A
  0
DICTIONARY
  5
D
102
{ACAD_REACTORS
330
C
102
}
330
C
100
AcDbDictionary
281
     1
  0
DICTIONARY
  5
1A
102
{ACAD_REACTORS
330
C
102
}
330
C
100
AcDbDictionary
281
     1
  3
Layout1
350
1E
  3
Layout2
350
26
  3
Model
350
22
  0
DICTIONARY
  5
C6
102
{ACAD_REACTORS
330
C
102
}
330
C
100
AcDbDictionary
281
     1
  0
DICTIONARY
  5
17
102
{ACAD_REACTORS
330
C
102
}
330
C
100
AcDbDictionary
281
     1
  3
Standard
350
18
  0
DICTIONARY
  5
19
102
{ACAD_REACTORS
330
C
102
}
330
C
100
AcDbDictionary
281
     1
  0
ACDBDICTIONARYWDFLT
  5
E
102
{ACAD_REACTORS
330
C
102
}
330
C
100
AcDbDictionary
281
     1
  3
Normal
350
F
100
AcDbDictionaryWithDefault
340
F
  0
DICTIONARY
  5
C5
102
{ACAD_REACTORS
330
C
102
}
330
C
100
AcDbDictionary
281
     1
  0
DICTIONARY
  5
2A
102
{ACAD_REACTORS
330
C
102
}
330
C
100
AcDbDictionary
281
     1
  3
2dWireframe
350
2F
  3
3D Hidden
350
31
  3
3dWireframe
350
30
  3
Basic
350
32
  3
Brighten
350
36
  3
ColorChange
350
3A
  3
Conceptual
350
34
  3
Dim
350
35
  3
Facepattern
350
39
  3
Flat
350
2B
  3
FlatWithEdges
350
2C
  3
Gouraud
350
2D
  3
GouraudWithEdges
350
2E
  3
Linepattern
350
38
  3
Realistic
350
33
  3
Thicken
350
37
  0
LAYOUT
  5
1E
102
{ACAD_REACTORS
330
1A
102
}
330
1A
100
AcDbPlotSettings
  1

  2
none_device
  4

  6

 40
0.0
 41
0.0
 42
0.0
 43
0.0
 44
0.0
 45
0.0
 46
0.0
 47
0.0
 48
0.0
 49
0.0
140
0.0
141
0.0
142
1.0
143
1.0
 70
   688
 72
     0
 73
     0
 74
     5
  7

 75
    16
 76
     0
 77
     2
 78
   300
147
1.0
148
0.0
149
0.0
100
AcDbLayout
  1
Layout1
 70
     1
 71
     1
 10
0.0
 20
0.0
 11
12.0
 21
9.0
 12
0.0
 22
0.0
 32
0.0
 14
1.000000000000000E+20
 24
1.000000000000000E+20
 34
1.000000000000000E+20
 15
-1.000000000000000E+20
 25
-1.000000000000000E+20
 35
-1.000000000000000E+20
146
0.0
 13
0.0
 23
0.0
 33
0.0
 16
1.0
 26
0.0
 36
0.0
 17
0.0
 27
1.0
 37
0.0
 76
     0
330
1B
  0
LAYOUT
  5
26
102
{ACAD_REACTORS
330
1A
102
}
330
1A
100
AcDbPlotSettings
  1

  2
none_device
  4

  6

 40
0.0
 41
0.0
 42
0.0
 43
0.0
 44
0.0
 45
0.0
 46
0.0
 47
0.0
 48
0.0
 49
0.0
140
0.0
141
0.0
142
1.0
143
1.0
 70
   688
 72
     0
 73
     0
 74
     5
  7

 75
    16
 76
     0
 77
     2
 78
   300
147
1.0
148
0.0
149
0.0
100
AcDbLayout
  1
Layout2
 70
     1
 71
     2
 10
0.0
 20
0.0
 11
0.0
 21
0.0
 12
0.0
 22
0.0
 32
0.0
 14
0.0
 24
0.0
 34
0.0
 15
0.0
 25
0.0
 35
0.0
146
0.0
 13
0.0
 23
0.0
 33
0.0
 16
1.0
 26
0.0
 36
0.0
 17
0.0
 27
1.0
 37
0.0
 76
     0
330
23
  0
LAYOUT
  5
22
102
{ACAD_REACTORS
330
1A
102
}
330
1A
100
AcDbPlotSettings
  1

  2
none_device
  4

  6

 40
0.0
 41
0.0
 42
0.0
 43
0.0
 44
0.0
 45
0.0
 46
0.0
 47
0.0
 48
0.0
 49
0.0
140
0.0
141
0.0
142
1.0
143
1.0
 70
  1712
 72
     0
 73
     0
 74
     0
  7

 75
     0
 76
     0
 77
     2
 78
   300
147
1.0
148
0.0
149
0.0
100
AcDbLayout
  1
Model
 70
     1
 71
     0
 10
0.0
 20
0.0
 11
12.0
 21
9.0
 12
0.0
 22
0.0
 32
0.0
 14
0.0171384691740518
 24
0.0149588065338253
 34
0.0
 15
1063.719353633784
 25
970.1745689469572
 35
0.0
146
0.0
 13
0.0
 23
0.0
 33
0.0
 16
1.0
 26
0.0
 36
0.0
 17
0.0
 27
1.0
 37
0.0
 76
     0
330
1F
331
29
  0
MLINESTYLE
  5
18
102
{ACAD_REACTORS
330
17
102
}
330
17
100
AcDbMlineStyle
  2
Standard
 70
     0
  3

 62
   256
 51
90.0
 52
90.0
 71
     2
 49
0.5
 62
   256
  6
BYLAYER
 49
-0.5
 62
   256
  6
BYLAYER
  0
ACDBPLACEHOLDER
  5
F
102
{ACAD_REACTORS
330
E
102
}
330
E
  0
VISUALSTYLE
  5
2F
102
{ACAD_REACTORS
330
2A
102
}
330
2A
100
AcDbVisualStyle
  2
2dWireframe
 70
     4
 71
     0
 72
     2
 73
     0
 90
        0
 40
-0.6
 41
-30.0
 62
     5
 63
     7
421
 16777215
 74
     1
 91
        4
 64
     7
 65
   257
 75
     1
175
     1
 42
1.0
 92
        0
 66
   257
 43
1.0
 76
     1
 77
     6
 78
     2
 67
     7
 79
     5
170
     0
171
     0
290
     0
174
     0
 93
        1
 44
0.0
173
     0
291
     0
 45
0.0
1001
ACAD
1000
AcDbSavedByObjectVersion
1070
     0
  0
VISUALSTYLE
  5
31
102
{ACAD_REACTORS
330
2A
102
}
330
2A
100
AcDbVisualStyle
  2
3D Hidden
 70
     6
 71
     1
 72
     2
 73
     2
 90
        0
 40
-0.6
 41
-30.0
 62
     5
 63
     7
421
 16777215
 74
     2
 91
        2
 64
     7
 65
   257
 75
     2
175
     1
 42
40.0
 92
        0
 66
   257
 43
1.0
 76
     1
 77
     6
 78
     2
 67
     7
 79
     3
170
     0
171
     0
290
     0
174
     0
 93
        1
 44
0.0
173
     0
291
     0
 45
0.0
1001
ACAD
1000
AcDbSavedByObjectVersion
1070
     0
  0
VISUALSTYLE
  5
30
102
{ACAD_REACTORS
330
2A
102
}
330
2A
100
AcDbVisualStyle
  2
3dWireframe
 70
     5
 71
     0
 72
     2
 73
     0
 90
        0
 40
-0.6
 41
-30.0
 62
     5
 63
     7
421
 16777215
 74
     1
 91
        4
 64
     7
 65
   257
 75
     1
175
     1
 42
1.0
 92
        0
 66
   257
 43
1.0
 76
     1
 77
     6
 78
     2
 67
     7
 79
     5
170
     0
171
     0
290
     0
174
     0
 93
        1
 44
0.0
173
     0
291
     0
 45
0.0
1001
ACAD
1000
AcDbSavedByObjectVersion
1070
     0
  0
VISUALSTYLE
  5
32
102
{ACAD_REACTORS
330
2A
102
}
330
2A
100
AcDbVisualStyle
  2
Basic
 70
     7
 71
     1
 72
     0
 73
     1
 90
        0
 40
-0.6
 41
-30.0
 62
     5
 63
     7
421
 16777215
 74
     0
 91
        4
 64
     7
 65
   257
 75
     1
175
     1
 42
1.0
 92
        8
 66
     7
 43
1.0
 76
     1
 77
     6
 78
     2
 67
     7
 79
     5
170
     0
171
     0
290
     0
174
     0
 93
        1
 44
0.0
173
     0
291
     1
 45
0.0
1001
ACAD
1000
AcDbSavedByObjectVersion
1070
     0
  0
VISUALSTYLE
  5
36
102
{ACAD_REACTORS
330
2A
102
}
330
2A
100
AcDbVisualStyle
  2
Brighten
 70
    12
 71
     2
 72
     2
 73
     0
 90
        0
 40
-0.6
 41
-30.0
 62
     5
 63
     7
421
 16777215
 74
     1
 91
        4
 64
     7
 65
   257
 75
     1
175
     1
 42
1.0
 92
        8
 66
     7
 43
1.0
 76
     1
 77
     6
 78
     2
 67
     7
 79
     5
170
     0
171
     0
290
     0
174
     0
 93
        1
 44
50.0
173
     0
291
     1
 45
0.0
1001
ACAD
1000
AcDbSavedByObjectVersion
1070
     0
  0
VISUALSTYLE
  5
3A
102
{ACAD_REACTORS
330
2A
102
}
330
2A
100
AcDbVisualStyle
  2
ColorChange
 70
    16
 71
     2
 72
     2
 73
     3
 90
        0
 40
-0.6
 41
-30.0
 62
     5
 63
     8
421
  8421504
 74
     1
 91
        4
 64
     7
 65
   257
 75
     1
175
     1
 42
1.0
 92
        8
 66
     8
424
  8421504
 43
1.0
 76
     1
 77
     6
 78
     2
 67
     7
 79
     5
170
     0
171
     0
290
     0
174
     0
 93
        1
 44
0.0
173
     0
291
     1
 45
0.0
1001
ACAD
1000
AcDbSavedByObjectVersion
1070
     0
  0
VISUALSTYLE
  5
34
102
{ACAD_REACTORS
330
2A
102
}
330
2A
100
AcDbVisualStyle
  2
Conceptual
 70
     9
 71
     3
 72
     2
 73
     0
 90
        0
 40
-0.6
 41
-30.0
 62
     5
 63
     7
421
 16777215
 74
     2
 91
        2
 64
     7
 65
   257
 75
     1
175
     1
 42
40.0
 92
        8
 66
     7
 43
1.0
 76
     1
 77
     6
 78
     2
 67
     7
 79
     3
170
     0
171
     0
290
     0
174
     0
 93
        1
 44
0.0
173
     0
291
     0
 45
0.0
1001
ACAD
1000
AcDbSavedByObjectVersion
1070
     0
  0
VISUALSTYLE
  5
35
102
{ACAD_REACTORS
330
2A
102
}
330
2A
100
AcDbVisualStyle
  2
Dim
 70
    11
 71
     2
 72
     2
 73
     0
 90
        0
 40
-0.6
 41
-30.0
 62
     5
 63
     7
421
 16777215
 74
     1
 91
        4
 64
     7
 65
   257
 75
     1
175
     1
 42
1.0
 92
        8
 66
     7
 43
1.0
 76
     1
 77
     6
 78
     2
 67
     7
 79
     5
170
     0
171
     0
290
     0
174
     0
 93
        1
 44
-50.0
173
     0
291
     1
 45
0.0
1001
ACAD
1000
AcDbSavedByObjectVersion
1070
     0
  0
VISUALSTYLE
  5
39
102
{ACAD_REACTORS
330
2A
102
}
330
2A
100
AcDbVisualStyle
  2
Facepattern
 70
    15
 71
     2
 72
     2
 73
     0
 90
        0
 40
-0.6
 41
-30.0
 62
     5
 63
     7
421
 16777215
 74
     1
 91
        4
 64
     7
 65
   257
 75
     1
175
     1
 42
1.0
 92
        8
 66
     7
 43
1.0
 76
     1
 77
     6
 78
     2
 67
     7
 79
     5
170
     0
171
     0
290
     0
174
     0
 93
        1
 44
0.0
173
     0
291
     1
 45
0.0
1001
ACAD
1000
AcDbSavedByObjectVersion
1070
     0
  0
VISUALSTYLE
  5
2B
102
{ACAD_REACTORS
330
2A
102
}
330
2A
100
AcDbVisualStyle
  2
Flat
 70
     0
 71
     2
 72
     1
 73
     1
 90
        2
 40
-0.6
 41
30.0
 62
     5
 63
     7
421
 16777215
 74
     0
 91
        4
 64
     7
 65
   257
 75
     1
175
     1
 42
1.0
 92
        8
 66
     7
 43
1.0
 76
     1
 77
     6
 78
     2
 67
     7
 79
     5
170
     0
171
     0
290
     0
174
     0
 93
       13
 44
0.0
173
     0
291
     1
 45
0.0
1001
ACAD
1000
AcDbSavedByObjectVersion
1070
     0
  0
VISUALSTYLE
  5
2C
102
{ACAD_REACTORS
330
2A
102
}
330
2A
100
AcDbVisualStyle
  2
FlatWithEdges
 70
     1
 71
     2
 72
     1
 73
     1
 90
        2
 40
-0.6
 41
30.0
 62
     5
 63
     7
421
 16777215
 74
     1
 91
        4
 64
     7
 65
   257
 75
     1
175
     1
 42
1.0
 92
        0
 66
   257
 43
1.0
 76
     1
 77
     6
 78
     2
 67
     7
 79
     5
170
     0
171
     0
290
     0
174
     0
 93
       13
 44
0.0
173
     0
291
     1
 45
0.0
1001
ACAD
1000
AcDbSavedByObjectVersion
1070
     0
  0
VISUALSTYLE
  5
2D
102
{ACAD_REACTORS
330
2A
102
}
330
2A
100
AcDbVisualStyle
  2
Gouraud
 70
     2
 71
     2
 72
     2
 73
     1
 90
        2
 40
-0.6
 41
30.0
 62
     5
 63
     7
421
 16777215
 74
     0
 91
        4
 64
     7
 65
   257
 75
     1
175
     1
 42
1.0
 92
        0
 66
     7
 43
1.0
 76
     1
 77
     6
 78
     2
 67
     7
 79
     5
170
     0
171
     0
290
     0
174
     0
 93
       13
 44
0.0
173
     0
291
     1
 45
0.0
1001
ACAD
1000
AcDbSavedByObjectVersion
1070
     0
  0
VISUALSTYLE
  5
2E
102
{ACAD_REACTORS
330
2A
102
}
330
2A
100
AcDbVisualStyle
  2
GouraudWithEdges
 70
     3
 71
     2
 72
     2
 73
     1
 90
        2
 40
-0.6
 41
30.0
 62
     5
 63
     7
421
 16777215
 74
     1
 91
        4
 64
     7
 65
   257
 75
     1
175
     1
 42
1.0
 92
        0
 66
   257
 43
1.0
 76
     1
 77
     6
 78
     2
 67
     7
 79
     5
170
     0
171
     0
290
     0
174
     0
 93
       13
 44
0.0
173
     0
291
     1
 45
0.0
1001
ACAD
1000
AcDbSavedByObjectVersion
1070
     0
  0
VISUALSTYLE
  5
38
102
{ACAD_REACTORS
330
2A
102
}
330
2A
100
AcDbVisualStyle
  2
Linepattern
 70
    14
 71
     2
 72
     2
 73
     0
 90
        0
 40
-0.6
 41
-30.0
 62
     5
 63
     7
421
 16777215
 74
     1
 91
        4
 64
     7
 65
   257
 75
     7
175
     7
 42
1.0
 92
        8
 66
     7
 43
1.0
 76
     1
 77
     6
 78
     2
 67
     7
 79
     5
170
     0
171
     0
290
     0
174
     0
 93
        1
 44
0.0
173
     0
291
     1
 45
0.0
1001
ACAD
1000
AcDbSavedByObjectVersion
1070
     0
  0
VISUALSTYLE
  5
33
102
{ACAD_REACTORS
330
2A
102
}
330
2A
100
AcDbVisualStyle
  2
Realistic
 70
     8
 71
     2
 72
     2
 73
     0
 90
        0
 40
-0.6
 41
-30.0
 62
     5
 63
     7
421
 16777215
 74
     1
 91
        0
 64
     7
 65
   257
 75
     1
175
     1
 42
1.0
 92
        8
 66
     8
424
  7895160
 43
1.0
 76
     1
 77
     6
 78
     2
 67
     7
 79
     5
170
     0
171
     0
290
     0
174
     0
 93
       13
 44
0.0
173
     0
291
     0
 45
0.0
1001
ACAD
1000
AcDbSavedByObjectVersion
1070
     0
  0
VISUALSTYLE
  5
37
102
{ACAD_REACTORS
330
2A
102
}
330
2A
100
AcDbVisualStyle
  2
Thicken
 70
    13
 71
     2
 72
     2
 73
     0
 90
        0
 40
-0.6
 41
-30.0
 62
     5
 63
     7
421
 16777215
 74
     1
 91
        4
 64
     7
 65
   257
 75
     1
175
     1
 42
1.0
 92
       12
 66
     7
 43
1.0
 76
     1
 77
     6
 78
     2
 67
     7
 79
     5
170
     0
171
     0
290
     0
174
     0
 93
        1
 44
0.0
173
     0
291
     1
 45
0.0
1001
ACAD
1000
AcDbSavedByObjectVersion
1070
     0
  0
ENDSEC
  0
EOF
