  0
SECTION
  2
HEADER
  9
$ACADVER
  1
AC1015
  9
$ACADMAINTVER
 70
    20
  9
$DWGCODEPAGE
  3
ANSI_1252
  9
$INSBASE
 10
0.0
 20
0.0
 30
0.0
  9
$EXTMIN
 10
-45.7519246438884
 20
-1261.580451252712
 30
0.0
  9
$EXTMAX
 10
827.0173912195209
 20
859.4319140542285
 30
0.0
  9
$LIMMIN
 10
0.0
 20
0.0
  9
$LIMMAX
 10
0.0
 20
0.0
  9
$ORTHOMODE
 70
     0
  9
$REGENMODE
 70
     1
  9
$FILLMODE
 70
     1
  9
$QTEXTMODE
 70
     0
  9
$MIRRTEXT
 70
     1
  9
$LTSCALE
 40
1.0
  9
$ATTMODE
 70
     1
  9
$TEXTSIZE
 40
0.0
  9
$TRACEWID
 40
0.05
  9
$TEXTSTYLE
  7
STANDARD
  9
$CLAYER
  8
0
  9
$CELTYPE
  6
CONTINUOUS
  9
$CECOLOR
 62
   256
  9
$CELTSCALE
 40
1.0
  9
$DISPSILH
 70
     0
  9
$DIMSCALE
 40
1.0
  9
$DIMASZ
 40
6.0
  9
$DIMEXO
 40
1.0
  9
$DIMDLI
 40
0.38
  9
$DIMRND
 40
0.0
  9
$DIMDLE
 40
1.0
  9
$DIMEXE
 40
0.18
  9
$DIMTP
 40
0.0
  9
$DIMTM
 40
0.0
  9
$DIMTXT
 40
3.5
  9
$DIMCEN
 40
0.09
  9
$DIMTSZ
 40
0.0
  9
$DIMTOL
 70
     0
  9
$DIMLIM
 70
     0
  9
$DIMTIH
 70
     1
  9
$DIMTOH
 70
     1
  9
$DIMSE1
 70
     0
  9
$DIMSE2
 70
     0
  9
$DIMTAD
 70
     1
  9
$DIMZIN
 70
     0
  9
$DIMBLK
  1

  9
$DIMASO
 70
     1
  9
$DIMSHO
 70
     1
  9
$DIMPOST
  1

  9
$DIMAPOST
  1

  9
$DIMALT
 70
     0
  9
$DIMALTD
 70
     2
  9
$DIMALTF
 40
0.0394
  9
$DIMLFAC
 40
20.0
  9
$DIMTOFL
 70
     0
  9
$DIMTVP
 40
0.0
  9
$DIMTIX
 70
     0
  9
$DIMSOXD
 70
     0
  9
$DIMSAH
 70
     0
  9
$DIMBLK1
  1

  9
$DIMBLK2
  1

  9
$DIMSTYLE
  2
STANDARD
  9
$DIMCLRD
 70
     0
  9
$DIMCLRE
 70
     0
  9
$DIMCLRT
 70
     0
  9
$DIMTFAC
 40
1.0
  9
$DIMGAP
 40
1.0
  9
$DIMJUST
 70
     0
  9
$DIMSD1
 70
     0
  9
$DIMSD2
 70
     0
  9
$DIMTOLJ
 70
     1
  9
$DIMTZIN
 70
     0
  9
$DIMALTZ
 70
     0
  9
$DIMALTTZ
 70
     0
  9
$DIMUPT
 70
     0
  9
$DIMDEC
 70
     4
  9
$DIMTDEC
 70
     4
  9
$DIMALTU
 70
     2
  9
$DIMALTTD
 70
     2
  9
$DIMTXSTY
  7
STANDARD
  9
$DIMAUNIT
 70
     0
  9
$DIMADEC
 70
     0
  9
$DIMALTRND
 40
0.0
  9
$DIMAZIN
 70
     0
  9
$DIMDSEP
 70
    46
  9
$DIMATFIT
 70
     3
  9
$DIMFRAC
 70
     0
  9
$DIMLDRBLK
  1

  9
$DIMLUNIT
 70
     2
  9
$DIMLWD
 70
    -2
  9
$DIMLWE
 70
    -2
  9
$DIMTMOVE
 70
     0
  9
$LUNITS
 70
     2
  9
$LUPREC
 70
     2
  9
$SKETCHINC
 40
0.1
  9
$FILLETRAD
 40
0.0
  9
$AUNITS
 70
     0
  9
$AUPREC
 70
     2
  9
$MENU
  1
acad
  9
$ELEVATION
 40
0.0
  9
$PELEVATION
 40
0.0
  9
$THICKNESS
 40
0.0
  9
$LIMCHECK
 70
     0
  9
$CHAMFERA
 40
0.0
  9
$CHAMFERB
 40
0.0
  9
$CHAMFERC
 40
0.0
  9
$CHAMFERD
 40
0.0
  9
$SKPOLY
 70
     0
  9
$TDCREATE
 40
2444972.041666667
  9
$TDUCREATE
 40
2444972.000000000
  9
$TDUPDATE
 40
2453768.828753253
  9
$TDUUPDATE
 40
2453768.787086585
  9
$TDINDWG
 40
0.0029564583
  9
$TDUSRTIMER
 40
0.0029564583
  9
$USRTIMER
 70
     1
  9
$ANGBASE
 50
0.0
  9
$ANGDIR
 70
     0
  9
$PDMODE
 70
     0
  9
$PDSIZE
 40
-1.0
  9
$PLINEWID
 40
0.0
  9
$SPLFRAME
 70
     0
  9
$SPLINETYPE
 70
     6
  9
$SPLINESEGS
 70
     8
  9
$HANDSEED
  5
808
  9
$SURFTAB1
 70
     6
  9
$SURFTAB2
 70
     6
  9
$SURFTYPE
 70
     6
  9
$SURFU
 70
     6
  9
$SURFV
 70
     6
  9
$UCSBASE
  2

  9
$UCSNAME
  2

  9
$UCSORG
 10
0.0
 20
0.0
 30
0.0
  9
$UCSXDIR
 10
1.0
 20
0.0
 30
0.0
  9
$UCSYDIR
 10
0.0
 20
1.0
 30
0.0
  9
$UCSORTHOREF
  2

  9
$UCSORTHOVIEW
 70
     1
  9
$UCSORGTOP
 10
0.0
 20
0.0
 30
0.0
  9
$UCSORGBOTTOM
 10
0.0
 20
0.0
 30
0.0
  9
$UCSORGLEFT
 10
0.0
 20
0.0
 30
0.0
  9
$UCSORGRIGHT
 10
0.0
 20
0.0
 30
0.0
  9
$UCSORGFRONT
 10
0.0
 20
0.0
 30
0.0
  9
$UCSORGBACK
 10
0.0
 20
0.0
 30
0.0
  9
$PUCSBASE
  2

  9
$PUCSNAME
  2

  9
$PUCSORG
 10
0.0
 20
0.0
 30
0.0
  9
$PUCSXDIR
 10
1.0
 20
0.0
 30
0.0
  9
$PUCSYDIR
 10
0.0
 20
1.0
 30
0.0
  9
$PUCSORTHOREF
  2

  9
$PUCSORTHOVIEW
 70
     0
  9
$PUCSORGTOP
 10
0.0
 20
0.0
 30
0.0
  9
$PUCSORGBOTTOM
 10
0.0
 20
0.0
 30
0.0
  9
$PUCSORGLEFT
 10
0.0
 20
0.0
 30
0.0
  9
$PUCSORGRIGHT
 10
0.0
 20
0.0
 30
0.0
  9
$PUCSORGFRONT
 10
0.0
 20
0.0
 30
0.0
  9
$PUCSORGBACK
 10
0.0
 20
0.0
 30
0.0
  9
$USERI1
 70
     0
  9
$USERI2
 70
     0
  9
$USERI3
 70
     0
  9
$USERI4
 70
     0
  9
$USERI5
 70
     0
  9
$USERR1
 40
0.0
  9
$USERR2
 40
0.0
  9
$USERR3
 40
0.0
  9
$USERR4
 40
0.0
  9
$USERR5
 40
0.0
  9
$WORLDVIEW
 70
     1
  9
$SHADEDGE
 70
     3
  9
$SHADEDIF
 70
    70
  9
$TILEMODE
 70
     1
  9
$MAXACTVP
 70
    16
  9
$PINSBASE
 10
0.0
 20
0.0
 30
0.0
  9
$PLIMCHECK
 70
     0
  9
$PEXTMIN
 10
1.000000000000000E+20
 20
1.000000000000000E+20
 30
1.000000000000000E+20
  9
$PEXTMAX
 10
-1.000000000000000E+20
 20
-1.000000000000000E+20
 30
-1.000000000000000E+20
  9
$PLIMMIN
 10
0.0
 20
0.0
  9
$PLIMMAX
 10
12.0
 20
9.0
  9
$UNITMODE
 70
     0
  9
$VISRETAIN
 70
     0
  9
$PLINEGEN
 70
     1
  9
$PSLTSCALE
 70
     1
  9
$TREEDEPTH
 70
  3020
  9
$CMLSTYLE
  2
STANDARD
  9
$CMLJUST
 70
     0
  9
$CMLSCALE
 40
1.0
  9
$PROXYGRAPHICS
 70
     0
  9
$MEASUREMENT
 70
     0
  9
$CELWEIGHT
370
    -1
  9
$ENDCAPS
280
     0
  9
$JOINSTYLE
280
     0
  9
$LWDISPLAY
290
     0
  9
$INSUNITS
 70
     0
  9
$HYPERLINKBASE
  1

  9
$STYLESHEET
  1

  9
$XEDIT
290
     1
  9
$CEPSNTYPE
380
     0
  9
$PSTYLEMODE
290
     1
  9
$FINGERPRINTGUID
  2
{222E8E68-9ED9-41CB-8F57-CD0571609606}
  9
$VERSIONGUID
  2
{522C3EDF-E416-47E6-A505-BE7ACFB40708}
  9
$EXTNAMES
290
     1
  9
$PSVPSCALE
 40
0.0
  9
$OLESTARTUP
290
     0
  0
ENDSEC
  0
SECTION
  2
CLASSES
  0
CLASS
  1
IMAGE
  2
AcDbRasterImage
  3
ISM
 90
    32895
280
     0
281
     1
  0
CLASS
  1
DICTIONARYVAR
  2
AcDbDictionaryVar
  3
ObjectDBX Classes
 90
        0
280
     0
281
     0
  0
CLASS
  1
RASTERVARIABLES
  2
AcDbRasterVariables
  3
ISM
 90
    32768
280
     0
281
     0
  0
CLASS
  1
IMAGEDEF
  2
AcDbRasterImageDef
  3
ISM
 90
    32768
280
     0
281
     0
  0
CLASS
  1
IMAGEDEF_REACTOR
  2
AcDbRasterImageDefReactor
  3
ISM
 90
    32769
280
     0
281
     0
  0
CLASS
  1
IDBUFFER
  2
AcDbIdBuffer
  3
ObjectDBX Classes
 90
    32768
280
     0
281
     0
  0
CLASS
  1
SPATIAL_FILTER
  2
AcDbSpatialFilter
  3
ObjectDBX Classes
 90
    32768
280
     0
281
     0
  0
CLASS
  1
SORTENTSTABLE
  2
AcDbSortentsTable
  3
ObjectDBX Classes
 90
    32768
280
     0
281
     0
  0
CLASS
  1
LAYER_INDEX
  2
AcDbLayerIndex
  3
ObjectDBX Classes
 90
    32768
280
     0
281
     0
  0
CLASS
  1
SPATIAL_INDEX
  2
AcDbSpatialIndex
  3
ObjectDBX Classes
 90
    32768
280
     0
281
     0
  0
CLASS
  1
OBJECT_PTR
  2
CAseDLPNTableRecord
  3
ASE-LPNTableRecord
 90
    32769
280
     0
281
     0
  0
CLASS
  1
LAYOUT
  2
AcDbLayout
  3
ObjectDBX Classes
 90
        0
280
     0
281
     0
  0
CLASS
  1
PLOTSETTINGS
  2
AcDbPlotSettings
  3
ObjectDBX Classes
 90
    32768
280
     0
281
     0
  0
CLASS
  1
ACDBDICTIONARYWDFLT
  2
AcDbDictionaryWithDefault
  3
ObjectDBX Classes
 90
        0
280
     0
281
     0
  0
CLASS
  1
ACDBPLACEHOLDER
  2
AcDbPlaceHolder
  3
ObjectDBX Classes
 90
        0
280
     0
281
     0
  0
CLASS
  1
VBA_PROJECT
  2
AcDbVbaProject
  3
acad
 90
    32768
280
     0
281
     0
  0
CLASS
  1
WIPEOUT
  2
AcDbWipeout
  3
"WipeOut|Product Desc: Object Enabler for WipeOut entity^I^I^I^I^I^I|Company: Autodesk, Inc.^I^I^I^I^I^I|WEB Address: www.autodesk.com"
 90
    32895
280
     0
281
     1
  0
CLASS
  1
WIPEOUTVARIABLES
  2
AcDbWipeoutVariables
  3
"WipeOut|Product Desc:     WipeOut Dbx Application|Company:          Autodesk, Inc.|WEB Address:      www.autodesk.com"
 90
    32768
280
     0
281
     0
  0
CLASS
  1
RTEXT
  2
RText
  3
RText|AutoCAD Express Tool|expresstools@autodesk.com
 90
    32768
280
     0
281
     1
  0
CLASS
  1
ARCALIGNEDTEXT
  2
AcDbArcAlignedText
  3
ATEXT|AutoCAD Express Tool|expresstools@autodesk.com
 90
    32768
280
     0
281
     1
  0
ENDSEC
  0
SECTION
  2
TABLES
  0
TABLE
  2
VPORT
  5
7
330
0
100
AcDbSymbolTable
 70
     2
  0
VPORT
  5
800
330
7
100
AcDbSymbolTableRecord
100
AcDbViewportTableRecord
  2
*Active
 70
     0
 10
0.0
 20
0.0
 11
1.0
 21
1.0
 12
505.2509298718375
 22
-201.0992515325272
 13
0.0
 23
0.0
 14
1.0
 24
1.0
 15
0.0
 25
0.0
 16
0.0
 26
0.0
 36
1.0
 17
0.0
 27
0.0
 37
0.0
 40
2139.283067975865
 41
1.569570871261378
 42
50.0
 43
0.0
 44
0.0
 50
0.0
 51
0.0
 71
     0
 72
  2000
 73
     1
 74
     1
 75
     0
 76
     0
 77
     0
 78
     0
281
     0
 65
     1
110
0.0
120
0.0
130
0.0
111
1.0
121
0.0
131
0.0
112
0.0
122
1.0
132
0.0
 79
     1
146
0.0
  0
ENDTAB
  0
TABLE
  2
LTYPE
  5
4
330
0
100
AcDbSymbolTable
 70
     6
  0
LTYPE
  5
11
330
4
100
AcDbSymbolTableRecord
100
AcDbLinetypeTableRecord
  2
BYBLOCK
 70
     0
  3

 72
    65
 73
     0
 40
0.0
  0
LTYPE
  5
12
330
4
100
AcDbSymbolTableRecord
100
AcDbLinetypeTableRecord
  2
BYLAYER
 70
     0
  3

 72
    65
 73
     0
 40
0.0
  0
LTYPE
  5
13
330
4
100
AcDbSymbolTableRecord
100
AcDbLinetypeTableRecord
  2
CONTINUOUS
 70
     0
  3
Solid line
 72
    65
 73
     0
 40
0.0
  0
LTYPE
  5
1E
330
4
100
AcDbSymbolTableRecord
100
AcDbLinetypeTableRecord
  2
HIDDEN
 70
     0
  3
Hidden __ __ __ __ __ __ __ __ __ __ __ __ __ __
 72
    65
 73
     2
 40
1.905
 49
1.27
 74
     0
 49
-0.635
 74
     0
  0
LTYPE
  5
1F
330
4
100
AcDbSymbolTableRecord
100
AcDbLinetypeTableRecord
  2
PHANTOM
 70
     0
  3
Phantom ______  __  __  ______  __  __  ______
 72
    65
 73
     6
 40
12.7
 49
6.349999999999999
 74
     0
 49
-1.27
 74
     0
 49
1.27
 74
     0
 49
-1.27
 74
     0
 49
1.27
 74
     0
 49
-1.27
 74
     0
  0
LTYPE
  5
20
330
4
100
AcDbSymbolTableRecord
100
AcDbLinetypeTableRecord
  2
CENTER
 70
     0
  3
Center ____ _ ____ _ ____ _ ____ _ ____ _ ____
 72
    65
 73
     4
 40
10.16
 49
6.349999999999999
 74
     0
 49
-1.27
 74
     0
 49
1.27
 74
     0
 49
-1.27
 74
     0
  0
LTYPE
  5
21
330
4
100
AcDbSymbolTableRecord
100
AcDbLinetypeTableRecord
  2
CENTERX2
 70
     0
  3
Center (2x) ________  __  ________  __  _____
 72
    65
 73
     4
 40
20.32
 49
12.7
 74
     0
 49
-2.54
 74
     0
 49
2.54
 74
     0
 49
-2.54
 74
     0
  0
LTYPE
  5
22
330
4
100
AcDbSymbolTableRecord
100
AcDbLinetypeTableRecord
  2
DOT2
 70
     0
  3
Dot (.5x) ........................................
 72
    65
 73
     2
 40
0.635
 49
0.0
 74
     0
 49
-0.635
 74
     0
  0
ENDTAB
  0
TABLE
  2
LAYER
  5
2
330
0
100
AcDbSymbolTable
 70
     2
  0
LAYER
  5
14
330
2
100
AcDbSymbolTableRecord
100
AcDbLayerTableRecord
  2
0
 70
     0
 62
     7
  6
CONTINUOUS
370
    -3
390
7E5
  0
LAYER
  5
26
330
2
100
AcDbSymbolTableRecord
100
AcDbLayerTableRecord
  2
DEFPOINTS
 70
     0
 62
     7
  6
CONTINUOUS
290
     0
370
    -3
390
7E5
  0
ENDTAB
  0
TABLE
  2
STYLE
  5
3
330
0
100
AcDbSymbolTable
 70
     1
  0
STYLE
  5
17
330
3
100
AcDbSymbolTableRecord
100
AcDbTextStyleTableRecord
  2
STANDARD
 70
     0
 40
0.0
 41
1.0
 50
0.0
 71
     0
 42
0.0
  3
Century Gothic
  4

  0
ENDTAB
  0
TABLE
  2
VIEW
  5
5
330
0
100
AcDbSymbolTable
 70
     0
  0
ENDTAB
  0
TABLE
  2
UCS
  5
6
330
0
100
AcDbSymbolTable
 70
     0
  0
ENDTAB
  0
TABLE
  2
APPID
  5
8
330
0
100
AcDbSymbolTable
 70
     2
  0
APPID
  5
16
330
8
100
AcDbSymbolTableRecord
100
AcDbRegAppTableRecord
  2
ACAD
 70
     0
  0
APPID
  5
7F0
330
8
100
AcDbSymbolTableRecord
100
AcDbRegAppTableRecord
  2
DCO15
 70
     0
  0
ENDTAB
  0
TABLE
  2
DIMSTYLE
  5
9
330
0
100
AcDbSymbolTable
 70
     1
100
AcDbDimStyleTable
 71
     0
  0
DIMSTYLE
105
18
330
9
100
AcDbSymbolTableRecord
100
AcDbDimStyleTableRecord
  2
STANDARD
 70
     0
289
     0
340
17
  0
ENDTAB
  0
TABLE
  2
BLOCK_RECORD
  5
1
330
0
100
AcDbSymbolTable
 70
     0
  0
BLOCK_RECORD
  5
A
330
1
100
AcDbSymbolTableRecord
100
AcDbBlockTableRecord
  2
*MODEL_SPACE
340
7EA
  0
BLOCK_RECORD
  5
B
330
1
100
AcDbSymbolTableRecord
100
AcDbBlockTableRecord
  2
*PAPER_SPACE
340
7EB
  0
ENDTAB
  0
ENDSEC
  0
SECTION
  2
BLOCKS
  0
BLOCK
  5
D
330
A
100
AcDbEntity
  8
0
100
AcDbBlockBegin
  2
*MODEL_SPACE
 70
     0
 10
0.0
 20
0.0
 30
0.0
  3
*MODEL_SPACE
  1

  0
ENDBLK
  5
E
330
A
100
AcDbEntity
  8
0
100
AcDbBlockEnd
  0
BLOCK
  5
F
330
B
100
AcDbEntity
 67
     1
  8
0
100
AcDbBlockBegin
  2
*PAPER_SPACE
 70
     0
 10
0.0
 20
0.0
 30
0.0
  3
*PAPER_SPACE
  1

  0
ENDBLK
  5
10
330
B
100
AcDbEntity
 67
     1
  8
0
100
AcDbBlockEnd
  0
ENDSEC
  0
SECTION
  2
ENTITIES
  0
LINE
  5
27
330
A
100
AcDbEntity
  8
0
  6
Continuous
 62
     7
100
AcDbLine
 10
79.84999999999999
 20
-481.5319481876575
 30
0.0
 11
79.84999999999999
 21
518.4680518123424
 31
0.0
  0
LINE
  5
28
330
A
100
AcDbEntity
  8
0
  6
Continuous
 62
     7
100
AcDbLine
 10
59.84999999999999
 20
518.4680518123424
 30
0.0
 11
59.84999999999999
 21
-481.5319481876575
 31
0.0
  0
ARC
  5
29
330
A
100
AcDbEntity
  8
0
  6
Continuous
 62
     7
100
AcDbCircle
 10
-44.15
 20
-532.0319481876577
 30
0.0
 40
1.000000000000007
100
AcDbArc
 50
180.0000000000004
 51
270.0000000000008
  0
ARC
  5
2A
330
A
100
AcDbEntity
  8
0
  6
Continuous
 62
     7
100
AcDbCircle
 10
183.85
 20
-532.0319481876577
 30
0.0
 40
1.0
100
AcDbArc
 50
270.0000000000008
 51
0.0
  0
ARC
  5
2B
330
A
100
AcDbEntity
  8
0
  6
Continuous
 62
     7
100
AcDbCircle
 10
-43.65000000000001
 20
-523.0319481876576
 30
0.0
 40
1.500000000000113
100
AcDbArc
 50
90.0
 51
180.0000000000004
  0
ARC
  5
2C
330
A
100
AcDbEntity
  8
0
  6
Continuous
 62
     7
100
AcDbCircle
 10
183.35
 20
-523.0319481876576
 30
0.0
 40
1.500000000000113
100
AcDbArc
 50
0.0
 51
90.0
  0
LINE
  5
2D
330
A
100
AcDbEntity
  8
0
  6
Continuous
 62
     7
100
AcDbLine
 10
184.85
 20
-532.0319481876577
 30
0.0
 11
184.85
 21
-523.0319481876576
 31
0.0
  0
LINE
  5
2E
330
A
100
AcDbEntity
  8
0
  6
Continuous
 62
     7
100
AcDbLine
 10
-45.15000000000001
 20
-523.0319481876576
 30
0.0
 11
-45.15000000000001
 21
-532.0319481876577
 31
0.0
  0
LINE
  5
2F
330
A
100
AcDbEntity
  8
0
  6
Continuous
 62
     7
100
AcDbLine
 10
108.897597471245
 20
-535.5319481876575
 30
0.0
 11
108.897597471245
 21
-533.0319481876577
 31
0.0
  0
LINE
  5
30
330
A
100
AcDbEntity
  8
0
  6
Continuous
 62
     7
100
AcDbLine
 10
88.89759747124506
 20
-533.0319481876577
 30
0.0
 11
88.89759747124506
 21
-535.5319481876575
 31
0.0
  0
LINE
  5
31
330
A
100
AcDbEntity
  8
0
  6
Continuous
 62
     7
100
AcDbLine
 10
3.802402528754925
 20
-535.5319481876575
 30
0.0
 11
3.802402528754925
 21
-533.0319481876577
 31
0.0
  0
LINE
  5
32
330
A
100
AcDbEntity
  8
0
  6
Continuous
 62
     7
100
AcDbLine
 10
-16.19759747124506
 20
-533.0319481876577
 30
0.0
 11
-16.19759747124506
 21
-535.5319481876575
 31
0.0
  0
LINE
  5
33
330
A
100
AcDbEntity
  8
0
  6
Continuous
 62
     7
100
AcDbLine
 10
173.85
 20
-535.5319481876575
 30
0.0
 11
173.85
 21
-533.0319481876577
 31
0.0
  0
LINE
  5
34
330
A
100
AcDbEntity
  8
0
  6
Continuous
 62
     7
100
AcDbLine
 10
153.85
 20
-533.0319481876577
 30
0.0
 11
153.85
 21
-535.5319481876575
 31
0.0
  0
ARC
  5
35
330
A
100
AcDbEntity
  8
0
  6
Continuous
 62
     7
100
AcDbCircle
 10
48.13881791054893
 20
-519.5319481876575
 30
0.0
 40
2.0
100
AcDbArc
 50
270.0000000000008
 51
351.0999999999999
  0
ARC
  5
36
330
A
100
AcDbEntity
  8
0
  6
Continuous
 62
     7
100
AcDbCircle
 10
91.56118208945107
 20
-519.5319481876575
 30
0.0
 40
2.000000000000007
100
AcDbArc
 50
188.9000000000017
 51
270.0000000000008
  0
LINE
  5
37
330
A
100
AcDbEntity
  8
0
  6
Continuous
 62
     7
100
AcDbLine
 10
89.5852623579123
 20
-519.8413689602565
 30
0.0
 11
83.71853598087133
 21
-482.3772378013581
 31
0.0
  0
LINE
  5
38
330
A
100
AcDbEntity
  8
0
  6
Continuous
 62
     7
100
AcDbLine
 10
55.98146401912866
 20
-482.3772378013581
 30
0.0
 11
50.11473764208769
 21
-519.8413689602565
 31
0.0
  0
ARC
  5
39
330
A
100
AcDbEntity
  8
0
  6
Continuous
 62
     7
100
AcDbCircle
 10
56.96942388489805
 20
-482.5319481876575
 30
0.0
 40
1.0
100
AcDbArc
 50
90.0
 51
171.1000000000005
  0
ARC
  5
3A
330
A
100
AcDbEntity
  8
0
  6
Continuous
 62
     7
100
AcDbCircle
 10
82.73057611510195
 20
-482.5319481876575
 30
0.0
 40
1.000000000000001
100
AcDbArc
 50
8.89999999999762
 51
90.0
  0
LWPOLYLINE
  5
3B
330
A
100
AcDbEntity
  8
0
  6
Continuous
 62
     7
100
AcDbPolyline
 90
       13
 70
   128
 43
0.0
 10
73.83556366802107
 20
719.3274662849919
 10
73.75971316170525
 20
718.8794903554304
 10
73.36881164640129
 20
717.9423161080012
 10
72.69509777717684
 20
717.1349791583589
 10
71.79774588241774
 20
716.5288284827442
 10
70.75088040868745
 20
716.1699459425437
 10
69.6377870357471
 20
716.0835107050493
 10
68.54579832313864
 20
716.2729907923825
 10
67.559634914805
 20
716.7194174289529
 10
66.75273992247368
 20
717.384023922022
 10
66.18169931886476
 20
718.2148134644211
 10
65.89124983415267
 20
719.1206178463207
 10
65.86443633198129
 20
719.3274662849919
  0
LWPOLYLINE
  5
4A
330
A
100
AcDbEntity
  8
0
  6
Continuous
 62
     7
100
AcDbPolyline
 90
       15
 70
   128
 43
0.0
 10
63.87361668710359
 20
719.1360579738628
 10
63.99724086086651
 20
718.4055997250194
 10
64.44959127261654
 20
717.2087069264953
 10
65.18262540471344
 20
716.1394887891689
 10
66.15899049724262
 20
715.2518122965642
 10
67.33019175891425
 20
714.5910838802448
 10
68.63690454718223
 20
714.1929753427665
 10
70.01138736384703
 20
714.0805030434234
 10
71.38118376973583
 20
714.2620403546622
 10
72.6727705999097
 20
714.7303627223063
 10
73.81568258161748
 20
715.4623939247403
 10
74.74651596941559
 20
716.4195259879341
 10
75.41339936621842
 20
717.5488232464265
 10
75.78066160726736
 20
718.786473982673
 10
75.82638331289878
 20
719.1360579738628
  0
LINE
  5
5B
330
A
100
AcDbEntity
  8
0
  6
Continuous
 62
     7
100
AcDbLine
 10
59.02361449591967
 20
769.5804696242467
 30
0.0
 11
63.87361306381858
 21
719.1360957032841
 31
0.0
  0
LINE
  5
5C
330
A
100
AcDbEntity
  8
0
  6
Continuous
 62
     7
100
AcDbLine
 10
65.86443633198129
 20
719.3274662849919
 30
0.0
 11
61.01443414079739
 21
769.7718779353758
 31
0.0
  0
LINE
  5
5D
330
A
100
AcDbEntity
  8
0
  6
Continuous
 62
     7
100
AcDbLine
 10
78.6855658592048
 20
769.7718779353758
 30
0.0
 11
73.83556366802107
 21
719.3274662849919
 31
0.0
  0
LINE
  5
5E
330
A
100
AcDbEntity
  8
0
  6
Continuous
 62
     7
100
AcDbLine
 10
75.82638713066818
 20
719.1360977309519
 30
0.0
 11
80.67638550408252
 21
769.5804696242467
 31
0.0
  0
LWPOLYLINE
  5
5F
330
A
100
AcDbEntity
  8
0
  6
Continuous
 62
     7
100
AcDbPolyline
 90
       41
 70
   128
 43
0.0
 10
69.85000000000145
 20
815.3836575013722
 10
67.64447610656633
 20
815.365303846424
 10
63.46745136556014
 20
815.2294984648868
 10
59.32547676452552
 20
814.9620381851786
 10
55.24219236150836
 20
814.5642837433952
 10
51.24014257275692
 20
814.0382041011097
 10
47.34135862126599
 20
813.38635541371
 10
43.56722067716066
 20
812.6118338280027
 10
39.93832827200323
 20
811.718211760786
 10
36.47438466752636
 20
810.7094547510399
 10
33.19410415135741
 20
809.589815940752
 10
30.11515743164206
 20
808.3637069273176
 10
27.25418050498706
 20
807.0355499271759
 10
24.62688767396506
 20
805.6096331780189
 10
22.24834741282992
 20
804.090032080289
 10
20.13348416989732
 20
802.4807439694347
 10
18.29832322679308
 20
800.7868647312438
 10
16.76064461858132
 20
799.0168760405306
 10
15.53766534935153
 20
797.1838326008614
 10
14.64354600273948
 20
795.3075522554647
 10
14.08449775958692
 20
793.41243229322
 10
13.85666864863227
 20
791.5209392202113
 10
13.95018132597236
 20
789.6476342553294
 10
14.35563291099787
 20
787.8007073741145
 10
15.06693408217715
 20
785.9857156127335
 10
16.08471093282048
 20
784.2021566288649
 10
17.4116948610303
 20
782.454455570491
 10
19.04635219815587
 20
780.7532785598047
 10
20.97971478034057
 20
779.1126886028546
 10
23.19682056712567
 20
777.5461571754504
 10
25.67995069641124
 20
776.0644668846301
 10
28.40971472697978
 20
774.6762712725081
 10
31.36885724571437
 20
773.3873256433676
 10
34.54000605061857
 20
772.2026743798205
 10
37.90531400747337
 20
771.1269804240695
 10
41.44622130125386
 20
770.164622510658
 10
45.14334685362061
 20
769.319678180783
 10
48.97647591879937
 20
768.5958627403967
 10
52.92461101878128
 20
767.9964586901081
 10
56.96606255004684
 20
767.5242505295946
 10
59.23952977904723
 20
767.3347552937474
  0
LWPOLYLINE
  5
8A
330
A
100
AcDbEntity
  8
0
  6
Continuous
 62
     7
100
AcDbPolyline
 90
        6
 70
   128
 43
0.0
 10
61.26439925037113
 20
767.1720145974803
 10
65.23940058595943
 20
766.9697559451727
 10
69.42555047580326
 20
766.8901201655565
 10
73.61382646672655
 20
766.94293275368
 10
77.78094586118214
 20
767.1279076266282
 10
78.43619166345908
 20
767.1781606360212
  0
LWPOLYLINE
  5
92
330
A
100
AcDbEntity
  8
0
  6
Continuous
 62
     7
100
AcDbPolyline
 90
       41
 70
   128
 43
0.0
 10
80.4603398563886
 20
767.3333993842873
 10
81.90371858616964
 20
767.4440969646659
 10
85.95935165028173
 20
767.8899179823303
 10
89.92547547029506
 20
768.4631784059242
 10
93.7802855781214
 20
769.1611145774225
 10
97.50267806584082
 20
769.9804445097088
 10
101.0723747506465
 20
770.9174384827048
 10
104.4700315757017
 20
771.9680102152594
 10
107.677319337569
 20
773.1278312292046
 10
110.676958315858
 20
774.392468114993
 10
113.45267633409
 20
775.7575331981282
 10
115.9890427893645
 20
777.2188152841287
 10
118.2711149632128
 20
778.7723027289601
 10
120.2838446982072
 20
780.4139032499829
 10
122.0102205777643
 20
782.1372797594608
 10
123.4326115704826
 20
783.9326357792162
 10
124.5344127297264
 20
785.7844498832157
 10
125.303879815451
 20
787.6706638550571
 10
125.7386174826781
 20
789.5667217369463
 10
125.8454909022303
 20
791.45263456668
 10
125.6347581180824
 20
793.3172727381872
 10
125.1150609954645
 20
795.1521361656722
 10
124.2899252574739
 20
796.9555394062094
 10
123.1571813228548
 20
798.7266141017354
 10
121.715026097803
 20
800.4585044308752
 10
119.9676619552996
 20
802.1388003037431
 10
117.9266409442734
 20
803.7532511123167
 10
115.6082982787093
 20
805.2892877261237
 10
113.0312880744607
 20
806.7368990214788
 10
110.2140813510594
 20
808.0887542349447
 10
107.1739315288293
 20
809.3394219930502
 10
103.9283510276142
 20
810.4840229819316
 10
100.4954320887102
 20
811.5180033038432
 10
96.89403364654815
 20
812.4370909839679
 10
93.14384982923197
 20
813.2373352590832
 10
89.26539538992008
 20
813.9151738617366
 10
85.27993773133543
 20
814.4675026644653
 10
81.20939579975482
 20
814.8917371785374
 10
77.0762186956815
 20
815.1858624038244
 10
72.90325194322555
 20
815.3484704411601
 10
69.85000000000145
 20
815.3836575013722
  0
LINE
  5
BD
330
A
100
AcDbEntity
  8
0
  6
Continuous
 62
     7
100
AcDbLine
 10
119.4368198012754
 20
802.5586972769536
 30
0.0
 11
94.4935457666812
 21
850.9338980313284
 31
0.0
  0
LINE
  5
BE
330
A
100
AcDbEntity
  8
0
  6
Continuous
 62
     7
100
AcDbLine
 10
45.20645423332114
 20
850.9338980313284
 30
0.0
 11
20.28077750428509
 21
802.5928256430987
 31
0.0
  0
LWPOLYLINE
  5
BF
330
A
100
AcDbEntity
  8
0
  6
Continuous
 62
     7
100
AcDbPolyline
 90
        9
 70
   128
 43
0.0
 10
87.56299159103399
 20
856.2859827299224
 10
86.43652838352631
 20
856.7534602001506
 10
84.2010460165147
 20
857.4905018592302
 10
81.79046155428007
 20
858.1142137716812
 10
79.23416622168016
 20
858.6185832610754
 10
76.56326389796706
 20
858.9985393797658
 10
73.81034573474962
 20
859.2501387690148
 10
71.00912001386578
 20
859.3707225225474
 10
69.85000000000124
 20
859.3819481876575
  0
LWPOLYLINE
  5
CA
330
A
100
AcDbEntity
  8
0
  6
Continuous
 62
     7
100
AcDbPolyline
 90
        8
 70
   128
 43
0.0
 10
69.85000000000124
 20
859.3819481876575
 10
68.37019840007991
 20
859.363645702953
 10
65.5744871711509
 20
859.2281616245095
 10
62.83080323891408
 20
858.9620485644532
 10
60.17383117112975
 20
858.5682996487484
 10
57.6359709854307
 20
858.0511766492051
 10
55.24796868417006
 20
857.4160614309612
 10
53.19787896686563
 20
856.7230572826499
  0
LINE
  5
D4
330
A
100
AcDbEntity
  8
0
  6
Continuous
 62
     7
100
AcDbLine
 10
78.84999999999998
 20
533.4680518123422
 30
0.0
 11
83.84999999999998
 21
533.4680518123422
 31
0.0
  0
LINE
  5
D5
330
A
100
AcDbEntity
  8
0
  6
Continuous
 62
     7
100
AcDbLine
 10
83.84999999999998
 20
553.4680518123423
 30
0.0
 11
78.84999999999998
 21
553.4680518123423
 31
0.0
  0
LINE
  5
D6
330
A
100
AcDbEntity
  8
0
  6
Continuous
 62
     7
100
AcDbLine
 10
73.94999999999999
 20
535.2680518123423
 30
0.0
 11
75.84999999999998
 21
535.2680518123423
 31
0.0
  0
LINE
  5
D7
330
A
100
AcDbEntity
  8
0
  6
Continuous
 62
     7
100
AcDbLine
 10
63.84999999999998
 20
535.2680518123423
 30
0.0
 11
65.75
 21
535.2680518123423
 31
0.0
  0
LINE
  5
D8
330
A
100
AcDbEntity
  8
0
  6
Continuous
 62
     7
100
AcDbLine
 10
65.88354718082434
 20
551.6680518123423
 30
0.0
 11
63.84999999999998
 21
551.6680518123423
 31
0.0
  0
LINE
  5
D9
330
A
100
AcDbEntity
  8
0
  6
Continuous
 62
     7
100
AcDbLine
 10
75.84999999999998
 20
551.6680518123423
 30
0.0
 11
73.79788319780789
 21
551.6680518123423
 31
0.0
  0
LINE
  5
DA
330
A
100
AcDbEntity
  8
0
  6
Continuous
 62
     7
100
AcDbLine
 10
73.94999999999999
 20
518.4680518123424
 30
0.0
 11
73.94999999999999
 21
536.4018651148679
 31
0.0
  0
LINE
  5
DB
330
A
100
AcDbEntity
  8
0
  6
Continuous
 62
     7
100
AcDbLine
 10
65.75
 20
536.3883261503239
 30
0.0
 11
65.75
 21
518.4680518123424
 31
0.0
  0
LINE
  5
DC
330
A
100
AcDbEntity
  8
0
  6
Continuous
 62
     7
100
AcDbLine
 10
75.84999999999998
 20
537.4680518123422
 30
0.0
 11
78.84999999999998
 21
537.4680518123422
 31
0.0
  0
LINE
  5
DD
330
A
100
AcDbEntity
  8
0
  6
Continuous
 62
     7
100
AcDbLine
 10
78.84999999999998
 20
549.4680518123423
 30
0.0
 11
75.84999999999998
 21
549.4680518123423
 31
0.0
  0
LINE
  5
DE
330
A
100
AcDbEntity
  8
0
  6
Continuous
 62
     7
100
AcDbLine
 10
65.84999999999998
 20
587.4680518123424
 30
0.0
 11
65.84999999999998
 21
551.6520146226286
 31
0.0
  0
LINE
  5
DF
330
A
100
AcDbEntity
  8
0
  6
Continuous
 62
     7
100
AcDbLine
 10
73.84999999999997
 20
551.6427593155079
 30
0.0
 11
73.84999999999997
 21
587.4680518123424
 31
0.0
  0
LINE
  5
E0
330
A
100
AcDbEntity
  8
0
  6
Continuous
 62
     7
100
AcDbLine
 10
74.84999999999998
 20
587.4680518123424
 30
0.0
 11
74.84999999999998
 21
716.5947653665075
 31
0.0
  0
LINE
  5
E1
330
A
100
AcDbEntity
  8
0
  6
Continuous
 62
     7
100
AcDbLine
 10
74.84999999999998
 20
729.8785221208988
 30
0.0
 11
74.84999999999998
 21
766.9978054416483
 31
0.0
  0
LINE
  5
E2
330
A
100
AcDbEntity
  8
0
  6
Continuous
 62
     7
100
AcDbLine
 10
64.84999999999998
 20
766.9895696838548
 30
0.0
 11
64.84999999999998
 21
729.8785221209233
 31
0.0
  0
LINE
  5
E3
330
A
100
AcDbEntity
  8
0
  6
Continuous
 62
     7
100
AcDbLine
 10
64.84999999999998
 20
716.6246628077889
 30
0.0
 11
64.84999999999998
 21
587.4680518123424
 31
0.0
  0
LINE
  5
E4
330
A
100
AcDbEntity
  8
0
  6
Continuous
 62
     7
100
AcDbLine
 10
65.74999999999992
 20
563.5954688103119
 30
0.0
 11
65.74999999999995
 21
551.6680518123423
 31
0.0
  0
LINE
  5
E5
330
A
100
AcDbEntity
  8
0
  6
Continuous
 62
     7
100
AcDbLine
 10
65.7499999999999
 20
568.5452162786178
 30
0.0
 11
65.74999999999992
 21
567.1310027162447
 31
0.0
  0
LINE
  5
E6
330
A
100
AcDbEntity
  8
0
  6
Continuous
 62
     7
100
AcDbLine
 10
73.94999999999992
 20
567.1310027162447
 30
0.0
 11
73.9499999999999
 21
568.5452162786178
 31
0.0
  0
LINE
  5
E7
330
A
100
AcDbEntity
  8
0
  6
Continuous
 62
     7
100
AcDbLine
 10
73.94999999999996
 20
551.6680518123423
 30
0.0
 11
73.94999999999992
 21
563.5954688103119
 31
0.0
  0
LWPOLYLINE
  5
E8
330
A
100
AcDbEntity
  8
0
  6
Continuous
 62
     7
100
AcDbPolyline
 90
        3
 70
   128
 43
0.0
 10
73.91557820931324
 20
568.5377076910286
 10
73.93811609973699
 20
568.8142421233845
 10
73.84999999999997
 20
569.164767086432
  0
LWPOLYLINE
  5
ED
330
A
100
AcDbEntity
  8
0
  6
Continuous
 62
     7
100
AcDbPolyline
 90
        3
 70
   128
 43
0.0
 10
65.84999999999998
 20
569.1666365063948
 10
65.75476005631891
 20
568.7155617733528
 10
65.77600909111416
 20
568.517836909402
  0
ARC
  5
F2
330
A
100
AcDbEntity
  8
0
  6
Continuous
 62
     7
100
AcDbCircle
 10
69.84999999999999
 20
815.2085758123448
 30
0.0
 40
20.00000000000003
100
AcDbArc
 50
193.4819435855174
 51
346.5180564144855
  0
LINE
  5
F3
330
A
100
AcDbEntity
  8
0
  6
Continuous
 62
     7
100
AcDbLine
 10
69.84999999999999
 20
518.4680518123424
 30
0.0
 11
79.84999999999999
 21
518.4680518123424
 31
0.0
  0
LINE
  5
F4
330
A
100
AcDbEntity
  8
0
  6
Continuous
 62
     7
100
AcDbLine
 10
59.84999999999999
 20
518.4680518123424
 30
0.0
 11
69.84999999999999
 21
518.4680518123424
 31
0.0
  0
LINE
  5
F5
330
A
100
AcDbEntity
  8
0
  6
Continuous
 62
     7
100
AcDbLine
 10
69.84999999999999
 20
-533.0319481876577
 30
0.0
 11
-44.15
 21
-533.0319481876577
 31
0.0
  0
LINE
  5
F6
330
A
100
AcDbEntity
  8
0
  6
Continuous
 62
     7
100
AcDbLine
 10
183.85
 20
-533.0319481876577
 30
0.0
 11
69.84999999999999
 21
-533.0319481876577
 31
0.0
  0
LINE
  5
F7
330
A
100
AcDbEntity
  8
0
  6
Continuous
 62
     7
100
AcDbLine
 10
69.84999999999999
 20
-521.5319481876576
 30
0.0
 11
183.35
 21
-521.5319481876576
 31
0.0
  0
LINE
  5
F8
330
A
100
AcDbEntity
  8
0
  6
Continuous
 62
     7
100
AcDbLine
 10
-43.65000000000001
 20
-521.5319481876576
 30
0.0
 11
69.84999999999999
 21
-521.5319481876576
 31
0.0
  0
LINE
  5
F9
330
A
100
AcDbEntity
  8
0
  6
Continuous
 62
     7
100
AcDbLine
 10
98.89759747124506
 20
-535.5319481876575
 30
0.0
 11
108.897597471245
 21
-535.5319481876575
 31
0.0
  0
LINE
  5
FA
330
A
100
AcDbEntity
  8
0
  6
Continuous
 62
     7
100
AcDbLine
 10
88.89759747124506
 20
-535.5319481876575
 30
0.0
 11
98.89759747124506
 21
-535.5319481876575
 31
0.0
  0
LINE
  5
FB
330
A
100
AcDbEntity
  8
0
  6
Continuous
 62
     7
100
AcDbLine
 10
-6.197597471245069
 20
-535.5319481876575
 30
0.0
 11
3.802402528754925
 21
-535.5319481876575
 31
0.0
  0
LINE
  5
FC
330
A
100
AcDbEntity
  8
0
  6
Continuous
 62
     7
100
AcDbLine
 10
-16.19759747124506
 20
-535.5319481876575
 30
0.0
 11
-6.197597471245069
 21
-535.5319481876575
 31
0.0
  0
LINE
  5
FD
330
A
100
AcDbEntity
  8
0
  6
Continuous
 62
     7
100
AcDbLine
 10
163.85
 20
-535.5319481876575
 30
0.0
 11
173.85
 21
-535.5319481876575
 31
0.0
  0
LINE
  5
FE
330
A
100
AcDbEntity
  8
0
  6
Continuous
 62
     7
100
AcDbLine
 10
153.85
 20
-535.5319481876575
 30
0.0
 11
163.85
 21
-535.5319481876575
 31
0.0
  0
LINE
  5
FF
330
A
100
AcDbEntity
  8
0
  6
Continuous
 62
     7
100
AcDbLine
 10
69.84999999999999
 20
-481.5319481876575
 30
0.0
 11
82.73057611510195
 21
-481.5319481876575
 31
0.0
  0
LINE
  5
100
330
A
100
AcDbEntity
  8
0
  6
Continuous
 62
     7
100
AcDbLine
 10
56.96942388489805
 20
-481.5319481876575
 30
0.0
 11
69.84999999999999
 21
-481.5319481876575
 31
0.0
  0
LWPOLYLINE
  5
101
330
A
100
AcDbEntity
  8
0
  6
Continuous
 62
     7
100
AcDbPolyline
 90
        6
 70
   128
 43
0.0
 10
60.01902431835853
 20
770.0908670224677
 10
59.63779711198884
 20
770.0289503872127
 10
59.31460829195571
 20
769.9133267114087
 10
59.09866042639522
 20
769.7615986515657
 10
59.02282962026669
 20
769.5968654293764
 10
59.02361449591967
 20
769.5804696242467
  0
LWPOLYLINE
  5
109
330
A
100
AcDbEntity
  8
0
  6
Continuous
 62
     7
100
AcDbPolyline
 90
        5
 70
   128
 43
0.0
 10
61.01443414079739
 20
769.7718779353758
 10
60.93938821032183
 20
769.9081413750136
 10
60.72344034476135
 20
770.025485656203
 10
60.40025152472821
 20
770.0896503707318
 10
60.01902431835853
 20
770.0908670224677
  0
LWPOLYLINE
  5
110
330
A
100
AcDbEntity
  8
0
  6
Continuous
 62
     7
100
AcDbPolyline
 90
        6
 70
   128
 43
0.0
 10
79.68097568164367
 20
770.0908670224677
 10
80.06220288801335
 20
770.0289503872127
 10
80.38539170804648
 20
769.9133267114087
 10
80.60133957360697
 20
769.7615986515657
 10
80.67717037973549
 20
769.5968654293764
 10
80.67638550408252
 20
769.5804696242467
  0
LWPOLYLINE
  5
118
330
A
100
AcDbEntity
  8
0
  6
Continuous
 62
     7
100
AcDbPolyline
 90
        5
 70
   128
 43
0.0
 10
78.6855658592048
 20
769.7718779353758
 10
78.76061178968035
 20
769.9081413750136
 10
78.97655965524084
 20
770.025485656203
 10
79.29974847527399
 20
770.0896503707318
 10
79.68097568164367
 20
770.0908670224677
  0
LWPOLYLINE
  5
11F
330
A
100
AcDbEntity
  8
0
  6
Continuous
 62
     7
100
AcDbPolyline
 90
        3
 70
   128
 43
0.0
 10
69.85000000000109
 20
767.0470084491371
 10
74.21531135288347
 20
767.1199596395953
 10
78.45093926047863
 20
767.3315489904146
  0
LWPOLYLINE
  5
124
330
A
100
AcDbEntity
  8
0
  6
Continuous
 62
     7
100
AcDbPolyline
 90
       75
 70
   128
 43
0.0
 10
80.47469216454905
 20
767.4826763768408
 10
82.83287478760115
 20
767.7007335328199
 10
87.02923866373103
 20
768.2047896940274
 10
91.11418858491024
 20
768.8472395805011
 10
95.06123208337562
 20
769.6239166581987
 10
98.84477106743442
 20
770.5297838782359
 10
102.4402678349116
 20
771.558966344081
 10
105.8244042095644
 20
772.7047894125128
 10
108.9752327684031
 20
773.9598219812445
 10
111.8723191791515
 20
775.3159246824719
 10
114.4968747247321
 20
776.7643026697984
 10
116.831878155307
 20
778.2955626561874
 10
118.8621860776145
 20
779.8997738330347
 10
120.574631165685
 20
781.5665322752719
 10
121.9581075560032
 20
783.2850284148133
 10
123.0036428732943
 20
785.0441171447524
 10
123.7044564198207
 20
786.8323900996582
 10
124.0560031508089
 20
788.6382496432008
 10
124.0560031508089
 20
790.4499840832751
 10
123.7044564198207
 20
792.2558436268177
 10
123.0036428732943
 20
794.0441165817234
 10
121.9581075560032
 20
795.8032053116625
 10
120.574631165685
 20
797.5217014512038
 10
118.8621860776145
 20
799.1884598934409
 10
116.831878155307
 20
800.7926710702882
 10
114.4968747247321
 20
802.3239310566776
 10
111.8723191791515
 20
803.7723090440037
 10
108.9752327684031
 20
805.1284117452311
 10
105.8244042095643
 20
806.3834443139629
 10
102.4402678349115
 20
807.5292673823948
 10
98.84477106743437
 20
808.5584498482397
 10
95.06123208337559
 20
809.464317068277
 10
91.11418858491019
 20
810.2409941459745
 10
87.02923866373097
 20
810.8834440324482
 10
82.8328747876011
 20
811.3875001936557
 10
78.55231198653456
 20
811.7498936319696
 10
74.21531135288343
 20
811.9682740868805
 10
69.85000000000105
 20
812.0412252773386
 10
65.48468864711866
 20
811.9682740868805
 10
61.14768801346754
 20
811.7498936319696
 10
56.86712521240102
 20
811.3875001936557
 10
52.67076133627114
 20
810.883444032448
 10
48.58581141509194
 20
810.2409941459743
 10
44.63876791662658
 20
809.4643170682768
 10
40.85522893256782
 20
808.5584498482395
 10
37.25973216509068
 20
807.5292673823948
 10
33.87559579043791
 20
806.3834443139628
 10
30.72476723159912
 20
805.1284117452309
 10
27.82768082085081
 20
803.7723090440035
 10
25.20312527527024
 20
802.3239310566774
 10
22.86812184469532
 20
800.792671070288
 10
20.8378139223879
 20
799.1884598934408
 10
19.12536883431741
 20
797.5217014512036
 10
17.74189244399925
 20
795.8032053116623
 10
16.6963571267082
 20
794.044116581723
 10
15.99554358018182
 20
792.2558436268175
 10
15.64399684919362
 20
790.4499840832749
 10
15.64399684919366
 20
788.6382496432004
 10
15.99554358018192
 20
786.8323900996577
 10
16.69635712670836
 20
785.0441171447523
 10
17.74189244399947
 20
783.285028414813
 10
19.1253688343177
 20
781.5665322752717
 10
20.83781392238825
 20
779.8997738330346
 10
22.86812184469573
 20
778.2955626561872
 10
25.2031252752707
 20
776.7643026697982
 10
27.82768082085135
 20
775.3159246824717
 10
30.7247672315997
 20
773.9598219812443
 10
33.87559579043854
 20
772.7047894125128
 10
37.25973216509135
 20
771.5589663440809
 10
40.85522893256851
 20
770.5297838782359
 10
44.6387679166273
 20
769.6239166581987
 10
48.58581141509271
 20
768.8472395805011
 10
52.67076133627192
 20
768.2047896940274
 10
56.86712521240181
 20
767.7007335328199
 10
59.22530783545316
 20
767.4826763768408
  0
LWPOLYLINE
  5
171
330
A
100
AcDbEntity
  8
0
  6
Continuous
 62
     7
100
AcDbPolyline
 90
        3
 70
   128
 43
0.0
 10
61.24906073952356
 20
767.3315489904146
 10
65.48468864711947
 20
767.1199596395953
 10
69.85000000000109
 20
767.0470084491371
  0
LWPOLYLINE
  5
176
330
A
100
AcDbEntity
  8
0
  6
Continuous
 62
     7
100
AcDbPolyline
 90
        7
 70
   128
 43
0.0
 10
87.7915718497168
 20
856.0873899892962
 10
88.44385071633972
 20
855.8026410721547
 10
90.32516715191169
 20
854.841156071096
 10
91.91905712279075
 20
853.7941465542521
 10
93.20314590763567
 20
852.6763102401661
 10
94.15940771466456
 20
851.5033391003607
 10
94.4935457666812
 20
850.9338980313284
  0
LWPOLYLINE
  5
17F
330
A
100
AcDbEntity
  8
0
  6
Continuous
 62
     7
100
AcDbPolyline
 90
        7
 70
   128
 43
0.0
 10
45.20645423332114
 20
850.9338980313284
 10
45.54059228533794
 20
851.5033391003608
 10
46.49685409236687
 20
852.6763102401663
 10
47.78094287721184
 20
853.7941465542521
 10
49.37483284809096
 20
854.841156071096
 10
51.25614928366297
 20
855.8026410721547
 10
52.99554672462377
 20
856.517971590366
  0
LINE
  5
188
330
A
100
AcDbEntity
  8
0
  6
Continuous
 62
     7
100
AcDbLine
 10
66.94526249034445
 20
587.4680518123424
 30
0.0
 11
72.75473750965557
 21
587.4680518123424
 31
0.0
  0
LINE
  5
189
330
A
100
AcDbEntity
  8
0
  6
Continuous
 62
     7
100
AcDbLine
 10
78.84999999999998
 20
553.4680518123423
 30
0.0
 11
78.84999999999998
 21
533.4680518123422
 31
0.0
  0
LINE
  5
18A
330
A
100
AcDbEntity
  8
0
  6
Continuous
 62
     7
100
AcDbLine
 10
83.84999999999998
 20
553.4680518123423
 30
0.0
 11
83.84999999999998
 21
533.4680518123422
 31
0.0
  0
LINE
  5
18B
330
A
100
AcDbEntity
  8
0
  6
Continuous
 62
     7
100
AcDbLine
 10
65.00877081724073
 20
587.4680518123424
 30
0.0
 11
66.94526249034445
 21
587.4680518123424
 31
0.0
  0
LINE
  5
18C
330
A
100
AcDbEntity
  8
0
  6
Continuous
 62
     7
100
AcDbLine
 10
72.75473750965557
 20
587.4680518123424
 30
0.0
 11
74.69122918275926
 21
587.4680518123424
 31
0.0
  0
LWPOLYLINE
  5
18D
330
A
100
AcDbEntity
  8
0
  6
Continuous
 62
     7
100
AcDbPolyline
 90
       11
 70
   128
 43
0.0
 10
73.8883133106438
 20
536.8259161886114
 10
73.27858785284155
 20
538.1864004557545
 10
72.26659436471954
 20
539.4536997702664
 10
71.28240011046108
 20
540.2050757607185
 10
70.4094766331934
 20
540.5443851689678
 10
69.45622197714449
 20
540.5751229943022
 10
68.67530895538647
 20
540.3364323014162
 10
67.66820440766522
 20
539.6703407640101
 10
66.59384299016214
 20
538.4501577691959
 10
65.92983778699762
 20
537.206405615789
 10
65.81168668935619
 20
536.8259161886114
  0
LINE
  5
19A
330
A
100
AcDbEntity
  8
0
  6
Continuous
 62
     7
100
AcDbLine
 10
63.84999999999998
 20
551.6680518123423
 30
0.0
 11
63.84999999999998
 21
535.2680518123423
 31
0.0
  0
LINE
  5
19B
330
A
100
AcDbEntity
  8
0
  6
Continuous
 62
     7
100
AcDbLine
 10
75.84999999999998
 20
551.6680518123423
 30
0.0
 11
75.84999999999998
 21
535.2680518123423
 31
0.0
  0
LINE
  5
19C
330
A
100
AcDbEntity
  8
0
  6
Continuous
 62
     7
100
AcDbLine
 10
73.8883133106438
 20
536.8259161886114
 30
0.0
 11
73.90412777075216
 21
536.4018651148679
 31
0.0
  0
LINE
  5
19D
330
A
100
AcDbEntity
  8
0
  6
Continuous
 62
     7
100
AcDbLine
 10
65.77829707749479
 20
536.3883261503239
 30
0.0
 11
65.81168668935619
 21
536.8259161886114
 31
0.0
  0
LWPOLYLINE
  5
19E
330
A
100
AcDbEntity
  8
0
  6
Continuous
 62
     7
100
AcDbPolyline
 90
       12
 70
   128
 43
0.0
 10
73.79788319780789
 20
551.6427574570635
 10
73.80383343149431
 20
551.6456308430827
 10
73.44593668333949
 20
551.4787172422918
 10
72.74191288521868
 20
551.1883601051305
 10
71.66195173125449
 20
550.8520323835787
 10
70.32035566451849
 20
550.6417004273181
 10
69.84999999999999
 20
550.6262638796116
 10
68.61851164687222
 20
550.731423175827
 10
67.52908468837684
 20
550.9931197777316
 10
66.60524748312399
 20
551.3273405139854
 10
65.99708358976091
 20
551.5973177610175
 10
65.88354718082434
 20
551.6518781210047
  0
LINE
  5
1AC
330
A
100
AcDbEntity
  8
0
  6
Continuous
 62
     7
100
AcDbLine
 10
74.69122918275926
 20
587.4680518123424
 30
0.0
 11
74.84999999999998
 21
587.4680518123424
 31
0.0
  0
LINE
  5
1AD
330
A
100
AcDbEntity
  8
0
  6
Continuous
 62
     7
100
AcDbLine
 10
64.84999999999998
 20
587.4680518123424
 30
0.0
 11
65.00877081724073
 21
587.4680518123424
 31
0.0
  0
LINE
  5
1AE
330
A
100
AcDbEntity
  8
0
  6
Continuous
 62
     7
100
AcDbLine
 10
65.74999999999992
 20
567.1310027162447
 30
0.0
 11
65.84999999999991
 21
566.4946066131768
 31
0.0
  0
LINE
  5
1AF
330
A
100
AcDbEntity
  8
0
  6
Continuous
 62
     7
100
AcDbLine
 10
73.8499999999999
 20
566.4946066131768
 30
0.0
 11
73.94999999999992
 21
567.1310027162447
 31
0.0
  0
LWPOLYLINE
  5
1B0
330
A
100
AcDbEntity
  8
0
  6
Continuous
 62
     7
100
AcDbPolyline
 90
        3
 70
   128
 43
0.0
 10
73.94999999999992
 20
567.1310027162447
 10
73.92250233381711
 20
567.4341358742221
 10
73.84999999999997
 20
567.6002669392431
  0
LWPOLYLINE
  5
1B5
330
A
100
AcDbEntity
  8
0
  6
Continuous
 62
     7
100
AcDbPolyline
 90
        3
 70
   128
 43
0.0
 10
73.8499999999999
 20
564.277911847453
 10
73.92569279520085
 20
563.9390210043934
 10
73.94999999999992
 20
563.5954688103119
  0
LWPOLYLINE
  5
1BA
330
A
100
AcDbEntity
  8
0
  6
Continuous
 62
     7
100
AcDbPolyline
 90
        3
 70
   128
 43
0.0
 10
65.74999999999992
 20
563.5954688103119
 10
65.78189080736888
 20
563.9935924287437
 10
65.84999999999992
 20
564.3047372051325
  0
LWPOLYLINE
  5
1BF
330
A
100
AcDbEntity
  8
0
  6
Continuous
 62
     7
100
AcDbPolyline
 90
        3
 70
   128
 43
0.0
 10
65.84999999999991
 20
567.5697405911515
 10
65.77045138029768
 20
567.3963933190357
 10
65.74999999999992
 20
567.1310027162447
  0
LINE
  5
1C4
330
A
100
AcDbEntity
  8
0
  6
PHANTOM
 62
     7
100
AcDbLine
 10
69.84999999999999
 20
-532.0319481876577
 30
0.0
 11
184.85
 21
-532.0319481876577
 31
0.0
  0
LINE
  5
1C5
330
A
100
AcDbEntity
  8
0
  6
PHANTOM
 62
     7
100
AcDbLine
 10
-45.15000000000001
 20
-532.0319481876577
 30
0.0
 11
69.84999999999999
 21
-532.0319481876577
 31
0.0
  0
LINE
  5
1C6
330
A
100
AcDbEntity
  8
0
  6
PHANTOM
 62
     7
100
AcDbLine
 10
69.84999999999999
 20
-523.0319481876576
 30
0.0
 11
-45.15000000000001
 21
-523.0319481876576
 31
0.0
  0
LINE
  5
1C7
330
A
100
AcDbEntity
  8
0
  6
PHANTOM
 62
     7
100
AcDbLine
 10
184.85
 20
-523.0319481876576
 30
0.0
 11
69.84999999999999
 21
-523.0319481876576
 31
0.0
  0
LINE
  5
1C8
330
A
100
AcDbEntity
  8
0
  6
PHANTOM
 62
     7
100
AcDbLine
 10
69.84999999999999
 20
-519.8413689602565
 30
0.0
 11
89.5852623579123
 21
-519.8413689602565
 31
0.0
  0
LINE
  5
1C9
330
A
100
AcDbEntity
  8
0
  6
PHANTOM
 62
     7
100
AcDbLine
 10
50.11473764208769
 20
-519.8413689602565
 30
0.0
 11
69.84999999999999
 21
-519.8413689602565
 31
0.0
  0
LINE
  5
1CA
330
A
100
AcDbEntity
  8
0
  6
PHANTOM
 62
     7
100
AcDbLine
 10
83.71853598087133
 20
-482.3772378013581
 30
0.0
 11
55.98146401912866
 21
-482.3772378013581
 31
0.0
  0
LWPOLYLINE
  5
1CB
330
A
100
AcDbEntity
  8
0
  6
PHANTOM
 62
     7
100
AcDbPolyline
 90
        6
 70
   128
 43
0.0
 10
64.86902650954245
 20
719.6464553720834
 10
64.48779930317276
 20
719.5845387368286
 10
64.16461048313962
 20
719.4689150610246
 10
63.94866261757915
 20
719.3171870011815
 10
63.87283181145061
 20
719.1524537789923
 10
63.87361306381858
 20
719.1360957032841
  0
LWPOLYLINE
  5
1D3
330
A
100
AcDbEntity
  8
0
  6
PHANTOM
 62
     7
100
AcDbPolyline
 90
        5
 70
   128
 43
0.0
 10
65.86390623360796
 20
719.3322660610209
 10
65.78939040150574
 20
719.4637297246295
 10
65.57344253594526
 20
719.5810740058188
 10
65.25025371591212
 20
719.6452387203477
 10
64.86902650954245
 20
719.6464553720834
  0
LWPOLYLINE
  5
1DA
330
A
100
AcDbEntity
  8
0
  6
PHANTOM
 62
     7
100
AcDbPolyline
 90
        6
 70
   128
 43
0.0
 10
74.83097349045991
 20
719.6464553720834
 10
75.21220069682961
 20
719.5845387368286
 10
75.53538951686275
 20
719.4689150610246
 10
75.75133738242323
 20
719.3171870011815
 10
75.82716818855175
 20
719.1524537789923
 10
75.82638713066818
 20
719.1360977309519
  0
LWPOLYLINE
  5
1E2
330
A
100
AcDbEntity
  8
0
  6
PHANTOM
 62
     7
100
AcDbPolyline
 90
        5
 70
   128
 43
0.0
 10
73.83610602041272
 20
719.3323640362462
 10
73.91060959849662
 20
719.4637297246295
 10
74.12655746405711
 20
719.5810740058188
 10
74.44974628409025
 20
719.6452387203477
 10
74.83097349045991
 20
719.6464553720834
  0
LWPOLYLINE
  5
1E9
330
A
100
AcDbEntity
  8
0
  6
PHANTOM
 62
     7
100
AcDbPolyline
 90
        8
 70
   128
 43
0.0
 10
69.85000000000124
 20
859.1992389519406
 10
72.83055637544158
 20
859.1258877287422
 10
75.76927227283087
 20
858.9068637495328
 10
78.62489456271449
 20
858.5452416308742
 10
81.35733656774371
 20
858.0460977546268
 10
83.92824079175467
 20
857.4164390066762
 10
86.30151737493379
 20
856.6651044156143
 10
87.7915718497168
 20
856.0873899892962
  0
LWPOLYLINE
  5
1F3
330
A
100
AcDbEntity
  8
0
  6
PHANTOM
 62
     7
100
AcDbPolyline
 90
        8
 70
   128
 43
0.0
 10
52.99554672462377
 20
856.517971590366
 10
53.39848262506893
 20
856.6651044156143
 10
55.77175920824811
 20
857.4164390066762
 10
58.34266343225909
 20
858.0460977546268
 10
61.07510543728833
 20
858.5452416308742
 10
63.93072772717196
 20
858.9068637495328
 10
66.86944362456127
 20
859.1258877287422
 10
69.85000000000124
 20
859.1992389519406
  0
LINE
  5
1FD
330
A
100
AcDbEntity
  8
0
  6
PHANTOM
 62
     7
100
AcDbLine
 10
66.94526249034445
 20
766.9373042541804
 30
0.0
 11
66.94526249034445
 21
717.2254509355923
 31
0.0
  0
LINE
  5
1FE
330
A
100
AcDbEntity
  8
0
  6
PHANTOM
 62
     7
100
AcDbLine
 10
66.94526249034445
 20
714.8082401575988
 30
0.0
 11
66.94526249034445
 21
587.4680518123424
 31
0.0
  0
LINE
  5
1FF
330
A
100
AcDbEntity
  8
0
  6
PHANTOM
 62
     7
100
AcDbLine
 10
72.75473750965557
 20
766.9320999644012
 30
0.0
 11
72.75473750965557
 21
717.2064477177821
 31
0.0
  0
LINE
  5
200
330
A
100
AcDbEntity
  8
0
  6
PHANTOM
 62
     7
100
AcDbLine
 10
72.75473750965557
 20
714.782862246733
 30
0.0
 11
72.75473750965557
 21
587.4680518123424
 31
0.0
  0
LINE
  5
201
330
A
100
AcDbEntity
  8
0
  6
PHANTOM
 62
     7
100
AcDbLine
 10
65.00877081724073
 20
766.9814910019098
 30
0.0
 11
65.00877081724073
 21
728.2271619467942
 31
0.0
  0
LINE
  5
202
330
A
100
AcDbEntity
  8
0
  6
PHANTOM
 62
     7
100
AcDbLine
 10
65.00877081724073
 20
716.3930765418313
 30
0.0
 11
65.00877081724073
 21
587.4680518123424
 31
0.0
  0
LINE
  5
203
330
A
100
AcDbEntity
  8
0
  6
PHANTOM
 62
     7
100
AcDbLine
 10
74.69122918275926
 20
766.9907577405949
 30
0.0
 11
74.69122918275926
 21
728.2271619467698
 31
0.0
  0
LINE
  5
204
330
A
100
AcDbEntity
  8
0
  6
PHANTOM
 62
     7
100
AcDbLine
 10
74.69122918275926
 20
716.3626771932159
 30
0.0
 11
74.69122918275926
 21
587.4680518123424
 31
0.0
  0
LINE
  5
205
330
A
100
AcDbEntity
  8
0
  6
PHANTOM
 62
     7
100
AcDbLine
 10
65.81168668935619
 20
536.8259161886114
 30
0.0
 11
73.8883133106438
 21
536.8259161886114
 31
0.0
  0
LWPOLYLINE
  5
206
330
A
100
AcDbEntity
  8
0
  6
PHANTOM
 62
     7
100
AcDbPolyline
 90
        3
 70
   128
 43
0.0
 10
65.84999999999998
 20
569.181612381686
 10
65.75446655083407
 20
568.6805044280665
 10
65.7499999999999
 20
568.5452162786178
  0
LWPOLYLINE
  5
20B
330
A
100
AcDbEntity
  8
0
  6
PHANTOM
 62
     7
100
AcDbPolyline
 90
        3
 70
   128
 43
0.0
 10
73.9499999999999
 20
568.5452162786178
 10
73.94553344916572
 20
568.6805044280665
 10
73.84999999999997
 20
569.1816123816856
  0
LINE
  5
210
330
A
100
AcDbEntity
  8
0
  6
PHANTOM
 62
     7
100
AcDbLine
 10
65.74999999999992
 20
567.1310027162447
 30
0.0
 11
65.84999999999992
 21
567.1310027162447
 31
0.0
  0
LINE
  5
211
330
A
100
AcDbEntity
  8
0
  6
PHANTOM
 62
     7
100
AcDbLine
 10
73.8499999999999
 20
567.1310027162447
 30
0.0
 11
73.94999999999992
 21
567.1310027162447
 31
0.0
  0
LINE
  5
212
330
A
100
AcDbEntity
  8
0
  6
Continuous
 62
     7
100
AcDbLine
 10
65.84999999999999
 20
-846.8163910924786
 30
0.0
 11
66.34999999999995
 21
-846.8163910924786
 31
0.0
  0
LINE
  5
213
330
A
100
AcDbEntity
  8
0
  6
Continuous
 62
     7
100
AcDbLine
 10
73.34999999999995
 20
-846.8163910924786
 30
0.0
 11
73.84999999999998
 21
-846.8163910924786
 31
0.0
  0
LINE
  5
214
330
A
100
AcDbEntity
  8
0
  6
Continuous
 62
     7
100
AcDbLine
 10
73.84999999999997
 20
-841.9163910924787
 30
0.0
 11
73.34999999999993
 21
-841.9163910924787
 31
0.0
  0
LINE
  5
215
330
A
100
AcDbEntity
  8
0
  6
Continuous
 62
     7
100
AcDbLine
 10
66.34999999999994
 20
-841.9163910924787
 30
0.0
 11
65.84999999999998
 21
-841.9163910924787
 31
0.0
  0
LINE
  5
216
330
A
100
AcDbEntity
  8
0
  6
Continuous
 62
     7
100
AcDbLine
 10
42.85000000000102
 20
-1141.286701309262
 30
0.0
 11
53.35000000000103
 21
-1141.286701309262
 31
0.0
  0
LINE
  5
217
330
A
100
AcDbEntity
  8
0
  6
Continuous
 62
     7
100
AcDbLine
 10
86.35000000000101
 20
-1141.286701309262
 30
0.0
 11
96.85000000000101
 21
-1141.286701309262
 31
0.0
  0
LINE
  5
218
330
A
100
AcDbEntity
  8
0
  6
Continuous
 62
     7
100
AcDbLine
 10
96.85000000000099
 20
-1131.286701309261
 30
0.0
 11
94.85000000000098
 21
-1131.286701309261
 31
0.0
  0
LINE
  5
219
330
A
100
AcDbEntity
  8
0
  6
Continuous
 62
     7
100
AcDbLine
 10
91.85000000000099
 20
-1131.286701309261
 30
0.0
 11
86.35000000000095
 21
-1131.286701309261
 31
0.0
  0
LINE
  5
21A
330
A
100
AcDbEntity
  8
0
  6
Continuous
 62
     7
100
AcDbLine
 10
53.350000000001
 20
-1131.286701309261
 30
0.0
 11
47.85000000000098
 21
-1131.286701309261
 31
0.0
  0
LINE
  5
21B
330
A
100
AcDbEntity
  8
0
  6
Continuous
 62
     7
100
AcDbLine
 10
44.85000000000098
 20
-1131.286701309261
 30
0.0
 11
42.85000000000098
 21
-1131.286701309262
 31
0.0
  0
ARC
  5
21C
330
A
100
AcDbEntity
  8
0
  6
Continuous
 62
     7
100
AcDbCircle
 10
86.85000000000099
 20
-1158.786701309261
 30
0.0
 40
0.625
100
AcDbArc
 50
270.0000000000047
 51
90.0
  0
ARC
  5
21D
330
A
100
AcDbEntity
  8
0
  6
Continuous
 62
     7
100
AcDbCircle
 10
52.85000000000117
 20
-1158.786701309261
 30
0.0
 40
0.625
100
AcDbArc
 50
90.0
 51
269.9999999999956
  0
LINE
  5
21E
330
A
100
AcDbEntity
  8
0
  6
Continuous
 62
     7
100
AcDbLine
 10
86.85000000000099
 20
-1158.161701309261
 30
0.0
 11
52.85000000000117
 21
-1158.161701309261
 31
0.0
  0
LINE
  5
21F
330
A
100
AcDbEntity
  8
0
  6
Continuous
 62
     7
100
AcDbLine
 10
86.85000000000103
 20
-1165.115205884339
 30
0.0
 11
86.85000000000103
 21
-1159.411701309261
 31
0.0
  0
LINE
  5
220
330
A
100
AcDbEntity
  8
0
  6
Continuous
 62
     7
100
AcDbLine
 10
52.85000000000112
 20
-1159.411701309261
 30
0.0
 11
52.85000000000117
 21
-1165.115205884339
 31
0.0
  0
LINE
  5
221
330
A
100
AcDbEntity
  8
0
  6
Continuous
 62
     7
100
AcDbLine
 10
86.35000000000102
 20
-1143.786701309261
 30
0.0
 11
86.35000000000101
 21
-1141.286701309262
 31
0.0
  0
LINE
  5
222
330
A
100
AcDbEntity
  8
0
  6
Continuous
 62
     7
100
AcDbLine
 10
86.35000000000095
 20
-1131.286701309261
 30
0.0
 11
86.35000000000093
 21
-1128.786701309262
 31
0.0
  0
LINE
  5
223
330
A
100
AcDbEntity
  8
0
  6
Continuous
 62
     7
100
AcDbLine
 10
53.35000000000099
 20
-1128.786701309262
 30
0.0
 11
53.350000000001
 21
-1131.286701309261
 31
0.0
  0
LINE
  5
224
330
A
100
AcDbEntity
  8
0
  6
Continuous
 62
     7
100
AcDbLine
 10
53.35000000000103
 20
-1141.286701309262
 30
0.0
 11
53.35000000000103
 21
-1143.786701309262
 31
0.0
  0
ARC
  5
225
330
A
100
AcDbEntity
  8
0
  6
Continuous
 62
     7
100
AcDbCircle
 10
77.35000000000088
 20
-1116.036701309261
 30
0.0
 40
6.0
100
AcDbArc
 50
0.0
 51
90.00000000000014
  0
ARC
  5
226
330
A
100
AcDbEntity
  8
0
  6
Continuous
 62
     7
100
AcDbCircle
 10
62.35000000000098
 20
-1116.036701309261
 30
0.0
 40
6.0
100
AcDbArc
 50
90.00000000000019
 51
180.0000000000004
  0
LINE
  5
227
330
A
100
AcDbEntity
  8
0
  6
Continuous
 62
     7
100
AcDbLine
 10
83.35000000000098
 20
-1158.161701309261
 30
0.0
 11
83.35000000000091
 21
-1143.786701309261
 31
0.0
  0
LINE
  5
228
330
A
100
AcDbEntity
  8
0
  6
Continuous
 62
     7
100
AcDbLine
 10
56.35000000000113
 20
-1143.786701309262
 30
0.0
 11
56.35000000000117
 21
-1158.161701309261
 31
0.0
  0
LINE
  5
229
330
A
100
AcDbEntity
  8
0
  6
Continuous
 62
     7
100
AcDbLine
 10
83.35000000000093
 20
-1128.786701309262
 30
0.0
 11
83.35000000000087
 21
-1116.036701309261
 31
0.0
  0
LINE
  5
22A
330
A
100
AcDbEntity
  8
0
  6
Continuous
 62
     7
100
AcDbLine
 10
56.35000000000097
 20
-1116.036701309261
 30
0.0
 11
56.35000000000101
 21
-1128.786701309262
 31
0.0
  0
LINE
  5
22B
330
A
100
AcDbEntity
  8
0
  6
Continuous
 62
     7
100
AcDbLine
 10
76.35000000000089
 20
-1110.036701309262
 30
0.0
 11
76.35000000000087
 21
-1100.036701309261
 31
0.0
  0
LINE
  5
22C
330
A
100
AcDbEntity
  8
0
  6
Continuous
 62
     7
100
AcDbLine
 10
63.35000000000089
 20
-1100.036701309261
 30
0.0
 11
63.35000000000093
 21
-1110.036701309262
 31
0.0
  0
LWPOLYLINE
  5
22D
330
A
100
AcDbEntity
  8
0
  6
Continuous
 62
     7
100
AcDbPolyline
 90
       40
 70
   128
 43
0.0
 10
69.85000000000145
 20
-1261.580451252712
 10
72.09028417564539
 20
-1261.539543200562
 10
76.28713558509216
 20
-1261.241718879032
 10
80.44851698329066
 20
-1260.656893814795
 10
84.55019519622217
 20
-1259.788348439843
 10
88.56897138180267
 20
-1258.640939000248
 10
92.48210111871907
 20
-1257.221100052438
 10
96.26742180148209
 20
-1255.536813295286
 10
99.90347877359889
 20
-1253.597568214692
 10
103.3696494383754
 20
-1251.414314236417
 10
106.64626478292
 20
-1248.999403946004
 10
109.7147275323915
 20
-1246.366526874891
 10
112.5576258654587
 20
-1243.530633373568
 10
115.1588412938048
 20
-1240.507848241286
 10
117.5036489909614
 20
-1237.315374096104
 10
119.5788086292139
 20
-1233.971384964217
 10
121.372643744809
 20
-1230.494911215229
 10
122.8751078909699
 20
-1226.905717686118
 10
124.0778364033711
 20
-1223.224177480624
 10
124.9741834652486
 20
-1219.471144330771
 10
125.5592451943206
 20
-1215.667826405816
 10
125.8298704708705
 20
-1211.835663967729
 10
125.7846619385098
 20
-1207.996212340096
 10
125.4239719073994
 20
-1204.171045756195
 10
124.7499104686679
 20
-1200.381708264837
 10
123.7663094819418
 20
-1196.649435287264
 10
122.4786993265076
 20
-1192.995143582987
 10
120.8942850297207
 20
-1189.439329333167
 10
119.0219174743291
 20
-1186.001964203433
 10
116.8720575022259
 20
-1182.702388810757
 10
114.4567306929813
 20
-1179.559204119013
 10
111.7894710638493
 20
-1176.590162276053
 10
108.8852527345641
 20
-1173.812059042039
 10
105.7604095009319
 20
-1171.240630171763
 10
102.4325430658665
 20
-1168.890453945562
 10
98.92042125580902
 20
-1166.774861613159
 10
95.24386785956734
 20
-1164.905856965871
 10
91.42364579053866
 20
-1163.294045710876
 10
87.48133515832689
 20
-1161.948574870608
 10
86.85000000000099
 20
-1161.781219673084
  0
LWPOLYLINE
  5
257
330
A
100
AcDbEntity
  8
0
  6
Continuous
 62
     7
100
AcDbPolyline
 90
       39
 70
   128
 43
0.0
 10
52.85000000000116
 20
-1161.79636759685
 10
50.30710907690917
 20
-1162.562478845065
 10
46.41877643018801
 20
-1164.038067692362
 10
42.66278084563015
 20
-1165.776252027439
 10
39.06041394850045
 20
-1167.767234264069
 10
35.6321097751549
 20
-1169.99976794194
 10
32.39732387730293
 20
-1172.4612164282
 10
29.37441599302248
 20
-1175.137621157869
 10
26.58053741969748
 20
-1178.013779873248
 10
24.03152455529652
 20
-1181.07333514208
 10
21.74180038046452
 20
-1184.298873082289
 10
19.72428584947168
 20
-1187.672031690252
 10
17.9903231453448
 20
-1191.173617498597
 10
16.54961244929977
 20
-1194.783728575334
 10
15.41016324212896
 20
-1198.481881268395
 10
14.57826024324664
 20
-1202.247137771874
 10
14.05844304645524
 20
-1206.05823168911
 10
13.85349755332153
 20
-1209.893689354689
 10
13.96445668121934
 20
-1213.731945684562
 10
14.39060198318635
 20
-1217.551417109746
 10
15.129462169426
 20
-1221.330618319854
 10
16.17685006957312
 20
-1225.048371866497
 10
17.52688464855107
 20
-1228.683840078228
 10
19.17201574345281
 20
-1232.216627294659
 10
21.10305414500346
 20
-1235.626884331022
 10
23.30920926056043
 20
-1238.895415522375
 10
25.77813651992719
 20
-1242.003787596185
 10
28.49599613128573
 20
-1244.934438694617
 10
31.44752395763673
 20
-1247.670785317396
 10
34.61611438881663
 20
-1250.197324829291
 10
37.98391431858384
 20
-1252.49973141024
 10
41.53192681219223
 20
-1254.564943792958
 10
45.24012279569628
 20
-1256.381243689387
 10
49.08755907780296
 20
-1257.938324335531
 10
53.052501157382
 20
-1259.227349009676
 10
57.11254949753791
 20
-1260.240999673051
 10
61.24476819613319
 20
-1260.973516050259
 10
65.4258152101663
 20
-1261.420725535036
 10
69.85000000000145
 20
-1261.580451252712
  0
LWPOLYLINE
  5
280
330
A
100
AcDbEntity
  8
0
  6
Continuous
 62
     7
100
AcDbPolyline
 90
        9
 70
   128
 43
0.0
 10
73.18799360665384
 20
-836.3125467110723
 10
72.6389802718797
 20
-835.7840442342858
 10
71.76567984820637
 20
-835.2649069429025
 10
70.734251866687
 20
-834.9507417652665
 10
69.60088885231217
 20
-834.8773087735107
 10
68.45428294104687
 20
-835.0735967460254
 10
67.37979723129358
 20
-835.5596102946517
 10
66.60366845697194
 20
-836.2076280669771
 10
66.51200639334603
 20
-836.3125467110723
  0
LINE
  5
28B
330
A
100
AcDbEntity
  8
0
  6
Continuous
 62
     7
100
AcDbLine
 10
68.35000000000002
 20
-856.6546161918696
 30
0.0
 11
69.25000000000003
 21
-856.6546161918694
 31
0.0
  0
LINE
  5
28C
330
A
100
AcDbEntity
  8
0
  6
Continuous
 62
     7
100
AcDbLine
 10
70.45000000000001
 20
-856.6546161918694
 30
0.0
 11
71.35000000000002
 21
-856.6546161918696
 31
0.0
  0
LINE
  5
28D
330
A
100
AcDbEntity
  8
0
  6
Continuous
 62
     7
100
AcDbLine
 10
70.45000000000077
 20
-1075.610234791504
 30
0.0
 11
70.45
 21
-854.6157945573449
 31
0.0
  0
LINE
  5
28E
330
A
100
AcDbEntity
  8
0
  6
Continuous
 62
     7
100
AcDbLine
 10
69.25000000000003
 20
-854.6158034729607
 30
0.0
 11
69.25000000000079
 21
-1075.617955108604
 31
0.0
  0
LINE
  5
28F
330
A
100
AcDbEntity
  8
0
  6
Continuous
 62
     7
100
AcDbLine
 10
69.87716667631871
 20
-1085.786701309261
 30
0.0
 11
73.85000000000083
 21
-1085.786701309261
 31
0.0
  0
LINE
  5
290
330
A
100
AcDbEntity
  8
0
  6
Continuous
 62
     7
100
AcDbLine
 10
65.85000000000082
 20
-1085.786701309261
 30
0.0
 11
69.87716667631871
 21
-1085.786701309261
 31
0.0
  0
LINE
  5
291
330
A
100
AcDbEntity
  8
0
  6
Continuous
 62
     7
100
AcDbLine
 10
69.25000000000078
 20
-1071.786701309261
 30
0.0
 11
65.85000000000078
 21
-1071.786701309261
 31
0.0
  0
LINE
  5
292
330
A
100
AcDbEntity
  8
0
  6
Continuous
 62
     7
100
AcDbLine
 10
73.85000000000077
 20
-1071.786701309261
 30
0.0
 11
70.45000000000076
 21
-1071.786701309261
 31
0.0
  0
LINE
  5
293
330
A
100
AcDbEntity
  8
0
  6
Continuous
 62
     7
100
AcDbLine
 10
74.8500000000001
 20
-876.2867013092616
 30
0.0
 11
79.8500000000001
 21
-876.2867013092616
 31
0.0
  0
LINE
  5
294
330
A
100
AcDbEntity
  8
0
  6
Continuous
 62
     7
100
AcDbLine
 10
79.85000000000002
 20
-856.2867013092615
 30
0.0
 11
74.85000000000002
 21
-856.2867013092615
 31
0.0
  0
LINE
  5
295
330
A
100
AcDbEntity
  8
0
  6
Continuous
 62
     7
100
AcDbLine
 10
64.85000000000015
 20
-891.2867013092617
 30
0.0
 11
64.85000000000077
 21
-1071.286701309261
 31
0.0
  0
LINE
  5
296
330
A
100
AcDbEntity
  8
0
  6
Continuous
 62
     7
100
AcDbLine
 10
74.85000000000076
 20
-1071.286701309261
 30
0.0
 11
74.85000000000013
 21
-891.2867013092617
 31
0.0
  0
LINE
  5
297
330
A
100
AcDbEntity
  8
0
  6
Continuous
 62
     7
100
AcDbLine
 10
73.35000000000004
 20
-871.2867013092616
 30
0.0
 11
74.85000000000008
 21
-871.2867013092616
 31
0.0
  0
LINE
  5
298
330
A
100
AcDbEntity
  8
0
  6
Continuous
 62
     7
100
AcDbLine
 10
74.85000000000003
 20
-861.2867013092614
 30
0.0
 11
73.35
 21
-861.2867013092614
 31
0.0
  0
LINE
  5
299
330
A
100
AcDbEntity
  8
0
  6
Continuous
 62
     7
100
AcDbLine
 10
64.85000000000008
 20
-871.2867013092616
 30
0.0
 11
66.35000000000004
 21
-871.2867013092616
 31
0.0
  0
LINE
  5
29A
330
A
100
AcDbEntity
  8
0
  6
Continuous
 62
     7
100
AcDbLine
 10
66.35000000000001
 20
-861.2867013092614
 30
0.0
 11
64.85000000000005
 21
-861.2867013092614
 31
0.0
  0
LINE
  5
29B
330
A
100
AcDbEntity
  8
0
  6
Continuous
 62
     7
100
AcDbLine
 10
66.35000000000077
 20
-1071.286701309261
 30
0.0
 11
66.35000000000077
 21
-1071.786701309261
 31
0.0
  0
LINE
  5
29C
330
A
100
AcDbEntity
  8
0
  6
Continuous
 62
     7
100
AcDbLine
 10
73.35000000000078
 20
-1071.786701309261
 30
0.0
 11
73.35000000000078
 21
-1071.286701309261
 31
0.0
  0
LINE
  5
29D
330
A
100
AcDbEntity
  8
0
  6
Continuous
 62
     7
100
AcDbLine
 10
66.35000000000082
 20
-1085.786701309261
 30
0.0
 11
66.35000000000082
 21
-1087.286701309261
 31
0.0
  0
LINE
  5
29E
330
A
100
AcDbEntity
  8
0
  6
Continuous
 62
     7
100
AcDbLine
 10
73.35000000000083
 20
-1087.286701309261
 30
0.0
 11
73.35000000000083
 21
-1085.786701309261
 31
0.0
  0
LINE
  5
29F
330
A
100
AcDbEntity
  8
0
  6
Continuous
 62
     7
100
AcDbLine
 10
69.49595461427112
 20
-833.6867013092614
 30
0.0
 11
66.3499999999999
 21
-833.6867013092614
 31
0.0
  0
LINE
  5
2A0
330
A
100
AcDbEntity
  8
0
  6
Continuous
 62
     7
100
AcDbLine
 10
73.3499999999999
 20
-833.6867013092614
 30
0.0
 11
70.21004855716815
 21
-833.6867013092614
 31
0.0
  0
LINE
  5
2A1
330
A
100
AcDbEntity
  8
0
  6
Continuous
 62
     7
100
AcDbLine
 10
73.84999999999998
 20
-844.1867013092615
 30
0.0
 11
74.84999999999998
 21
-844.1867013092615
 31
0.0
  0
LINE
  5
2A2
330
A
100
AcDbEntity
  8
0
  6
Continuous
 62
     7
100
AcDbLine
 10
74.84999999999994
 20
-834.1867013092615
 30
0.0
 11
73.34999999999991
 21
-834.1867013092615
 31
0.0
  0
LINE
  5
2A3
330
A
100
AcDbEntity
  8
0
  6
Continuous
 62
     7
100
AcDbLine
 10
64.84999999999998
 20
-844.1867013092615
 30
0.0
 11
65.84999999999998
 21
-844.1867013092615
 31
0.0
  0
LINE
  5
2A4
330
A
100
AcDbEntity
  8
0
  6
Continuous
 62
     7
100
AcDbLine
 10
66.3499999999999
 20
-834.1867013092615
 30
0.0
 11
64.84999999999995
 21
-834.1867013092615
 31
0.0
  0
LINE
  5
2A5
330
A
100
AcDbEntity
  8
0
  6
Continuous
 62
     7
100
AcDbLine
 10
70.44999999999994
 20
-833.6867013092614
 30
0.0
 11
70.44999999999991
 21
-824.1371085542201
 31
0.0
  0
LINE
  5
2A6
330
A
100
AcDbEntity
  8
0
  6
Continuous
 62
     7
100
AcDbLine
 10
69.24999999999991
 20
-824.1371703829832
 30
0.0
 11
69.24999999999996
 21
-833.6867013092614
 31
0.0
  0
LWPOLYLINE
  5
2A7
330
A
100
AcDbEntity
  8
0
  6
Continuous
 62
     7
100
AcDbPolyline
 90
       13
 70
   128
 43
0.0
 10
73.92527800305552
 20
-820.6941340422154
 10
73.83927734009602
 20
-819.8938873699685
 10
73.45334748593734
 20
-819.0279810137099
 10
72.84230003861882
 20
-818.3083253089288
 10
72.03106838621772
 20
-817.7462653106823
 10
71.04185618661851
 20
-817.3709534141149
 10
69.92873618736282
 20
-817.2252363648471
 10
68.77750861703297
 20
-817.3425623081305
 10
67.67314590700052
 20
-817.7440564882196
 10
66.83067371808021
 20
-818.3329469641822
 10
66.21173003669082
 20
-819.0841541271536
 10
65.84566455405142
 20
-819.950594448391
 10
65.78520376147415
 20
-820.6924336640746
  0
LINE
  5
2B6
330
A
100
AcDbEntity
  8
0
  6
Continuous
 62
     7
100
AcDbLine
 10
65.74999999999992
 20
-825.6592843112912
 30
0.0
 11
65.74999999999994
 21
-834.1867013092615
 31
0.0
  0
LINE
  5
2B7
330
A
100
AcDbEntity
  8
0
  6
Continuous
 62
     7
100
AcDbLine
 10
65.7499999999999
 20
-820.7095368429854
 30
0.0
 11
65.7499999999999
 21
-822.1237504053583
 31
0.0
  0
LINE
  5
2B8
330
A
100
AcDbEntity
  8
0
  6
Continuous
 62
     7
100
AcDbLine
 10
73.9499999999999
 20
-822.1237504053583
 30
0.0
 11
73.9499999999999
 21
-820.7095368429852
 31
0.0
  0
LINE
  5
2B9
330
A
100
AcDbEntity
  8
0
  6
Continuous
 62
     7
100
AcDbLine
 10
73.94999999999995
 20
-834.1867013092615
 30
0.0
 11
73.94999999999992
 21
-825.659284311291
 31
0.0
  0
LINE
  5
2BA
330
A
100
AcDbEntity
  8
0
  6
Continuous
 62
     7
100
AcDbLine
 10
68.34999999999993
 20
-833.6190822859359
 30
0.0
 11
69.24999999999996
 21
-833.6190822859359
 31
0.0
  0
LINE
  5
2BB
330
A
100
AcDbEntity
  8
0
  6
Continuous
 62
     7
100
AcDbLine
 10
70.44999999999994
 20
-833.6190822859357
 30
0.0
 11
71.34999999999994
 21
-833.6190822859357
 31
0.0
  0
LINE
  5
2BC
330
A
100
AcDbEntity
  8
0
  6
Continuous
 62
     7
100
AcDbLine
 10
65.84999999999992
 20
-826.3415173583249
 30
0.0
 11
66.17554828768986
 21
-826.3415173583249
 31
0.0
  0
LINE
  5
2BD
330
A
100
AcDbEntity
  8
0
  6
Continuous
 62
     7
100
AcDbLine
 10
73.49977201723816
 20
-826.3415173583249
 30
0.0
 11
73.8499999999999
 21
-826.3415173583249
 31
0.0
  0
LINE
  5
2BE
330
A
100
AcDbEntity
  8
0
  6
Continuous
 62
     7
100
AcDbLine
 10
78.85000000000002
 20
-854.1867013092605
 30
0.0
 11
83.85000000000003
 21
-854.1867013092605
 31
0.0
  0
LINE
  5
2BF
330
A
100
AcDbEntity
  8
0
  6
Continuous
 62
     7
100
AcDbLine
 10
83.84999999999996
 20
-834.1867013092606
 30
0.0
 11
78.84999999999995
 21
-834.1867013092606
 31
0.0
  0
LINE
  5
2C0
330
A
100
AcDbEntity
  8
0
  6
Continuous
 62
     7
100
AcDbLine
 10
63.85
 20
-852.3867013092607
 30
0.0
 11
66.34999999999997
 21
-852.3867013092607
 31
0.0
  0
LINE
  5
2C1
330
A
100
AcDbEntity
  8
0
  6
Continuous
 62
     7
100
AcDbLine
 10
73.34999999999997
 20
-852.3867013092605
 30
0.0
 11
75.85
 21
-852.3867013092605
 31
0.0
  0
LINE
  5
2C2
330
A
100
AcDbEntity
  8
0
  6
Continuous
 62
     7
100
AcDbLine
 10
75.84999999999995
 20
-835.9867013092605
 30
0.0
 11
74.84999999999995
 21
-835.9867013092605
 31
0.0
  0
LINE
  5
2C3
330
A
100
AcDbEntity
  8
0
  6
Continuous
 62
     7
100
AcDbLine
 10
64.84999999999995
 20
-835.9867013092605
 30
0.0
 11
63.84999999999995
 21
-835.9867013092605
 31
0.0
  0
LINE
  5
2C4
330
A
100
AcDbEntity
  8
0
  6
Continuous
 62
     7
100
AcDbLine
 10
75.84999999999999
 20
-850.1867013092605
 30
0.0
 11
78.85000000000001
 21
-850.1867013092605
 31
0.0
  0
LINE
  5
2C5
330
A
100
AcDbEntity
  8
0
  6
Continuous
 62
     7
100
AcDbLine
 10
78.84999999999997
 20
-838.1867013092605
 30
0.0
 11
75.84999999999997
 21
-838.1867013092605
 31
0.0
  0
ARC
  5
2C6
330
A
100
AcDbEntity
  8
0
  6
Continuous
 62
     7
100
AcDbCircle
 10
69.84999999999999
 20
-848.2867013092606
 30
0.0
 40
9.999999999999966
100
AcDbArc
 50
290.1784549452749
 51
300.0000000000011
  0
ARC
  5
2C7
330
A
100
AcDbEntity
  8
0
  6
Continuous
 62
     7
100
AcDbCircle
 10
69.84999999999999
 20
-848.2867013092606
 30
0.0
 40
9.999999999999966
100
AcDbArc
 50
306.8698976458352
 51
334.1580672368343
  0
ARC
  5
2C8
330
A
100
AcDbEntity
  8
0
  6
Continuous
 62
     7
100
AcDbCircle
 10
69.84999999999999
 20
-848.2867013092606
 30
0.0
 40
10.00000000000011
100
AcDbArc
 50
126.8698976458437
 51
250.2527757612693
  0
ARC
  5
2C9
330
A
100
AcDbEntity
  8
0
  6
Continuous
 62
     7
100
AcDbCircle
 10
69.84999999999999
 20
-934.2867013092568
 30
0.0
 40
115.0
100
AcDbArc
 50
91.89009654627774
 51
267.5080936310213
  0
ARC
  5
2CA
330
A
100
AcDbEntity
  8
0
  6
Continuous
 62
     7
100
AcDbCircle
 10
69.84999999999999
 20
-934.2867013092568
 30
0.0
 40
115.0000000000001
100
AcDbArc
 50
272.4919063689811
 51
88.10454983336676
  0
LINE
  5
2CB
330
A
100
AcDbEntity
  8
0
  6
Continuous
 62
     7
100
AcDbLine
 10
65.84999999999998
 20
-841.9163910924787
 30
0.0
 11
65.84999999999999
 21
-846.8163910924786
 31
0.0
  0
LINE
  5
2CC
330
A
100
AcDbEntity
  8
0
  6
Continuous
 62
     7
100
AcDbLine
 10
73.84999999999997
 20
-841.9163910924787
 30
0.0
 11
73.84999999999998
 21
-846.8163910924786
 31
0.0
  0
LINE
  5
2CD
330
A
100
AcDbEntity
  8
0
  6
Continuous
 62
     7
100
AcDbLine
 10
47.85000000000098
 20
-1132.487030270869
 30
0.0
 11
47.85000000000091
 21
-1112.286701309261
 31
0.0
  0
LINE
  5
2CE
330
A
100
AcDbEntity
  8
0
  6
Continuous
 62
     7
100
AcDbLine
 10
44.85000000000091
 20
-1112.286701309261
 30
0.0
 11
44.85000000000098
 21
-1132.487030270869
 31
0.0
  0
LINE
  5
2CF
330
A
100
AcDbEntity
  8
0
  6
Continuous
 62
     7
100
AcDbLine
 10
94.85000000000098
 20
-1132.487030270868
 30
0.0
 11
94.85000000000091
 21
-1112.286701309261
 31
0.0
  0
LINE
  5
2D0
330
A
100
AcDbEntity
  8
0
  6
Continuous
 62
     7
100
AcDbLine
 10
91.85000000000092
 20
-1112.286701309261
 30
0.0
 11
91.85000000000099
 21
-1132.487030270869
 31
0.0
  0
ARC
  5
2D1
330
A
100
AcDbEntity
  8
0
  6
Continuous
 62
     7
100
AcDbCircle
 10
69.85000000000091
 20
-1112.286701309261
 30
0.0
 40
22.0
100
AcDbArc
 50
0.0
 51
180.0000000000004
  0
ARC
  5
2D2
330
A
100
AcDbEntity
  8
0
  6
Continuous
 62
     7
100
AcDbCircle
 10
69.85000000000091
 20
-1112.286701309261
 30
0.0
 40
25.0
100
AcDbArc
 50
0.0
 51
180.0000000000004
  0
LINE
  5
2D3
330
A
100
AcDbEntity
  8
0
  6
Continuous
 62
     7
100
AcDbLine
 10
96.85000000000101
 20
-1141.286701309262
 30
0.0
 11
96.85000000000099
 21
-1131.286701309261
 31
0.0
  0
LINE
  5
2D4
330
A
100
AcDbEntity
  8
0
  6
Continuous
 62
     7
100
AcDbLine
 10
42.85000000000102
 20
-1141.286701309262
 30
0.0
 11
42.85000000000098
 21
-1131.286701309262
 31
0.0
  0
LINE
  5
2D5
330
A
100
AcDbEntity
  8
0
  6
Continuous
 62
     7
100
AcDbLine
 10
86.85000000000108
 20
-1159.411701309261
 30
0.0
 11
52.85000008633404
 21
-1159.411701309261
 31
0.0
  0
LINE
  5
2D6
330
A
100
AcDbEntity
  8
0
  6
Continuous
 62
     7
100
AcDbLine
 10
86.35000000000093
 20
-1128.786701309262
 30
0.0
 11
53.35000000000099
 21
-1128.786701309262
 31
0.0
  0
LINE
  5
2D7
330
A
100
AcDbEntity
  8
0
  6
Continuous
 62
     7
100
AcDbLine
 10
86.35000000000102
 20
-1143.786701309261
 30
0.0
 11
53.35000000000103
 21
-1143.786701309262
 31
0.0
  0
LINE
  5
2D8
330
A
100
AcDbEntity
  8
0
  6
Continuous
 62
     7
100
AcDbLine
 10
77.35000000000086
 20
-1110.036701309262
 30
0.0
 11
62.35000090340118
 21
-1110.036701309262
 31
0.0
  0
LINE
  5
2D9
330
A
100
AcDbEntity
  8
0
  6
Continuous
 62
     7
100
AcDbLine
 10
76.35000000000087
 20
-1100.036701309261
 30
0.0
 11
63.35000000000089
 21
-1100.036701309261
 31
0.0
  0
LWPOLYLINE
  5
2DA
330
A
100
AcDbEntity
  8
0
  6
Continuous
 62
     7
100
AcDbPolyline
 90
       52
 70
   128
 43
0.0
 10
69.85000000000124
 20
-1205.92340986076
 10
72.77242510054356
 20
-1205.759390242168
 10
75.65054921551778
 20
-1205.269817756616
 10
78.44074291713905
 20
-1204.462113823942
 10
81.10070971305766
 20
-1203.348522412438
 10
83.59012721806832
 20
-1201.94592443277
 10
85.87125840036758
 20
-1200.27558184058
 10
87.90952363648882
 20
-1198.362815326912
 10
89.67402490314567
 20
-1196.236620482346
 10
91.13801415976913
 20
-1193.929228253402
 10
92.27929882153727
 20
-1191.475616354245
 10
93.08057817633923
 20
-1188.912979040192
 10
93.52970564593539
 20
-1186.280163280716
 10
93.61987291570201
 20
-1183.617079878984
 10
93.34971314174088
 20
-1180.96409846477
 10
92.72332167083959
 20
-1178.361435532014
 10
91.75019395918862
 20
-1175.848544797766
 10
90.44508163094487
 20
-1173.46351912406
 10
88.82776885864627
 20
-1171.242513068945
 10
86.92277245532299
 20
-1169.21919482025
 10
84.75897022460298
 20
-1167.424235820167
 10
82.36916320264544
 20
-1165.884845817457
 10
79.78957842786811
 20
-1164.624360395394
 10
77.05931977597266
 20
-1163.661887228108
 10
74.21977518504943
 20
-1163.012016427723
 10
71.31398925662439
 20
-1162.684599373132
 10
68.38601074337745
 20
-1162.684599373132
 10
65.48022481495244
 20
-1163.012016427723
 10
62.64068022402922
 20
-1163.661887228108
 10
59.91042157213379
 20
-1164.624360395394
 10
57.33083679735648
 20
-1165.884845817457
 10
54.94102977539898
 20
-1167.424235820168
 10
52.77722754467902
 20
-1169.21919482025
 10
50.87223114135577
 20
-1171.242513068945
 10
49.2549183690572
 20
-1173.46351912406
 10
47.94980604081351
 20
-1175.848544797767
 10
46.97667832916261
 20
-1178.361435532014
 10
46.35028685826134
 20
-1180.964098464771
 10
46.08012708430028
 20
-1183.617079878985
 10
46.17029435406698
 20
-1186.280163280716
 10
46.6194218236632
 20
-1188.912979040192
 10
47.42070117846521
 20
-1191.475616354245
 10
48.56198584023342
 20
-1193.929228253402
 10
50.02597509685693
 20
-1196.236620482346
 10
51.79047636351381
 20
-1198.362815326912
 10
53.82874159963511
 20
-1200.27558184058
 10
56.1098727819344
 20
-1201.94592443277
 10
58.5992902869451
 20
-1203.348522412438
 10
61.25925708286373
 20
-1204.462113823942
 10
64.04945078448503
 20
-1205.269817756616
 10
66.92757489945925
 20
-1205.759390242168
 10
69.85000000000124
 20
-1205.92340986076
  0
LWPOLYLINE
  5
310
330
A
100
AcDbEntity
  8
0
  6
Continuous
 62
     7
100
AcDbPolyline
 90
       29
 70
   128
 43
0.0
 10
95.04658414290942
 20
-1183.799658575229
 10
94.95106633259249
 20
-1182.173445279065
 10
94.51022318612796
 20
-1179.486260097625
 10
93.72320456200611
 20
-1176.865381315932
 10
92.60105847654349
 20
-1174.347600327045
 10
91.15953740100543
 20
-1171.968261257003
 10
89.41887713143934
 20
-1169.760764810774
 10
87.40351272245556
 20
-1167.756099399571
 10
85.14173547262293
 20
-1165.982406131487
 10
82.66529577665226
 20
-1164.464583772022
 10
80.00895741945219
 20
-1163.223939219995
 10
77.21000956879231
 20
-1162.277888405391
 10
74.30774331712656
 20
-1161.639711807877
 10
71.34290012078224
 20
-1161.318368027983
 10
68.35709987921958
 20
-1161.318368027983
 10
65.39225668287527
 20
-1161.639711807877
 10
62.48999043120953
 20
-1162.277888405391
 10
59.69104258054969
 20
-1163.223939219996
 10
57.03470422334965
 20
-1164.464583772022
 10
54.558264527379
 20
-1165.982406131487
 10
52.29648727754642
 20
-1167.756099399571
 10
50.28112286856268
 20
-1169.760764810774
 10
48.54046259899664
 20
-1171.968261257003
 10
47.09894152345865
 20
-1174.347600327046
 10
45.97679543799608
 20
-1176.865381315933
 10
45.18977681387427
 20
-1179.486260097626
 10
44.74893366740981
 20
-1182.173445279066
 10
44.66045447003894
 20
-1184.889214670689
 10
44.66472014287478
 20
-1185.009489590845
  0
LWPOLYLINE
  5
32F
330
A
100
AcDbEntity
  8
0
  6
Continuous
 62
     7
100
AcDbPolyline
 90
       36
 70
   128
 43
0.0
 10
69.85000000000143
 20
-1258.374092704684
 10
74.20643147240504
 20
-1258.212264574259
 10
78.53387161212044
 20
-1257.727857122492
 10
82.80352201899511
 20
-1256.924094001053
 10
86.98696887401409
 20
-1255.806324120904
 10
91.05637202857735
 20
-1254.381986056178
 10
94.98465027609555
 20
-1252.660558541697
 10
98.74566157295173
 20
-1250.653497393554
 10
102.3143770094885
 20
-1248.374159272548
 10
105.6670473732723
 20
-1245.83771279781
 10
108.7813611961839
 20
-1243.061037602145
 10
111.6365932335573
 20
-1240.062612000861
 10
114.213742387264
 20
-1236.86239002163
 10
116.4956581548858
 20
-1233.481668613723
 10
118.4671547634786
 20
-1229.942945920331
 10
120.1151122283865
 20
-1226.269771557129
 10
121.4285636645741
 20
-1222.486589893475
 10
122.3987682694381
 20
-1218.618577379158
 10
123.0192694914055
 20
-1214.691474999283
 10
123.2859379972195
 20
-1210.731416972264
 10
123.1969991519712
 20
-1206.764756830907
 10
122.7530448290019
 20
-1202.817892043997
 10
121.9570294710836
 20
-1198.917088345507
 10
120.81425042909
 20
-1195.088304940462
 10
119.3323127090002
 20
-1191.357021750718
 10
117.521078361839
 20
-1187.748069850284
 10
115.392600853354
 20
-1184.285466218623
 10
112.9610448501902
 20
-1180.992253911614
 10
110.2425919563702
 20
-1177.890348713818
 10
107.255333027389
 20
-1175.000393292547
 10
104.0191477785562
 20
-1172.341619824323
 10
100.5555724887696
 20
-1169.931722007909
 10
96.88765668013317
 20
-1167.786737315667
 10
93.03980972718974
 20
-1165.920940266828
 10
89.0376384165612
 20
-1164.346747432917
 10
86.85000000000101
 20
-1163.630351665402
  0
LWPOLYLINE
  5
355
330
A
100
AcDbEntity
  8
0
  6
Continuous
 62
     7
100
AcDbPolyline
 90
       36
 70
   128
 43
0.0
 10
52.85000000000117
 20
-1163.630351665402
 10
50.66236158344029
 20
-1164.346747432917
 10
46.66019027281177
 20
-1165.920940266829
 10
42.81234331986842
 20
-1167.786737315668
 10
39.144427511232
 20
-1169.931722007909
 10
35.68085222144547
 20
-1172.341619824324
 10
32.44466697261267
 20
-1175.000393292548
 10
29.45740804363162
 20
-1177.890348713818
 10
26.73895514981162
 20
-1180.992253911614
 10
24.30739914664791
 20
-1184.285466218624
 10
22.17892163816303
 20
-1187.748069850286
 10
20.36768729100188
 20
-1191.357021750719
 10
18.88574957091219
 20
-1195.088304940463
 10
17.74297052891864
 20
-1198.917088345508
 10
16.94695517100042
 20
-1202.817892043998
 10
16.50300084803121
 20
-1206.764756830907
 10
16.41406200278304
 20
-1210.731416972265
 10
16.68073050859717
 20
-1214.691474999284
 10
17.30123173056462
 20
-1218.618577379159
 10
18.27143633542868
 20
-1222.486589893476
 10
19.58488777161647
 20
-1226.26977155713
 10
21.2328452365244
 20
-1229.942945920332
 10
23.20434184511734
 20
-1233.481668613724
 10
25.48625761273916
 20
-1236.862390021631
 10
28.06340676644593
 20
-1240.062612000862
 10
30.91863880381943
 20
-1243.061037602146
 10
34.03295262673104
 20
-1245.837712797811
 10
37.38562299051491
 20
-1248.374159272549
 10
40.95433842705173
 20
-1250.653497393555
 10
44.71534972390796
 20
-1252.660558541698
 10
48.6436279714262
 20
-1254.381986056179
 10
52.71303112598949
 20
-1255.806324120904
 10
56.89647798100849
 20
-1256.924094001053
 10
61.16612838788318
 20
-1257.727857122492
 10
65.49356852759856
 20
-1258.212264574258
 10
69.85000000000143
 20
-1258.374092704684
  0
LWPOLYLINE
  5
37B
330
A
100
AcDbEntity
  8
0
  6
Continuous
 62
     7
100
AcDbPolyline
 90
        8
 70
   128
 43
0.0
 10
91.54643996358538
 20
-1193.14370583932
 10
92.0958790275646
 20
-1191.858243672789
 10
92.8906057702969
 20
-1189.316562805566
 10
93.33606041585175
 20
-1186.705277390306
 10
93.42549032587411
 20
-1184.063971852107
 10
93.15753983408781
 20
-1181.432685690531
 10
92.53627079681463
 20
-1178.851306521601
 10
91.66689037795226
 20
-1176.56796464494
  0
LWPOLYLINE
  5
385
330
A
100
AcDbEntity
  8
0
  6
Continuous
 62
     7
100
AcDbPolyline
 90
        8
 70
   128
 43
0.0
 10
47.77645002433761
 20
-1177.161306136188
 10
47.16372920318758
 20
-1178.851306521602
 10
46.54246016591446
 20
-1181.432685690532
 10
46.2745096741282
 20
-1184.063971852108
 10
46.3639395841506
 20
-1186.705277390307
 10
46.80939422970554
 20
-1189.316562805566
 10
47.60412097243788
 20
-1191.85824367279
 10
48.15356003641702
 20
-1193.14370583932
  0
LWPOLYLINE
  5
38F
330
A
100
AcDbEntity
  8
0
  6
Continuous
 62
     7
100
AcDbPolyline
 90
       34
 70
   128
 43
0.0
 10
69.8500000000012
 20
-1194.164703903731
 10
71.7425124436053
 20
-1194.000262047679
 10
73.56662455660449
 20
-1193.512879836648
 10
75.2564081745572
 20
-1192.72017253361
 10
76.75079011482235
 20
-1191.650790645872
 10
77.99575952050457
 20
-1190.343384421106
 10
78.9463199535464
 20
-1188.845206926689
 10
79.56811568323662
 20
-1187.210406200732
 10
79.83867339183129
 20
-1185.498068200902
 10
79.74821441881052
 20
-1183.770081283967
 10
79.30000818714785
 20
-1182.088899399332
 10
78.51025403784554
 20
-1180.515284840582
 10
77.40749574354372
 20
-1179.106112137885
 10
76.03158986220718
 20
-1177.912312464279
 10
74.43226521727521
 20
-1176.977032850383
 10
72.66732556841538
 20
-1176.334076738291
 10
70.80056043304288
 20
-1176.0066822371
 10
68.89943956695923
 20
-1176.0066822371
 10
67.03267443158676
 20
-1176.334076738291
 10
65.26773478272694
 20
-1176.977032850383
 10
63.66841013779501
 20
-1177.912312464279
 10
62.29250425645848
 20
-1179.106112137885
 10
61.1897459621567
 20
-1180.515284840582
 10
60.39999181285441
 20
-1182.088899399332
 10
59.9517855811918
 20
-1183.770081283968
 10
59.86132660817108
 20
-1185.498068200902
 10
60.13188431676576
 20
-1187.210406200732
 10
60.75368004645603
 20
-1188.845206926689
 10
61.70424047949787
 20
-1190.343384421107
 10
62.94920988518015
 20
-1191.650790645872
 10
64.44359182544532
 20
-1192.72017253361
 10
66.13337544339805
 20
-1193.512879836648
 10
67.95748755639722
 20
-1194.000262047679
 10
69.8500000000012
 20
-1194.164703903731
  0
LWPOLYLINE
  5
3B3
330
A
100
AcDbEntity
  8
0
  6
Continuous
 62
     7
100
AcDbPolyline
 90
       18
 70
   128
 43
0.0
 10
79.84740358268192
 20
-1185.27243781628
 10
79.74821441881052
 20
-1184.184774526624
 10
79.30000818714785
 20
-1182.503592641988
 10
78.51025403784554
 20
-1180.929978083239
 10
77.40749574354372
 20
-1179.520805380541
 10
76.03158986220718
 20
-1178.327005706935
 10
74.43226521727521
 20
-1177.39172609304
 10
72.66732556841538
 20
-1176.748769980948
 10
70.8005604330429
 20
-1176.421375479756
 10
68.89943956695923
 20
-1176.421375479756
 10
67.03267443158677
 20
-1176.748769980948
 10
65.26773478272696
 20
-1177.39172609304
 10
63.66841013779501
 20
-1178.327005706936
 10
62.29250425645849
 20
-1179.520805380542
 10
61.1897459621567
 20
-1180.929978083239
 10
60.39999181285442
 20
-1182.503592641988
 10
59.95178558119181
 20
-1184.184774526624
 10
59.85259641732043
 20
-1185.27243781628
  0
LWPOLYLINE
  5
3C7
330
A
100
AcDbEntity
  8
0
  6
Continuous
 62
     7
100
AcDbPolyline
 90
        7
 70
   128
 43
0.0
 10
71.3499999999999
 20
-837.9810003745612
 10
71.35990040347491
 20
-837.9838717831372
 10
71.88100591290425
 20
-838.1751516508302
 10
72.47329297191249
 20
-838.510272737176
 10
72.94093658020769
 20
-838.9253575183669
 10
73.2440650213671
 20
-839.3905971326287
 10
73.34999999999992
 20
-839.8659503394469
  0
LWPOLYLINE
  5
3D0
330
A
100
AcDbEntity
  8
0
  6
Continuous
 62
     7
100
AcDbPolyline
 90
        7
 70
   128
 43
0.0
 10
66.34999999999994
 20
-839.8659503394467
 10
66.45593497863275
 20
-839.3905971326287
 10
66.75906341979213
 20
-838.9253575183669
 10
67.22670702808729
 20
-838.510272737176
 10
67.81899408709555
 20
-838.1751516508302
 10
68.34009959652485
 20
-837.9838717831368
 10
68.34999999999993
 20
-837.981000374561
  0
LWPOLYLINE
  5
3D9
330
A
100
AcDbEntity
  8
0
  6
Continuous
 62
     7
100
AcDbPolyline
 90
        9
 70
   128
 43
0.0
 10
71.34999999999999
 20
-847.0645386051248
 10
71.16977265372097
 20
-847.1112226121249
 10
70.98665290206603
 20
-847.1518910637785
 10
70.80104206912126
 20
-847.1864548313645
 10
70.61334693841073
 20
-847.2148381651496
 10
70.42397886139226
 20
-847.2369788603995
 10
70.23335285594218
 20
-847.2528283937064
 10
70.04188669680484
 20
-847.2623520293343
 10
69.84999999999999
 20
-847.2655288953431
  0
LWPOLYLINE
  5
3E4
330
A
100
AcDbEntity
  8
0
  6
Continuous
 62
     7
100
AcDbPolyline
 90
        9
 70
   128
 43
0.0
 10
69.84999999999999
 20
-847.2655288953431
 10
69.65811330319514
 20
-847.2623520293343
 10
69.46664714405779
 20
-847.2528283937064
 10
69.27602113860771
 20
-847.2369788603995
 10
69.08665306158924
 20
-847.2148381651496
 10
68.89895793087872
 20
-847.1864548313645
 10
68.71334709793394
 20
-847.1518910637785
 10
68.530227346279
 20
-847.1112226121249
 10
68.34999999999999
 20
-847.0645386051248
  0
LINE
  5
3EF
330
A
100
AcDbEntity
  8
0
  6
Continuous
 62
     7
100
AcDbLine
 10
66.34999999999995
 20
-846.7955967950755
 30
0.0
 11
66.35000000000001
 21
-860.9429775445375
 31
0.0
  0
LWPOLYLINE
  5
3F0
330
A
100
AcDbEntity
  8
0
  6
Continuous
 62
     7
100
AcDbPolyline
 90
        5
 70
   128
 43
0.0
 10
66.34999999999995
 20
-844.9571191639897
 10
66.54181324352011
 20
-845.6407420353263
 10
66.597293191585
 20
-846.2315665951869
 10
66.50165832294162
 20
-846.6102009773612
 10
66.34999999999992
 20
-846.7955967950755
  0
LINE
  5
3F7
330
A
100
AcDbEntity
  8
0
  6
Continuous
 62
     7
100
AcDbLine
 10
66.34999999999994
 20
-839.8659503394469
 30
0.0
 11
66.34999999999995
 21
-844.9571191639897
 31
0.0
  0
LINE
  5
3F8
330
A
100
AcDbEntity
  8
0
  6
Continuous
 62
     7
100
AcDbLine
 10
73.34999999999995
 20
-844.9571191639897
 30
0.0
 11
73.34999999999992
 21
-839.8659503394469
 31
0.0
  0
LWPOLYLINE
  5
3F9
330
A
100
AcDbEntity
  8
0
  6
Continuous
 62
     7
100
AcDbPolyline
 90
        5
 70
   128
 43
0.0
 10
73.34999999999997
 20
-846.7955967950754
 10
73.15818675647983
 20
-846.5172117903666
 10
73.10270680841497
 20
-846.0310593309264
 10
73.19834167705839
 20
-845.4688053524112
 10
73.34999999999995
 20
-844.9571191639899
  0
LINE
  5
400
330
A
100
AcDbEntity
  8
0
  6
Continuous
 62
     7
100
AcDbLine
 10
73.34999999999999
 20
-860.9429775445377
 30
0.0
 11
73.34999999999997
 21
-846.7955967950754
 31
0.0
  0
LWPOLYLINE
  5
401
330
A
100
AcDbEntity
  8
0
  6
Continuous
 62
     7
100
AcDbPolyline
 90
        7
 70
   128
 43
0.0
 10
71.3499999999999
 20
-835.9025394054784
 10
71.35990040347462
 20
-835.8997026517062
 10
71.88100591290432
 20
-835.8099002496103
 10
72.47329297191257
 20
-835.8615177215902
 10
72.9409365802077
 20
-836.0725960855619
 10
73.2440650213671
 20
-836.4130551847662
 10
73.34999999999991
 20
-836.8460165653386
  0
LINE
  5
40A
330
A
100
AcDbEntity
  8
0
  6
Continuous
 62
     7
100
AcDbLine
 10
73.34999999999991
 20
-836.8460165653386
 30
0.0
 11
73.34999999999992
 21
-839.8659503394469
 31
0.0
  0
LINE
  5
40B
330
A
100
AcDbEntity
  8
0
  6
Continuous
 62
     7
100
AcDbLine
 10
66.34999999999994
 20
-839.8659503394469
 30
0.0
 11
66.34999999999992
 21
-836.8460165653388
 31
0.0
  0
LWPOLYLINE
  5
40C
330
A
100
AcDbEntity
  8
0
  6
Continuous
 62
     7
100
AcDbPolyline
 90
        7
 70
   128
 43
0.0
 10
66.34999999999992
 20
-836.8460165653388
 10
66.45593497863274
 20
-836.4130551847662
 10
66.75906341979214
 20
-836.0725960855621
 10
67.22670702808726
 20
-835.8615177215902
 10
67.81899408709548
 20
-835.8099002496105
 10
68.34009959652441
 20
-835.8997026517078
 10
68.34999999999992
 20
-835.9025394054784
  0
LWPOLYLINE
  5
415
330
A
100
AcDbEntity
  8
0
  6
Continuous
 62
     7
100
AcDbPolyline
 90
       13
 70
   128
 43
0.0
 10
70.43983841496606
 20
-854.6159038257
 10
70.44769394307519
 20
-854.5509792077737
 10
70.3088499388994
 20
-854.0136452604398
 10
70.21635217968508
 20
-853.8408609033494
 10
70.06571529431695
 20
-853.6583490720422
 10
69.9847198238698
 20
-853.6010655570008
 10
69.88731971789507
 20
-853.5674681411405
 10
69.81014514068312
 20
-853.5678597040913
 10
69.7373013906817
 20
-853.5901266636297
 10
69.63465137379315
 20
-853.658028447376
 10
69.48739119814195
 20
-853.8349915430112
 10
69.30007161758583
 20
-854.2684140308464
 10
69.26810672365796
 20
-854.6156367818099
  0
LINE
  5
424
330
A
100
AcDbEntity
  8
0
  6
Continuous
 62
     7
100
AcDbLine
 10
71.34999999999999
 20
-847.2655288953431
 30
0.0
 11
71.35000000000002
 21
-856.6546161918696
 31
0.0
  0
LINE
  5
425
330
A
100
AcDbEntity
  8
0
  6
Continuous
 62
     7
100
AcDbLine
 10
68.34999999999999
 20
-847.2655288953431
 30
0.0
 11
68.35000000000002
 21
-856.6546161918696
 31
0.0
  0
LWPOLYLINE
  5
426
330
A
100
AcDbEntity
  8
0
  6
Continuous
 62
     7
100
AcDbPolyline
 90
       12
 70
   128
 43
0.0
 10
69.26094968026532
 20
-1075.618087960395
 10
69.25225211995608
 20
-1075.700004465859
 10
69.42077638883003
 20
-1076.449903152714
 10
69.61411241266455
 20
-1076.78515933659
 10
69.71122398399711
 20
-1076.874101808028
 10
69.78571336299921
 20
-1076.910695468647
 10
69.8546776952828
 20
-1076.920610719146
 10
69.9231821245276
 20
-1076.907743708109
 10
70.00616927616073
 20
-1076.861646562066
 10
70.12228330340279
 20
-1076.739291996199
 10
70.32948941149578
 20
-1076.315152323887
 10
70.4410827659862
 20
-1075.610043676916
  0
LINE
  5
434
330
A
100
AcDbEntity
  8
0
  6
Continuous
 62
     7
100
AcDbLine
 10
68.34999999999999
 20
-847.0645386051248
 30
0.0
 11
68.34999999999999
 21
-847.2655288953431
 31
0.0
  0
LINE
  5
435
330
A
100
AcDbEntity
  8
0
  6
Continuous
 62
     7
100
AcDbLine
 10
71.34999999999999
 20
-847.0645386051248
 30
0.0
 11
71.34999999999999
 21
-847.2655288953431
 31
0.0
  0
LINE
  5
436
330
A
100
AcDbEntity
  8
0
  6
Continuous
 62
     7
100
AcDbLine
 10
65.85000000000078
 20
-1071.786701309261
 30
0.0
 11
65.85000000000082
 21
-1085.786701309261
 31
0.0
  0
LINE
  5
437
330
A
100
AcDbEntity
  8
0
  6
Continuous
 62
     7
100
AcDbLine
 10
73.85000000000077
 20
-1071.786701309261
 30
0.0
 11
73.85000000000083
 21
-1085.786701309261
 31
0.0
  0
LINE
  5
438
330
A
100
AcDbEntity
  8
0
  6
Continuous
 62
     7
100
AcDbLine
 10
74.85000000000002
 20
-856.2867013092615
 30
0.0
 11
74.8500000000001
 21
-876.2867013092616
 31
0.0
  0
LINE
  5
439
330
A
100
AcDbEntity
  8
0
  6
Continuous
 62
     7
100
AcDbLine
 10
79.85000000000002
 20
-856.2867013092615
 30
0.0
 11
79.8500000000001
 21
-876.2867013092616
 31
0.0
  0
LINE
  5
43A
330
A
100
AcDbEntity
  8
0
  6
Continuous
 62
     7
100
AcDbLine
 10
66.35000000000002
 20
-864.0715922010786
 30
0.0
 11
66.35000000000001
 21
-860.9429775445375
 31
0.0
  0
LINE
  5
43B
330
A
100
AcDbEntity
  8
0
  6
Continuous
 62
     7
100
AcDbLine
 10
73.35
 20
-860.9429775445377
 30
0.0
 11
73.35
 21
-864.0715922010786
 31
0.0
  0
LINE
  5
43C
330
A
100
AcDbEntity
  8
0
  6
Continuous
 62
     7
100
AcDbLine
 10
66.35000000000005
 20
-873.4357295217483
 30
0.0
 11
66.35000000000002
 21
-864.0715922010786
 31
0.0
  0
LINE
  5
43D
330
A
100
AcDbEntity
  8
0
  6
Continuous
 62
     7
100
AcDbLine
 10
73.35000000000004
 20
-873.4357295217481
 30
0.0
 11
73.35
 21
-864.0715922010786
 31
0.0
  0
LINE
  5
43E
330
A
100
AcDbEntity
  8
0
  6
Continuous
 62
     7
100
AcDbLine
 10
66.35000000000006
 20
-875.9792835813156
 30
0.0
 11
66.35000000000005
 21
-873.4357295217483
 31
0.0
  0
LINE
  5
43F
330
A
100
AcDbEntity
  8
0
  6
Continuous
 62
     7
100
AcDbLine
 10
73.35000000000004
 20
-873.4357295217481
 30
0.0
 11
73.35000000000005
 21
-875.9792835813154
 31
0.0
  0
LINE
  5
440
330
A
100
AcDbEntity
  8
0
  6
Continuous
 62
     7
100
AcDbLine
 10
74.85000000000076
 20
-1071.286701309261
 30
0.0
 11
70.45000000000076
 21
-1071.286701309261
 31
0.0
  0
LINE
  5
441
330
A
100
AcDbEntity
  8
0
  6
Continuous
 62
     7
100
AcDbLine
 10
69.25000000000078
 20
-1071.286701309261
 30
0.0
 11
64.85000000000077
 21
-1071.286701309261
 31
0.0
  0
LINE
  5
442
330
A
100
AcDbEntity
  8
0
  6
Continuous
 62
     7
100
AcDbLine
 10
74.85000000000013
 20
-891.2867013092617
 30
0.0
 11
70.45000000000013
 21
-891.2867013092617
 31
0.0
  0
LINE
  5
443
330
A
100
AcDbEntity
  8
0
  6
Continuous
 62
     7
100
AcDbLine
 10
69.25000000000015
 20
-891.2867013092617
 30
0.0
 11
64.85000000000015
 21
-891.2867013092617
 31
0.0
  0
LINE
  5
444
330
A
100
AcDbEntity
  8
0
  6
Continuous
 62
     7
100
AcDbLine
 10
64.85000000000005
 20
-861.2867013092614
 30
0.0
 11
64.85000000000008
 21
-871.2867013092616
 31
0.0
  0
LINE
  5
445
330
A
100
AcDbEntity
  8
0
  6
Continuous
 62
     7
100
AcDbLine
 10
66.35000000000012
 20
-891.2867013092617
 30
0.0
 11
66.35000000000006
 21
-875.9792835813156
 31
0.0
  0
LINE
  5
446
330
A
100
AcDbEntity
  8
0
  6
Continuous
 62
     7
100
AcDbLine
 10
73.35000000000005
 20
-875.9792835813154
 30
0.0
 11
73.35000000000011
 21
-891.2867013092617
 31
0.0
  0
LINE
  5
447
330
A
100
AcDbEntity
  8
0
  6
Continuous
 62
     7
100
AcDbLine
 10
73.35000000000083
 20
-1087.286701309261
 30
0.0
 11
66.35000000000082
 21
-1087.286701309261
 31
0.0
  0
LINE
  5
448
330
A
100
AcDbEntity
  8
0
  6
Continuous
 62
     7
100
AcDbLine
 10
69.51833752096445
 20
-833.6921926324595
 30
0.0
 11
70.18166247903542
 21
-833.6921926324595
 31
0.0
  0
LINE
  5
449
330
A
100
AcDbEntity
  8
0
  6
Continuous
 62
     7
100
AcDbLine
 10
70.18166247903542
 20
-833.6921926324595
 30
0.0
 11
70.21004855716815
 21
-833.7070657578486
 31
0.0
  0
LINE
  5
44A
330
A
100
AcDbEntity
  8
0
  6
Continuous
 62
     7
100
AcDbLine
 10
69.49595461427112
 20
-833.6986358594282
 30
0.0
 11
69.51833752096445
 21
-833.6921926324595
 31
0.0
  0
LINE
  5
44B
330
A
100
AcDbEntity
  8
0
  6
Continuous
 62
     7
100
AcDbLine
 10
66.34999999999992
 20
-836.8460165653388
 30
0.0
 11
66.3499999999999
 21
-833.6867013092614
 31
0.0
  0
LINE
  5
44C
330
A
100
AcDbEntity
  8
0
  6
Continuous
 62
     7
100
AcDbLine
 10
73.34999999999991
 20
-836.8057626469498
 30
0.0
 11
73.3499999999999
 21
-833.6867013092614
 31
0.0
  0
LINE
  5
44D
330
A
100
AcDbEntity
  8
0
  6
Continuous
 62
     7
100
AcDbLine
 10
74.84999999999994
 20
-834.1867013092615
 30
0.0
 11
74.84999999999998
 21
-844.1867013092615
 31
0.0
  0
LINE
  5
44E
330
A
100
AcDbEntity
  8
0
  6
Continuous
 62
     7
100
AcDbLine
 10
64.84999999999995
 20
-834.1867013092615
 30
0.0
 11
64.84999999999998
 21
-844.1867013092615
 31
0.0
  0
LWPOLYLINE
  5
44F
330
A
100
AcDbEntity
  8
0
  6
Continuous
 62
     7
100
AcDbPolyline
 90
        9
 70
   128
 43
0.0
 10
69.51833752096445
 20
-833.6921926324595
 10
69.59483584289865
 20
-833.6491966979263
 10
69.67679491924307
 20
-833.6178107066084
 10
69.76246074821048
 20
-833.5987063484184
 10
69.84999999999994
 20
-833.5922924746997
 10
69.93753925178939
 20
-833.5987063484184
 10
70.02320508075681
 20
-833.6178107066084
 10
70.10516415710124
 20
-833.6491966979263
 10
70.18166247903542
 20
-833.6921926324595
  0
LWPOLYLINE
  5
45A
330
A
100
AcDbEntity
  8
0
  6
Continuous
 62
     7
100
AcDbPolyline
 90
        5
 70
   128
 43
0.0
 10
70.06998088506691
 20
-823.6044987089004
 10
70.2373847468807
 20
-823.6995940009718
 10
70.38059818923304
 20
-823.8692327437897
 10
70.4497351913197
 20
-824.1199665280518
 10
70.44614443130028
 20
-824.1362954803959
  0
LWPOLYLINE
  5
461
330
A
100
AcDbEntity
  8
0
  6
Continuous
 62
     7
100
AcDbPolyline
 90
        5
 70
   128
 43
0.0
 10
69.26480651518784
 20
-824.1372420123912
 10
69.26546222674464
 20
-824.0075075240451
 10
69.38360488920186
 20
-823.7764401369778
 10
69.52459931919918
 20
-823.65592973466
 10
69.63001911493289
 20
-823.6044987089004
  0
LWPOLYLINE
  5
468
330
A
100
AcDbEntity
  8
0
  6
Continuous
 62
     7
100
AcDbPolyline
 90
        5
 70
   128
 43
0.0
 10
69.6300191149329
 20
-823.6044987089004
 10
69.75268117147983
 20
-823.5723290119253
 10
69.89841627497222
 20
-823.5666296100641
 10
70.03266887938067
 20
-823.5918620633068
 10
70.06998088506691
 20
-823.6044987089004
  0
ARC
  5
46F
330
A
100
AcDbEntity
  8
0
  6
Continuous
 62
     7
100
AcDbCircle
 10
69.84999999999998
 20
-844.1867013092615
 30
0.0
 40
5.0
100
AcDbArc
 50
345.5224878140712
 51
0.0
  0
ARC
  5
470
330
A
100
AcDbEntity
  8
0
  6
Continuous
 62
     7
100
AcDbCircle
 10
69.84999999999998
 20
-844.1867013092615
 30
0.0
 40
5.0
100
AcDbArc
 50
180.0000000000004
 51
194.477512185931
  0
LINE
  5
471
330
A
100
AcDbEntity
  8
0
  6
Continuous
 62
     7
100
AcDbLine
 10
73.34999999999997
 20
-850.6312595975355
 30
0.0
 11
74.69122918275926
 21
-845.4367013092614
 31
0.0
  0
LINE
  5
472
330
A
100
AcDbEntity
  8
0
  6
Continuous
 62
     7
100
AcDbLine
 10
65.00877081724071
 20
-845.4367013092614
 30
0.0
 11
66.34999999999997
 21
-850.6312595975353
 31
0.0
  0
LWPOLYLINE
  5
473
330
A
100
AcDbEntity
  8
0
  6
Continuous
 62
     7
100
AcDbPolyline
 90
       12
 70
   128
 43
0.0
 10
73.9499999999999
 20
-822.1237504053584
 10
73.92250233381711
 20
-822.491027183246
 10
73.7873963982899
 20
-823.127767989693
 10
73.55973979524183
 20
-823.8606472654309
 10
73.28339163671898
 20
-824.6924644211375
 10
73.12515862884097
 20
-825.3468823322808
 10
73.11818154980311
 20
-825.888065468014
 10
73.2454486291488
 20
-826.2125538960882
 10
73.46813716817519
 20
-826.380093404156
 10
73.74301233070079
 20
-826.3168783615235
 10
73.92569279520085
 20
-825.9461736119531
 10
73.94999999999992
 20
-825.659284311291
  0
LINE
  5
481
330
A
100
AcDbEntity
  8
0
  6
Continuous
 62
     7
100
AcDbLine
 10
73.94999999999992
 20
-825.659284311291
 30
0.0
 11
73.8499999999999
 21
-825.0228882082232
 31
0.0
  0
LINE
  5
482
330
A
100
AcDbEntity
  8
0
  6
Continuous
 62
     7
100
AcDbLine
 10
65.84999999999991
 20
-825.0228882082232
 30
0.0
 11
65.74999999999992
 21
-825.6592843112912
 31
0.0
  0
LWPOLYLINE
  5
483
330
A
100
AcDbEntity
  8
0
  6
Continuous
 62
     7
100
AcDbPolyline
 90
       12
 70
   128
 43
0.0
 10
65.74999999999992
 20
-825.6592843112912
 10
65.78189080736888
 20
-825.9829468063733
 10
65.92217890686805
 20
-826.2829407687009
 10
66.15395481405373
 20
-826.3914985399964
 10
66.42987220212685
 20
-826.2444606532545
 10
66.57945425883905
 20
-825.9010958667857
 10
66.57849724619656
 20
-825.3718400920785
 10
66.44680187052769
 20
-824.7935839618286
 10
66.22031988448736
 20
-824.0963751975494
 10
65.94588945856958
 20
-823.2468871566242
 10
65.77045138029768
 20
-822.4367767101449
 10
65.7499999999999
 20
-822.1237504053584
  0
LWPOLYLINE
  5
491
330
A
100
AcDbEntity
  8
0
  6
Continuous
 62
     7
100
AcDbPolyline
 90
        6
 70
   128
 43
0.0
 10
70.44999999999991
 20
-826.7594434382647
 10
70.61334693841063
 20
-826.7399644309961
 10
70.80104206912117
 20
-826.7115810972111
 10
70.98665290206593
 20
-826.6770173296247
 10
71.16977265372087
 20
-826.6363488779713
 10
71.3499999999999
 20
-826.5896648709711
  0
LWPOLYLINE
  5
499
330
A
100
AcDbEntity
  8
0
  6
Continuous
 62
     7
100
AcDbPolyline
 90
        6
 70
   128
 43
0.0
 10
68.34999999999992
 20
-826.5896648709711
 10
68.53022734627893
 20
-826.6363488779713
 10
68.71334709793387
 20
-826.6770173296247
 10
68.89895793087865
 20
-826.7115810972111
 10
69.08665306158919
 20
-826.7399644309961
 10
69.24999999999993
 20
-826.7594434382647
  0
LINE
  5
4A1
330
A
100
AcDbEntity
  8
0
  6
Continuous
 62
     7
100
AcDbLine
 10
68.34999999999992
 20
-826.7906551611897
 30
0.0
 11
68.34999999999993
 21
-833.6190822859359
 31
0.0
  0
LINE
  5
4A2
330
A
100
AcDbEntity
  8
0
  6
Continuous
 62
     7
100
AcDbLine
 10
71.3499999999999
 20
-826.7906551611897
 30
0.0
 11
71.34999999999994
 21
-833.6190822859357
 31
0.0
  0
LINE
  5
4A3
330
A
100
AcDbEntity
  8
0
  6
Continuous
 62
     7
100
AcDbLine
 10
71.3499999999999
 20
-826.5896648709711
 30
0.0
 11
71.3499999999999
 21
-826.7906551611897
 31
0.0
  0
LINE
  5
4A4
330
A
100
AcDbEntity
  8
0
  6
Continuous
 62
     7
100
AcDbLine
 10
68.34999999999992
 20
-826.5896648709711
 30
0.0
 11
68.34999999999992
 21
-826.7906551611897
 31
0.0
  0
LINE
  5
4A5
330
A
100
AcDbEntity
  8
0
  6
Continuous
 62
     7
100
AcDbLine
 10
73.8499999999999
 20
-822.8160508002995
 30
0.0
 11
73.8499999999999
 21
-826.3415173583249
 31
0.0
  0
LINE
  5
4A6
330
A
100
AcDbEntity
  8
0
  6
Continuous
 62
     7
100
AcDbLine
 10
65.84999999999991
 20
-822.7854248533775
 30
0.0
 11
65.84999999999992
 21
-826.3415173583249
 31
0.0
  0
LINE
  5
4A7
330
A
100
AcDbEntity
  8
0
  6
Continuous
 62
     7
100
AcDbLine
 10
78.84999999999995
 20
-834.1867013092606
 30
0.0
 11
78.85000000000002
 21
-854.1867013092605
 31
0.0
  0
LINE
  5
4A8
330
A
100
AcDbEntity
  8
0
  6
Continuous
 62
     7
100
AcDbLine
 10
83.84999999999996
 20
-834.1867013092606
 30
0.0
 11
83.85000000000003
 21
-854.1867013092605
 31
0.0
  0
LINE
  5
4A9
330
A
100
AcDbEntity
  8
0
  6
Continuous
 62
     7
100
AcDbLine
 10
63.84999999999995
 20
-835.9867013092605
 30
0.0
 11
63.85
 21
-852.3867013092607
 31
0.0
  0
LINE
  5
4AA
330
A
100
AcDbEntity
  8
0
  6
Continuous
 62
     7
100
AcDbLine
 10
75.84999999999995
 20
-835.9867013092605
 30
0.0
 11
75.85
 21
-852.3867013092605
 31
0.0
  0
ARC
  5
4AB
330
A
100
AcDbEntity
  8
0
  6
Continuous
 62
     7
100
AcDbCircle
 10
69.84999999999999
 20
-848.2867013092606
 30
0.0
 40
7.000000000000079
100
AcDbArc
 50
148.9972808661252
 51
180.0000000000004
  0
ARC
  5
4AC
330
A
100
AcDbEntity
  8
0
  6
Continuous
 62
     7
100
AcDbCircle
 10
69.84999999999999
 20
-848.2867013092606
 30
0.0
 40
6.999999999999984
100
AcDbArc
 50
328.9972808661273
 51
344.2507071322068
  0
ARC
  5
4AD
330
A
100
AcDbEntity
  8
0
  6
Continuous
 62
     7
100
AcDbCircle
 10
69.84999999999999
 20
-848.2867013092606
 30
0.0
 40
6.999999999999976
100
AcDbArc
 50
300.0000000000008
 51
324.1465329365344
  0
ARC
  5
4AE
330
A
100
AcDbEntity
  8
0
  6
Continuous
 62
     7
100
AcDbCircle
 10
69.84999999999999
 20
-848.2867013092606
 30
0.0
 40
6.999999999999991
100
AcDbArc
 50
215.853467063468
 51
240.0000000000007
  0
ARC
  5
4AF
330
A
100
AcDbEntity
  8
0
  6
Continuous
 62
     7
100
AcDbCircle
 10
69.84999999999999
 20
-848.2867013092606
 30
0.0
 40
7.000000000000007
100
AcDbArc
 50
180.0000000000004
 51
211.002719133875
  0
ARC
  5
4B0
330
A
100
AcDbEntity
  8
0
  6
PHANTOM
 62
     7
100
AcDbCircle
 10
69.84999999999999
 20
-848.2867013092569
 30
0.0
 40
12.88057611510204
100
AcDbArc
 50
285.7670578754513
 51
292.8413876989162
  0
ARC
  5
4B1
330
A
100
AcDbEntity
  8
0
  6
PHANTOM
 62
     7
100
AcDbCircle
 10
69.84999999999999
 20
-848.2867013092569
 30
0.0
 40
12.88057611510199
100
AcDbArc
 50
320.9287516396151
 51
332.7383902590266
  0
ARC
  5
4B2
330
A
100
AcDbEntity
  8
0
  6
PHANTOM
 62
     7
100
AcDbCircle
 10
69.84999999999999
 20
-848.2867013092569
 30
0.0
 40
12.88057611510192
100
AcDbArc
 50
51.63995456661576
 51
62.23684667974279
  0
ARC
  5
4B3
330
A
100
AcDbEntity
  8
0
  6
PHANTOM
 62
     7
100
AcDbCircle
 10
69.84999999999999
 20
-848.2867013092569
 30
0.0
 40
12.88057611510199
100
AcDbArc
 50
117.7631533202573
 51
254.2329421245504
  0
ARC
  5
4B4
330
A
100
AcDbEntity
  8
0
  6
PHANTOM
 62
     7
100
AcDbCircle
 10
69.84999999999999
 20
-848.2867013092569
 30
0.0
 40
13.86853598087127
100
AcDbArc
 50
49.53744320910264
 51
68.86735439999873
  0
ARC
  5
4B5
330
A
100
AcDbEntity
  8
0
  6
PHANTOM
 62
     7
100
AcDbCircle
 10
69.84999999999999
 20
-848.2867013092569
 30
0.0
 40
13.86853598087139
100
AcDbArc
 50
316.1417878958866
 51
334.8225325747801
  0
ARC
  5
4B6
330
A
100
AcDbEntity
  8
0
  6
PHANTOM
 62
     7
100
AcDbCircle
 10
69.84999999999999
 20
-848.2867013092569
 30
0.0
 40
13.86853598087137
100
AcDbArc
 50
290.3849304545166
 51
291.1326456000023
  0
ARC
  5
4B7
330
A
100
AcDbEntity
  8
0
  6
PHANTOM
 62
     7
100
AcDbCircle
 10
69.84999999999999
 20
-848.2867013092569
 30
0.0
 40
13.86853598087134
100
AcDbArc
 50
111.1326456000016
 51
249.6150695454853
  0
ARC
  5
4B8
330
A
100
AcDbEntity
  8
0
  6
PHANTOM
 62
     7
100
AcDbCircle
 10
69.84999999999999
 20
-848.2867013092569
 30
0.0
 40
19.73526235791229
100
AcDbArc
 50
300.4447473980069
 51
44.81468508623978
  0
ARC
  5
4B9
330
A
100
AcDbEntity
  8
0
  6
PHANTOM
 62
     7
100
AcDbCircle
 10
69.84999999999999
 20
-848.2867013092569
 30
0.0
 40
19.73526235791227
100
AcDbArc
 50
45.59873119482293
 51
78.00947324326701
  0
ARC
  5
4BA
330
A
100
AcDbEntity
  8
0
  6
PHANTOM
 62
     7
100
AcDbCircle
 10
69.84999999999999
 20
-848.2867013092569
 30
0.0
 40
19.73526235791234
100
AcDbArc
 50
101.9905267567333
 51
255.3239491984844
  0
ARC
  5
4BB
330
A
100
AcDbEntity
  8
0
  6
PHANTOM
 62
     7
100
AcDbCircle
 10
69.84999999999999
 20
-848.2867013092569
 30
0.0
 40
21.71118208945113
100
AcDbArc
 50
100.8852579145485
 51
256.6854965103004
  0
ARC
  5
4BC
330
A
100
AcDbEntity
  8
0
  6
PHANTOM
 62
     7
100
AcDbCircle
 10
69.84999999999999
 20
-848.2867013092569
 30
0.0
 40
21.71118208945111
100
AcDbArc
 50
297.4253243504123
 51
79.11474208545192
  0
ARC
  5
4BD
330
A
100
AcDbEntity
  8
0
  6
PHANTOM
 62
     7
100
AcDbCircle
 10
69.84999999999999
 20
-934.2867013092568
 30
0.0
 40
113.5000000000002
100
AcDbArc
 50
272.5248602468573
 51
87.92983422487173
  0
ARC
  5
4BE
330
A
100
AcDbEntity
  8
0
  6
PHANTOM
 62
     7
100
AcDbCircle
 10
69.84999999999999
 20
-934.2867013092568
 30
0.0
 40
113.5000000000002
100
AcDbArc
 50
92.07016577512836
 51
267.475139753145
  0
LINE
  5
4BF
330
A
100
AcDbEntity
  8
0
  6
PHANTOM
 62
     7
100
AcDbLine
 10
83.35000000000087
 20
-1116.036701309261
 30
0.0
 11
56.35000000000097
 21
-1116.036701309261
 31
0.0
  0
LWPOLYLINE
  5
4C0
330
A
100
AcDbEntity
  8
0
  6
PHANTOM
 62
     7
100
AcDbPolyline
 90
       15
 70
   128
 43
0.0
 10
69.85000000000124
 20
-1207.141257173008
 10
72.83055637544158
 20
-1206.980302603663
 10
75.76927227283087
 20
-1206.499698344965
 10
78.62489456271449
 20
-1205.706191027209
 10
81.35733656774371
 20
-1204.610919753747
 10
83.92824079175467
 20
-1203.229259732393
 10
86.30151737493379
 20
-1201.580606441212
 10
88.44385071633972
 20
-1199.688103358518
 10
90.32516715191169
 20
-1197.578317079176
 10
91.91905712279075
 20
-1195.280864377838
 10
93.20314590763567
 20
-1192.827996454352
 10
94.15940771466456
 20
-1190.254146197613
 10
94.77441872425844
 20
-1187.595444823275
 10
95.03954552996342
 20
-1184.889214670688
 10
95.04658414290942
 20
-1183.799658575229
  0
LWPOLYLINE
  5
4D1
330
A
100
AcDbEntity
  8
0
  6
PHANTOM
 62
     7
100
AcDbPolyline
 90
       14
 70
   128
 43
0.0
 10
44.66472014287478
 20
-1185.009489590845
 10
44.92558127574397
 20
-1187.595444823275
 10
45.54059228533794
 20
-1190.254146197614
 10
46.49685409236687
 20
-1192.827996454353
 10
47.78094287721184
 20
-1195.280864377838
 10
49.37483284809096
 20
-1197.578317079176
 10
51.25614928366297
 20
-1199.688103358518
 10
53.39848262506893
 20
-1201.580606441212
 10
55.77175920824811
 20
-1203.229259732393
 10
58.34266343225909
 20
-1204.610919753747
 10
61.07510543728833
 20
-1205.70619102721
 10
63.93072772717196
 20
-1206.499698344965
 10
66.86944362456127
 20
-1206.980302603663
 10
69.85000000000124
 20
-1207.141257173008
  0
LWPOLYLINE
  5
4E1
330
A
100
AcDbEntity
  8
0
  6
PHANTOM
 62
     7
100
AcDbPolyline
 90
       22
 70
   128
 43
0.0
 10
91.66689037795226
 20
-1176.56796464494
 10
91.57110101937284
 20
-1176.358965422205
 10
90.2766614917486
 20
-1173.993443742857
 10
88.67257459770168
 20
-1171.790600380936
 10
86.78315665942967
 20
-1169.783828196354
 10
84.63704932691021
 20
-1168.003547809838
 10
82.2667853996829
 20
-1166.476746457331
 10
79.70829566277052
 20
-1165.226568890999
 10
77.00036421260382
 20
-1164.271966528389
 10
74.18404052965401
 20
-1163.627410168249
 10
71.30201721015231
 20
-1163.302670627975
 10
68.39798278984955
 20
-1163.302670627975
 10
65.51595947034785
 20
-1163.627410168249
 10
62.69963578739806
 20
-1164.271966528389
 10
59.99170433723138
 20
-1165.226568890999
 10
57.43321460031903
 20
-1166.476746457331
 10
55.06295067309175
 20
-1168.003547809839
 10
52.91684334057233
 20
-1169.783828196354
 10
51.02742540230035
 20
-1171.790600380936
 10
49.42333850825349
 20
-1173.993443742857
 10
48.1288989806293
 20
-1176.358965422205
 10
47.77645002433761
 20
-1177.161306136188
  0
LWPOLYLINE
  5
4F9
330
A
100
AcDbEntity
  8
0
  6
PHANTOM
 62
     7
100
AcDbPolyline
 90
       51
 70
   128
 43
0.0
 10
69.85000000000124
 20
-1205.632908055369
 10
72.68290187942922
 20
-1205.470724676116
 10
75.47112720392504
 20
-1204.98673226713
 10
78.17070399451639
 20
-1204.188563677824
 10
80.73905831256656
 20
-1203.088806503656
 10
83.13568567621945
 20
-1201.704804572223
 10
85.32278984027446
 20
-1200.058384420749
 10
87.26587886555172
 20
-1198.175511078544
 10
88.9343090773775
 20
-1196.08587858299
 10
90.30176833463944
 20
-1193.822441686828
 10
91.34669098796988
 20
-1191.420896142021
 10
92.05259798291933
 20
-1188.919115756426
 10
92.40835674448902
 20
-1186.356555101214
 10
92.408356744489
 20
-1183.773627288716
 10
92.05259798291928
 20
-1181.211066633504
 10
91.3466909879698
 20
-1178.709286247909
 10
90.30176833463929
 20
-1176.307740703102
 10
88.93430907737736
 20
-1174.04430380694
 10
87.26587886555153
 20
-1171.954671311386
 10
85.32278984027422
 20
-1170.071797969181
 10
83.13568567621921
 20
-1168.425377817707
 10
80.73905831256629
 20
-1167.041375886274
 10
78.17070399451607
 20
-1165.941618712106
 10
75.47112720392473
 20
-1165.1434501228
 10
72.6829018794289
 20
-1164.659457713815
 10
69.85000000000093
 20
-1164.497274334561
 10
67.01709812057297
 20
-1164.659457713815
 10
64.22887279607713
 20
-1165.143450122801
 10
61.52929600548581
 20
-1165.941618712106
 10
58.96094168743563
 20
-1167.041375886275
 10
56.56431432378275
 20
-1168.425377817707
 10
54.37721015972776
 20
-1170.071797969182
 10
52.43412113445052
 20
-1171.954671311386
 10
50.76569092262475
 20
-1174.04430380694
 10
49.39823166536285
 20
-1176.307740703102
 10
48.35330901203241
 20
-1178.709286247909
 10
47.64740201708298
 20
-1181.211066633505
 10
47.29164325551333
 20
-1183.773627288717
 10
47.29164325551336
 20
-1186.356555101214
 10
47.64740201708312
 20
-1188.919115756426
 10
48.35330901203263
 20
-1191.420896142022
 10
49.39823166536314
 20
-1193.822441686828
 10
50.7656909226251
 20
-1196.085878582991
 10
52.43412113445094
 20
-1198.175511078544
 10
54.37721015972826
 20
-1200.058384420749
 10
56.56431432378329
 20
-1201.704804572224
 10
58.96094168743622
 20
-1203.088806503656
 10
61.52929600548643
 20
-1204.188563677824
 10
64.22887279607777
 20
-1204.98673226713
 10
67.01709812057362
 20
-1205.470724676116
 10
69.85000000000124
 20
-1205.632908055369
  0
LWPOLYLINE
  5
52E
330
A
100
AcDbEntity
  8
0
  6
PHANTOM
 62
     7
100
AcDbPolyline
 90
       37
 70
   128
 43
0.0
 10
69.85000000000143
 20
-1259.104738078064
 10
74.21531135288382
 20
-1258.944661300453
 10
78.55231198653491
 20
-1258.465469126951
 10
82.83287478760142
 20
-1257.670269302683
 10
87.02923866373131
 20
-1256.564219003653
 10
91.11418858491049
 20
-1255.154491390476
 10
95.06123208337585
 20
-1253.450229087682
 10
98.8447710674346
 20
-1251.462484890283
 10
102.4402678349117
 20
-1249.20415008216
 10
105.8244042095645
 20
-1246.689870831137
 10
108.9752327684033
 20
-1243.935953202966
 10
111.8723191791516
 20
-1240.96025741023
 10
114.4968747247322
 20
-1237.782081982015
 10
116.831878155307
 20
-1234.422038605537
 10
118.8621860776145
 20
-1230.901918451449
 10
120.574631165685
 20
-1227.244550849731
 10
121.9581075560032
 20
-1223.473655232727
 10
123.0036428732942
 20
-1219.613687305526
 10
123.7044564198206
 20
-1215.689680441327
 10
124.0560031508088
 20
-1211.72708333041
 10
124.0560031508087
 20
-1207.751594935612
 10
123.7044564198205
 20
-1203.788997824694
 10
123.003642873294
 20
-1199.864990960496
 10
121.9581075560029
 20
-1196.005023033294
 10
120.5746311656847
 20
-1192.234127416291
 10
118.8621860776142
 20
-1188.576759814573
 10
116.8318781553067
 20
-1185.056639660484
 10
114.4968747247317
 20
-1181.696596284007
 10
111.8723191791511
 20
-1178.518420855791
 10
108.9752327684027
 20
-1175.542725063056
 10
105.8244042095639
 20
-1172.788807434885
 10
102.4402678349111
 20
-1170.274528183862
 10
98.84477106743396
 20
-1168.016193375739
 10
95.06123208337518
 20
-1166.02844917834
 10
91.1141885849098
 20
-1164.324186875546
 10
87.0292386637306
 20
-1162.91445926237
 10
86.85000000000101
 20
-1162.860323749632
  0
LWPOLYLINE
  5
555
330
A
100
AcDbEntity
  8
0
  6
PHANTOM
 62
     7
100
AcDbPolyline
 90
       37
 70
   128
 43
0.0
 10
52.85000000000116
 20
-1162.860323749632
 10
52.67076133627087
 20
-1162.91445926237
 10
48.58581141509169
 20
-1164.324186875546
 10
44.63876791662635
 20
-1166.02844917834
 10
40.85522893256761
 20
-1168.016193375739
 10
37.2597321650905
 20
-1170.274528183862
 10
33.87559579043776
 20
-1172.788807434886
 10
30.72476723159901
 20
-1175.542725063057
 10
27.82768082085074
 20
-1178.518420855792
 10
25.20312527527019
 20
-1181.696596284008
 10
22.8681218446953
 20
-1185.056639660486
 10
20.83781392238791
 20
-1188.576759814574
 10
19.12536883431745
 20
-1192.234127416292
 10
17.74189244399932
 20
-1196.005023033295
 10
16.6963571267083
 20
-1199.864990960497
 10
15.99554358018195
 20
-1203.788997824695
 10
15.64399684919378
 20
-1207.751594935613
 10
15.64399684919385
 20
-1211.727083330411
 10
15.99554358018213
 20
-1215.689680441328
 10
16.6963571267086
 20
-1219.613687305527
 10
17.74189244399973
 20
-1223.473655232728
 10
19.12536883431798
 20
-1227.244550849732
 10
20.83781392238856
 20
-1230.90191845145
 10
22.86812184469606
 20
-1234.422038605538
 10
25.20312527527105
 20
-1237.782081982016
 10
27.8276808208517
 20
-1240.960257410231
 10
30.72476723160006
 20
-1243.935953202967
 10
33.8755957904389
 20
-1246.689870831138
 10
37.25973216509173
 20
-1249.20415008216
 10
40.8552289325689
 20
-1251.462484890284
 10
44.63876791662769
 20
-1253.450229087683
 10
48.58581141509309
 20
-1255.154491390477
 10
52.6707613362723
 20
-1256.564219003653
 10
56.86712521240218
 20
-1257.670269302683
 10
61.1476880134687
 20
-1258.465469126951
 10
65.48468864711981
 20
-1258.944661300453
 10
69.85000000000143
 20
-1259.104738078064
  0
LWPOLYLINE
  5
57C
330
A
100
AcDbEntity
  8
0
  6
PHANTOM
 62
     7
100
AcDbPolyline
 90
        9
 70
   128
 43
0.0
 10
68.34999999999992
 20
-837.981000374561
 10
68.66997297981012
 20
-838.1700891139232
 10
69.03647589952925
 20
-838.3107436914405
 10
69.43505709106905
 20
-838.3974179213666
 10
69.84999999999992
 20
-838.4266941305114
 10
70.2649429089308
 20
-838.3974179213666
 10
70.66352410047059
 20
-838.3107436914405
 10
71.03002702018972
 20
-838.1700891139232
 10
71.3499999999999
 20
-837.9810003745612
  0
LWPOLYLINE
  5
587
330
A
100
AcDbEntity
  8
0
  6
PHANTOM
 62
     7
100
AcDbPolyline
 90
        9
 70
   128
 43
0.0
 10
73.34999999999992
 20
-839.8659503394469
 10
72.69598233163683
 20
-840.4428931974477
 10
71.85683779032256
 20
-840.8840857133123
 10
70.88715146717337
 20
-841.1608289770287
 10
69.84999999999986
 20
-841.2551212552576
 10
68.81284853282638
 20
-841.1608289770287
 10
67.84316220967721
 20
-840.8840857133121
 10
67.00401766836297
 20
-840.4428931974477
 10
66.34999999999994
 20
-839.8659503394469
  0
LINE
  5
592
330
A
100
AcDbEntity
  8
0
  6
PHANTOM
 62
     7
100
AcDbLine
 10
68.34999999999992
 20
-835.9025394054784
 30
0.0
 11
68.34999999999992
 21
-837.981000374561
 31
0.0
  0
LWPOLYLINE
  5
593
330
A
100
AcDbEntity
  8
0
  6
PHANTOM
 62
     7
100
AcDbPolyline
 90
        9
 70
   128
 43
0.0
 10
71.3499999999999
 20
-835.9025394054784
 10
71.0300270201897
 20
-835.7134506661161
 10
70.66352410047056
 20
-835.5727960885987
 10
70.26494290893078
 20
-835.4861218586728
 10
69.84999999999991
 20
-835.4568456495279
 10
69.43505709106905
 20
-835.4861218586728
 10
69.03647589952926
 20
-835.5727960885987
 10
68.66997297981012
 20
-835.7134506661161
 10
68.34999999999992
 20
-835.9025394054784
  0
LINE
  5
59E
330
A
100
AcDbEntity
  8
0
  6
PHANTOM
 62
     7
100
AcDbLine
 10
71.3499999999999
 20
-837.9810003745612
 30
0.0
 11
71.3499999999999
 21
-835.9025394054784
 31
0.0
  0
LWPOLYLINE
  5
59F
330
A
100
AcDbEntity
  8
0
  6
PHANTOM
 62
     7
100
AcDbPolyline
 90
        5
 70
   128
 43
0.0
 10
66.35000000000001
 20
-860.9429775445375
 10
66.37245264035481
 20
-860.9813582031073
 10
67.19730057516703
 20
-862.0782920277171
 10
68.43342545820188
 20
-863.0377139040609
 10
69.25000000000006
 20
-863.2916266297506
  0
LWPOLYLINE
  5
5A6
330
A
100
AcDbEntity
  8
0
  6
PHANTOM
 62
     7
100
AcDbPolyline
 90
        6
 70
   128
 43
0.0
 10
70.45000000000005
 20
-863.299577866973
 10
70.78542985768295
 20
-863.245633128878
 10
71.00338984706642
 20
-863.162206817258
 10
72.07397040404952
 20
-862.486146615482
 10
73.03692745751838
 20
-861.4281213010524
 10
73.35000000000002
 20
-860.9429775445377
  0
LINE
  5
5AE
330
A
100
AcDbEntity
  8
0
  6
PHANTOM
 62
     7
100
AcDbLine
 10
69.84999999999999
 20
-847.2655288953431
 30
0.0
 11
68.34999999999999
 21
-847.2655288953431
 31
0.0
  0
LINE
  5
5AF
330
A
100
AcDbEntity
  8
0
  6
PHANTOM
 62
     7
100
AcDbLine
 10
71.34999999999999
 20
-847.2655288953431
 30
0.0
 11
69.84999999999999
 21
-847.2655288953431
 31
0.0
  0
LWPOLYLINE
  5
5B0
330
A
100
AcDbEntity
  8
0
  6
PHANTOM
 62
     7
100
AcDbPolyline
 90
        4
 70
   128
 43
0.0
 10
73.35
 20
-864.0715922010786
 10
73.15883401578097
 20
-864.1864770242161
 10
71.56601904075735
 20
-864.8658558780091
 10
70.45000000000005
 20
-865.015465010922
  0
LWPOLYLINE
  5
5B6
330
A
100
AcDbEntity
  8
0
  6
PHANTOM
 62
     7
100
AcDbPolyline
 90
        3
 70
   128
 43
0.0
 10
69.25000000000006
 20
-865.0550509238213
 10
67.74241348659304
 20
-864.7416717808811
 10
66.35000000000002
 20
-864.0715922010786
  0
LWPOLYLINE
  5
5BB
330
A
100
AcDbEntity
  8
0
  6
PHANTOM
 62
     7
100
AcDbPolyline
 90
        4
 70
   128
 43
0.0
 10
66.35000000000004
 20
-873.4357295217481
 10
66.37569532218447
 20
-873.4276245483947
 10
67.96075596590696
 20
-873.031945479966
 10
69.25000000000008
 20
-872.9087262699076
  0
LWPOLYLINE
  5
5C1
330
A
100
AcDbEntity
  8
0
  6
PHANTOM
 62
     7
100
AcDbPolyline
 90
        3
 70
   128
 43
0.0
 10
70.45000000000007
 20
-872.9148018460946
 10
71.61658492489817
 20
-873.010428634417
 10
73.35000000000007
 20
-873.4357295217481
  0
LWPOLYLINE
  5
5C6
330
A
100
AcDbEntity
  8
0
  6
PHANTOM
 62
     7
100
AcDbPolyline
 90
        5
 70
   128
 43
0.0
 10
73.35000000000005
 20
-875.9792835813154
 10
73.22120363062416
 20
-875.8776959574777
 10
72.33238515176387
 20
-875.2572364040963
 10
71.03737675280044
 20
-874.6503621283572
 10
70.45000000000008
 20
-874.5488083282339
  0
LWPOLYLINE
  5
5CD
330
A
100
AcDbEntity
  8
0
  6
PHANTOM
 62
     7
100
AcDbPolyline
 90
        6
 70
   128
 43
0.0
 10
69.2500000000001
 20
-874.5435958829409
 10
68.79086605814295
 20
-874.6121500808326
 10
68.58018023938011
 20
-874.6771269850158
 10
67.51481160999287
 20
-875.1693131433052
 10
66.56493037322386
 20
-875.8113048610013
 10
66.34999999999971
 20
-875.9792835813156
  0
LWPOLYLINE
  5
5D5
330
A
100
AcDbEntity
  8
0
  6
PHANTOM
 62
     7
100
AcDbPolyline
 90
        7
 70
   128
 43
0.0
 10
69.6300191149329
 20
-823.6044987089004
 10
68.45272425632026
 20
-823.435121229509
 10
67.39540731025383
 20
-823.0317098261462
 10
66.54885542498445
 20
-822.4289036588285
 10
65.98575828149751
 20
-821.6784630375389
 10
65.75446655083407
 20
-820.8448249924341
 10
65.750026671109
 20
-820.6990797309735
  0
LWPOLYLINE
  5
5DE
330
A
100
AcDbEntity
  8
0
  6
PHANTOM
 62
     7
100
AcDbPolyline
 90
        7
 70
   128
 43
0.0
 10
73.94997218595134
 20
-820.6988580222498
 10
73.94553344916572
 20
-820.8448249924341
 10
73.71424171850226
 20
-821.6784630375389
 10
73.15114457501532
 20
-822.4289036588285
 10
72.30459268974596
 20
-823.0317098261462
 10
71.24727574367951
 20
-823.435121229509
 10
70.06998088506691
 20
-823.6044987089004
  0
LWPOLYLINE
  5
5E7
330
A
100
AcDbEntity
  8
0
  6
PHANTOM
 62
     7
100
AcDbPolyline
 90
       17
 70
   128
 43
0.0
 10
69.84999999999989
 20
-820.7802475211039
 10
70.65363520796658
 20
-820.6672143937323
 10
71.33492424049165
 20
-820.3453232806122
 10
71.79014701827359
 20
-819.8635791857658
 10
71.94999999999989
 20
-819.2953232806122
 10
71.79014701827357
 20
-818.7270673754587
 10
71.33492424049162
 20
-818.2453232806121
 10
70.65363520796657
 20
-817.923432167492
 10
69.84999999999986
 20
-817.8103990401204
 10
69.04636479203318
 20
-817.923432167492
 10
68.36507575950813
 20
-818.2453232806121
 10
67.90985298172619
 20
-818.7270673754587
 10
67.7499999999999
 20
-819.2953232806122
 10
67.9098529817262
 20
-819.8635791857658
 10
68.36507575950817
 20
-820.3453232806122
 10
69.04636479203325
 20
-820.6672143937323
 10
69.84999999999989
 20
-820.7802475211039
  0
LINE
  5
5FA
330
A
100
AcDbEntity
  8
0
  6
PHANTOM
 62
     7
100
AcDbLine
 10
69.24999999999993
 20
-826.7906551611897
 30
0.0
 11
68.34999999999992
 21
-826.7906551611897
 31
0.0
  0
LINE
  5
5FB
330
A
100
AcDbEntity
  8
0
  6
PHANTOM
 62
     7
100
AcDbLine
 10
71.3499999999999
 20
-826.7906551611897
 30
0.0
 11
70.44999999999991
 21
-826.7906551611897
 31
0.0
  0
LINE
  5
5FC
330
A
100
AcDbEntity
  8
0
  6
PHANTOM
 62
     7
100
AcDbLine
 10
65.74999999999992
 20
-825.6592843112912
 30
0.0
 11
65.84999999999992
 21
-825.659284311291
 31
0.0
  0
LINE
  5
5FD
330
A
100
AcDbEntity
  8
0
  6
PHANTOM
 62
     7
100
AcDbLine
 10
73.8499999999999
 20
-825.659284311291
 30
0.0
 11
73.94999999999992
 21
-825.659284311291
 31
0.0
  0
LINE
  5
5FE
330
A
100
AcDbEntity
  8
0
  6
Continuous
 62
     7
100
AcDbLine
 10
423.155495877388
 20
-481.5319481876575
 30
0.0
 11
423.155495877388
 21
518.4680518123424
 31
0.0
  0
LINE
  5
5FF
330
A
100
AcDbEntity
  8
0
  6
Continuous
 62
     7
100
AcDbLine
 10
403.155495877388
 20
518.4680518123424
 30
0.0
 11
403.155495877388
 21
-481.5319481876575
 31
0.0
  0
ARC
  5
600
330
A
100
AcDbEntity
  8
0
  6
Continuous
 62
     7
100
AcDbCircle
 10
385.655495877388
 20
-523.0319481876576
 30
0.0
 40
1.500000000000113
100
AcDbArc
 50
90.0
 51
180.0000000000004
  0
ARC
  5
601
330
A
100
AcDbEntity
  8
0
  6
Continuous
 62
     7
100
AcDbCircle
 10
612.655495877388
 20
-523.0319481876576
 30
0.0
 40
1.500000000000113
100
AcDbArc
 50
0.0
 51
90.0
  0
LINE
  5
602
330
A
100
AcDbEntity
  8
0
  6
Continuous
 62
     7
100
AcDbLine
 10
614.155495877388
 20
-532.0319481876577
 30
0.0
 11
614.155495877388
 21
-523.0319481876576
 31
0.0
  0
LINE
  5
603
330
A
100
AcDbEntity
  8
0
  6
Continuous
 62
     7
100
AcDbLine
 10
384.1554958773881
 20
-523.0319481876576
 30
0.0
 11
384.1554958773881
 21
-532.0319481876577
 31
0.0
  0
ARC
  5
604
330
A
100
AcDbEntity
  8
0
  6
Continuous
 62
     7
100
AcDbCircle
 10
385.155495877388
 20
-532.0319481876577
 30
0.0
 40
1.0
100
AcDbArc
 50
180.0000000000004
 51
270.0000000000008
  0
ARC
  5
605
330
A
100
AcDbEntity
  8
0
  6
Continuous
 62
     7
100
AcDbCircle
 10
613.155495877388
 20
-532.0319481876577
 30
0.0
 40
1.0
100
AcDbArc
 50
270.0000000000008
 51
0.0
  0
LINE
  5
606
330
A
100
AcDbEntity
  8
0
  6
Continuous
 62
     7
100
AcDbLine
 10
453.9036821618958
 20
-535.5319481876575
 30
0.0
 11
453.9036821618958
 21
-533.0319481876577
 31
0.0
  0
LINE
  5
607
330
A
100
AcDbEntity
  8
0
  6
Continuous
 62
     7
100
AcDbLine
 10
433.9036821618957
 20
-533.0319481876577
 30
0.0
 11
433.9036821618957
 21
-535.5319481876575
 31
0.0
  0
LINE
  5
608
330
A
100
AcDbEntity
  8
0
  6
Continuous
 62
     7
100
AcDbLine
 10
564.4073095928807
 20
-535.5319481876575
 30
0.0
 11
564.4073095928807
 21
-533.0319481876577
 31
0.0
  0
LINE
  5
609
330
A
100
AcDbEntity
  8
0
  6
Continuous
 62
     7
100
AcDbLine
 10
544.4073095928807
 20
-533.0319481876577
 30
0.0
 11
544.4073095928807
 21
-535.5319481876575
 31
0.0
  0
ARC
  5
60A
330
A
100
AcDbEntity
  8
0
  6
Continuous
 62
     7
100
AcDbCircle
 10
391.444313787937
 20
-519.5319481876575
 30
0.0
 40
2.0
100
AcDbArc
 50
270.0000000000008
 51
351.0999999999934
  0
ARC
  5
60B
330
A
100
AcDbEntity
  8
0
  6
Continuous
 62
     7
100
AcDbCircle
 10
434.866677966839
 20
-519.5319481876575
 30
0.0
 40
2.0
100
AcDbArc
 50
188.9000000000082
 51
270.0000000000008
  0
LINE
  5
60C
330
A
100
AcDbEntity
  8
0
  6
Continuous
 62
     7
100
AcDbLine
 10
432.8907582353003
 20
-519.8413689602565
 30
0.0
 11
427.0240318582593
 21
-482.3772378013581
 31
0.0
  0
LINE
  5
60D
330
A
100
AcDbEntity
  8
0
  6
Continuous
 62
     7
100
AcDbLine
 10
399.2869598965167
 20
-482.3772378013581
 30
0.0
 11
393.4202335194758
 21
-519.8413689602565
 31
0.0
  0
ARC
  5
60E
330
A
100
AcDbEntity
  8
0
  6
Continuous
 62
     7
100
AcDbCircle
 10
400.274919762286
 20
-482.5319481876575
 30
0.0
 40
1.0
100
AcDbArc
 50
90.0
 51
171.0999999999925
  0
ARC
  5
60F
330
A
100
AcDbEntity
  8
0
  6
Continuous
 62
     7
100
AcDbCircle
 10
426.03607199249
 20
-482.5319481876575
 30
0.0
 40
1.0
100
AcDbArc
 50
8.900000000007405
 51
90.0
  0
LINE
  5
610
330
A
100
AcDbEntity
  8
0
  6
Continuous
 62
     7
100
AcDbLine
 10
419.7561833456434
 20
-535.5319481876575
 30
0.0
 11
419.7561833456434
 21
-533.0319481876577
 31
0.0
  0
LINE
  5
611
330
A
100
AcDbEntity
  8
0
  6
Continuous
 62
     7
100
AcDbLine
 10
399.7561833456435
 20
-533.0319481876577
 30
0.0
 11
399.7561833456435
 21
-535.5319481876575
 31
0.0
  0
LINE
  5
612
330
A
100
AcDbEntity
  8
0
  6
Continuous
 62
     7
100
AcDbLine
 10
598.5548084091322
 20
-535.5319481876575
 30
0.0
 11
598.5548084091322
 21
-533.0319481876577
 31
0.0
  0
LINE
  5
613
330
A
100
AcDbEntity
  8
0
  6
Continuous
 62
     7
100
AcDbLine
 10
578.5548084091324
 20
-533.0319481876577
 30
0.0
 11
578.5548084091324
 21
-535.5319481876575
 31
0.0
  0
LINE
  5
614
330
A
100
AcDbEntity
  8
0
  6
Continuous
 62
     7
100
AcDbLine
 10
509.1554958773877
 20
-535.5319481876575
 30
0.0
 11
509.1554958773877
 21
-533.0319481876577
 31
0.0
  0
LINE
  5
615
330
A
100
AcDbEntity
  8
0
  6
Continuous
 62
     7
100
AcDbLine
 10
489.1554958773877
 20
-533.0319481876577
 30
0.0
 11
489.1554958773877
 21
-535.5319481876575
 31
0.0
  0
LINE
  5
616
330
A
100
AcDbEntity
  8
0
  6
Continuous
 62
     7
100
AcDbLine
 10
728.0591030116969
 20
767.6690483131213
 30
0.0
 11
750.3222326710223
 21
718.8170688867709
 31
0.0
  0
LINE
  5
617
330
A
100
AcDbEntity
  8
0
  6
Continuous
 62
     7
100
AcDbLine
 10
752.1421552127756
 20
719.6464553720834
 30
0.0
 11
729.8790255534502
 21
768.4984347984339
 31
0.0
  0
ARC
  5
618
330
A
100
AcDbEntity
  8
0
  6
Continuous
 62
     7
100
AcDbCircle
 10
753.1249456672995
 20
715.0784975272187
 30
0.0
 40
1.000000000000063
100
AcDbArc
 50
204.5000000000038
 51
24.50000000000299
  0
LINE
  5
619
330
A
100
AcDbEntity
  8
0
  6
Continuous
 62
     7
100
AcDbLine
 10
754.034906938176
 20
715.493190769875
 30
0.0
 11
752.1421552127756
 21
719.6464553720834
 31
0.0
  0
LINE
  5
61A
330
A
100
AcDbEntity
  8
0
  6
Continuous
 62
     7
100
AcDbLine
 10
750.3222326710223
 20
718.8170688867709
 30
0.0
 11
752.2149843964228
 21
714.6638042845624
 31
0.0
  0
ARC
  5
61B
330
A
100
AcDbEntity
  8
0
  6
Continuous
 62
     7
100
AcDbCircle
 10
723.655495877388
 20
831.5680518123425
 30
0.0
 40
0.6249999999998864
100
AcDbArc
 50
0.0
 51
180.0000000000004
  0
ARC
  5
61C
330
A
100
AcDbEntity
  8
0
  6
Continuous
 62
     7
100
AcDbCircle
 10
723.655495877388
 20
797.5680518123425
 30
0.0
 40
0.6249999999998864
100
AcDbArc
 50
180.0000000000004
 51
0.0
  0
LINE
  5
61D
330
A
100
AcDbEntity
  8
0
  6
Continuous
 62
     7
100
AcDbLine
 10
723.0304958773882
 20
831.5680518123425
 30
0.0
 11
723.0304958773882
 21
797.5680518123425
 31
0.0
  0
LINE
  5
61E
330
A
100
AcDbEntity
  8
0
  6
Continuous
 62
     7
100
AcDbLine
 10
726.1296483917207
 20
831.5680518123425
 30
0.0
 11
724.2804958773879
 21
831.5680518123425
 31
0.0
  0
LINE
  5
61F
330
A
100
AcDbEntity
  8
0
  6
Continuous
 62
     7
100
AcDbLine
 10
724.2804958773879
 20
797.5680518123425
 30
0.0
 11
726.0425526244006
 21
797.5680518123425
 31
0.0
  0
LINE
  5
620
330
A
100
AcDbEntity
  8
0
  6
Continuous
 62
     7
100
AcDbLine
 10
708.655495877388
 20
831.0680518123424
 30
0.0
 11
693.655495877388
 21
831.0680518123424
 31
0.0
  0
LINE
  5
621
330
A
100
AcDbEntity
  8
0
  6
Continuous
 62
     7
100
AcDbLine
 10
693.655495877388
 20
798.0680518123425
 30
0.0
 11
708.655495877388
 21
798.0680518123425
 31
0.0
  0
ARC
  5
622
330
A
100
AcDbEntity
  8
0
  6
Continuous
 62
     7
100
AcDbCircle
 10
680.9054958773881
 20
822.0680518123426
 30
0.0
 40
6.0
100
AcDbArc
 50
90.0
 51
180.0000000000004
  0
ARC
  5
623
330
A
100
AcDbEntity
  8
0
  6
Continuous
 62
     7
100
AcDbCircle
 10
680.9054958773881
 20
807.0680518123424
 30
0.0
 40
6.0
100
AcDbArc
 50
180.0000000000004
 51
270.0000000000008
  0
LINE
  5
624
330
A
100
AcDbEntity
  8
0
  6
Continuous
 62
     7
100
AcDbLine
 10
693.6554958773881
 20
828.0680518123423
 30
0.0
 11
680.9054958773881
 21
828.0680518123423
 31
0.0
  0
LINE
  5
625
330
A
100
AcDbEntity
  8
0
  6
Continuous
 62
     7
100
AcDbLine
 10
680.9054958773881
 20
801.0680518123427
 30
0.0
 11
693.6554958773881
 21
801.0680518123427
 31
0.0
  0
LINE
  5
626
330
A
100
AcDbEntity
  8
0
  6
Continuous
 62
     7
100
AcDbLine
 10
723.0304958773883
 20
828.0680518123423
 30
0.0
 11
708.655495877388
 21
828.0680518123423
 31
0.0
  0
LINE
  5
627
330
A
100
AcDbEntity
  8
0
  6
Continuous
 62
     7
100
AcDbLine
 10
708.655495877388
 20
801.0680518123427
 30
0.0
 11
723.0304958773883
 21
801.0680518123427
 31
0.0
  0
LINE
  5
628
330
A
100
AcDbEntity
  8
0
  6
Continuous
 62
     7
100
AcDbLine
 10
674.9054958773881
 20
821.0680518123425
 30
0.0
 11
664.9054958773881
 21
821.0680518123425
 31
0.0
  0
LINE
  5
629
330
A
100
AcDbEntity
  8
0
  6
Continuous
 62
     7
100
AcDbLine
 10
664.9054958773881
 20
808.0680518123426
 30
0.0
 11
674.9054958773881
 21
808.0680518123426
 31
0.0
  0
ARC
  5
62A
330
A
100
AcDbEntity
  8
0
  6
Continuous
 62
     7
100
AcDbCircle
 10
725.9684479307336
 20
768.6394406731706
 30
0.0
 40
1.749999999999961
100
AcDbArc
 50
114.499999999999
 51
294.500000000004
  0
ARC
  5
62B
330
A
100
AcDbEntity
  8
0
  6
Continuous
 62
     7
100
AcDbCircle
 10
824.6992458208387
 20
813.6336575013721
 30
0.0
 40
1.749999999999961
100
AcDbArc
 50
294.500000000004
 51
114.499999999999
  0
LINE
  5
62C
330
A
100
AcDbEntity
  8
0
  6
Continuous
 62
     7
100
AcDbLine
 10
823.2428872728101
 20
814.8931154452734
 30
0.0
 11
772.0100517411346
 21
859.1992389519406
 31
0.0
  0
LINE
  5
62D
330
A
100
AcDbEntity
  8
0
  6
Continuous
 62
     7
100
AcDbLine
 10
726.1468885877924
 20
838.2981913411882
 30
0.0
 11
726.1296483917207
 21
831.5680518123425
 31
0.0
  0
LINE
  5
62E
330
A
100
AcDbEntity
  8
0
  6
Continuous
 62
     7
100
AcDbLine
 10
726.0425526244006
 20
797.5680518123425
 30
0.0
 11
725.9733801294657
 21
770.5648471773373
 31
0.0
  0
ARC
  5
62F
330
A
100
AcDbEntity
  8
0
  6
Continuous
 62
     7
100
AcDbCircle
 10
726.8968861270541
 20
838.2962701173303
 30
0.0
 40
0.7500000000000497
100
AcDbArc
 50
114.4999999999981
 51
179.8532291443297
  0
ARC
  5
630
330
A
100
AcDbEntity
  8
0
  6
Continuous
 62
     7
100
AcDbCircle
 10
771.5194590498323
 20
858.6319481876575
 30
0.0
 40
0.7500000000000944
100
AcDbArc
 50
49.14677085191982
 51
114.4999999999966
  0
LINE
  5
631
330
A
100
AcDbEntity
  8
0
  6
Continuous
 62
     7
100
AcDbLine
 10
771.2084391178401
 20
859.314419140815
 30
0.0
 11
726.5858661950619
 21
838.9787410704878
 31
0.0
  0
LINE
  5
632
330
A
100
AcDbEntity
  8
0
  6
Continuous
 62
     7
100
AcDbLine
 10
404.055495877388
 20
787.4680518123422
 30
0.0
 11
404.055495877388
 21
587.4680518123424
 31
0.0
  0
LINE
  5
633
330
A
100
AcDbEntity
  8
0
  6
Continuous
 62
     7
100
AcDbLine
 10
636.155495877388
 20
819.5680518123426
 30
0.0
 11
456.155495877388
 21
819.5680518123426
 31
0.0
  0
ARC
  5
634
330
A
100
AcDbEntity
  8
0
  6
Continuous
 62
     7
100
AcDbCircle
 10
403.155495877388
 20
536.8259161886114
 30
0.0
 40
14.09999999999999
100
AcDbArc
 50
0.0
 51
15.39818744479745
  0
LINE
  5
635
330
A
100
AcDbEntity
  8
0
  6
Continuous
 62
     7
100
AcDbLine
 10
387.6289410765537
 20
560.6963310074469
 30
0.0
 11
401.5401409566845
 21
546.7851311273163
 31
0.0
  0
LINE
  5
636
330
A
100
AcDbEntity
  8
0
  6
Continuous
 62
     7
100
AcDbLine
 10
382.6791936082478
 20
565.646078475753
 30
0.0
 11
384.0934071706209
 21
564.2318649133797
 31
0.0
  0
LINE
  5
637
330
A
100
AcDbEntity
  8
0
  6
Continuous
 62
     7
100
AcDbLine
 10
391.659449729317
 20
568.262373566143
 30
0.0
 11
389.5778554166362
 21
570.3439678788239
 31
0.0
  0
LINE
  5
638
330
A
100
AcDbEntity
  8
0
  6
Continuous
 62
     7
100
AcDbLine
 10
405.0732264767058
 20
554.8485968187543
 30
0.0
 11
397.3163039788094
 21
562.6055193166506
 31
0.0
  0
ARC
  5
639
330
A
100
AcDbEntity
  8
0
  6
Continuous
 62
     7
100
AcDbCircle
 10
384.0934071706209
 20
567.0602920381261
 30
0.0
 40
1.999999999999976
100
AcDbArc
 50
134.9999999999988
 51
225.0000000000019
  0
ARC
  5
63A
330
A
100
AcDbEntity
  8
0
  6
Continuous
 62
     7
100
AcDbCircle
 10
387.0632556516044
 20
570.0301405191096
 30
0.0
 40
2.000000000000051
100
AcDbArc
 50
46.58862423316815
 51
134.999999999999
  0
LINE
  5
63B
330
A
100
AcDbEntity
  8
0
  6
Continuous
 62
     7
100
AcDbLine
 10
417.2554958773879
 20
518.4680518123424
 30
0.0
 11
417.2554958773879
 21
536.8259161886114
 31
0.0
  0
LINE
  5
63C
330
A
100
AcDbEntity
  8
0
  6
Continuous
 62
     7
100
AcDbLine
 10
409.055495877388
 20
535.2680518123423
 30
0.0
 11
409.055495877388
 21
518.4680518123424
 31
0.0
  0
LINE
  5
63D
330
A
100
AcDbEntity
  8
0
  6
Continuous
 62
     7
100
AcDbLine
 10
405.0554958773879
 20
587.4680518123424
 30
0.0
 11
405.0554958773879
 21
554.841359488373
 31
0.0
  0
LINE
  5
63E
330
A
100
AcDbEntity
  8
0
  6
Continuous
 62
     7
100
AcDbLine
 10
413.055495877388
 20
550.6262638796116
 30
0.0
 11
413.055495877388
 21
587.4680518123424
 31
0.0
  0
LINE
  5
63F
330
A
100
AcDbEntity
  8
0
  6
Continuous
 62
     7
100
AcDbLine
 10
412.1343234634696
 20
839.3874998319901
 30
0.0
 11
406.123915823384
 21
845.3979074720757
 31
0.0
  0
LINE
  5
640
330
A
100
AcDbEntity
  8
0
  6
Continuous
 62
     7
100
AcDbLine
 10
428.2693248636316
 20
823.2524984318283
 30
0.0
 11
419.9124980565217
 21
831.6093252389379
 31
0.0
  0
ARC
  5
641
330
A
100
AcDbEntity
  8
0
  6
Continuous
 62
     7
100
AcDbCircle
 10
401.7398537800274
 20
841.013845428719
 30
0.0
 40
2.000000000000015
100
AcDbArc
 50
135.0
 51
225.0000000000008
  0
ARC
  5
642
330
A
100
AcDbEntity
  8
0
  6
Continuous
 62
     7
100
AcDbCircle
 10
404.7097022610109
 20
843.9836939097027
 30
0.0
 40
2.000000000000015
100
AcDbArc
 50
45.0
 51
135.0
  0
LINE
  5
643
330
A
100
AcDbEntity
  8
0
  6
Continuous
 62
     7
100
AcDbLine
 10
400.3256402176543
 20
839.599631866346
 30
0.0
 11
404.5682809047737
 21
835.3569911792268
 31
0.0
  0
LWPOLYLINE
  5
644
330
A
100
AcDbEntity
  8
0
  6
Continuous
 62
     7
100
AcDbPolyline
 90
        9
 70
   128
 43
0.0
 10
402.6195433946786
 20
790.1579253814067
 10
402.6294303372954
 20
790.155043248161
 10
402.6713369196595
 20
790.1424138358634
 10
402.7971336268897
 20
790.1014497674708
 10
403.1095523741159
 20
789.9790744869922
 10
403.5502293110473
 20
789.7511349486117
 10
404.2654294233498
 20
789.2050284510897
 10
404.8180759655583
 20
788.5466160715479
 10
404.9520913356592
 20
788.2830106838122
  0
LINE
  5
64F
330
A
100
AcDbEntity
  8
0
  6
Continuous
 62
     7
100
AcDbLine
 10
404.95549755736
 20
788.3259161886112
 30
0.0
 11
404.955495877388
 21
787.4680518123422
 31
0.0
  0
LWPOLYLINE
  5
650
330
A
100
AcDbEntity
  8
0
  6
Continuous
 62
     7
100
AcDbPolyline
 90
       13
 70
   128
 43
0.0
 10
411.6380906171052
 20
800.8974347542444
 10
411.3310770137045
 20
800.5733750441569
 10
410.5416291443468
 20
800.0765351452169
 10
409.7567040829742
 20
799.7983702849976
 10
409.0203609613661
 20
799.6922276393157
 10
408.3656010074204
 20
799.7131518313537
 10
407.8155381340387
 20
799.8154766349755
 10
407.3850321035839
 20
799.9536016077656
 10
407.0839337304998
 20
800.0837717780239
 10
406.9537579172194
 20
800.1494685252172
 10
406.9013556097298
 20
800.1776376948747
 10
406.8730299658077
 20
800.1932970054729
 10
406.8688431810508
 20
800.1956552516102
  0
LINE
  5
65F
330
A
100
AcDbEntity
  8
0
  6
Continuous
 62
     7
100
AcDbLine
 10
408.1038148107064
 20
831.8214572732939
 30
0.0
 11
422.471049257902
 21
817.4542228260984
 31
0.0
  0
ARC
  5
660
330
A
100
AcDbEntity
  8
0
  6
Continuous
 62
     7
100
AcDbCircle
 10
419.055495877388
 20
788.3259161886112
 30
0.0
 40
5.900000000000064
100
AcDbArc
 50
135.0
 51
180.0000000000004
  0
LINE
  5
661
330
A
100
AcDbEntity
  8
0
  6
Continuous
 62
     7
100
AcDbLine
 10
413.1554958773881
 20
787.4680518123422
 30
0.0
 11
413.1554958773881
 21
788.3259161886112
 31
0.0
  0
LINE
  5
662
330
A
100
AcDbEntity
  8
0
  6
Continuous
 62
     7
100
AcDbLine
 10
422.4756057762911
 20
811.6864373169754
 30
0.0
 11
411.6640793540151
 21
800.8749108946989
 31
0.0
  0
LINE
  5
663
330
A
100
AcDbEntity
  8
0
  6
Continuous
 62
     7
100
AcDbLine
 10
414.8835658683873
 20
792.4978461976118
 30
0.0
 11
428.2726031894209
 21
805.8868835186455
 31
0.0
  0
LWPOLYLINE
  5
664
330
A
100
AcDbEntity
  8
0
  6
Continuous
 62
     7
100
AcDbPolyline
 90
       10
 70
   128
 43
0.0
 10
423.0451526377875
 20
813.3563864117578
 10
423.0455080690712
 20
813.3536871119037
 10
423.0469190020611
 20
813.3423916899364
 10
423.0484838935768
 20
813.3291814166494
 10
423.0508842177509
 20
813.3072451278643
 10
423.0569572193254
 20
813.2365425167227
 10
423.0584018200198
 20
812.9882780982113
 10
422.9830587334716
 20
812.5459319038222
 10
422.686675041847
 20
811.9350260907868
 10
422.4552155293332
 20
811.7071404983766
  0
LWPOLYLINE
  5
670
330
A
100
AcDbEntity
  8
0
  6
Continuous
 62
     7
100
AcDbPolyline
 90
       12
 70
   128
 43
0.0
 10
422.4586527612602
 20
817.4410112013569
 10
422.6514768628699
 20
817.2486424774101
 10
422.8840546629716
 20
816.8590428044435
 10
423.0067117837643
 20
816.5005146367613
 10
423.0546174079716
 20
816.2019185043606
 10
423.0608466663157
 20
815.9815391310173
 10
423.0527160694239
 20
815.8473397897815
 10
423.0493295864908
 20
815.8143980751322
 10
423.0476717346924
 20
815.7999709779303
 10
423.0465673944079
 20
815.7908452724248
 10
423.0455359027638
 20
815.7826340759999
 10
423.0448331365479
 20
815.7772371454864
  0
LWPOLYLINE
  5
67E
330
A
100
AcDbEntity
  8
0
  6
Continuous
 62
     7
100
AcDbPolyline
 90
       13
 70
   128
 43
0.0
 10
428.2800456150043
 20
805.8812881399163
 10
428.3257864182403
 20
805.938267998631
 10
428.7166595580305
 20
806.222274973212
 10
429.0907628602444
 20
806.3827946752285
 10
429.4146254999898
 20
806.4553204064718
 10
429.6660533033968
 20
806.4740019700757
 10
429.833176198051
 20
806.4688657026223
 10
429.8943811337046
 20
806.4634706293272
 10
429.915997713894
 20
806.4611099142018
 10
429.926382151818
 20
806.4598902056983
 10
429.9352205332251
 20
806.4588073366905
 10
429.9436942927558
 20
806.4577283940565
 10
429.9437161103035
 20
806.4577255026605
  0
LWPOLYLINE
  5
68D
330
A
100
AcDbEntity
  8
0
  6
Continuous
 62
     7
100
AcDbPolyline
 90
       10
 70
   128
 43
0.0
 10
429.9438304767909
 20
822.6783950519415
 10
429.9411311769253
 20
822.678039620656
 10
429.9298357549578
 20
822.6766286876664
 10
429.916625481661
 20
822.6750637961497
 10
429.8946891928323
 20
822.6726634719716
 10
429.8239865816078
 20
822.666590470394
 10
429.5757221611662
 20
822.6651458698285
 10
429.1333759632079
 20
822.7404889578931
 10
428.5224701526032
 20
823.0368726501998
 10
428.2905810330336
 20
823.272398478076
  0
LWPOLYLINE
  5
699
330
A
100
AcDbEntity
  8
0
  6
Continuous
 62
     7
100
AcDbPolyline
 90
       10
 70
   128
 43
0.0
 10
437.7471410896411
 20
809.689925111753
 10
437.7505708463921
 20
809.6943829799434
 10
437.7568841261287
 20
809.7024791007706
 10
437.7656161328625
 20
809.7135335430856
 10
437.7802059866175
 20
809.7316503303295
 10
437.8295137047981
 20
809.7898459398207
 10
438.0478374306263
 20
810.0026138977748
 10
438.4980912614763
 20
810.2866216397579
 10
439.0767272879219
 20
810.4519083000589
 10
439.3294092570668
 20
810.4374446554109
  0
LWPOLYLINE
  5
6A5
330
A
100
AcDbEntity
  8
0
  6
Continuous
 62
     7
100
AcDbPolyline
 90
       12
 70
   128
 43
0.0
 10
439.3314360438757
 20
818.6693625960213
 10
438.8497065016154
 20
818.7266783464206
 10
438.4557768138384
 20
818.8694522126034
 10
438.1604048498967
 20
819.0460218031972
 10
437.9560303627847
 20
819.2151455530611
 10
437.8302883855734
 20
819.3453784824184
 10
437.7787022393393
 20
819.4063006495063
 10
437.7649833309874
 20
819.423365755558
 10
437.7580160231772
 20
819.4321823511648
 10
437.7525884354771
 20
819.4391234847262
 10
437.7474782461781
 20
819.4457204698478
 10
437.746484595755
 20
819.4470161407268
  0
LINE
  5
6B3
330
A
100
AcDbEntity
  8
0
  6
Continuous
 62
     7
100
AcDbLine
 10
439.3312202196379
 20
810.4680518123425
 30
0.0
 11
456.155495877388
 21
810.4680518123425
 31
0.0
  0
LINE
  5
6B4
330
A
100
AcDbEntity
  8
0
  6
Continuous
 62
     7
100
AcDbLine
 10
456.155495877388
 20
818.6680518123424
 30
0.0
 11
439.3312202196379
 21
818.6680518123424
 31
0.0
  0
LINE
  5
6B5
330
A
100
AcDbEntity
  8
0
  6
Continuous
 62
     7
100
AcDbLine
 10
636.155495877388
 20
811.0680518123425
 30
0.0
 11
643.655495877388
 21
811.0680518123425
 31
0.0
  0
LINE
  5
6B6
330
A
100
AcDbEntity
  8
0
  6
Continuous
 62
     7
100
AcDbLine
 10
636.6554958773881
 20
818.0680518123425
 30
0.0
 11
636.155495877388
 21
818.0680518123425
 31
0.0
  0
LINE
  5
6B7
330
A
100
AcDbEntity
  8
0
  6
Continuous
 62
     7
100
AcDbLine
 10
643.655495877388
 20
811.0680518123425
 30
0.0
 11
652.155495877388
 21
811.0680518123425
 31
0.0
  0
LINE
  5
6B8
330
A
100
AcDbEntity
  8
0
  6
Continuous
 62
     7
100
AcDbLine
 10
652.155495877388
 20
818.0680518123425
 30
0.0
 11
650.6554958773882
 21
818.0680518123425
 31
0.0
  0
LINE
  5
6B9
330
A
100
AcDbEntity
  8
0
  6
Continuous
 62
     7
100
AcDbLine
 10
420.0554958773881
 20
587.4680518123424
 30
0.0
 11
420.0554958773881
 21
787.4680518123422
 31
0.0
  0
LINE
  5
6BA
330
A
100
AcDbEntity
  8
0
  6
Continuous
 62
     7
100
AcDbLine
 10
456.155495877388
 20
803.5680518123426
 30
0.0
 11
636.155495877388
 21
803.5680518123426
 31
0.0
  0
LINE
  5
6BB
330
A
100
AcDbEntity
  8
0
  6
Continuous
 62
     7
100
AcDbLine
 10
398.4610870428262
 20
795.7182313314407
 30
0.0
 11
388.4333757749431
 21
571.4827834831623
 31
0.0
  0
LINE
  5
6BC
330
A
100
AcDbEntity
  8
0
  6
Continuous
 62
     7
100
AcDbLine
 10
389.5836053832997
 20
570.343020651007
 30
0.0
 11
399.5124617193351
 21
792.3679162284099
 31
0.0
  0
LINE
  5
6BD
330
A
100
AcDbEntity
  8
0
  6
Continuous
 62
     7
100
AcDbLine
 10
641.788752047641
 20
824.8147968996153
 30
0.0
 11
418.4365386464042
 21
840.4420415633667
 31
0.0
  0
LINE
  5
6BE
330
A
100
AcDbEntity
  8
0
  6
Continuous
 62
     7
100
AcDbLine
 10
420.1643020585623
 20
839.1182218195918
 30
0.0
 11
639.5890464362245
 21
823.7657696837768
 31
0.0
  0
LINE
  5
6BF
330
A
100
AcDbEntity
  8
0
  6
Continuous
 62
     7
100
AcDbLine
 10
403.155495877388
 20
518.4680518123424
 30
0.0
 11
423.155495877388
 21
518.4680518123424
 31
0.0
  0
LINE
  5
6C0
330
A
100
AcDbEntity
  8
0
  6
Continuous
 62
     7
100
AcDbLine
 10
385.6554958831274
 20
-521.5319481876576
 30
0.0
 11
612.655495877388
 21
-521.5319481876576
 31
0.0
  0
LINE
  5
6C1
330
A
100
AcDbEntity
  8
0
  6
Continuous
 62
     7
100
AcDbLine
 10
613.155495877388
 20
-533.0319481876577
 30
0.0
 11
385.155495880976
 21
-533.0319481876577
 31
0.0
  0
LINE
  5
6C2
330
A
100
AcDbEntity
  8
0
  6
Continuous
 62
     7
100
AcDbLine
 10
433.9036821618957
 20
-535.5319481876575
 30
0.0
 11
453.9036821618958
 21
-535.5319481876575
 31
0.0
  0
LINE
  5
6C3
330
A
100
AcDbEntity
  8
0
  6
Continuous
 62
     7
100
AcDbLine
 10
544.4073095928807
 20
-535.5319481876575
 30
0.0
 11
564.4073095928807
 21
-535.5319481876575
 31
0.0
  0
LINE
  5
6C4
330
A
100
AcDbEntity
  8
0
  6
Continuous
 62
     7
100
AcDbLine
 10
400.2749197671583
 20
-481.5319481876575
 30
0.0
 11
426.03607199249
 21
-481.5319481876575
 31
0.0
  0
LINE
  5
6C5
330
A
100
AcDbEntity
  8
0
  6
Continuous
 62
     7
100
AcDbLine
 10
399.7561833456435
 20
-535.5319481876575
 30
0.0
 11
419.7561833456434
 21
-535.5319481876575
 31
0.0
  0
LINE
  5
6C6
330
A
100
AcDbEntity
  8
0
  6
Continuous
 62
     7
100
AcDbLine
 10
578.5548084091324
 20
-535.5319481876575
 30
0.0
 11
598.5548084091322
 21
-535.5319481876575
 31
0.0
  0
LINE
  5
6C7
330
A
100
AcDbEntity
  8
0
  6
Continuous
 62
     7
100
AcDbLine
 10
489.1554958773877
 20
-535.5319481876575
 30
0.0
 11
509.1554958773877
 21
-535.5319481876575
 31
0.0
  0
CIRCLE
  5
6C8
330
A
100
AcDbEntity
  8
0
  6
Continuous
 62
     7
100
AcDbCircle
 10
409.235185660605
 20
836.4883620291253
 30
0.0
 40
2.449999999999988
  0
LINE
  5
6C9
330
A
100
AcDbEntity
  8
0
  6
Continuous
 62
     7
100
AcDbLine
 10
652.155495877388
 20
817.8180518123424
 30
0.0
 11
677.1554958773882
 21
817.8180518123424
 31
0.0
  0
LINE
  5
6CA
330
A
100
AcDbEntity
  8
0
  6
Continuous
 62
     7
100
AcDbLine
 10
652.155495877388
 20
811.3180518123424
 30
0.0
 11
677.1554958773882
 21
811.3180518123424
 31
0.0
  0
LINE
  5
6CB
330
A
100
AcDbEntity
  8
0
  6
Continuous
 62
     7
100
AcDbLine
 10
677.1554958773882
 20
817.8180518123424
 30
0.0
 11
697.3558248389956
 21
817.8180518123424
 31
0.0
  0
LINE
  5
6CC
330
A
100
AcDbEntity
  8
0
  6
Continuous
 62
     7
100
AcDbLine
 10
677.1554958773882
 20
811.3180518123424
 30
0.0
 11
697.3558248389956
 21
811.3180518123424
 31
0.0
  0
CIRCLE
  5
6CD
330
A
100
AcDbEntity
  8
0
  6
Continuous
 62
     7
100
AcDbCircle
 10
701.1554958773882
 20
814.5680518123423
 30
0.0
 40
5.0
  0
LINE
  5
6CE
330
A
100
AcDbEntity
  8
0
  6
Continuous
 62
     7
100
AcDbLine
 10
724.2804958773879
 20
831.5680518123425
 30
0.0
 11
724.2804958773879
 21
797.5680518123423
 31
0.0
  0
LINE
  5
6CF
330
A
100
AcDbEntity
  8
0
  6
Continuous
 62
     7
100
AcDbLine
 10
693.655495877388
 20
831.0680518123424
 30
0.0
 11
693.6554958773881
 21
817.8180518123424
 31
0.0
  0
LINE
  5
6D0
330
A
100
AcDbEntity
  8
0
  6
Continuous
 62
     7
100
AcDbLine
 10
693.6554958773881
 20
811.3180518123424
 30
0.0
 11
693.655495877388
 21
798.0680518123425
 31
0.0
  0
LINE
  5
6D1
330
A
100
AcDbEntity
  8
0
  6
Continuous
 62
     7
100
AcDbLine
 10
708.655495877388
 20
831.0680518123424
 30
0.0
 11
708.655495877388
 21
798.0680518123425
 31
0.0
  0
LINE
  5
6D2
330
A
100
AcDbEntity
  8
0
  6
Continuous
 62
     7
100
AcDbLine
 10
674.9054958773881
 20
822.0680518123426
 30
0.0
 11
674.9054958773881
 21
817.8180518123424
 31
0.0
  0
LINE
  5
6D3
330
A
100
AcDbEntity
  8
0
  6
Continuous
 62
     7
100
AcDbLine
 10
674.9054958773881
 20
811.3180518123424
 30
0.0
 11
674.9054958773881
 21
807.0680518123424
 31
0.0
  0
LINE
  5
6D4
330
A
100
AcDbEntity
  8
0
  6
Continuous
 62
     7
100
AcDbLine
 10
664.9054958773881
 20
821.0680518123425
 30
0.0
 11
664.9054958773881
 21
817.8180518123424
 31
0.0
  0
LINE
  5
6D5
330
A
100
AcDbEntity
  8
0
  6
Continuous
 62
     7
100
AcDbLine
 10
664.9054958773881
 20
811.3180518123424
 30
0.0
 11
664.9054958773881
 21
808.0680518123426
 31
0.0
  0
LINE
  5
6D6
330
A
100
AcDbEntity
  8
0
  6
Continuous
 62
     7
100
AcDbLine
 10
725.2427347579669
 20
770.231872898062
 30
0.0
 11
823.9735326461902
 21
815.2260897254061
 31
0.0
  0
LINE
  5
6D7
330
A
100
AcDbEntity
  8
0
  6
Continuous
 62
     7
100
AcDbLine
 10
825.4249589936057
 20
812.0412252764811
 30
0.0
 11
726.694161105382
 21
767.0470084491371
 31
0.0
  0
CIRCLE
  5
6D8
330
A
100
AcDbEntity
  8
0
  6
Continuous
 62
     7
100
AcDbCircle
 10
409.0554958773881
 20
543.4680518123424
 30
0.0
 40
8.200000000000045
  0
CIRCLE
  5
6D9
330
A
100
AcDbEntity
  8
0
  6
Continuous
 62
     7
100
AcDbCircle
 10
404.055495877388
 20
795.4680518123424
 30
0.0
 40
5.0
  0
LINE
  5
6DA
330
A
100
AcDbEntity
  8
0
  6
Continuous
 62
     7
100
AcDbLine
 10
404.055495877388
 20
787.4680518123422
 30
0.0
 11
410.305495877388
 21
787.4680518123422
 31
0.0
  0
LINE
  5
6DB
330
A
100
AcDbEntity
  8
0
  6
Continuous
 62
     7
100
AcDbLine
 10
404.055495877388
 20
587.4680518123424
 30
0.0
 11
410.305495877388
 21
587.4680518123424
 31
0.0
  0
CIRCLE
  5
6DC
330
A
100
AcDbEntity
  8
0
  6
Continuous
 62
     7
100
AcDbCircle
 10
431.155495877388
 20
814.5680518123423
 30
0.0
 40
5.0
  0
LINE
  5
6DD
330
A
100
AcDbEntity
  8
0
  6
Continuous
 62
     7
100
AcDbLine
 10
636.155495877388
 20
819.5680518123426
 30
0.0
 11
636.155495877388
 21
813.3180518123426
 31
0.0
  0
LINE
  5
6DE
330
A
100
AcDbEntity
  8
0
  6
Continuous
 62
     7
100
AcDbLine
 10
456.155495877388
 20
819.5680518123426
 30
0.0
 11
456.155495877388
 21
813.3180518123426
 31
0.0
  0
LINE
  5
6DF
330
A
100
AcDbEntity
  8
0
  6
Continuous
 62
     7
100
AcDbLine
 10
410.305495877388
 20
587.4680518123424
 30
0.0
 11
417.8054958773881
 21
587.4680518123424
 31
0.0
  0
LINE
  5
6E0
330
A
100
AcDbEntity
  8
0
  6
Continuous
 62
     7
100
AcDbLine
 10
410.305495877388
 20
787.4680518123422
 30
0.0
 11
417.8054958773881
 21
787.4680518123422
 31
0.0
  0
LINE
  5
6E1
330
A
100
AcDbEntity
  8
0
  6
Continuous
 62
     7
100
AcDbLine
 10
636.155495877388
 20
813.3180518123426
 30
0.0
 11
636.155495877388
 21
805.8180518123425
 31
0.0
  0
LINE
  5
6E2
330
A
100
AcDbEntity
  8
0
  6
Continuous
 62
     7
100
AcDbLine
 10
456.155495877388
 20
813.3180518123426
 30
0.0
 11
456.155495877388
 21
805.8180518123425
 31
0.0
  0
LWPOLYLINE
  5
6E3
330
A
100
AcDbEntity
  8
0
  6
Continuous
 62
     7
100
AcDbPolyline
 90
       10
 70
   128
 43
0.0
 10
389.5771948782926
 20
570.3433073404803
 10
389.5770414441859
 20
570.3434282776246
 10
389.5335810793
 20
570.3780250707646
 10
389.4524799063671
 20
570.4444095991355
 10
389.332552962377
 20
570.5469757674571
 10
389.1302035931428
 20
570.7321268402153
 10
388.8763020921725
 20
570.9862900461813
 10
388.6452347051052
 20
571.2389510743898
 10
388.5247243027874
 20
571.3788085767052
 10
388.4732932770277
 20
571.4401781445327
  0
LWPOLYLINE
  5
6EF
330
A
100
AcDbEntity
  8
0
  6
Continuous
 62
     7
100
AcDbPolyline
 90
        6
 70
   128
 43
0.0
 10
405.0659885907081
 20
554.8413589327566
 10
405.0613527828181
 20
554.8523899053386
 10
405.1213994342488
 20
554.7095320386035
 10
405.3008676193829
 20
554.2829425834162
 10
405.7470417125536
 20
553.2253963576269
 10
406.5736352667538
 20
551.2834448228941
  0
LINE
  5
6F7
330
A
100
AcDbEntity
  8
0
  6
Continuous
 62
     7
100
AcDbLine
 10
386.9925449734858
 20
567.1310027162447
 30
0.0
 11
384.0934071706209
 21
564.2318649133797
 31
0.0
  0
LINE
  5
6F8
330
A
100
AcDbEntity
  8
0
  6
Continuous
 62
     7
100
AcDbLine
 10
387.6289410765537
 20
560.6963310074469
 30
0.0
 11
390.5280788794186
 21
563.5954688103119
 31
0.0
  0
LWPOLYLINE
  5
6F9
330
A
100
AcDbEntity
  8
0
  6
Continuous
 62
     7
100
AcDbPolyline
 90
       12
 70
   128
 43
0.0
 10
390.5280788794186
 20
563.5954688103119
 10
390.8517413745008
 20
563.9935924287437
 10
391.1517353368282
 20
564.6344737497887
 10
391.2602931081238
 20
565.3729358296714
 10
391.1132552213818
 20
566.2080184873239
 10
390.7698904349132
 20
566.8503787349966
 10
390.2406346602061
 20
567.3778435672768
 10
389.6623785299559
 20
567.6948180249289
 10
388.9651697656768
 20
567.8548282792625
 10
388.1156817247516
 20
567.778696775809
 10
387.3055712782723
 20
567.3963933190357
 10
386.9925449734858
 20
567.1310027162447
  0
LINE
  5
707
330
A
100
AcDbEntity
  8
0
  6
Continuous
 62
     7
100
AcDbLine
 10
397.115313688591
 20
562.4045290264322
 30
0.0
 11
391.4584594390985
 21
568.0613832759248
 31
0.0
  0
LWPOLYLINE
  5
708
330
A
100
AcDbEntity
  8
0
  6
Continuous
 62
     7
100
AcDbPolyline
 90
        3
 70
   128
 43
0.0
 10
388.4732932770277
 20
571.4401781445327
 10
388.4411235800527
 20
571.4781948711819
 10
388.4373174011476
 20
571.4826004362744
  0
LINE
  5
70D
330
A
100
AcDbEntity
  8
0
  6
Continuous
 62
     7
100
AcDbLine
 10
382.6791937871119
 20
568.474505779363
 30
0.0
 11
385.6490420892313
 21
571.4443540814825
 31
0.0
  0
CIRCLE
  5
70E
330
A
100
AcDbEntity
  8
0
  6
Continuous
 62
     7
100
AcDbCircle
 10
388.7603119264522
 20
565.3632357632784
 30
0.0
 40
2.450000000000045
  0
CIRCLE
  5
70F
330
A
100
AcDbEntity
  8
0
  6
Continuous
 62
     7
100
AcDbCircle
 10
643.6554958773881
 20
818.0680518123425
 30
0.0
 40
7.0
  0
LINE
  5
710
330
A
100
AcDbEntity
  8
0
  6
Continuous
 62
     7
100
AcDbLine
 10
419.7115077663033
 20
831.4083349487196
 30
0.0
 11
411.9333331732512
 21
839.1865095417717
 31
0.0
  0
LINE
  5
711
330
A
100
AcDbEntity
  8
0
  6
Continuous
 62
     7
100
AcDbLine
 10
411.6643913632018
 20
837.0790901006365
 30
0.0
 11
425.8117721126642
 21
822.9317093511744
 31
0.0
  0
LWPOLYLINE
  5
712
330
A
100
AcDbEntity
  8
0
  6
Continuous
 62
     7
100
AcDbPolyline
 90
        5
 70
   128
 43
0.0
 10
409.8259137321161
 20
838.9175677317222
 10
410.5095366034526
 20
838.6391827270136
 10
411.1003611633132
 20
838.1530302675734
 10
411.4789955454877
 20
837.5907762890584
 10
411.664391363202
 20
837.0790901006364
  0
LINE
  5
719
330
A
100
AcDbEntity
  8
0
  6
Continuous
 62
     7
100
AcDbLine
 10
404.7347449075733
 20
844.0087365562648
 30
0.0
 11
409.8259137321161
 21
838.9175677317222
 31
0.0
  0
LINE
  5
71A
330
A
100
AcDbEntity
  8
0
  6
Continuous
 62
     7
100
AcDbLine
 10
400.3256402176543
 20
842.4280589910923
 30
0.0
 11
400.7713339736048
 21
842.8737527470426
 31
0.0
  0
LWPOLYLINE
  5
71B
330
A
100
AcDbEntity
  8
0
  6
Continuous
 62
     7
100
AcDbPolyline
 90
        7
 70
   128
 43
0.0
 10
401.7148111334651
 20
840.9888027821565
 10
401.2818497528926
 20
841.464155988975
 10
400.9413906536885
 20
841.9293956032367
 10
400.7303122897167
 20
842.3444803844276
 10
400.6786948177369
 20
842.6796014707734
 10
400.7684972198343
 20
842.8708813384675
 10
400.7713339736048
 20
842.8737527470426
  0
LINE
  5
724
330
A
100
AcDbEntity
  8
0
  6
Continuous
 62
     7
100
AcDbLine
 10
400.7713339736048
 20
842.8737527470426
 30
0.0
 11
402.8497949426874
 21
844.9522137161252
 31
0.0
  0
LWPOLYLINE
  5
725
330
A
100
AcDbEntity
  8
0
  6
Continuous
 62
     7
100
AcDbPolyline
 90
        7
 70
   128
 43
0.0
 10
404.7347449075733
 20
844.0087365562648
 10
404.2593917007551
 20
844.4416979368375
 10
403.7941520864934
 20
844.7821570360416
 10
403.3790673053024
 20
844.9932354000132
 10
403.0439462189566
 20
845.0448528719929
 10
402.8526663512634
 20
844.9550504698967
 10
402.8497949426874
 20
844.9522137161252
  0
LINE
  5
72E
330
A
100
AcDbEntity
  8
0
  6
Continuous
 62
     7
100
AcDbLine
 10
402.8497949426874
 20
844.9522137161252
 30
0.0
 11
403.2954886986378
 21
845.3979074720757
 31
0.0
  0
LWPOLYLINE
  5
72F
330
A
100
AcDbEntity
  8
0
  6
Continuous
 62
     7
100
AcDbPolyline
 90
        4
 70
   128
 43
0.0
 10
428.940386769205
 20
822.4631953600461
 10
427.6112253015472
 20
822.3270444084656
 10
426.2660375766507
 20
822.627155432958
 10
425.8117721126642
 20
822.9317093511744
  0
ARC
  5
735
330
A
100
AcDbEntity
  8
0
  6
Continuous
 62
     7
100
AcDbCircle
 10
431.155495877388
 20
814.5680518123423
 30
0.0
 40
8.200000000000052
100
AcDbArc
 50
29.32768440759265
 51
105.6723155924082
  0
LWPOLYLINE
  5
736
330
A
100
AcDbEntity
  8
0
  6
Continuous
 62
     7
100
AcDbPolyline
 90
        5
 70
   128
 43
0.0
 10
440.8480781494421
 20
816.7034674627487
 10
440.2971124534047
 20
816.814659521275
 10
439.4362114912031
 20
817.3095303056943
 10
438.4109015202171
 20
818.4073680083942
 10
438.3045240898747
 20
818.5844426819006
  0
LINE
  5
73D
330
A
100
AcDbEntity
  8
0
  6
Continuous
 62
     7
100
AcDbLine
 10
456.155495877388
 20
816.7034674627487
 30
0.0
 11
440.8480781494421
 21
816.7034674627487
 31
0.0
  0
LINE
  5
73E
330
A
100
AcDbEntity
  8
0
  6
Continuous
 62
     7
100
AcDbLine
 10
440.8480781494421
 20
812.4326361619361
 30
0.0
 11
456.155495877388
 21
812.4326361619361
 31
0.0
  0
LWPOLYLINE
  5
73F
330
A
100
AcDbEntity
  8
0
  6
Continuous
 62
     7
100
AcDbPolyline
 90
        4
 70
   128
 43
0.0
 10
438.3045240898747
 20
810.5516609427843
 10
439.14810991582
 20
811.5877932909844
 10
440.3115118185906
 20
812.3267741127003
 10
440.8480781494421
 20
812.4326361619361
  0
ARC
  5
745
330
A
100
AcDbEntity
  8
0
  6
Continuous
 62
     7
100
AcDbCircle
 10
431.155495877388
 20
814.5680518123423
 30
0.0
 40
8.199999999999999
100
AcDbArc
 50
254.3276844075933
 51
330.672315592408
  0
LWPOLYLINE
  5
746
330
A
100
AcDbEntity
  8
0
  6
Continuous
 62
     7
100
AcDbPolyline
 90
        5
 70
   128
 43
0.0
 10
425.8117721126642
 20
806.2043942735103
 10
426.2799883511315
 20
806.5153611947815
 10
427.2386637469079
 20
806.7741836156104
 10
428.7399558644318
 20
806.7228987646917
 10
428.9403867692051
 20
806.6729082646389
  0
LINE
  5
74D
330
A
100
AcDbEntity
  8
0
  6
Continuous
 62
     7
100
AcDbLine
 10
413.4943949525767
 20
793.8870171134227
 30
0.0
 11
425.8117721126642
 21
806.2043942735103
 31
0.0
  0
ARC
  5
74E
330
A
100
AcDbEntity
  8
0
  6
Continuous
 62
     7
100
AcDbCircle
 10
419.0554958773881
 20
788.3259161886112
 30
0.0
 40
7.864584349593961
100
AcDbArc
 50
134.9999999999997
 51
180.0000000000004
  0
LINE
  5
74F
330
A
100
AcDbEntity
  8
0
  6
Continuous
 62
     7
100
AcDbLine
 10
411.1909115277943
 20
788.3259161886112
 30
0.0
 11
411.1909115277943
 21
787.4680518123422
 31
0.0
  0
LINE
  5
750
330
A
100
AcDbEntity
  8
0
  6
Continuous
 62
     7
100
AcDbLine
 10
406.9200802269818
 20
787.4680518123422
 30
0.0
 11
406.9200802269818
 21
788.3259161886112
 31
0.0
  0
LWPOLYLINE
  5
751
330
A
100
AcDbEntity
  8
0
  6
Continuous
 62
     7
100
AcDbPolyline
 90
        3
 70
   128
 43
0.0
 10
403.1627409874495
 20
790.0409910326485
 10
405.3819738531601
 20
789.2732042571749
 10
406.9200802269818
 20
788.3259161886112
  0
ARC
  5
756
330
A
100
AcDbEntity
  8
0
  6
Continuous
 62
     7
100
AcDbCircle
 10
404.055495877388
 20
795.4680518123424
 30
0.0
 40
5.500000000000051
100
AcDbArc
 50
54.98947277407108
 51
260.6584708993848
  0
LWPOLYLINE
  5
757
330
A
100
AcDbEntity
  8
0
  6
Continuous
 62
     7
100
AcDbPolyline
 90
        6
 70
   128
 43
0.0
 10
413.1856287784745
 20
799.6181184875369
 10
412.5874321855222
 20
799.200427693874
 10
411.6658137379515
 20
798.9535028939308
 10
409.6002214084172
 20
799.0214395647806
 10
407.7181635835668
 20
799.6595974989623
 10
407.2109940109101
 20
799.9728083573
  0
LINE
  5
75F
330
A
100
AcDbEntity
  8
0
  6
Continuous
 62
     7
100
AcDbLine
 10
422.791838338556
 20
809.2243280476186
 30
0.0
 11
413.1856287784745
 21
799.6181184875369
 31
0.0
  0
LWPOLYLINE
  5
760
330
A
100
AcDbEntity
  8
0
  6
Continuous
 62
     7
100
AcDbPolyline
 90
        4
 70
   128
 43
0.0
 10
423.2603523296845
 20
812.3529427041594
 10
423.3965032812649
 20
811.0237812365017
 10
423.0963922567725
 20
809.6785935116052
 10
422.7918383385561
 20
809.2243280476186
  0
ARC
  5
766
330
A
100
AcDbEntity
  8
0
  6
Continuous
 62
     7
100
AcDbCircle
 10
431.155495877388
 20
814.5680518123423
 30
0.0
 40
8.200000000000052
100
AcDbArc
 50
164.3276844075918
 51
195.672315592409
  0
LWPOLYLINE
  5
767
330
A
100
AcDbEntity
  8
0
  6
Continuous
 62
     7
100
AcDbPolyline
 90
        5
 70
   128
 43
0.0
 10
422.7918383385559
 20
819.9117755770663
 10
423.1028052598275
 20
819.4435593385986
 10
423.3616276806562
 20
818.4848839428211
 10
423.3103428297368
 20
816.9835918252976
 10
423.2603523296845
 20
816.7831609205252
  0
LINE
  5
76E
330
A
100
AcDbEntity
  8
0
  6
Continuous
 62
     7
100
AcDbLine
 10
422.7918383385559
 20
819.9117755770663
 30
0.0
 11
409.4929857265172
 21
833.2106281891048
 31
0.0
  0
LINE
  5
76F
330
A
100
AcDbEntity
  8
0
  6
Continuous
 62
     7
100
AcDbLine
 10
411.0029526135715
 20
834.720595076159
 30
0.0
 11
409.4929857265172
 21
833.2106281891048
 31
0.0
  0
ARC
  5
770
330
A
100
AcDbEntity
  8
0
  6
Continuous
 62
     7
100
AcDbCircle
 10
409.235185660605
 20
836.4883620291253
 30
0.0
 40
2.500000000000018
100
AcDbArc
 50
315.0000000000009
 51
13.66774850239512
  0
LINE
  5
771
330
A
100
AcDbEntity
  8
0
  6
Continuous
 62
     7
100
AcDbLine
 10
405.9574518205844
 20
836.7461620950374
 30
0.0
 11
401.7148111334651
 21
840.9888027821565
 31
0.0
  0
LINE
  5
772
330
A
100
AcDbEntity
  8
0
  6
Continuous
 62
     7
100
AcDbLine
 10
404.5682809047737
 20
835.3569911792268
 30
0.0
 11
405.9574518205844
 21
836.7461620950374
 31
0.0
  0
LINE
  5
773
330
A
100
AcDbEntity
  8
0
  6
Continuous
 62
     7
100
AcDbLine
 10
405.9574518205844
 20
836.7461620950374
 30
0.0
 11
407.4674187076387
 21
838.256128982092
 31
0.0
  0
ARC
  5
774
330
A
100
AcDbEntity
  8
0
  6
Continuous
 62
     7
100
AcDbCircle
 10
409.235185660605
 20
836.4883620291253
 30
0.0
 40
2.50000000000018
100
AcDbArc
 50
76.33225149761113
 51
134.9999999999982
  0
LINE
  5
775
330
A
100
AcDbEntity
  8
0
  6
Continuous
 62
     7
100
AcDbLine
 10
404.95549755736
 20
788.3259161886112
 30
0.0
 11
406.9200802269818
 21
788.3259161886112
 31
0.0
  0
LINE
  5
776
330
A
100
AcDbEntity
  8
0
  6
Continuous
 62
     7
100
AcDbLine
 10
409.4929857265172
 20
833.2106281891048
 30
0.0
 11
408.1038148107064
 21
831.8214572732939
 31
0.0
  0
LINE
  5
777
330
A
100
AcDbEntity
  8
0
  6
Continuous
 62
     7
100
AcDbLine
 10
652.155495877388
 20
818.0680518123425
 30
0.0
 11
652.155495877388
 21
811.0680518123425
 31
0.0
  0
LINE
  5
778
330
A
100
AcDbEntity
  8
0
  6
Continuous
 62
     7
100
AcDbLine
 10
417.8054958773881
 20
587.4680518123424
 30
0.0
 11
420.0554958773881
 21
587.4680518123424
 31
0.0
  0
LINE
  5
779
330
A
100
AcDbEntity
  8
0
  6
Continuous
 62
     7
100
AcDbLine
 10
417.8054958773881
 20
787.4680518123422
 30
0.0
 11
420.0554958773881
 21
787.4680518123422
 31
0.0
  0
LINE
  5
77A
330
A
100
AcDbEntity
  8
0
  6
Continuous
 62
     7
100
AcDbLine
 10
636.155495877388
 20
805.8180518123425
 30
0.0
 11
636.155495877388
 21
803.5680518123426
 31
0.0
  0
LINE
  5
77B
330
A
100
AcDbEntity
  8
0
  6
Continuous
 62
     7
100
AcDbLine
 10
456.155495877388
 20
805.8180518123425
 30
0.0
 11
456.155495877388
 21
803.5680518123426
 31
0.0
  0
LINE
  5
77C
330
A
100
AcDbEntity
  8
0
  6
Continuous
 62
     7
100
AcDbLine
 10
391.4584594390985
 20
568.0613832759248
 30
0.0
 11
391.659449729317
 21
568.262373566143
 31
0.0
  0
ARC
  5
77D
330
A
100
AcDbEntity
  8
0
  6
Continuous
 62
     7
100
AcDbCircle
 10
394.4878768540632
 20
565.4339464413969
 30
0.0
 40
4.000000000000071
100
AcDbArc
 50
314.9999999999991
 51
134.9999999999994
  0
LINE
  5
77E
330
A
100
AcDbEntity
  8
0
  6
Continuous
 62
     7
100
AcDbLine
 10
397.3163039788094
 20
562.6055193166506
 30
0.0
 11
397.115313688591
 21
562.4045290264322
 31
0.0
  0
LINE
  5
77F
330
A
100
AcDbEntity
  8
0
  6
Continuous
 62
     7
100
AcDbLine
 10
411.9333331732512
 20
839.1865095417717
 30
0.0
 11
412.1343234634696
 21
839.3874998319901
 31
0.0
  0
ARC
  5
780
330
A
100
AcDbEntity
  8
0
  6
Continuous
 62
     7
100
AcDbCircle
 10
416.0234107599958
 20
835.498412535464
 30
0.0
 40
5.500000000000205
100
AcDbArc
 50
314.9999999999983
 51
134.9999999999992
  0
LINE
  5
781
330
A
100
AcDbEntity
  8
0
  6
Continuous
 62
     7
100
AcDbLine
 10
419.9124980565217
 20
831.6093252389379
 30
0.0
 11
419.7115077663033
 21
831.4083349487196
 31
0.0
  0
LINE
  5
782
330
A
100
AcDbEntity
  8
0
  6
Continuous
 62
     7
100
AcDbLine
 10
398.5609872005862
 20
795.7137638400284
 30
0.0
 11
398.4610870428262
 21
795.7182313314407
 31
0.0
  0
ARC
  5
783
330
A
100
AcDbEntity
  8
0
  6
Continuous
 62
     7
100
AcDbCircle
 10
431.1554958773879
 20
814.5680518123423
 30
0.0
 40
10.0
100
AcDbArc
 50
159.2048348014585
 51
180.0000000000004
  0
ARC
  5
784
330
A
100
AcDbEntity
  8
0
  6
Continuous
 62
     7
100
AcDbCircle
 10
431.1554958773879
 20
814.5680518123423
 30
0.0
 40
10.00000000000008
100
AcDbArc
 50
24.20483480145841
 51
110.7951651985418
  0
ARC
  5
785
330
A
100
AcDbEntity
  8
0
  6
Continuous
 62
     7
100
AcDbCircle
 10
431.1554958773879
 20
814.5680518123423
 30
0.0
 40
10.00000000000002
100
AcDbArc
 50
249.2048348014599
 51
335.7951651985431
  0
ARC
  5
786
330
A
100
AcDbEntity
  8
0
  6
Continuous
 62
     7
100
AcDbCircle
 10
431.1554958773879
 20
814.5680518123423
 30
0.0
 40
10.0
100
AcDbArc
 50
180.0000000000004
 51
200.7951651985432
  0
ARC
  5
787
330
A
100
AcDbEntity
  8
0
  6
Continuous
 62
     7
100
AcDbCircle
 10
409.0554958773879
 20
543.4680518123424
 30
0.0
 40
10.00000000000005
100
AcDbArc
 50
152.2692795869031
 51
180.0000000000004
  0
ARC
  5
788
330
A
100
AcDbEntity
  8
0
  6
Continuous
 62
     7
100
AcDbCircle
 10
409.0554958773879
 20
543.4680518123424
 30
0.0
 40
9.999999999999991
100
AcDbArc
 50
324.8109578164993
 51
66.42182152179779
  0
ARC
  5
789
330
A
100
AcDbEntity
  8
0
  6
Continuous
 62
     7
100
AcDbCircle
 10
409.0554958773879
 20
543.4680518123424
 30
0.0
 40
10.00000000000011
100
AcDbArc
 50
180.0000000000004
 51
270.0000000000011
  0
LINE
  5
78A
330
A
100
AcDbEntity
  8
0
  6
PHANTOM
 62
     7
100
AcDbLine
 10
614.155495877388
 20
-523.0319481876576
 30
0.0
 11
384.1554958773881
 21
-523.0319481876576
 31
0.0
  0
LINE
  5
78B
330
A
100
AcDbEntity
  8
0
  6
PHANTOM
 62
     7
100
AcDbLine
 10
384.1554958773881
 20
-532.0319481876577
 30
0.0
 11
614.155495877388
 21
-532.0319481876577
 31
0.0
  0
LINE
  5
78C
330
A
100
AcDbEntity
  8
0
  6
PHANTOM
 62
     7
100
AcDbLine
 10
393.4202335194758
 20
-519.8413689602565
 30
0.0
 11
432.8907582353003
 21
-519.8413689602565
 31
0.0
  0
LINE
  5
78D
330
A
100
AcDbEntity
  8
0
  6
PHANTOM
 62
     7
100
AcDbLine
 10
427.0240318582593
 20
-482.3772378013581
 30
0.0
 11
399.2869598965167
 21
-482.3772378013581
 31
0.0
  0
LINE
  5
78E
330
A
100
AcDbEntity
  8
0
  6
PHANTOM
 62
     7
100
AcDbLine
 10
677.1554958773882
 20
817.8180518123424
 30
0.0
 11
677.1554958773882
 21
811.3180518123424
 31
0.0
  0
LWPOLYLINE
  5
78F
330
A
100
AcDbEntity
  8
0
  6
PHANTOM
 62
     7
100
AcDbPolyline
 90
       10
 70
   128
 43
0.0
 10
752.1421552127756
 20
719.6464553720834
 10
752.0867198235399
 20
719.5845387368286
 10
751.9011906151209
 20
719.4689150610246
 10
751.6138127276735
 20
719.3171870011815
 10
751.2683368394752
 20
719.1524537789923
 10
750.9173585227569
 20
718.9997945342248
 10
750.6143110446128
 20
718.8824502530354
 10
750.4053306364582
 20
718.8182855385066
 10
750.3222326710223
 20
718.8170688867709
 10
750.3222326710223
 20
718.8170688867709
  0
LINE
  5
79B
330
A
100
AcDbEntity
  8
0
  6
PHANTOM
 62
     7
100
AcDbLine
 10
680.9054958773881
 20
828.0680518123423
 30
0.0
 11
680.9054958773881
 21
817.8180518123424
 31
0.0
  0
LINE
  5
79C
330
A
100
AcDbEntity
  8
0
  6
PHANTOM
 62
     7
100
AcDbLine
 10
680.9054958773881
 20
811.3180518123424
 30
0.0
 11
680.9054958773881
 21
801.0680518123427
 31
0.0
  0
LINE
  5
79D
330
A
100
AcDbEntity
  8
0
  6
PHANTOM
 62
     7
100
AcDbLine
 10
726.1468885877924
 20
838.2981913411882
 30
0.0
 11
772.0100517411346
 21
859.1992389519406
 31
0.0
  0
LINE
  5
79E
330
A
100
AcDbEntity
  8
0
  6
PHANTOM
 62
     7
100
AcDbLine
 10
410.305495877388
 20
787.4680518123422
 30
0.0
 11
410.305495877388
 21
587.4680518123424
 31
0.0
  0
LINE
  5
79F
330
A
100
AcDbEntity
  8
0
  6
PHANTOM
 62
     7
100
AcDbLine
 10
636.155495877388
 20
813.3180518123426
 30
0.0
 11
456.155495877388
 21
813.3180518123426
 31
0.0
  0
LINE
  5
7A0
330
A
100
AcDbEntity
  8
0
  6
PHANTOM
 62
     7
100
AcDbLine
 10
417.8054958773881
 20
787.4680518123422
 30
0.0
 11
417.8054958773881
 21
587.4680518123424
 31
0.0
  0
LINE
  5
7A1
330
A
100
AcDbEntity
  8
0
  6
PHANTOM
 62
     7
100
AcDbLine
 10
636.155495877388
 20
805.8180518123425
 30
0.0
 11
456.155495877388
 21
805.8180518123425
 31
0.0
  0
LINE
  5
7A2
330
A
100
AcDbEntity
  8
0
  6
PHANTOM
 62
     7
100
AcDbLine
 10
413.8640335299353
 20
536.8259161886114
 30
0.0
 11
417.2554958773879
 21
536.8259161886114
 31
0.0
  0
LINE
  5
7A3
330
A
100
AcDbEntity
  8
0
  6
PHANTOM
 62
     7
100
AcDbLine
 10
388.4732932770277
 20
571.4401781445327
 30
0.0
 11
382.6791936082478
 21
565.646078475753
 31
0.0
  0
LWPOLYLINE
  5
7A4
330
A
100
AcDbEntity
  8
0
  6
PHANTOM
 62
     7
100
AcDbPolyline
 90
        7
 70
   128
 43
0.0
 10
425.8117721126642
 20
822.9317093511744
 10
425.8501527712336
 20
822.944767367883
 10
426.9470865958436
 20
823.1975889503258
 10
427.9065084721873
 20
823.2582369841251
 10
428.2597295933076
 20
823.2484958108692
 10
428.2735341528693
 20
823.2477881027246
 10
428.2649738699821
 20
823.2481474381787
  0
LINE
  5
7AD
330
A
100
AcDbEntity
  8
0
  6
PHANTOM
 62
     7
100
AcDbLine
 10
406.123915823384
 20
845.3979074720757
 30
0.0
 11
404.7347449075733
 21
844.0087365562648
 31
0.0
  0
LINE
  5
7AE
330
A
100
AcDbEntity
  8
0
  6
PHANTOM
 62
     7
100
AcDbLine
 10
401.7148111334651
 20
840.9888027821565
 30
0.0
 11
400.3256402176543
 21
839.599631866346
 31
0.0
  0
LINE
  5
7AF
330
A
100
AcDbEntity
  8
0
  6
PHANTOM
 62
     7
100
AcDbLine
 10
404.7347449075733
 20
844.0087365562648
 30
0.0
 11
401.7148111334651
 21
840.9888027821565
 31
0.0
  0
LWPOLYLINE
  5
7B0
330
A
100
AcDbEntity
  8
0
  6
PHANTOM
 62
     7
100
AcDbPolyline
 90
        5
 70
   128
 43
0.0
 10
411.6952588475511
 20
800.8432626428033
 10
411.6674667929175
 20
800.8526208989751
 10
412.0164806835072
 20
800.7172797470538
 10
412.6615206712362
 20
800.2928856051955
 10
413.1856287784745
 20
799.6181184875369
  0
LWPOLYLINE
  5
7B7
330
A
100
AcDbEntity
  8
0
  6
PHANTOM
 62
     7
100
AcDbPolyline
 90
        6
 70
   128
 43
0.0
 10
422.4754002515517
 20
817.4585738197482
 10
422.4690807667698
 20
817.609119992726
 10
422.4668856675577
 20
817.6925463043456
 10
422.4838107928446
 20
818.3686065061218
 10
422.6490415894057
 20
819.4266318205515
 10
422.7918383385559
 20
819.9117755770663
  0
LINE
  5
7BF
330
A
100
AcDbEntity
  8
0
  6
PHANTOM
 62
     7
100
AcDbLine
 10
413.4943949525767
 20
793.8870171134227
 30
0.0
 11
414.8835658683873
 21
792.4978461976118
 31
0.0
  0
LINE
  5
7C0
330
A
100
AcDbEntity
  8
0
  6
PHANTOM
 62
     7
100
AcDbLine
 10
411.1909115277943
 20
788.3259161886112
 30
0.0
 11
413.1554958773881
 21
788.3259161886112
 31
0.0
  0
LWPOLYLINE
  5
7C1
330
A
100
AcDbEntity
  8
0
  6
PHANTOM
 62
     7
100
AcDbPolyline
 90
        6
 70
   128
 43
0.0
 10
422.7918383385561
 20
809.2243280476186
 10
422.6490415894057
 20
809.7094718041333
 10
422.4838107928446
 20
810.7674971185629
 10
422.4668856675577
 20
811.443557320339
 10
422.4757754301359
 20
811.6863938175201
 10
422.4757691759108
 20
811.6862739173557
  0
LWPOLYLINE
  5
7C9
330
A
100
AcDbEntity
  8
0
  6
PHANTOM
 62
     7
100
AcDbPolyline
 90
        7
 70
   128
 43
0.0
 10
428.2712863823959
 20
805.8882003256705
 10
428.2735341528695
 20
805.8883155219604
 10
428.0744459451752
 20
805.8804714926267
 10
427.9791572545612
 20
805.878536650434
 10
427.2574901621439
 20
805.9041474025864
 10
426.1552768207743
 20
806.0984473498589
 10
425.8117721126644
 20
806.2043942735103
  0
LWPOLYLINE
  5
7D2
330
A
100
AcDbEntity
  8
0
  6
PHANTOM
 62
     7
100
AcDbPolyline
 90
        6
 70
   128
 43
0.0
 10
440.8480781494421
 20
812.4326361619361
 10
440.7464905256044
 20
812.234602416948
 10
440.1260309722227
 20
811.3049606462391
 10
439.5191566964838
 20
810.6437510533654
 10
439.3319363576925
 20
810.4693841116441
 10
439.331199328287
 20
810.4687200111703
  0
LWPOLYLINE
  5
7DA
330
A
100
AcDbEntity
  8
0
  6
PHANTOM
 62
     7
100
AcDbPolyline
 90
        7
 70
   128
 43
0.0
 10
439.3312004554654
 20
818.6673825978706
 10
439.3308509457553
 20
818.6676975236556
 10
439.4809446489591
 20
818.5288895132849
 10
439.5459215531423
 20
818.4664563290054
 10
440.0381077114317
 20
817.93805109768
 10
440.680099429128
 20
817.0212777593828
 10
440.8480781494421
 20
816.703467462749
  0
ENDSEC
  0
SECTION
  2
OBJECTS
  0
DICTIONARY
  5
19
330
0
100
AcDbDictionary
281
     1
  3
ACAD_COLOR
350
7E7
  3
ACAD_GROUP
350
1A
  3
ACAD_LAYOUT
350
7E8
  3
ACAD_MATERIAL
350
7E6
  3
ACAD_MLINESTYLE
350
1B
  3
ACAD_PLOTSETTINGS
350
7E9
  3
ACAD_PLOTSTYLENAME
350
7E4
  3
ACDBHEADERROUNDTRIPXREC
350
801
  3
AcDbVariableDictionary
350
7FA
  3
ASE_INDEX_DICTIONARY
350
7EF
  0
DICTIONARY
  5
7E7
102
{ACAD_REACTORS
330
19
102
}
330
19
100
AcDbDictionary
281
     1
  0
DICTIONARY
  5
1A
102
{ACAD_REACTORS
330
19
102
}
330
19
100
AcDbDictionary
281
     1
  0
DICTIONARY
  5
7E8
102
{ACAD_REACTORS
330
19
102
}
330
19
100
AcDbDictionary
281
     1
  3
Layout1
350
7EB
  3
Model
350
7EA
  0
DICTIONARY
  5
7E6
102
{ACAD_REACTORS
330
19
102
}
330
19
100
AcDbDictionary
281
     1
  0
DICTIONARY
  5
1B
102
{ACAD_REACTORS
330
19
102
}
330
19
100
AcDbDictionary
281
     1
  3
STANDARD
350
1C
  0
DICTIONARY
  5
7E9
102
{ACAD_REACTORS
330
19
102
}
330
19
100
AcDbDictionary
281
     1
  0
ACDBDICTIONARYWDFLT
  5
7E4
102
{ACAD_REACTORS
330
19
102
}
330
19
100
AcDbDictionary
281
     1
  3
Normal
350
7E5
100
AcDbDictionaryWithDefault
340
7E5
  0
DICTIONARY
  5
801
102
{ACAD_REACTORS
330
19
102
}
330
19
100
AcDbDictionary
281
     1
  3
COLORDICT
350
803
  3
MATERIALDICT
350
802
  0
DICTIONARY
  5
7FA
102
{ACAD_REACTORS
330
19
102
}
330
19
100
AcDbDictionary
281
     1
  3
DIMASSOC
350
7FB
  3
PROJECTNAME
350
7FC
  0
DICTIONARY
  5
7EF
102
{ACAD_REACTORS
330
19
102
}
330
19
100
AcDbDictionary
281
     1
  3
ASEBlockHierarchyIndexRecord
350
7F1
1001
DCO15
1040
1552229300.281
  0
LAYOUT
  5
7EB
102
{ACAD_XDICTIONARY
360
806
102
}
102
{ACAD_REACTORS
330
7E8
102
}
330
7E8
100
AcDbPlotSettings
  1

  2
ProgeSOFT PDF Wizard
  4

  6

 40
0.0
 41
0.0
 42
0.0
 43
0.0
 44
0.0
 45
0.0
 46
0.0
 47
0.0
 48
0.0
 49
0.0
140
0.0
141
0.0
142
1.0
143
1.0
 70
   688
 72
     0
 73
     0
 74
     5
  7

 75
    16
147
1.0
148
0.0
149
0.0
100
AcDbLayout
  1
Layout1
 70
     1
 71
     1
 10
0.0
 20
0.0
 11
12.0
 21
9.0
 12
0.0
 22
0.0
 32
0.0
 14
1.000000000000000E+20
 24
1.000000000000000E+20
 34
1.000000000000000E+20
 15
-1.000000000000000E+20
 25
-1.000000000000000E+20
 35
-1.000000000000000E+20
146
0.0
 13
0.0
 23
0.0
 33
0.0
 16
1.0
 26
0.0
 36
0.0
 17
0.0
 27
1.0
 37
0.0
 76
     0
330
B
  0
LAYOUT
  5
7EA
102
{ACAD_XDICTIONARY
360
804
102
}
102
{ACAD_REACTORS
330
7E8
102
}
330
7E8
100
AcDbPlotSettings
  1

  2
ProgeSOFT PDF Wizard
  4

  6

 40
0.0
 41
0.0
 42
0.0
 43
0.0
 44
0.0
 45
0.0
 46
0.0
 47
0.0
 48
0.0
 49
0.0
140
0.0
141
0.0
142
1.0
143
1.0
 70
  1712
 72
     0
 73
     0
 74
     0
  7

 75
     0
147
1.0
148
0.0
149
0.0
100
AcDbLayout
  1
Model
 70
     1
 71
     0
 10
0.0
 20
0.0
 11
12.0
 21
9.0
 12
0.0
 22
0.0
 32
0.0
 14
0.0
 24
0.0
 34
0.0
 15
0.0
 25
0.0
 35
0.0
146
0.0
 13
0.0
 23
0.0
 33
0.0
 16
1.0
 26
0.0
 36
0.0
 17
0.0
 27
1.0
 37
0.0
 76
     0
330
A
  0
MLINESTYLE
  5
1C
102
{ACAD_REACTORS
330
1B
102
}
330
1B
100
AcDbMlineStyle
  2
STANDARD
 70
     0
  3

 62
     0
 51
90.0
 52
90.0
 71
     2
 49
0.5
 62
   256
  6
BYLAYER
 49
-0.5
 62
   256
  6
BYLAYER
  0
ACDBPLACEHOLDER
  5
7E5
102
{ACAD_REACTORS
330
7E4
102
}
330
7E4
  0
XRECORD
  5
803
102
{ACAD_REACTORS
330
801
102
}
330
801
100
AcDbXrecord
280
     1
340
7E7
  0
XRECORD
  5
802
102
{ACAD_REACTORS
330
801
102
}
330
801
100
AcDbXrecord
280
     1
340
7E6
  0
DICTIONARYVAR
  5
7FB
102
{ACAD_REACTORS
330
7FA
102
}
330
7FA
100
DictionaryVariables
280
     0
  1
1
  0
DICTIONARYVAR
  5
7FC
102
{ACAD_REACTORS
330
7FA
102
}
330
7FA
100
DictionaryVariables
280
     0
  1

  0
XRECORD
  5
7F1
102
{ACAD_REACTORS
330
7EF
102
}
330
7EF
100
AcDbXrecord
280
     1
  0
DICTIONARY
  5
806
330
7EB
100
AcDbDictionary
280
     1
281
     1
  3
ACAD_XREC_ROUNDTRIP
360
807
  0
DICTIONARY
  5
804
330
7EA
100
AcDbDictionary
280
     1
281
     1
  3
ACAD_XREC_ROUNDTRIP
360
805
  0
XRECORD
  5
807
102
{ACAD_REACTORS
330
806
102
}
330
806
100
AcDbXrecord
280
     1
102
SHADEPLOT
 70
     0
102
SHADEPLOTRESLEVEL
 70
     2
102
SHADEPLOTCUSTOMDPI
 70
   300
  0
XRECORD
  5
805
102
{ACAD_REACTORS
330
804
102
}
330
804
100
AcDbXrecord
280
     1
102
SHADEPLOT
 70
     0
102
SHADEPLOTRESLEVEL
 70
     2
102
SHADEPLOTCUSTOMDPI
 70
   300
  0
ENDSEC
  0
EOF
