  0
SECTION
  2
HEADER
  9
$ACADVER
  1
AC1015
  9
$ACADMAINTVER
 70
    20
  9
$DWGCODEPAGE
  3
ANSI_1252
  9
$INSBASE
 10
0.0
 20
0.0
 30
0.0
  9
$EXTMIN
 10
-95.66776695296647
 20
-1734.778565475476
 30
0.0
  9
$EXTMAX
 10
1394.269227300104
 20
820.028350527931
 30
0.0
  9
$LIMMIN
 10
0.0
 20
0.0
  9
$LIMMAX
 10
0.0
 20
0.0
  9
$ORTHOMODE
 70
     0
  9
$REGENMODE
 70
     1
  9
$FILLMODE
 70
     1
  9
$QTEXTMODE
 70
     0
  9
$MIRRTEXT
 70
     1
  9
$LTSCALE
 40
1.0
  9
$ATTMODE
 70
     1
  9
$TEXTSIZE
 40
0.0
  9
$TRACEWID
 40
0.05
  9
$TEXTSTYLE
  7
STANDARD
  9
$CLAYER
  8
0
  9
$CELTYPE
  6
CONTINUOUS
  9
$CECOLOR
 62
   256
  9
$CELTSCALE
 40
1.0
  9
$DISPSILH
 70
     0
  9
$DIMSCALE
 40
1.0
  9
$DIMASZ
 40
6.0
  9
$DIMEXO
 40
1.0
  9
$DIMDLI
 40
0.38
  9
$DIMRND
 40
0.0
  9
$DIMDLE
 40
1.0
  9
$DIMEXE
 40
0.18
  9
$DIMTP
 40
0.0
  9
$DIMTM
 40
0.0
  9
$DIMTXT
 40
3.5
  9
$DIMCEN
 40
0.09
  9
$DIMTSZ
 40
0.0
  9
$DIMTOL
 70
     0
  9
$DIMLIM
 70
     0
  9
$DIMTIH
 70
     1
  9
$DIMTOH
 70
     1
  9
$DIMSE1
 70
     0
  9
$DIMSE2
 70
     0
  9
$DIMTAD
 70
     1
  9
$DIMZIN
 70
     0
  9
$DIMBLK
  1

  9
$DIMASO
 70
     1
  9
$DIMSHO
 70
     1
  9
$DIMPOST
  1

  9
$DIMAPOST
  1

  9
$DIMALT
 70
     0
  9
$DIMALTD
 70
     2
  9
$DIMALTF
 40
0.0394
  9
$DIMLFAC
 40
20.0
  9
$DIMTOFL
 70
     0
  9
$DIMTVP
 40
0.0
  9
$DIMTIX
 70
     0
  9
$DIMSOXD
 70
     0
  9
$DIMSAH
 70
     0
  9
$DIMBLK1
  1

  9
$DIMBLK2
  1

  9
$DIMSTYLE
  2
STANDARD
  9
$DIMCLRD
 70
     0
  9
$DIMCLRE
 70
     0
  9
$DIMCLRT
 70
     0
  9
$DIMTFAC
 40
1.0
  9
$DIMGAP
 40
1.0
  9
$DIMJUST
 70
     0
  9
$DIMSD1
 70
     0
  9
$DIMSD2
 70
     0
  9
$DIMTOLJ
 70
     1
  9
$DIMTZIN
 70
     0
  9
$DIMALTZ
 70
     0
  9
$DIMALTTZ
 70
     0
  9
$DIMUPT
 70
     0
  9
$DIMDEC
 70
     4
  9
$DIMTDEC
 70
     4
  9
$DIMALTU
 70
     2
  9
$DIMALTTD
 70
     2
  9
$DIMTXSTY
  7
STANDARD
  9
$DIMAUNIT
 70
     0
  9
$DIMADEC
 70
     0
  9
$DIMALTRND
 40
0.0
  9
$DIMAZIN
 70
     0
  9
$DIMDSEP
 70
    46
  9
$DIMATFIT
 70
     3
  9
$DIMFRAC
 70
     0
  9
$DIMLDRBLK
  1

  9
$DIMLUNIT
 70
     2
  9
$DIMLWD
 70
    -2
  9
$DIMLWE
 70
    -2
  9
$DIMTMOVE
 70
     0
  9
$LUNITS
 70
     2
  9
$LUPREC
 70
     2
  9
$SKETCHINC
 40
0.1
  9
$FILLETRAD
 40
0.0
  9
$AUNITS
 70
     0
  9
$AUPREC
 70
     2
  9
$MENU
  1
acad
  9
$ELEVATION
 40
0.0
  9
$PELEVATION
 40
0.0
  9
$THICKNESS
 40
0.0
  9
$LIMCHECK
 70
     0
  9
$CHAMFERA
 40
0.0
  9
$CHAMFERB
 40
0.0
  9
$CHAMFERC
 40
0.0
  9
$CHAMFERD
 40
0.0
  9
$SKPOLY
 70
     0
  9
$TDCREATE
 40
2444972.041666667
  9
$TDUCREATE
 40
2444972.000000000
  9
$TDUPDATE
 40
2453768.826921829
  9
$TDUUPDATE
 40
2453768.785255162
  9
$TDINDWG
 40
0.0010845370
  9
$TDUSRTIMER
 40
0.0010845370
  9
$USRTIMER
 70
     1
  9
$ANGBASE
 50
0.0
  9
$ANGDIR
 70
     0
  9
$PDMODE
 70
     0
  9
$PDSIZE
 40
-1.0
  9
$PLINEWID
 40
0.0
  9
$SPLFRAME
 70
     0
  9
$SPLINETYPE
 70
     6
  9
$SPLINESEGS
 70
     8
  9
$HANDSEED
  5
8A2
  9
$SURFTAB1
 70
     6
  9
$SURFTAB2
 70
     6
  9
$SURFTYPE
 70
     6
  9
$SURFU
 70
     6
  9
$SURFV
 70
     6
  9
$UCSBASE
  2

  9
$UCSNAME
  2

  9
$UCSORG
 10
0.0
 20
0.0
 30
0.0
  9
$UCSXDIR
 10
1.0
 20
0.0
 30
0.0
  9
$UCSYDIR
 10
0.0
 20
1.0
 30
0.0
  9
$UCSORTHOREF
  2

  9
$UCSORTHOVIEW
 70
     1
  9
$UCSORGTOP
 10
0.0
 20
0.0
 30
0.0
  9
$UCSORGBOTTOM
 10
0.0
 20
0.0
 30
0.0
  9
$UCSORGLEFT
 10
0.0
 20
0.0
 30
0.0
  9
$UCSORGRIGHT
 10
0.0
 20
0.0
 30
0.0
  9
$UCSORGFRONT
 10
0.0
 20
0.0
 30
0.0
  9
$UCSORGBACK
 10
0.0
 20
0.0
 30
0.0
  9
$PUCSBASE
  2

  9
$PUCSNAME
  2

  9
$PUCSORG
 10
0.0
 20
0.0
 30
0.0
  9
$PUCSXDIR
 10
1.0
 20
0.0
 30
0.0
  9
$PUCSYDIR
 10
0.0
 20
1.0
 30
0.0
  9
$PUCSORTHOREF
  2

  9
$PUCSORTHOVIEW
 70
     0
  9
$PUCSORGTOP
 10
0.0
 20
0.0
 30
0.0
  9
$PUCSORGBOTTOM
 10
0.0
 20
0.0
 30
0.0
  9
$PUCSORGLEFT
 10
0.0
 20
0.0
 30
0.0
  9
$PUCSORGRIGHT
 10
0.0
 20
0.0
 30
0.0
  9
$PUCSORGFRONT
 10
0.0
 20
0.0
 30
0.0
  9
$PUCSORGBACK
 10
0.0
 20
0.0
 30
0.0
  9
$USERI1
 70
     0
  9
$USERI2
 70
     0
  9
$USERI3
 70
     0
  9
$USERI4
 70
     0
  9
$USERI5
 70
     0
  9
$USERR1
 40
0.0
  9
$USERR2
 40
0.0
  9
$USERR3
 40
0.0
  9
$USERR4
 40
0.0
  9
$USERR5
 40
0.0
  9
$WORLDVIEW
 70
     1
  9
$SHADEDGE
 70
     3
  9
$SHADEDIF
 70
    70
  9
$TILEMODE
 70
     1
  9
$MAXACTVP
 70
    16
  9
$PINSBASE
 10
0.0
 20
0.0
 30
0.0
  9
$PLIMCHECK
 70
     0
  9
$PEXTMIN
 10
1.000000000000000E+20
 20
1.000000000000000E+20
 30
1.000000000000000E+20
  9
$PEXTMAX
 10
-1.000000000000000E+20
 20
-1.000000000000000E+20
 30
-1.000000000000000E+20
  9
$PLIMMIN
 10
0.0
 20
0.0
  9
$PLIMMAX
 10
12.0
 20
9.0
  9
$UNITMODE
 70
     0
  9
$VISRETAIN
 70
     0
  9
$PLINEGEN
 70
     1
  9
$PSLTSCALE
 70
     1
  9
$TREEDEPTH
 70
  3020
  9
$CMLSTYLE
  2
STANDARD
  9
$CMLJUST
 70
     0
  9
$CMLSCALE
 40
1.0
  9
$PROXYGRAPHICS
 70
     0
  9
$MEASUREMENT
 70
     0
  9
$CELWEIGHT
370
    -1
  9
$ENDCAPS
280
     0
  9
$JOINSTYLE
280
     0
  9
$LWDISPLAY
290
     0
  9
$INSUNITS
 70
     0
  9
$HYPERLINKBASE
  1

  9
$STYLESHEET
  1

  9
$XEDIT
290
     1
  9
$CEPSNTYPE
380
     0
  9
$PSTYLEMODE
290
     1
  9
$FINGERPRINTGUID
  2
{34F18778-2FE6-44B6-B203-0313F75FA60C}
  9
$VERSIONGUID
  2
{1545CB33-48B9-4840-AF26-89FFF1486D15}
  9
$EXTNAMES
290
     1
  9
$PSVPSCALE
 40
0.0
  9
$OLESTARTUP
290
     0
  0
ENDSEC
  0
SECTION
  2
CLASSES
  0
CLASS
  1
IMAGE
  2
AcDbRasterImage
  3
ISM
 90
    32895
280
     0
281
     1
  0
CLASS
  1
DICTIONARYVAR
  2
AcDbDictionaryVar
  3
ObjectDBX Classes
 90
        0
280
     0
281
     0
  0
CLASS
  1
RASTERVARIABLES
  2
AcDbRasterVariables
  3
ISM
 90
    32768
280
     0
281
     0
  0
CLASS
  1
IMAGEDEF
  2
AcDbRasterImageDef
  3
ISM
 90
    32768
280
     0
281
     0
  0
CLASS
  1
IMAGEDEF_REACTOR
  2
AcDbRasterImageDefReactor
  3
ISM
 90
    32769
280
     0
281
     0
  0
CLASS
  1
IDBUFFER
  2
AcDbIdBuffer
  3
ObjectDBX Classes
 90
    32768
280
     0
281
     0
  0
CLASS
  1
SPATIAL_FILTER
  2
AcDbSpatialFilter
  3
ObjectDBX Classes
 90
    32768
280
     0
281
     0
  0
CLASS
  1
SORTENTSTABLE
  2
AcDbSortentsTable
  3
ObjectDBX Classes
 90
    32768
280
     0
281
     0
  0
CLASS
  1
LAYER_INDEX
  2
AcDbLayerIndex
  3
ObjectDBX Classes
 90
    32768
280
     0
281
     0
  0
CLASS
  1
SPATIAL_INDEX
  2
AcDbSpatialIndex
  3
ObjectDBX Classes
 90
    32768
280
     0
281
     0
  0
CLASS
  1
OBJECT_PTR
  2
CAseDLPNTableRecord
  3
ASE-LPNTableRecord
 90
    32769
280
     0
281
     0
  0
CLASS
  1
LAYOUT
  2
AcDbLayout
  3
ObjectDBX Classes
 90
        0
280
     0
281
     0
  0
CLASS
  1
PLOTSETTINGS
  2
AcDbPlotSettings
  3
ObjectDBX Classes
 90
    32768
280
     0
281
     0
  0
CLASS
  1
ACDBDICTIONARYWDFLT
  2
AcDbDictionaryWithDefault
  3
ObjectDBX Classes
 90
        0
280
     0
281
     0
  0
CLASS
  1
ACDBPLACEHOLDER
  2
AcDbPlaceHolder
  3
ObjectDBX Classes
 90
        0
280
     0
281
     0
  0
CLASS
  1
VBA_PROJECT
  2
AcDbVbaProject
  3
acad
 90
    32768
280
     0
281
     0
  0
CLASS
  1
WIPEOUT
  2
AcDbWipeout
  3
"WipeOut|Product Desc: Object Enabler for WipeOut entity^I^I^I^I^I^I|Company: Autodesk, Inc.^I^I^I^I^I^I|WEB Address: www.autodesk.com"
 90
    32895
280
     0
281
     1
  0
CLASS
  1
WIPEOUTVARIABLES
  2
AcDbWipeoutVariables
  3
"WipeOut|Product Desc:     WipeOut Dbx Application|Company:          Autodesk, Inc.|WEB Address:      www.autodesk.com"
 90
    32768
280
     0
281
     0
  0
CLASS
  1
RTEXT
  2
RText
  3
RText|AutoCAD Express Tool|expresstools@autodesk.com
 90
    32768
280
     0
281
     1
  0
CLASS
  1
ARCALIGNEDTEXT
  2
AcDbArcAlignedText
  3
ATEXT|AutoCAD Express Tool|expresstools@autodesk.com
 90
    32768
280
     0
281
     1
  0
ENDSEC
  0
SECTION
  2
TABLES
  0
TABLE
  2
VPORT
  5
7
330
0
100
AcDbSymbolTable
 70
     2
  0
VPORT
  5
89A
330
7
100
AcDbSymbolTableRecord
100
AcDbViewportTableRecord
  2
*Active
 70
     0
 10
0.0
 20
0.0
 11
1.0
 21
1.0
 12
787.5990266464887
 22
-457.4008173820721
 13
0.0
 23
0.0
 14
1.0
 24
1.0
 15
0.0
 25
0.0
 16
0.0
 26
0.0
 36
1.0
 17
0.0
 27
0.0
 37
0.0
 40
2576.42604097706
 41
1.569570871261378
 42
50.0
 43
0.0
 44
0.0
 50
0.0
 51
0.0
 71
     0
 72
  2000
 73
     1
 74
     1
 75
     0
 76
     0
 77
     0
 78
     0
281
     0
 65
     1
110
0.0
120
0.0
130
0.0
111
1.0
121
0.0
131
0.0
112
0.0
122
1.0
132
0.0
 79
     1
146
0.0
  0
ENDTAB
  0
TABLE
  2
LTYPE
  5
4
330
0
100
AcDbSymbolTable
 70
     6
  0
LTYPE
  5
11
330
4
100
AcDbSymbolTableRecord
100
AcDbLinetypeTableRecord
  2
BYBLOCK
 70
     0
  3

 72
    65
 73
     0
 40
0.0
  0
LTYPE
  5
12
330
4
100
AcDbSymbolTableRecord
100
AcDbLinetypeTableRecord
  2
BYLAYER
 70
     0
  3

 72
    65
 73
     0
 40
0.0
  0
LTYPE
  5
13
330
4
100
AcDbSymbolTableRecord
100
AcDbLinetypeTableRecord
  2
CONTINUOUS
 70
     0
  3
Solid line
 72
    65
 73
     0
 40
0.0
  0
LTYPE
  5
1E
330
4
100
AcDbSymbolTableRecord
100
AcDbLinetypeTableRecord
  2
HIDDEN
 70
     0
  3
Hidden __ __ __ __ __ __ __ __ __ __ __ __ __ __
 72
    65
 73
     2
 40
1.905
 49
1.27
 74
     0
 49
-0.635
 74
     0
  0
LTYPE
  5
1F
330
4
100
AcDbSymbolTableRecord
100
AcDbLinetypeTableRecord
  2
PHANTOM
 70
     0
  3
Phantom ______  __  __  ______  __  __  ______
 72
    65
 73
     6
 40
12.7
 49
6.349999999999999
 74
     0
 49
-1.27
 74
     0
 49
1.27
 74
     0
 49
-1.27
 74
     0
 49
1.27
 74
     0
 49
-1.27
 74
     0
  0
LTYPE
  5
20
330
4
100
AcDbSymbolTableRecord
100
AcDbLinetypeTableRecord
  2
CENTER
 70
     0
  3
Center ____ _ ____ _ ____ _ ____ _ ____ _ ____
 72
    65
 73
     4
 40
10.16
 49
6.349999999999999
 74
     0
 49
-1.27
 74
     0
 49
1.27
 74
     0
 49
-1.27
 74
     0
  0
LTYPE
  5
21
330
4
100
AcDbSymbolTableRecord
100
AcDbLinetypeTableRecord
  2
CENTERX2
 70
     0
  3
Center (2x) ________  __  ________  __  _____
 72
    65
 73
     4
 40
20.32
 49
12.7
 74
     0
 49
-2.54
 74
     0
 49
2.54
 74
     0
 49
-2.54
 74
     0
  0
LTYPE
  5
22
330
4
100
AcDbSymbolTableRecord
100
AcDbLinetypeTableRecord
  2
DOT2
 70
     0
  3
Dot (.5x) ........................................
 72
    65
 73
     2
 40
0.635
 49
0.0
 74
     0
 49
-0.635
 74
     0
  0
ENDTAB
  0
TABLE
  2
LAYER
  5
2
330
0
100
AcDbSymbolTable
 70
     2
  0
LAYER
  5
14
330
2
100
AcDbSymbolTableRecord
100
AcDbLayerTableRecord
  2
0
 70
     0
 62
     7
  6
CONTINUOUS
370
    -3
390
87F
  0
LAYER
  5
26
330
2
100
AcDbSymbolTableRecord
100
AcDbLayerTableRecord
  2
DEFPOINTS
 70
     0
 62
     7
  6
CONTINUOUS
290
     0
370
    -3
390
87F
  0
ENDTAB
  0
TABLE
  2
STYLE
  5
3
330
0
100
AcDbSymbolTable
 70
     1
  0
STYLE
  5
17
330
3
100
AcDbSymbolTableRecord
100
AcDbTextStyleTableRecord
  2
STANDARD
 70
     0
 40
0.0
 41
1.0
 50
0.0
 71
     0
 42
0.0
  3
Century Gothic
  4

  0
ENDTAB
  0
TABLE
  2
VIEW
  5
5
330
0
100
AcDbSymbolTable
 70
     0
  0
ENDTAB
  0
TABLE
  2
UCS
  5
6
330
0
100
AcDbSymbolTable
 70
     0
  0
ENDTAB
  0
TABLE
  2
APPID
  5
8
330
0
100
AcDbSymbolTable
 70
     2
  0
APPID
  5
16
330
8
100
AcDbSymbolTableRecord
100
AcDbRegAppTableRecord
  2
ACAD
 70
     0
  0
APPID
  5
88A
330
8
100
AcDbSymbolTableRecord
100
AcDbRegAppTableRecord
  2
DCO15
 70
     0
  0
ENDTAB
  0
TABLE
  2
DIMSTYLE
  5
9
330
0
100
AcDbSymbolTable
 70
     1
100
AcDbDimStyleTable
 71
     0
  0
DIMSTYLE
105
18
330
9
100
AcDbSymbolTableRecord
100
AcDbDimStyleTableRecord
  2
STANDARD
 70
     0
289
     0
340
17
  0
ENDTAB
  0
TABLE
  2
BLOCK_RECORD
  5
1
330
0
100
AcDbSymbolTable
 70
     0
  0
BLOCK_RECORD
  5
A
330
1
100
AcDbSymbolTableRecord
100
AcDbBlockTableRecord
  2
*MODEL_SPACE
340
884
  0
BLOCK_RECORD
  5
B
330
1
100
AcDbSymbolTableRecord
100
AcDbBlockTableRecord
  2
*PAPER_SPACE
340
885
  0
ENDTAB
  0
ENDSEC
  0
SECTION
  2
BLOCKS
  0
BLOCK
  5
D
330
A
100
AcDbEntity
  8
0
100
AcDbBlockBegin
  2
*MODEL_SPACE
 70
     0
 10
0.0
 20
0.0
 30
0.0
  3
*MODEL_SPACE
  1

  0
ENDBLK
  5
E
330
A
100
AcDbEntity
  8
0
100
AcDbBlockEnd
  0
BLOCK
  5
F
330
B
100
AcDbEntity
 67
     1
  8
0
100
AcDbBlockBegin
  2
*PAPER_SPACE
 70
     0
 10
0.0
 20
0.0
 30
0.0
  3
*PAPER_SPACE
  1

  0
ENDBLK
  5
10
330
B
100
AcDbEntity
 67
     1
  8
0
100
AcDbBlockEnd
  0
ENDSEC
  0
SECTION
  2
ENTITIES
  0
LINE
  5
27
330
A
100
AcDbEntity
  8
0
  6
Continuous
 62
     7
100
AcDbLine
 10
-95.15000000000004
 20
-472.6269307113321
 30
0.0
 11
-95.14999999999959
 21
-486.1269307113322
 31
0.0
  0
LINE
  5
28
330
A
100
AcDbEntity
  8
0
  6
Continuous
 62
     7
100
AcDbLine
 10
234.8499999999999
 20
-486.1269307113322
 30
0.0
 11
234.85
 21
-472.6269307113321
 31
0.0
  0
ARC
  5
29
330
A
100
AcDbEntity
  8
0
  6
Continuous
 62
     7
100
AcDbCircle
 10
-92.65000000000004
 20
-472.6269307113321
 30
0.0
 40
2.500000000000056
100
AcDbArc
 50
90.0
 51
180.0000000000004
  0
ARC
  5
2A
330
A
100
AcDbEntity
  8
0
  6
Continuous
 62
     7
100
AcDbCircle
 10
232.35
 20
-472.6269307113321
 30
0.0
 40
2.500000000000056
100
AcDbArc
 50
0.0
 51
90.0
  0
LINE
  5
2B
330
A
100
AcDbEntity
  8
0
  6
Continuous
 62
     7
100
AcDbLine
 10
-87.65000000000004
 20
-486.1269307113322
 30
0.0
 11
-87.65000000000004
 21
-492.1269307113322
 31
0.0
  0
LINE
  5
2C
330
A
100
AcDbEntity
  8
0
  6
Continuous
 62
     7
100
AcDbLine
 10
227.35
 20
-492.1269307113322
 30
0.0
 11
227.35
 21
-486.1269307113322
 31
0.0
  0
LINE
  5
2D
330
A
100
AcDbEntity
  8
0
  6
Continuous
 62
     7
100
AcDbLine
 10
60.84999999999999
 20
-492.1269307113322
 30
0.0
 11
60.84999999999999
 21
-496.1269307113322
 31
0.0
  0
LINE
  5
2E
330
A
100
AcDbEntity
  8
0
  6
Continuous
 62
     7
100
AcDbLine
 10
78.85000000000001
 20
-496.1269307113322
 30
0.0
 11
78.85000000000001
 21
-492.1269307113322
 31
0.0
  0
LINE
  5
2F
330
A
100
AcDbEntity
  8
0
  6
Continuous
 62
     7
100
AcDbLine
 10
-67.54262969984529
 20
-492.1269307113322
 30
0.0
 11
-67.54262969984529
 21
-496.1269307113322
 31
0.0
  0
LINE
  5
30
330
A
100
AcDbEntity
  8
0
  6
Continuous
 62
     7
100
AcDbLine
 10
-49.54262969984527
 20
-496.1269307113322
 30
0.0
 11
-49.54262969984527
 21
-492.1269307113322
 31
0.0
  0
LINE
  5
31
330
A
100
AcDbEntity
  8
0
  6
Continuous
 62
     7
100
AcDbLine
 10
189.2426296998459
 20
-492.1269307113322
 30
0.0
 11
189.2426296998459
 21
-496.1269307113322
 31
0.0
  0
LINE
  5
32
330
A
100
AcDbEntity
  8
0
  6
Continuous
 62
     7
100
AcDbLine
 10
207.2426296998459
 20
-496.1269307113322
 30
0.0
 11
207.2426296998459
 21
-492.1269307113322
 31
0.0
  0
ARC
  5
33
330
A
100
AcDbEntity
  8
0
  6
Continuous
 62
     7
100
AcDbCircle
 10
47.93608890731341
 20
-465.1269307113321
 30
0.0
 40
5.00000000000001
100
AcDbArc
 50
270.0000000000008
 51
352.8749836510981
  0
ARC
  5
34
330
A
100
AcDbEntity
  8
0
  6
Continuous
 62
     7
100
AcDbCircle
 10
91.7639110926866
 20
-465.1269307113321
 30
0.0
 40
5.000000000000017
100
AcDbArc
 50
187.1250163489035
 51
270.0000000000008
  0
LINE
  5
35
330
A
100
AcDbEntity
  8
0
  6
Continuous
 62
     7
100
AcDbLine
 10
86.80252170911826
 20
-465.7471043842782
 30
0.0
 11
82.35000000000001
 21
-430.1269307113322
 31
0.0
  0
LINE
  5
36
330
A
100
AcDbEntity
  8
0
  6
Continuous
 62
     7
100
AcDbLine
 10
57.35000000000001
 20
-430.1269307113322
 30
0.0
 11
52.89747829088176
 21
-465.7471043842782
 31
0.0
  0
LINE
  5
37
330
A
100
AcDbEntity
  8
0
  6
Continuous
 62
     7
100
AcDbLine
 10
57.35000000000001
 20
232.8730692886678
 30
0.0
 11
57.35000000000001
 21
-430.1269307113322
 31
0.0
  0
LINE
  5
38
330
A
100
AcDbEntity
  8
0
  6
Continuous
 62
     7
100
AcDbLine
 10
82.35000000000001
 20
-430.1269307113322
 30
0.0
 11
82.35000000000001
 21
232.8730692886678
 31
0.0
  0
LINE
  5
39
330
A
100
AcDbEntity
  8
0
  6
Continuous
 62
     7
100
AcDbLine
 10
-18.50100905948512
 20
-492.1269307113322
 30
0.0
 11
-18.50100905948512
 21
-496.1269307113322
 31
0.0
  0
LINE
  5
3A
330
A
100
AcDbEntity
  8
0
  6
Continuous
 62
     7
100
AcDbLine
 10
-0.5010090594790018
 20
-496.1269307113322
 30
0.0
 11
-0.5010090594790018
 21
-492.1269307113322
 31
0.0
  0
LINE
  5
3B
330
A
100
AcDbEntity
  8
0
  6
Continuous
 62
     7
100
AcDbLine
 10
140.2010090594832
 20
-492.1269307113322
 30
0.0
 11
140.2010090594832
 21
-496.1269307113322
 31
0.0
  0
LINE
  5
3C
330
A
100
AcDbEntity
  8
0
  6
Continuous
 62
     7
100
AcDbLine
 10
158.2010090594832
 20
-496.1269307113322
 30
0.0
 11
158.2010090594832
 21
-492.1269307113322
 31
0.0
  0
LWPOLYLINE
  5
3D
330
A
100
AcDbEntity
  8
0
  6
Continuous
 62
     7
100
AcDbPolyline
 90
       47
 70
   128
 43
0.0
 10
69.85000000000252
 20
761.477163998182
 10
67.30592271457573
 20
761.4587839574531
 10
62.48566052678333
 20
761.3228098959889
 10
57.69578355917426
 20
761.0548733093629
 10
52.95681831816885
 20
760.6559914377105
 10
48.28841804799368
 20
760.1276389377837
 10
43.70989798843121
 20
759.4717377684253
 10
39.24014311123933
 20
758.6906301186103
 10
34.8975195745284
 20
757.7870424082196
 10
30.69979219311563
 20
756.7640390573521
 10
26.6640511502745
 20
755.6249645301132
 10
22.80665301379161
 20
754.3733722884852
 10
19.14318404718118
 20
753.0129402074753
 10
15.68845831311035
 20
751.5473747073327
 10
12.45656956403359
 20
749.9803123691793
 10
9.461024036590812
 20
748.3152419080138
 10
6.714987752307013
 20
746.5554973824743
 10
4.231675384634176
 20
744.7044231298091
 10
2.02528170055688
 20
742.7662879411897
 10
0.1116664736027367
 20
740.7480621485015
 10
-1.493617945347691
 20
738.6597249175189
 10
-2.776283172696778
 20
736.5162326269698
 10
-3.726478207704261
 20
734.3372006159937
 10
-4.341664228296973
 20
732.1437902959247
 10
-4.626577423169561
 20
729.9540997006755
 10
-4.589707109199967
 20
727.7800667772474
 10
-4.238798223086995
 20
725.6282983229131
 10
-3.579795292426302
 20
723.506363219317
 10
-2.61356629900511
 20
721.4139879874878
 10
-1.337597350104566
 20
719.3531786407178
 10
0.2498705152951114
 20
717.3305348256761
 10
2.14601059732547
 20
715.3569618418526
 10
4.342082078095055
 20
713.4452669708901
 10
6.824805574673742
 20
711.6074549086087
 10
9.578737486397418
 20
709.8532783699155
 10
12.58698459170859
 20
708.1907182332441
 10
15.83399594574921
 20
706.6253300241272
 10
19.30482283919008
 20
705.1615970790029
 10
22.98438157831045
 20
703.803611346828
 10
26.85720990457917
 20
702.5552413563762
 10
30.9073091030617
 20
701.4201774954275
 10
35.11806525167836
 20
700.4019148692716
 10
39.47223007746198
 20
699.5037099058431
 10
43.95194304457808
 20
698.728529854385
 10
48.53878086469289
 20
698.0790043669923
 10
53.21382493177965
 20
697.5573830809952
 10
54.33239522033714
 20
697.4649808914967
  0
LWPOLYLINE
  5
6E
330
A
100
AcDbEntity
  8
0
  6
Continuous
 62
     7
100
AcDbPolyline
 90
        8
 70
   128
 43
0.0
 10
56.37766306816281
 20
697.2960266208676
 10
57.95774039585317
 20
697.1655005322085
 10
62.75086276852928
 20
696.9047485653337
 10
67.57328936248424
 20
696.7760559638437
 10
72.40497375221007
 20
696.7798749274207
 10
77.22581668618459
 20
696.9161738722196
 10
82.01559594680846
 20
697.1844243977832
 10
83.32211374309089
 20
697.2944839754734
  0
LWPOLYLINE
  5
78
330
A
100
AcDbEntity
  8
0
  6
Continuous
 62
     7
100
AcDbPolyline
 90
       47
 70
   128
 43
0.0
 10
85.36787030908488
 20
697.4668161888969
 10
86.75441604496858
 20
697.5836172294751
 10
91.42262463085023
 20
698.1122766254962
 10
96.00090738285402
 20
698.7684795884383
 10
100.4703804640151
 20
699.5498829655905
 10
104.812679056188
 20
700.4537594709297
 10
109.010039872019
 20
701.4770439419773
 10
113.0453744160058
 20
702.6163913257865
 10
116.9023279261819
 20
703.8682477574655
 10
120.5653159968955
 20
705.2289351762604
 10
124.0195263726189
 20
706.6947472134898
 10
127.2508668998665
 20
708.2620475633347
 10
130.2458325008864
 20
709.9273479152373
 10
132.9912575595762
 20
711.6873144786737
 10
135.4739267092288
 20
713.5386024636919
 10
137.6796399332852
 20
715.476937489756
 10
139.5925378081063
 20
717.495344253706
 10
141.197068233101
 20
719.5838330422544
 10
142.4789492578135
 20
721.7274349558223
 10
143.428344583709
 20
723.906526172278
 10
144.0427343417284
 20
726.0999470923844
 10
144.3268689525331
 20
728.2896118376866
 10
144.2892409210386
 20
730.4635983619825
 10
143.9375923495961
 20
732.6152959362083
 10
143.2778580729089
 20
734.7371604424052
 10
142.310894375768
 20
736.8294643721156
 10
141.0341838340901
 20
738.8901925791913
 10
139.4459745185014
 20
740.9127337361006
 10
137.5491068857611
 20
742.8861746131688
 10
135.3523350252942
 20
744.7977069126127
 10
132.8689462872669
 20
746.6353302252321
 10
130.1143869239234
 20
748.3892976957545
 10
127.1055527836342
 20
750.0516320132533
 10
123.8579901002456
 20
751.6167830065267
 10
120.3866475633118
 20
753.0802686158351
 10
116.7066095109226
 20
754.4379975607745
 10
112.8333393274646
 20
755.6861017564313
 10
108.7828371285843
 20
756.8208912442507
 10
104.5717183455393
 20
757.8388714307375
 10
100.2172327503948
 20
758.7367865168523
 10
95.73724228811888
 20
759.5116700024699
 10
91.1501715136888
 20
760.1608930937608
 10
86.47494012311849
 20
760.6822071042404
 10
81.73088385757628
 20
761.0737785235645
 10
76.93766788352866
 20
761.3342165895004
 10
72.11519534420061
 20
761.4625936412815
 10
69.85000000000252
 20
761.477163998182
  0
LINE
  5
A9
330
A
100
AcDbEntity
  8
0
  6
Continuous
 62
     7
100
AcDbLine
 10
135.6069117081682
 20
744.576185706539
 30
0.0
 11
103.3230657193481
 21
808.514917844033
 31
0.0
  0
LINE
  5
AA
330
A
100
AcDbEntity
  8
0
  6
Continuous
 62
     7
100
AcDbLine
 10
36.37693428065619
 20
808.514917844033
 30
0.0
 11
4.09898618848098
 21
744.5878665959186
 31
0.0
  0
LWPOLYLINE
  5
AB
330
A
100
AcDbEntity
  8
0
  6
Continuous
 62
     7
100
AcDbPolyline
 90
       11
 70
   128
 43
0.0
 10
95.21816720125761
 20
815.2404040454007
 10
95.20580871371249
 20
815.2467636694861
 10
92.87072809958344
 20
816.2338593142523
 10
90.32683062857502
 20
817.1180204631692
 10
87.59744774489199
 20
817.8927172214809
 10
84.70729742769279
 20
818.5520767354685
 10
81.68248258192697
 20
819.0909565357241
 10
78.5503554985063
 20
819.5050530461209
 10
75.33930457684384
 20
819.7910018345801
 10
72.07849767407568
 20
819.9464560091472
 10
69.85000000000226
 20
819.9769307113321
  0
LWPOLYLINE
  5
B8
330
A
100
AcDbEntity
  8
0
  6
Continuous
 62
     7
100
AcDbPolyline
 90
       11
 70
   128
 43
0.0
 10
69.85000000000226
 20
819.9769307113321
 10
68.12462638998884
 20
819.9586710132203
 10
64.86013329408703
 20
819.8234731448433
 10
61.64051477659928
 20
819.5575894370913
 10
58.49596165029664
 20
819.1633041730652
 10
55.45499420790602
 20
818.643921270694
 10
52.54510036733918
 20
818.003709554007
 10
49.7924691311562
 20
817.2477948973588
 10
47.22175401599276
 20
816.382011168479
 10
44.85589190624464
 20
815.41270250937
 10
44.10681178474718
 20
815.0394607480702
  0
LWPOLYLINE
  5
C5
330
A
100
AcDbEntity
  8
0
  6
Continuous
 62
     7
100
AcDbPolyline
 90
       12
 70
   128
 43
0.0
 10
73.81752885447787
 20
631.6002943255206
 10
73.72013052545113
 20
631.1551131274343
 10
73.28442102686256
 20
630.2332840949331
 10
72.5728978684501
 20
629.4523901337579
 10
71.64808348638212
 20
628.880957969296
 10
70.58578802721552
 20
628.5619073286367
 10
69.47027711215365
 20
628.5172443442776
 10
68.38891677801782
 20
628.7470815357339
 10
67.42537377559959
 20
629.2291725332541
 10
66.65074689761546
 20
629.9222829066176
 10
66.11892169550833
 20
630.7731201911085
 10
65.88247114552649
 20
631.6002943255208
  0
LWPOLYLINE
  5
D3
330
A
100
AcDbEntity
  8
0
  6
Continuous
 62
     7
100
AcDbPolyline
 90
       14
 70
   128
 43
0.0
 10
63.90308024073977
 20
631.3139175700948
 10
64.06145548848337
 20
630.5897037376536
 10
64.57038086015429
 20
629.4129865630983
 10
65.35367903261231
 20
628.3749477410297
 10
66.37182998721012
 20
627.5278478423788
 10
67.57414875188588
 20
626.9154435887656
 10
68.89944033511176
 20
626.5711732364537
 10
70.27874397078715
 20
626.5153382256239
 10
71.6391491714632
 20
626.753358423801
 10
72.9073284832376
 20
627.2749308055821
 10
74.01390838989136
 20
628.0539463257071
 10
74.89733237362589
 20
629.0488801891119
 10
75.50852380333632
 20
630.2043409471101
 10
75.79691975926458
 20
631.3139175700946
  0
LINE
  5
E3
330
A
100
AcDbEntity
  8
0
  6
Continuous
 62
     7
100
AcDbLine
 10
54.06086928095634
 20
699.3417253012324
 30
0.0
 11
63.90306422585176
 21
631.3140285220668
 31
0.0
  0
LINE
  5
E4
330
A
100
AcDbEntity
  8
0
  6
Continuous
 62
     7
100
AcDbLine
 10
65.8824711455265
 20
631.6002943255208
 30
0.0
 11
55.92287348260916
 21
700.439460409331
 31
0.0
  0
LINE
  5
E5
330
A
100
AcDbEntity
  8
0
  6
Continuous
 62
     7
100
AcDbLine
 10
83.77712651739491
 20
700.4394604093302
 30
0.0
 11
73.81752885447787
 21
631.6002943255206
 31
0.0
  0
LINE
  5
E6
330
A
100
AcDbEntity
  8
0
  6
Continuous
 62
     7
100
AcDbLine
 10
75.79693460808235
 20
631.3140204258715
 30
0.0
 11
85.6391307190478
 21
699.3417253012324
 31
0.0
  0
LINE
  5
E7
330
A
100
AcDbEntity
  8
0
  6
Continuous
 62
     7
100
AcDbLine
 10
78.84999999999998
 20
259.8730692886678
 30
0.0
 11
83.84999999999998
 21
259.8730692886678
 31
0.0
  0
LINE
  5
E8
330
A
100
AcDbEntity
  8
0
  6
Continuous
 62
     7
100
AcDbLine
 10
83.84999999999998
 20
295.8730692886679
 30
0.0
 11
78.84999999999998
 21
295.8730692886679
 31
0.0
  0
LINE
  5
E9
330
A
100
AcDbEntity
  8
0
  6
Continuous
 62
     7
100
AcDbLine
 10
75.39
 20
266.7930692886679
 30
0.0
 11
75.84999999999997
 21
266.7930692886679
 31
0.0
  0
LINE
  5
EA
330
A
100
AcDbEntity
  8
0
  6
Continuous
 62
     7
100
AcDbLine
 10
63.84999999999998
 20
266.7930692886679
 30
0.0
 11
64.30999999999999
 21
266.7930692886679
 31
0.0
  0
LINE
  5
EB
330
A
100
AcDbEntity
  8
0
  6
Continuous
 62
     7
100
AcDbLine
 10
64.49534100906237
 20
288.9530692886678
 30
0.0
 11
63.84999999999998
 21
288.9530692886678
 31
0.0
  0
LINE
  5
EC
330
A
100
AcDbEntity
  8
0
  6
Continuous
 62
     7
100
AcDbLine
 10
75.84999999999997
 20
288.9530692886678
 30
0.0
 11
75.17962994965505
 21
288.9530692886678
 31
0.0
  0
LINE
  5
ED
330
A
100
AcDbEntity
  8
0
  6
Continuous
 62
     7
100
AcDbLine
 10
75.39
 20
232.8730692886679
 30
0.0
 11
75.39
 21
268.3132645566098
 31
0.0
  0
LINE
  5
EE
330
A
100
AcDbEntity
  8
0
  6
Continuous
 62
     7
100
AcDbLine
 10
64.30999999999999
 20
268.2996098139335
 30
0.0
 11
64.30999999999999
 21
232.8730692886679
 31
0.0
  0
LINE
  5
EF
330
A
100
AcDbEntity
  8
0
  6
Continuous
 62
     7
100
AcDbLine
 10
75.84999999999997
 20
271.8730692886678
 30
0.0
 11
78.84999999999998
 21
271.8730692886678
 31
0.0
  0
LINE
  5
F0
330
A
100
AcDbEntity
  8
0
  6
Continuous
 62
     7
100
AcDbLine
 10
78.84999999999998
 20
283.8730692886679
 30
0.0
 11
75.84999999999997
 21
283.8730692886679
 31
0.0
  0
LINE
  5
F1
330
A
100
AcDbEntity
  8
0
  6
Continuous
 62
     7
100
AcDbLine
 10
64.44999999999997
 20
321.8730692886679
 30
0.0
 11
64.44999999999997
 21
288.9314132932429
 31
0.0
  0
LINE
  5
F2
330
A
100
AcDbEntity
  8
0
  6
Continuous
 62
     7
100
AcDbLine
 10
75.24999999999997
 20
288.918949039275
 30
0.0
 11
75.24999999999997
 21
321.8730692886679
 31
0.0
  0
LINE
  5
F3
330
A
100
AcDbEntity
  8
0
  6
Continuous
 62
     7
100
AcDbLine
 10
76.84999999999998
 20
321.8730692886679
 30
0.0
 11
76.84999999999998
 21
638.5926418765471
 31
0.0
  0
LINE
  5
F4
330
A
100
AcDbEntity
  8
0
  6
Continuous
 62
     7
100
AcDbLine
 10
76.84999999999998
 20
652.5602559521047
 30
0.0
 11
76.84999999999998
 21
696.9055484653218
 31
0.0
  0
LINE
  5
F5
330
A
100
AcDbEntity
  8
0
  6
Continuous
 62
     7
100
AcDbLine
 10
62.84999999999997
 20
696.9021029619276
 30
0.0
 11
62.84999999999997
 21
652.560255952135
 31
0.0
  0
LINE
  5
F6
330
A
100
AcDbEntity
  8
0
  6
Continuous
 62
     7
100
AcDbLine
 10
62.84999999999997
 20
638.5926418765778
 30
0.0
 11
62.84999999999997
 21
321.8730692886679
 31
0.0
  0
LINE
  5
F7
330
A
100
AcDbEntity
  8
0
  6
Continuous
 62
     7
100
AcDbLine
 10
64.30999999999986
 20
312.117495644521
 30
0.0
 11
64.30999999999993
 21
288.9530692886678
 31
0.0
  0
LINE
  5
F8
330
A
100
AcDbEntity
  8
0
  6
Continuous
 62
     7
100
AcDbLine
 10
64.30999999999984
 20
320.9563304093531
 30
0.0
 11
64.30999999999984
 21
316.7136897222338
 31
0.0
  0
LINE
  5
F9
330
A
100
AcDbEntity
  8
0
  6
Continuous
 62
     7
100
AcDbLine
 10
75.38999999999984
 20
316.7136897222338
 30
0.0
 11
75.3899999999998
 21
320.9563304093531
 31
0.0
  0
LINE
  5
FA
330
A
100
AcDbEntity
  8
0
  6
Continuous
 62
     7
100
AcDbLine
 10
75.38999999999994
 20
288.9530692886678
 30
0.0
 11
75.38999999999986
 21
312.1174956445212
 31
0.0
  0
LWPOLYLINE
  5
FB
330
A
100
AcDbEntity
  8
0
  6
Continuous
 62
     7
100
AcDbPolyline
 90
        3
 70
   128
 43
0.0
 10
75.35328593470757
 20
321.0039875288842
 10
75.30961287015611
 20
321.731689927736
 10
75.25888184452799
 20
321.8730692886679
  0
LINE
  5
100
330
A
100
AcDbEntity
  8
0
  6
Continuous
 62
     7
100
AcDbLine
 10
64.44937588064931
 20
321.8730692886679
 30
0.0
 11
64.31014500191782
 21
320.9504907530594
 31
0.0
  0
ARC
  5
101
330
A
100
AcDbEntity
  8
0
  6
Continuous
 62
     7
100
AcDbCircle
 10
69.84999999999999
 20
757.6135932886703
 30
0.0
 40
27.50000000000002
100
AcDbArc
 50
186.565271952788
 51
353.4347280472154
  0
LINE
  5
102
330
A
100
AcDbEntity
  8
0
  6
Continuous
 62
     7
100
AcDbLine
 10
69.85000000000001
 20
-486.1269307113322
 30
0.0
 11
234.8499999999999
 21
-486.1269307113322
 31
0.0
  0
LINE
  5
103
330
A
100
AcDbEntity
  8
0
  6
Continuous
 62
     7
100
AcDbLine
 10
-95.14999999999959
 20
-486.1269307113322
 30
0.0
 11
69.85000000000001
 21
-486.1269307113322
 31
0.0
  0
LINE
  5
104
330
A
100
AcDbEntity
  8
0
  6
Continuous
 62
     7
100
AcDbLine
 10
69.85000000000001
 20
-470.1269307113321
 30
0.0
 11
232.35
 21
-470.1269307113321
 31
0.0
  0
LINE
  5
105
330
A
100
AcDbEntity
  8
0
  6
Continuous
 62
     7
100
AcDbLine
 10
-92.65000000000004
 20
-470.1269307113321
 30
0.0
 11
69.85000000000001
 21
-470.1269307113321
 31
0.0
  0
LINE
  5
106
330
A
100
AcDbEntity
  8
0
  6
Continuous
 62
     7
100
AcDbLine
 10
69.85000000000001
 20
-492.1269307113322
 30
0.0
 11
227.35
 21
-492.1269307113322
 31
0.0
  0
LINE
  5
107
330
A
100
AcDbEntity
  8
0
  6
Continuous
 62
     7
100
AcDbLine
 10
-87.65000000000004
 20
-492.1269307113322
 30
0.0
 11
69.85000000000001
 21
-492.1269307113322
 31
0.0
  0
LINE
  5
108
330
A
100
AcDbEntity
  8
0
  6
Continuous
 62
     7
100
AcDbLine
 10
78.85000000000001
 20
-496.1269307113322
 30
0.0
 11
60.84999999999999
 21
-496.1269307113322
 31
0.0
  0
LINE
  5
109
330
A
100
AcDbEntity
  8
0
  6
Continuous
 62
     7
100
AcDbLine
 10
-49.54262969984527
 20
-496.1269307113322
 30
0.0
 11
-67.54262969984529
 21
-496.1269307113322
 31
0.0
  0
LINE
  5
10A
330
A
100
AcDbEntity
  8
0
  6
Continuous
 62
     7
100
AcDbLine
 10
207.2426296998459
 20
-496.1269307113322
 30
0.0
 11
189.2426296998459
 21
-496.1269307113322
 31
0.0
  0
LINE
  5
10B
330
A
100
AcDbEntity
  8
0
  6
Continuous
 62
     7
100
AcDbLine
 10
69.85000000000001
 20
-430.1269307113322
 30
0.0
 11
82.35000000000001
 21
-430.1269307113322
 31
0.0
  0
LINE
  5
10C
330
A
100
AcDbEntity
  8
0
  6
Continuous
 62
     7
100
AcDbLine
 10
57.35000000000001
 20
-430.1269307113322
 30
0.0
 11
69.85000000000001
 21
-430.1269307113322
 31
0.0
  0
LINE
  5
10D
330
A
100
AcDbEntity
  8
0
  6
Continuous
 62
     7
100
AcDbLine
 10
69.85000000000001
 20
232.8730692886678
 30
0.0
 11
82.35000000000001
 21
232.8730692886678
 31
0.0
  0
LINE
  5
10E
330
A
100
AcDbEntity
  8
0
  6
Continuous
 62
     7
100
AcDbLine
 10
57.35000000000001
 20
232.8730692886678
 30
0.0
 11
69.85000000000001
 21
232.8730692886678
 31
0.0
  0
LINE
  5
10F
330
A
100
AcDbEntity
  8
0
  6
Continuous
 62
     7
100
AcDbLine
 10
-0.5010090594790018
 20
-496.1269307113322
 30
0.0
 11
-18.50100905948512
 21
-496.1269307113322
 31
0.0
  0
LINE
  5
110
330
A
100
AcDbEntity
  8
0
  6
Continuous
 62
     7
100
AcDbLine
 10
158.2010090594832
 20
-496.1269307113322
 30
0.0
 11
140.2010090594832
 21
-496.1269307113322
 31
0.0
  0
LWPOLYLINE
  5
111
330
A
100
AcDbEntity
  8
0
  6
Continuous
 62
     7
100
AcDbPolyline
 90
       85
 70
   128
 43
0.0
 10
85.40032313071087
 20
697.6911249665612
 10
89.69085182068871
 20
698.1424798399753
 10
94.47064566503261
 20
698.7863612735577
 10
99.13048410041071
 20
699.5669453444443
 10
103.6476637082029
 20
700.4804289321663
 10
108.0001761245914
 20
701.5223614102525
 10
112.1668152685482
 20
702.6876663303341
 10
116.1272806609824
 20
703.970666155349
 10
119.862276331662
 20
705.3651099213372
 10
123.3536048320206
 20
706.8642036930587
 10
126.5842558958047
 20
708.4606436650441
 10
129.5384893155943
 20
710.1466517468103
 10
132.2019116314098
 20
711.9140134588628
 10
134.5615462577674
 20
713.754117954847
 10
136.6058967075128
 20
715.6579999748605
 10
138.3250026043989
 20
717.6163835255183
 10
139.7104882115049
 20
719.6197270739564
 10
140.7556032390584
 20
721.6582700355862
 10
141.4552557328415
 20
723.722080329097
 10
141.8060368829403
 20
725.8011027670196
 10
141.8062376319691
 20
727.8852080460775
 10
141.455857001849
 20
729.9642420986453
 10
140.7566020985736
 20
732.0280755648585
 10
139.7118797949371
 20
734.0666531443467
 10
138.326780131749
 20
736.0700425871366
 10
136.6080515184058
 20
738.0284830850343
 10
134.5640678536476
 20
739.9324328277219
 10
132.204787726691
 20
741.7726154918589
 10
129.5417058975169
 20
743.5400654366961
 10
126.5877972927083
 20
745.2261713859956
 10
123.3574537896984
 20
746.8227183834385
 10
119.8664140974257
 20
748.3219278170975
 10
116.1316870750282
 20
749.7164953179812
 10
112.1714688621785
 20
750.9996263479949
 10
108.0050542248132
 20
752.1650693039289
 10
103.6527425481939
 20
753.2071459761898
 10
99.13573893531513
 20
754.1207792138739
 10
94.47605089252148
 20
754.9015176613925
 10
89.69638110569825
 20
755.5455574461326
 10
84.82001682944471
 20
756.049760711483
 10
79.87071642814264
 20
756.4116709049338
 10
74.87259362170863
 20
756.6295247467628
 10
69.85000000000205
 20
756.7022608209915
 10
64.82740637829545
 20
756.6295247467628
 10
59.82928357186146
 20
756.4116709049338
 10
54.87998317055938
 20
756.0497607114828
 10
50.00361889430586
 20
755.5455574461326
 10
45.22394910748264
 20
754.9015176613925
 10
40.564261064689
 20
754.1207792138736
 10
36.04725745181023
 20
753.2071459761898
 10
31.69494577519099
 20
752.1650693039287
 10
27.52853113782567
 20
750.9996263479946
 10
23.56831292497597
 20
749.7164953179809
 10
19.83358590257855
 20
748.321927817097
 10
16.34254621030588
 20
746.8227183834382
 10
13.11220270729594
 20
745.2261713859955
 10
10.15829410248735
 20
743.5400654366958
 10
7.495212273313331
 20
741.7726154918588
 10
5.135932146356797
 20
739.9324328277217
 10
3.091948481598647
 20
738.0284830850341
 10
1.373219868255462
 20
736.0700425871364
 10
-0.0118797949326399
 20
734.0666531443465
 10
-1.056602098569087
 20
732.0280755648583
 10
-1.755857001844482
 20
729.964242098645
 10
-2.106237631964547
 20
727.8852080460775
 10
-2.106036882935744
 20
725.8011027670193
 10
-1.755255732836871
 20
723.7220803290967
 10
-1.055603239053779
 20
721.6582700355859
 10
-0.0104882115001814
 20
719.6197270739562
 10
1.374997395605814
 20
717.6163835255181
 10
3.094103292492031
 20
715.6579999748605
 10
5.138453742237439
 20
713.7541179548467
 10
7.498088368595001
 20
711.9140134588625
 10
10.16151068441059
 20
710.1466517468101
 10
13.11574410420023
 20
708.4606436650439
 10
16.34639516798436
 20
706.8642036930587
 10
19.83772366834298
 20
705.3651099213372
 10
23.57271933902261
 20
703.9706661553488
 10
27.5331847314568
 20
702.6876663303339
 10
31.69982387541361
 20
701.5223614102525
 10
36.05233629180218
 20
700.4804289321663
 10
40.5695158995944
 20
699.5669453444441
 10
45.22935433497251
 20
698.786361273558
 10
50.0091481793164
 20
698.142479839975
 10
54.29967686929331
 20
697.6911249665612
  0
LWPOLYLINE
  5
168
330
A
100
AcDbEntity
  8
0
  6
Continuous
 62
     7
100
AcDbPolyline
 90
        9
 70
   128
 43
0.0
 10
56.34579279381511
 20
697.5163089237489
 10
58.8490816315968
 20
697.3370076957551
 10
62.500041081584
 20
697.1424143292134
 10
66.17021151110129
 20
697.0254544887354
 10
69.85000000000093
 20
696.9864338784929
 10
73.52978848890059
 20
697.0254544887354
 10
77.19995891841789
 20
697.1424143292132
 10
80.8509183684051
 20
697.3370076957548
 10
83.35420720618907
 20
697.5163089237489
  0
LINE
  5
173
330
A
100
AcDbEntity
  8
0
  6
Continuous
 62
     7
100
AcDbLine
 10
85.6861883933376
 20
700.3434597111906
 30
0.0
 11
85.61288325766087
 21
699.3437462697291
 31
0.0
  0
LINE
  5
174
330
A
100
AcDbEntity
  8
0
  6
Continuous
 62
     7
100
AcDbLine
 10
54.01381160666652
 20
700.3434597111906
 30
0.0
 11
54.08711674234329
 21
699.3437462697295
 31
0.0
  0
LWPOLYLINE
  5
175
330
A
100
AcDbEntity
  8
0
  6
Continuous
 62
     7
100
AcDbPolyline
 90
        7
 70
   128
 43
0.0
 10
95.42307883727216
 20
815.0246652031704
 10
96.89371412487808
 20
814.2893522429671
 10
98.87275780777461
 20
813.1102260637085
 10
100.5539887214971
 20
811.8541211581028
 10
101.9201551618018
 20
810.533926862263
 10
102.9572384122926
 20
809.1631901561729
 10
103.3230657193481
 20
808.514917844033
  0
LWPOLYLINE
  5
17E
330
A
100
AcDbEntity
  8
0
  6
Continuous
 62
     7
100
AcDbPolyline
 90
        7
 70
   128
 43
0.0
 10
36.37693428065619
 20
808.514917844033
 10
36.74276158771184
 20
809.1631901561729
 10
37.77984483820274
 20
810.5339268622632
 10
39.1460112785075
 20
811.854121158103
 10
40.82724219223005
 20
813.1102260637087
 10
42.80628587512665
 20
814.2893522429673
 10
43.87756308051442
 20
814.8347758669784
  0
LWPOLYLINE
  5
187
330
A
100
AcDbEntity
  8
0
  6
Continuous
 62
     7
100
AcDbPolyline
 90
        9
 70
   128
 43
0.0
 10
55.92100197793091
 20
700.4505573322432
 10
55.83951651338482
 20
700.5745319472066
 10
55.65761805016929
 20
700.6678862239568
 10
55.39545328764269
 20
700.7202804349661
 10
55.08205905525148
 20
700.7259115052725
 10
54.75214625307151
 20
700.6841557491209
 10
54.44225534396588
 20
700.5996379481103
 10
54.18670920713471
 20
700.4817191199062
 10
54.01381160666652
 20
700.3434597111906
  0
LWPOLYLINE
  5
192
330
A
100
AcDbEntity
  8
0
  6
Continuous
 62
     7
100
AcDbPolyline
 90
        9
 70
   128
 43
0.0
 10
83.77899802207322
 20
700.4505573322432
 10
83.86048348661937
 20
700.5745319472066
 10
84.04238194983491
 20
700.6678862239568
 10
84.30454671236153
 20
700.7202804349661
 10
84.61794094475271
 20
700.7259115052725
 10
84.94785374693265
 20
700.6841557491206
 10
85.25774465603822
 20
700.5996379481102
 10
85.5132907928694
 20
700.4817191199058
 10
85.6861883933376
 20
700.3434597111906
  0
LINE
  5
19D
330
A
100
AcDbEntity
  8
0
  6
Continuous
 62
     7
100
AcDbLine
 10
83.84999999999998
 20
295.8730692886679
 30
0.0
 11
83.84999999999998
 21
259.8730692886678
 31
0.0
  0
LINE
  5
19E
330
A
100
AcDbEntity
  8
0
  6
Continuous
 62
     7
100
AcDbLine
 10
78.84999999999998
 20
295.8730692886679
 30
0.0
 11
78.84999999999998
 21
259.8730692886678
 31
0.0
  0
LINE
  5
19F
330
A
100
AcDbEntity
  8
0
  6
Continuous
 62
     7
100
AcDbLine
 10
64.95102051443367
 20
321.8730692886679
 30
0.0
 11
74.74897948556637
 21
321.8730692886679
 31
0.0
  0
LWPOLYLINE
  5
1A0
330
A
100
AcDbEntity
  8
0
  6
Continuous
 62
     7
100
AcDbPolyline
 90
       11
 70
   128
 43
0.0
 10
75.34301210904144
 20
268.7309336649369
 10
74.61329124161444
 20
270.4764129208091
 10
73.34582386505657
 20
272.0742253009223
 10
71.93982104372077
 20
273.134678125674
 10
70.65732810234566
 20
273.6164620106076
 10
69.26280382806705
 20
273.655853066952
 10
68.09405584969768
 20
273.3022908848424
 10
66.68029041970164
 20
272.375057870987
 10
65.30844973383771
 20
270.820776270967
 10
64.49995627938318
 20
269.2568756941468
 10
64.35698789095856
 20
268.7309336649369
  0
LINE
  5
1AD
330
A
100
AcDbEntity
  8
0
  6
Continuous
 62
     7
100
AcDbLine
 10
75.84999999999997
 20
288.9530692886678
 30
0.0
 11
75.84999999999997
 21
266.7930692886679
 31
0.0
  0
LINE
  5
1AE
330
A
100
AcDbEntity
  8
0
  6
Continuous
 62
     7
100
AcDbLine
 10
75.34301210904144
 20
268.7309336649369
 30
0.0
 11
75.3435261621169
 21
268.3132645566098
 31
0.0
  0
LINE
  5
1AF
330
A
100
AcDbEntity
  8
0
  6
Continuous
 62
     7
100
AcDbLine
 10
64.33878289650529
 20
268.2996098139335
 30
0.0
 11
64.35698789095856
 21
268.7309336649369
 31
0.0
  0
LWPOLYLINE
  5
1B0
330
A
100
AcDbEntity
  8
0
  6
Continuous
 62
     7
100
AcDbPolyline
 90
       12
 70
   128
 43
0.0
 10
75.17962994965505
 20
288.9189466936296
 10
75.18741390832956
 20
288.922702188852
 10
74.70364557478617
 20
288.6973140829084
 10
73.75244465093905
 20
288.3054934678145
 10
72.29381859316998
 20
287.8519795155575
 10
70.48266318904669
 20
287.5687726004846
 10
69.84999999999999
 20
287.5481093402645
 10
68.18725661692965
 20
287.6899484036384
 10
66.71630873064585
 20
288.0429474084698
 10
65.46918500140842
 20
288.4937067484386
 10
64.64842368661877
 20
288.8577311470925
 10
64.49534100906237
 20
288.9312291996163
  0
LINE
  5
1BE
330
A
100
AcDbEntity
  8
0
  6
Continuous
 62
     7
100
AcDbLine
 10
63.84999999999998
 20
288.9530692886678
 30
0.0
 11
63.84999999999998
 21
266.7930692886679
 31
0.0
  0
LINE
  5
1BF
330
A
100
AcDbEntity
  8
0
  6
Continuous
 62
     7
100
AcDbLine
 10
62.99142872020709
 20
321.8730692886679
 30
0.0
 11
64.95102051443367
 21
321.8730692886679
 31
0.0
  0
LINE
  5
1C0
330
A
100
AcDbEntity
  8
0
  6
Continuous
 62
     7
100
AcDbLine
 10
74.74897948556637
 20
321.8730692886679
 30
0.0
 11
76.70857127979288
 21
321.8730692886679
 31
0.0
  0
LINE
  5
1C1
330
A
100
AcDbEntity
  8
0
  6
Continuous
 62
     7
100
AcDbLine
 10
76.70857127979288
 20
321.8730692886679
 30
0.0
 11
76.84999999999998
 21
321.8730692886679
 31
0.0
  0
LINE
  5
1C2
330
A
100
AcDbEntity
  8
0
  6
Continuous
 62
     7
100
AcDbLine
 10
62.84999999999997
 20
321.8730692886679
 30
0.0
 11
62.99142872020709
 21
321.8730692886679
 31
0.0
  0
LINE
  5
1C3
330
A
100
AcDbEntity
  8
0
  6
Continuous
 62
     7
100
AcDbLine
 10
64.30999999999984
 20
316.7136897222338
 30
0.0
 11
64.44999999999997
 21
315.8385897279469
 31
0.0
  0
LINE
  5
1C4
330
A
100
AcDbEntity
  8
0
  6
Continuous
 62
     7
100
AcDbLine
 10
75.24999999999997
 20
315.8385897279477
 30
0.0
 11
75.38999999999984
 21
316.7136897222338
 31
0.0
  0
LWPOLYLINE
  5
1C5
330
A
100
AcDbEntity
  8
0
  6
Continuous
 62
     7
100
AcDbPolyline
 90
        3
 70
   128
 43
0.0
 10
75.38999999999984
 20
316.7136897222338
 10
75.35469653796655
 20
317.1124140936011
 10
75.24999999999997
 20
317.3574370161282
  0
LWPOLYLINE
  5
1CA
330
A
100
AcDbEntity
  8
0
  6
Continuous
 62
     7
100
AcDbPolyline
 90
        3
 70
   128
 43
0.0
 10
75.24999999999997
 20
313.0763074646649
 10
75.3671906415352
 20
312.500208805639
 10
75.38999999999986
 20
312.1174956445212
  0
LWPOLYLINE
  5
1CF
330
A
100
AcDbEntity
  8
0
  6
Continuous
 62
     7
100
AcDbPolyline
 90
        3
 70
   128
 43
0.0
 10
64.30999999999986
 20
312.1174956445212
 10
64.35299456915178
 20
312.6568102569909
 10
64.44999999999997
 20
313.1096329515413
  0
LWPOLYLINE
  5
1D4
330
A
100
AcDbEntity
  8
0
  6
Continuous
 62
     7
100
AcDbPolyline
 90
        3
 70
   128
 43
0.0
 10
64.44999999999997
 20
317.3252460218138
 10
64.32708071827083
 20
317.000418642501
 10
64.30999999999984
 20
316.7136897222338
  0
LINE
  5
1D9
330
A
100
AcDbEntity
  8
0
  6
PHANTOM
 62
     7
100
AcDbLine
 10
69.85000000000001
 20
-472.6269307113321
 30
0.0
 11
-95.14999999999988
 21
-472.6269307113321
 31
0.0
  0
LINE
  5
1DA
330
A
100
AcDbEntity
  8
0
  6
PHANTOM
 62
     7
100
AcDbLine
 10
234.8499999999996
 20
-472.6269307113321
 30
0.0
 11
69.85000000000001
 21
-472.6269307113321
 31
0.0
  0
LINE
  5
1DB
330
A
100
AcDbEntity
  8
0
  6
PHANTOM
 62
     7
100
AcDbLine
 10
52.89747829088176
 20
-465.7471043842782
 30
0.0
 11
86.80252170911826
 21
-465.7471043842782
 31
0.0
  0
LWPOLYLINE
  5
1DC
330
A
100
AcDbEntity
  8
0
  6
PHANTOM
 62
     7
100
AcDbPolyline
 90
       10
 70
   128
 43
0.0
 10
69.85000000000228
 20
819.790496593281
 10
73.30985220654142
 20
819.7177329223656
 10
76.73420164751336
 20
819.500188563348
 10
80.08790986376858
 20
819.1400958157361
 10
83.33656327071599
 20
818.6411497184037
 10
86.44682628826984
 20
818.0084701334916
 10
89.38678340901169
 20
817.2485492096933
 10
92.12626669448512
 20
816.369184764024
 10
94.63716533906795
 20
815.3794002656669
 10
95.42307883727216
 20
815.0246652031704
  0
LWPOLYLINE
  5
1E8
330
A
100
AcDbEntity
  8
0
  6
PHANTOM
 62
     7
100
AcDbPolyline
 90
       10
 70
   128
 43
0.0
 10
43.87756308051442
 20
814.8347758669784
 10
45.0628346609368
 20
815.379400265667
 10
47.5737333055197
 20
816.3691847640244
 10
50.31321659099316
 20
817.2485492096935
 10
53.25317371173508
 20
818.0084701334918
 10
56.36343672928894
 20
818.6411497184039
 10
59.61209013623638
 20
819.1400958157361
 10
62.96579835249164
 20
819.500188563348
 10
66.39014779346361
 20
819.7177329223656
 10
69.85000000000228
 20
819.790496593281
  0
LWPOLYLINE
  5
1F4
330
A
100
AcDbEntity
  8
0
  6
PHANTOM
 62
     7
100
AcDbPolyline
 90
        6
 70
   128
 43
0.0
 10
64.89277569313316
 20
631.8717991904642
 10
64.51336617058186
 20
631.7947797892572
 10
64.1917183084831
 20
631.6663526067104
 10
63.97680007809633
 20
631.5060695171713
 10
63.90133083175925
 20
631.3383321680527
 10
63.90306422585176
 20
631.3140285220668
  0
LWPOLYLINE
  5
1FC
330
A
100
AcDbEntity
  8
0
  6
PHANTOM
 62
     7
100
AcDbPolyline
 90
        5
 70
   128
 43
0.0
 10
65.88169396640591
 20
631.605163848134
 10
65.80875130816998
 20
631.725534845401
 10
65.59383307778318
 20
631.8343240968945
 10
65.27218521568444
 20
631.8856853046804
 10
64.89277569313316
 20
631.8717991904642
  0
LWPOLYLINE
  5
203
330
A
100
AcDbEntity
  8
0
  6
PHANTOM
 62
     7
100
AcDbPolyline
 90
        6
 70
   128
 43
0.0
 10
74.80722430687123
 20
631.871799190464
 10
75.18663382942254
 20
631.794779789257
 10
75.50828169152126
 20
631.6663526067102
 10
75.72319992190806
 20
631.5060695171711
 10
75.79866916824513
 20
631.3383321680524
 10
75.79693460808235
 20
631.3140204258715
  0
LWPOLYLINE
  5
20B
330
A
100
AcDbEntity
  8
0
  6
PHANTOM
 62
     7
100
AcDbPolyline
 90
        5
 70
   128
 43
0.0
 10
73.81828406788677
 20
631.6050377509906
 10
73.8912486918344
 20
631.7255348454008
 10
74.10616692222119
 20
631.8343240968943
 10
74.42781478431995
 20
631.8856853046802
 10
74.80722430687123
 20
631.871799190464
  0
LINE
  5
212
330
A
100
AcDbEntity
  8
0
  6
PHANTOM
 62
     7
100
AcDbLine
 10
64.95102051443367
 20
696.8460345510315
 30
0.0
 11
64.95102051443367
 21
638.0383339796135
 31
0.0
  0
LINE
  5
213
330
A
100
AcDbEntity
  8
0
  6
PHANTOM
 62
     7
100
AcDbLine
 10
64.95102051443367
 20
628.908557021126
 30
0.0
 11
64.95102051443367
 21
321.8730692886679
 31
0.0
  0
LINE
  5
214
330
A
100
AcDbEntity
  8
0
  6
PHANTOM
 62
     7
100
AcDbLine
 10
74.74897948556637
 20
696.8461466380809
 30
0.0
 11
74.74897948556637
 21
638.0383339795833
 31
0.0
  0
LINE
  5
215
330
A
100
AcDbEntity
  8
0
  6
PHANTOM
 62
     7
100
AcDbLine
 10
74.74897948556637
 20
628.8818015102647
 30
0.0
 11
74.74897948556637
 21
321.8730692886679
 31
0.0
  0
LINE
  5
216
330
A
100
AcDbEntity
  8
0
  6
PHANTOM
 62
     7
100
AcDbLine
 10
64.35698789095856
 20
268.7309336649369
 30
0.0
 11
75.34301210904144
 21
268.7309336649369
 31
0.0
  0
LINE
  5
217
330
A
100
AcDbEntity
  8
0
  6
PHANTOM
 62
     7
100
AcDbLine
 10
62.99142872020709
 20
696.8983287562297
 30
0.0
 11
62.99142872020709
 21
651.582722974512
 31
0.0
  0
LINE
  5
218
330
A
100
AcDbEntity
  8
0
  6
PHANTOM
 62
     7
100
AcDbLine
 10
62.99142872020709
 20
637.6151088989549
 30
0.0
 11
62.99142872020709
 21
321.8730692886679
 31
0.0
  0
LINE
  5
219
330
A
100
AcDbEntity
  8
0
  6
PHANTOM
 62
     7
100
AcDbLine
 10
76.70857127979288
 20
696.9015498730438
 30
0.0
 11
76.70857127979288
 21
651.5827229744818
 31
0.0
  0
LINE
  5
21A
330
A
100
AcDbEntity
  8
0
  6
PHANTOM
 62
     7
100
AcDbLine
 10
76.70857127979288
 20
637.6151088989242
 30
0.0
 11
76.70857127979288
 21
321.8730692886679
 31
0.0
  0
LINE
  5
21B
330
A
100
AcDbEntity
  8
0
  6
PHANTOM
 62
     7
100
AcDbLine
 10
64.44999999999997
 20
321.8314304036399
 30
0.0
 11
64.30999999999984
 21
320.9563304093531
 31
0.0
  0
LINE
  5
21C
330
A
100
AcDbEntity
  8
0
  6
PHANTOM
 62
     7
100
AcDbLine
 10
75.3899999999998
 20
320.9563304093531
 30
0.0
 11
75.24999999999997
 21
321.8314304036391
 31
0.0
  0
LINE
  5
21D
330
A
100
AcDbEntity
  8
0
  6
PHANTOM
 62
     7
100
AcDbLine
 10
64.30999999999984
 20
316.7136897222338
 30
0.0
 11
64.44999999999997
 21
316.7136897222338
 31
0.0
  0
LINE
  5
21E
330
A
100
AcDbEntity
  8
0
  6
PHANTOM
 62
     7
100
AcDbLine
 10
75.24999999999997
 20
316.7136897222338
 30
0.0
 11
75.38999999999984
 21
316.7136897222338
 31
0.0
  0
LINE
  5
21F
330
A
100
AcDbEntity
  8
0
  6
Continuous
 62
     7
100
AcDbLine
 10
64.84999999999998
 20
-1004.677288394439
 30
0.0
 11
65.35805423998979
 21
-1004.677288394439
 31
0.0
  0
LINE
  5
220
330
A
100
AcDbEntity
  8
0
  6
Continuous
 62
     7
100
AcDbLine
 10
74.34268278409645
 20
-1004.677288394439
 30
0.0
 11
74.84999999999998
 21
-1004.677288394439
 31
0.0
  0
LINE
  5
221
330
A
100
AcDbEntity
  8
0
  6
Continuous
 62
     7
100
AcDbLine
 10
74.84999999999995
 20
-998.6772883944388
 30
0.0
 11
74.34999999999994
 21
-998.6772883944388
 31
0.0
  0
LINE
  5
222
330
A
100
AcDbEntity
  8
0
  6
Continuous
 62
     7
100
AcDbLine
 10
65.34999999999995
 20
-998.6772883944388
 30
0.0
 11
64.84999999999996
 21
-998.6772883944388
 31
0.0
  0
LINE
  5
223
330
A
100
AcDbEntity
  8
0
  6
Continuous
 62
     7
100
AcDbLine
 10
76.00894503890064
 20
-1601.2870125564
 30
0.0
 11
75.39140605128427
 21
-1601.194740187694
 31
0.0
  0
LINE
  5
224
330
A
100
AcDbEntity
  8
0
  6
Continuous
 62
     7
100
AcDbLine
 10
64.30859394871984
 20
-1601.194740187694
 30
0.0
 11
63.69290168913128
 21
-1601.286736619216
 31
0.0
  0
LWPOLYLINE
  5
225
330
A
100
AcDbEntity
  8
0
  6
Continuous
 62
     7
100
AcDbPolyline
 90
        9
 70
   128
 43
0.0
 10
74.18147596714736
 20
-992.4819095685911
 10
73.61511456318314
 20
-991.9573993542551
 10
72.60783392604965
 20
-991.336121268902
 10
71.43263159360561
 20
-990.9207647716755
 10
70.14483490282701
 20
-990.7387766468945
 10
68.82551620599286
 20
-990.8102254165827
 10
67.54677361246814
 20
-991.1429382985101
 10
66.38179645882134
 20
-991.7408962617917
 10
65.51852403285251
 20
-992.4819095685913
  0
LINE
  5
230
330
A
100
AcDbEntity
  8
0
  6
Continuous
 62
     7
100
AcDbLine
 10
68.35000000000002
 20
-1014.884752309371
 30
0.0
 11
69.25
 21
-1014.884752309372
 31
0.0
  0
LINE
  5
231
330
A
100
AcDbEntity
  8
0
  6
Continuous
 62
     7
100
AcDbLine
 10
70.45000000000003
 20
-1014.884752309372
 30
0.0
 11
71.35000000000001
 21
-1014.884752309371
 31
0.0
  0
LINE
  5
232
330
A
100
AcDbEntity
  8
0
  6
Continuous
 62
     7
100
AcDbLine
 10
70.45000000000162
 20
-1472.719018880626
 30
0.0
 11
70.45000000000001
 21
-1012.769825896696
 31
0.0
  0
LINE
  5
233
330
A
100
AcDbEntity
  8
0
  6
Continuous
 62
     7
100
AcDbLine
 10
69.24999999999998
 20
-1012.769834821957
 30
0.0
 11
69.2500000000016
 21
-1472.725340892536
 31
0.0
  0
ARC
  5
234
330
A
100
AcDbEntity
  8
0
  6
Continuous
 62
     7
100
AcDbCircle
 10
96.10000000000205
 20
-1600.11321007135
 30
0.0
 40
0.8000000000001818
100
AcDbArc
 50
270.0000000000008
 51
90.00000000000103
  0
ARC
  5
235
330
A
100
AcDbEntity
  8
0
  6
Continuous
 62
     7
100
AcDbCircle
 10
43.60000000000207
 20
-1600.11321007135
 30
0.0
 40
0.7999999999999546
100
AcDbArc
 50
90.00000000000051
 51
270.0000000000008
  0
LINE
  5
236
330
A
100
AcDbEntity
  8
0
  6
Continuous
 62
     7
100
AcDbLine
 10
96.10000000000205
 20
-1599.31321007135
 30
0.0
 11
43.60000000000206
 21
-1599.31321007135
 31
0.0
  0
LINE
  5
237
330
A
100
AcDbEntity
  8
0
  6
Continuous
 62
     7
100
AcDbLine
 10
96.10000000000207
 20
-1607.797835365242
 30
0.0
 11
96.10000000000205
 21
-1600.91321007135
 31
0.0
  0
LINE
  5
238
330
A
100
AcDbEntity
  8
0
  6
Continuous
 62
     7
100
AcDbLine
 10
43.60000000000207
 20
-1600.91321007135
 30
0.0
 11
43.60000000000209
 21
-1607.771834551104
 31
0.0
  0
LINE
  5
239
330
A
100
AcDbEntity
  8
0
  6
Continuous
 62
     7
100
AcDbLine
 10
93.80000000000196
 20
-1562.714903205787
 30
0.0
 11
93.80000000000194
 21
-1560.11321007135
 31
0.0
  0
LINE
  5
23A
330
A
100
AcDbEntity
  8
0
  6
Continuous
 62
     7
100
AcDbLine
 10
93.80000000000201
 20
-1580.11321007135
 30
0.0
 11
93.80000000000199
 21
-1577.61321007135
 31
0.0
  0
LINE
  5
23B
330
A
100
AcDbEntity
  8
0
  6
Continuous
 62
     7
100
AcDbLine
 10
45.90000000000195
 20
-1577.61321007135
 30
0.0
 11
45.90000000000197
 21
-1580.11321007135
 31
0.0
  0
LINE
  5
23C
330
A
100
AcDbEntity
  8
0
  6
Continuous
 62
     7
100
AcDbLine
 10
45.90000000000189
 20
-1560.11321007135
 30
0.0
 11
45.90000000000189
 21
-1562.714903205787
 31
0.0
  0
LINE
  5
23D
330
A
100
AcDbEntity
  8
0
  6
Continuous
 62
     7
100
AcDbLine
 10
91.10000000000189
 20
-1560.11321007135
 30
0.0
 11
91.10000000000178
 21
-1528.11321007135
 31
0.0
  0
LINE
  5
23E
330
A
100
AcDbEntity
  8
0
  6
Continuous
 62
     7
100
AcDbLine
 10
48.60000000000181
 20
-1528.11321007135
 30
0.0
 11
48.60000000000193
 21
-1560.11321007135
 31
0.0
  0
ARC
  5
23F
330
A
100
AcDbEntity
  8
0
  6
Continuous
 62
     7
100
AcDbCircle
 10
81.1000000000018
 20
-1528.11321007135
 30
0.0
 40
10.0
100
AcDbArc
 50
0.0
 51
90.00000000000056
  0
ARC
  5
240
330
A
100
AcDbEntity
  8
0
  6
Continuous
 62
     7
100
AcDbCircle
 10
58.60000000000183
 20
-1528.11321007135
 30
0.0
 40
10.00000000000001
100
AcDbArc
 50
89.99999999999992
 51
180.0000000000004
  0
LINE
  5
241
330
A
100
AcDbEntity
  8
0
  6
Continuous
 62
     7
100
AcDbLine
 10
91.10000000000203
 20
-1599.31321007135
 30
0.0
 11
91.10000000000198
 21
-1580.11321007135
 31
0.0
  0
LINE
  5
242
330
A
100
AcDbEntity
  8
0
  6
Continuous
 62
     7
100
AcDbLine
 10
48.60000000000201
 20
-1580.11321007135
 30
0.0
 11
48.60000000000206
 21
-1599.31321007135
 31
0.0
  0
LINE
  5
243
330
A
100
AcDbEntity
  8
0
  6
Continuous
 62
     7
100
AcDbLine
 10
74.85000000000013
 20
-1050.61321007135
 30
0.0
 11
79.85000000000013
 21
-1050.61321007135
 31
0.0
  0
LINE
  5
244
330
A
100
AcDbEntity
  8
0
  6
Continuous
 62
     7
100
AcDbLine
 10
79.85000000000002
 20
-1014.61321007135
 30
0.0
 11
74.85000000000001
 21
-1014.61321007135
 31
0.0
  0
LINE
  5
245
330
A
100
AcDbEntity
  8
0
  6
Continuous
 62
     7
100
AcDbLine
 10
70.00745366246121
 20
-1483.61321007135
 30
0.0
 11
74.85000000000166
 21
-1483.61321007135
 31
0.0
  0
LINE
  5
246
330
A
100
AcDbEntity
  8
0
  6
Continuous
 62
     7
100
AcDbLine
 10
64.85000000000166
 20
-1483.61321007135
 30
0.0
 11
70.00745366246121
 21
-1483.61321007135
 31
0.0
  0
LINE
  5
247
330
A
100
AcDbEntity
  8
0
  6
Continuous
 62
     7
100
AcDbLine
 10
69.25000000000159
 20
-1468.61321007135
 30
0.0
 11
64.8500000000016
 21
-1468.61321007135
 31
0.0
  0
LINE
  5
248
330
A
100
AcDbEntity
  8
0
  6
Continuous
 62
     7
100
AcDbLine
 10
74.8500000000016
 20
-1468.61321007135
 30
0.0
 11
70.45000000000161
 21
-1468.61321007135
 31
0.0
  0
LINE
  5
249
330
A
100
AcDbEntity
  8
0
  6
Continuous
 62
     7
100
AcDbLine
 10
34.85000000000198
 20
-1577.61321007135
 30
0.0
 11
45.90000000000195
 21
-1577.61321007135
 31
0.0
  0
LINE
  5
24A
330
A
100
AcDbEntity
  8
0
  6
Continuous
 62
     7
100
AcDbLine
 10
36.85000000000192
 20
-1562.61321007135
 30
0.0
 11
34.85000000000192
 21
-1562.61321007135
 31
0.0
  0
LINE
  5
24B
330
A
100
AcDbEntity
  8
0
  6
Continuous
 62
     7
100
AcDbLine
 10
45.93164177100692
 20
-1562.61321007135
 30
0.0
 11
40.85000000000192
 21
-1562.61321007135
 31
0.0
  0
LINE
  5
24C
330
A
100
AcDbEntity
  8
0
  6
Continuous
 62
     7
100
AcDbLine
 10
93.80000000000199
 20
-1577.61321007135
 30
0.0
 11
104.8500000000019
 21
-1577.61321007135
 31
0.0
  0
LINE
  5
24D
330
A
100
AcDbEntity
  8
0
  6
Continuous
 62
     7
100
AcDbLine
 10
98.85000000000195
 20
-1562.61321007135
 30
0.0
 11
93.76835822899694
 21
-1562.61321007135
 31
0.0
  0
LINE
  5
24E
330
A
100
AcDbEntity
  8
0
  6
Continuous
 62
     7
100
AcDbLine
 10
104.8500000000019
 20
-1562.61321007135
 30
0.0
 11
102.8500000000019
 21
-1562.61321007135
 31
0.0
  0
LINE
  5
24F
330
A
100
AcDbEntity
  8
0
  6
Continuous
 62
     7
100
AcDbLine
 10
62.85000000000021
 20
-1077.61321007135
 30
0.0
 11
62.85000000000157
 21
-1467.61321007135
 31
0.0
  0
LINE
  5
250
330
A
100
AcDbEntity
  8
0
  6
Continuous
 62
     7
100
AcDbLine
 10
76.85000000000163
 20
-1467.61321007135
 30
0.0
 11
76.85000000000025
 21
-1077.61321007135
 31
0.0
  0
LINE
  5
251
330
A
100
AcDbEntity
  8
0
  6
Continuous
 62
     7
100
AcDbLine
 10
76.10000000000176
 20
-1518.11321007135
 30
0.0
 11
76.10000000000173
 21
-1509.11321007135
 31
0.0
  0
LINE
  5
252
330
A
100
AcDbEntity
  8
0
  6
Continuous
 62
     7
100
AcDbLine
 10
63.60000000000177
 20
-1509.11321007135
 30
0.0
 11
63.60000000000179
 21
-1518.11321007135
 31
0.0
  0
LINE
  5
253
330
A
100
AcDbEntity
  8
0
  6
Continuous
 62
     7
100
AcDbLine
 10
74.35000000000008
 20
-1037.61321007135
 30
0.0
 11
74.8500000000001
 21
-1037.61321007135
 31
0.0
  0
LINE
  5
254
330
A
100
AcDbEntity
  8
0
  6
Continuous
 62
     7
100
AcDbLine
 10
74.85000000000005
 20
-1027.61321007135
 30
0.0
 11
74.35000000000005
 21
-1027.61321007135
 31
0.0
  0
LINE
  5
255
330
A
100
AcDbEntity
  8
0
  6
Continuous
 62
     7
100
AcDbLine
 10
64.8500000000001
 20
-1037.61321007135
 30
0.0
 11
65.35000000000009
 21
-1037.61321007135
 31
0.0
  0
LINE
  5
256
330
A
100
AcDbEntity
  8
0
  6
Continuous
 62
     7
100
AcDbLine
 10
65.35000000000005
 20
-1027.61321007135
 30
0.0
 11
64.85000000000006
 21
-1027.61321007135
 31
0.0
  0
LWPOLYLINE
  5
257
330
A
100
AcDbEntity
  8
0
  6
Continuous
 62
     7
100
AcDbPolyline
 90
       45
 70
   128
 43
0.0
 10
69.85000000000254
 20
-1734.778565475476
 10
72.43719607962929
 20
-1734.737550674618
 10
77.28204151116634
 20
-1734.439368110564
 10
82.09611299358016
 20
-1733.853625721362
 10
86.85834023795766
 20
-1732.982790302536
 10
91.54847920712814
 20
-1731.830518064323
 10
96.14658190413111
 20
-1730.401661065801
 10
100.6330798736749
 20
-1728.702249835706
 10
104.9888672091139
 20
-1726.739471455268
 10
109.1953826712619
 20
-1724.521642969498
 10
113.2346907006332
 20
-1722.058179922657
 10
117.0895610295514
 20
-1719.359559771229
 10
120.7435464974866
 20
-1716.437279904027
 10
124.1810585439598
 20
-1713.30381000816
 10
127.3874397067411
 20
-1709.972538576834
 10
130.3490323054828
 20
-1706.45771347408
 10
133.0532423670529
 20
-1702.774376660583
 10
135.4885977802809
 20
-1698.938293440787
 10
137.6447996876036
 20
-1694.965876896515
 10
139.5127662565065
 20
-1690.87410849102
 10
141.084668236885
 20
-1686.680456109005
 10
142.35395608963
 20
-1682.40279098415
 10
143.3153789266421
 20
-1678.059305001741
 10
143.9649959662486
 20
-1673.668429715369
 10
144.3001815980515
 20
-1669.24875808196
 10
144.3196253869665
 20
-1664.818969437263
 10
144.0233283698634
 20
-1660.39775768081
 10
143.4126129277065
 20
-1656.003854111416
 10
142.4901024317687
 20
-1651.655774232146
 10
141.2597043563509
 20
-1647.371832144047
 10
139.7265974736527
 20
-1643.170080663576
 10
137.8972166776235
 20
-1639.0682442931
 10
135.7792346146945
 20
-1635.083650597086
 10
133.3815389346459
 20
-1631.233159857674
 10
130.7142040222756
 20
-1627.533093390735
 10
127.7884563065296
 20
-1623.999161333443
 10
124.6166326042845
 20
-1620.646391002829
 10
121.2121313642503
 20
-1617.489057046341
 10
117.5893570611445
 20
-1614.540614569867
 10
113.7636582990547
 20
-1611.813636271537
 10
109.7512603886738
 20
-1609.319754379185
 10
105.5691932624482
 20
-1607.06960793383
 10
101.2352155993997
 20
-1605.072795720339
 10
96.76773597213909
 20
-1603.337834945187
 10
96.10000000000207
 20
-1603.124236966088
  0
LWPOLYLINE
  5
286
330
A
100
AcDbEntity
  8
0
  6
Continuous
 62
     7
100
AcDbPolyline
 90
       44
 70
   128
 43
0.0
 10
43.60000000000207
 20
-1603.129294630739
 10
39.96983839523254
 20
-1604.453075046668
 10
35.58593147277803
 20
-1606.362902078368
 10
31.34756773517352
 20
-1608.529561653696
 10
27.27281655510489
 20
-1610.94385895269
 10
23.3790580816738
 20
-1613.595529370455
 10
19.68290502137512
 20
-1616.473279377664
 10
16.20012662307064
 20
-1619.564832984886
 10
12.94557550863565
 20
-1622.85698403104
 10
9.933118140108367
 20
-1626.335654410642
 10
7.175569845269971
 20
-1629.985958179889
 10
4.684635406097578
 20
-1633.792271238273
 10
2.470856215283409
 20
-1637.738305985072
 10
0.5435648957206329
 20
-1641.807190030499
 10
-1.089151959402498
 20
-1645.981547747408
 10
-2.420482626200426
 20
-1650.243583239342
 10
-3.444910813789364
 20
-1654.57516323039
 10
-4.158228564894769
 20
-1658.957898492047
 10
-4.557542518106222
 20
-1663.373222720912
 10
-4.641274829384853
 20
-1667.802468238287
 10
-4.40916012013938
 20
-1672.226938429021
 10
-3.862251281162645
 20
-1676.627904981063
 10
-3.002909160177716
 20
-1680.986800410681
 10
-1.834780902915778
 20
-1685.285265549142
 10
-0.3627877463939777
 20
-1689.505189026155
 10
1.406889640755359
 20
-1693.628774030557
 10
3.466828784010264
 20
-1697.63860658272
 10
5.808387163936432
 20
-1701.517725543833
 10
8.421729278306887
 20
-1705.249694080796
 10
11.2958599692242
 20
-1708.818671853233
 10
14.41866463779424
 20
-1712.209486868557
 10
17.77695656416006
 20
-1715.40770579533
 10
21.35653115622599
 20
-1718.399701530931
 10
25.14222662312717
 20
-1721.172716955644
 10
29.11799034180758
 20
-1723.714924024904
 10
33.26695006479094
 20
-1726.015477605395
 10
37.57148909263561
 20
-1728.064563707389
 10
42.01332458240014
 20
-1729.853441976452
 10
46.57358825661728
 20
-1731.374482467859
 10
51.23290889064358
 20
-1732.621196834103
 10
55.97149607051692
 20
-1733.588264115537
 10
60.76922481606837
 20
-1734.271551346506
 10
65.60572074866158
 20
-1734.668129185618
 10
69.85000000000254
 20
-1734.778565475476
  0
LINE
  5
2B4
330
A
100
AcDbEntity
  8
0
  6
Continuous
 62
     7
100
AcDbLine
 10
65.35000000000166
 20
-1483.61321007135
 30
0.0
 11
65.35000000000168
 21
-1491.421467994795
 31
0.0
  0
LINE
  5
2B5
330
A
100
AcDbEntity
  8
0
  6
Continuous
 62
     7
100
AcDbLine
 10
65.3500000000016
 20
-1467.61321007135
 30
0.0
 11
65.3500000000016
 21
-1468.61321007135
 31
0.0
  0
LINE
  5
2B6
330
A
100
AcDbEntity
  8
0
  6
Continuous
 62
     7
100
AcDbLine
 10
74.3500000000016
 20
-1468.61321007135
 30
0.0
 11
74.3500000000016
 21
-1467.61321007135
 31
0.0
  0
LINE
  5
2B7
330
A
100
AcDbEntity
  8
0
  6
Continuous
 62
     7
100
AcDbLine
 10
74.35000000000169
 20
-1491.413734656476
 30
0.0
 11
74.35000000000165
 21
-1483.61321007135
 31
0.0
  0
LINE
  5
2B8
330
A
100
AcDbEntity
  8
0
  6
Continuous
 62
     7
100
AcDbLine
 10
74.34999999999991
 20
-989.6132100713499
 30
0.0
 11
65.34999999999993
 21
-989.6132100713499
 31
0.0
  0
LINE
  5
2B9
330
A
100
AcDbEntity
  8
0
  6
Continuous
 62
     7
100
AcDbLine
 10
74.84999999999994
 20
-991.6132100713499
 30
0.0
 11
74.34999999999991
 21
-991.6132100713499
 31
0.0
  0
LINE
  5
2BA
330
A
100
AcDbEntity
  8
0
  6
Continuous
 62
     7
100
AcDbLine
 10
65.34999999999993
 20
-991.6132100713499
 30
0.0
 11
64.84999999999994
 21
-991.6132100713499
 31
0.0
  0
LINE
  5
2BB
330
A
100
AcDbEntity
  8
0
  6
Continuous
 62
     7
100
AcDbLine
 10
70.44999999999993
 20
-989.6132100713499
 30
0.0
 11
70.44999999999986
 21
-968.0444280044564
 31
0.0
  0
LINE
  5
2BC
330
A
100
AcDbEntity
  8
0
  6
Continuous
 62
     7
100
AcDbLine
 10
69.24999999999986
 20
-968.044461248257
 30
0.0
 11
69.24999999999993
 21
-989.6132100713499
 31
0.0
  0
LWPOLYLINE
  5
2BD
330
A
100
AcDbEntity
  8
0
  6
Continuous
 62
     7
100
AcDbPolyline
 90
       15
 70
   128
 43
0.0
 10
75.38772144822662
 20
-961.0478108124636
 10
75.22999775597774
 20
-959.9805027045691
 10
74.78747855284151
 20
-959.0038615454352
 10
74.09970204173145
 20
-958.156512209018
 10
73.1863378967452
 20
-957.4565515187202
 10
72.07268731475685
 20
-956.9359212529761
 10
70.81224551337773
 20
-956.6334106401606
 10
69.48226519824037
 20
-956.5764528642485
 10
68.15763428946258
 20
-956.7765495314896
 10
66.90939567814649
 20
-957.2384538733487
 10
65.81286742766454
 20
-957.9626641289895
 10
65.05628596608196
 20
-958.7879697190713
 10
64.55435178284758
 20
-959.7294417993937
 10
64.32421800019622
 20
-960.7427654057456
 10
64.3439477868208
 20
-961.071512957652
  0
LINE
  5
2CE
330
A
100
AcDbEntity
  8
0
  6
Continuous
 62
     7
100
AcDbLine
 10
64.30999999999986
 20
-969.9087837154952
 30
0.0
 11
64.30999999999994
 21
-996.0776794954357
 31
0.0
  0
LINE
  5
2CF
330
A
100
AcDbEntity
  8
0
  6
Continuous
 62
     7
100
AcDbLine
 10
64.30999999999983
 20
-961.0699489506632
 30
0.0
 11
64.30999999999984
 21
-965.3125896377826
 31
0.0
  0
LINE
  5
2D0
330
A
100
AcDbEntity
  8
0
  6
Continuous
 62
     7
100
AcDbLine
 10
75.38999999999984
 20
-965.3125896377826
 30
0.0
 11
75.38999999999983
 21
-961.0699489506631
 31
0.0
  0
LINE
  5
2D1
330
A
100
AcDbEntity
  8
0
  6
Continuous
 62
     7
100
AcDbLine
 10
75.38999999999994
 20
-996.0678574821844
 30
0.0
 11
75.38999999999986
 21
-969.9087837154952
 31
0.0
  0
LINE
  5
2D2
330
A
100
AcDbEntity
  8
0
  6
Continuous
 62
     7
100
AcDbLine
 10
68.3499999999999
 20
-980.9171455409382
 30
0.0
 11
69.2499999999999
 21
-980.9171455409384
 31
0.0
  0
LINE
  5
2D3
330
A
100
AcDbEntity
  8
0
  6
Continuous
 62
     7
100
AcDbLine
 10
70.44999999999991
 20
-980.9171455409384
 30
0.0
 11
71.3499999999999
 21
-980.9171455409382
 31
0.0
  0
LINE
  5
2D4
330
A
100
AcDbEntity
  8
0
  6
Continuous
 62
     7
100
AcDbLine
 10
79.85000000000003
 20
-1021.613210071348
 30
0.0
 11
83.85000000000003
 21
-1021.613210071348
 31
0.0
  0
LINE
  5
2D5
330
A
100
AcDbEntity
  8
0
  6
Continuous
 62
     7
100
AcDbLine
 10
83.8499999999999
 20
-985.6132100713484
 30
0.0
 11
78.84999999999992
 21
-985.6132100713484
 31
0.0
  0
LINE
  5
2D6
330
A
100
AcDbEntity
  8
0
  6
Continuous
 62
     7
100
AcDbLine
 10
63.85000000000001
 20
-1014.693210071348
 30
0.0
 11
64.96803318323411
 21
-1014.693210071348
 31
0.0
  0
LINE
  5
2D7
330
A
100
AcDbEntity
  8
0
  6
Continuous
 62
     7
100
AcDbLine
 10
74.73196681676592
 20
-1014.693210071348
 30
0.0
 11
74.85000000000001
 21
-1014.693210071348
 31
0.0
  0
LINE
  5
2D8
330
A
100
AcDbEntity
  8
0
  6
Continuous
 62
     7
100
AcDbLine
 10
75.84999999999993
 20
-992.5332100713484
 30
0.0
 11
75.38999999999994
 21
-992.5332100713484
 31
0.0
  0
LINE
  5
2D9
330
A
100
AcDbEntity
  8
0
  6
Continuous
 62
     7
100
AcDbLine
 10
64.30999999999993
 20
-992.5332100713484
 30
0.0
 11
63.84999999999994
 21
-992.5332100713484
 31
0.0
  0
LINE
  5
2DA
330
A
100
AcDbEntity
  8
0
  6
Continuous
 62
     7
100
AcDbLine
 10
75.84999999999999
 20
-1009.613210071348
 30
0.0
 11
78.85000000000001
 21
-1009.613210071348
 31
0.0
  0
LINE
  5
2DB
330
A
100
AcDbEntity
  8
0
  6
Continuous
 62
     7
100
AcDbLine
 10
78.84999999999997
 20
-997.6132100713483
 30
0.0
 11
75.84999999999997
 21
-997.6132100713483
 31
0.0
  0
ARC
  5
2DC
330
A
100
AcDbEntity
  8
0
  6
Continuous
 62
     7
100
AcDbCircle
 10
69.85000000000001
 20
-1009.153210071348
 30
0.0
 40
12.49999999999995
100
AcDbArc
 50
291.100196024094
 51
293.5781784782029
  0
ARC
  5
2DD
330
A
100
AcDbEntity
  8
0
  6
Continuous
 62
     7
100
AcDbCircle
 10
69.85000000000001
 20
-1009.153210071348
 30
0.0
 40
12.50000000000003
100
AcDbArc
 50
118.685402014119
 51
248.8998039759079
  0
ARC
  5
2DE
330
A
100
AcDbEntity
  8
0
  6
Continuous
 62
     7
100
AcDbCircle
 10
69.85000000000001
 20
-1009.153210071346
 30
0.0
 40
165.0000000000001
100
AcDbArc
 50
272.4314597757397
 51
267.5685402242623
  0
LINE
  5
2DF
330
A
100
AcDbEntity
  8
0
  6
Continuous
 62
     7
100
AcDbLine
 10
64.84999999999996
 20
-998.6772883944388
 30
0.0
 11
64.84999999999998
 21
-1004.677288394439
 31
0.0
  0
LINE
  5
2E0
330
A
100
AcDbEntity
  8
0
  6
Continuous
 62
     7
100
AcDbLine
 10
74.84999999999995
 20
-998.6772883944388
 30
0.0
 11
74.84999999999998
 21
-1004.677288394439
 31
0.0
  0
LWPOLYLINE
  5
2E1
330
A
100
AcDbEntity
  8
0
  6
Continuous
 62
     7
100
AcDbPolyline
 90
       61
 70
   128
 43
0.0
 10
69.85000000000226
 20
-1661.799482846581
 10
73.27625510854052
 20
-1661.636087997315
 10
76.66497144911966
 20
-1661.147693637678
 10
79.9790215363778
 20
-1660.339650718479
 10
83.18209594404939
 20
-1659.220812327032
 10
86.23910111863756
 20
-1657.803436690888
 10
89.11654387173005
 20
-1656.103052874119
 10
91.78289833838038
 20
-1654.138290637652
 10
94.20895138108141
 20
-1651.930676327702
 10
96.36812265501303
 20
-1649.504397028622
 10
98.23675582786243
 20
-1646.886035564143
 10
99.79437776355126
 20
-1644.104279250399
 10
101.0239228301987
 20
-1641.189605591682
 10
101.9119198747558
 20
-1638.173948362532
 10
102.448639815777
 20
-1635.090347734618
 10
102.6282022372726
 20
-1631.972588281706
 10
102.448639815777
 20
-1628.854828828793
 10
101.9119198747557
 20
-1625.77122820088
 10
101.0239228301986
 20
-1622.75557097173
 10
99.79437776355108
 20
-1619.840897313013
 10
98.23675582786222
 20
-1617.059140999268
 10
96.36812265501278
 20
-1614.44077953479
 10
94.20895138108113
 20
-1612.014500235709
 10
91.78289833838006
 20
-1609.806885925759
 10
89.11654387172969
 20
-1607.842123689292
 10
86.23910111863718
 20
-1606.141739872524
 10
83.18209594404899
 20
-1604.724364236379
 10
79.9790215363774
 20
-1603.605525844933
 10
76.66497144911923
 20
-1602.797482925733
 10
73.27625510854011
 20
-1602.309088566096
 10
69.85000000000184
 20
-1602.14569371683
 10
66.42374489146359
 20
-1602.309088566096
 10
63.03502855088447
 20
-1602.797482925733
 10
59.72097846362633
 20
-1603.605525844933
 10
56.51790405595477
 20
-1604.72436423638
 10
53.46089888136661
 20
-1606.141739872524
 10
50.58345612827412
 20
-1607.842123689292
 10
47.9171016616238
 20
-1609.80688592576
 10
45.4910486189228
 20
-1612.01450023571
 10
43.33187734499118
 20
-1614.44077953479
 10
41.4632441721418
 20
-1617.059140999269
 10
39.90562223645301
 20
-1619.840897313013
 10
38.67607716980556
 20
-1622.75557097173
 10
37.78808012524848
 20
-1625.77122820088
 10
37.2513601842273
 20
-1628.854828828794
 10
37.07179776273168
 20
-1631.972588281706
 10
37.2513601842274
 20
-1635.090347734619
 10
37.78808012524868
 20
-1638.173948362533
 10
38.67607716980584
 20
-1641.189605591682
 10
39.90562223645337
 20
-1644.104279250399
 10
41.46324417214224
 20
-1646.886035564144
 10
43.3318773449917
 20
-1649.504397028622
 10
45.49104861892339
 20
-1651.930676327703
 10
47.91710166162445
 20
-1654.138290637653
 10
50.58345612827483
 20
-1656.10305287412
 10
53.46089888136738
 20
-1657.803436690888
 10
56.51790405595557
 20
-1659.220812327033
 10
59.72097846362717
 20
-1660.339650718479
 10
63.03502855088533
 20
-1661.147693637678
 10
66.42374489146447
 20
-1661.636087997315
 10
69.85000000000226
 20
-1661.799482846581
  0
LWPOLYLINE
  5
320
330
A
100
AcDbEntity
  8
0
  6
Continuous
 62
     7
100
AcDbPolyline
 90
       33
 70
   128
 43
0.0
 10
104.0489137040209
 20
-1631.84777837257
 10
104.0050738725536
 20
-1630.327044376497
 10
103.6545965954216
 20
-1627.190840641423
 10
102.9572384122925
 20
-1624.102992430465
 10
101.9201551618017
 20
-1621.095185244794
 10
100.5539887214969
 20
-1618.198283256347
 10
98.87275780777439
 20
-1615.442012599661
 10
96.8937141248778
 20
-1612.854656341505
 10
94.63716533906767
 20
-1610.462764258337
 10
92.12626669448479
 20
-1608.290880399681
 10
89.38678340901134
 20
-1606.361291232953
 10
86.44682628826947
 20
-1604.693796954155
 10
83.33656327071558
 20
-1603.305508311069
 10
80.08790986376817
 20
-1602.210671023827
 10
76.73420164751293
 20
-1601.420519604548
 10
73.30985220654096
 20
-1600.943162076039
 10
69.85000000000183
 20
-1600.783496772511
 10
66.39014779346268
 20
-1600.943162076039
 10
62.96579835249075
 20
-1601.420519604548
 10
59.61209013623552
 20
-1602.210671023827
 10
56.36343672928812
 20
-1603.305508311069
 10
53.25317371173428
 20
-1604.693796954156
 10
50.31321659099243
 20
-1606.361291232953
 10
47.57373330551902
 20
-1608.290880399681
 10
45.06283466093619
 20
-1610.462764258338
 10
42.80628587512611
 20
-1612.854656341505
 10
40.82724219222956
 20
-1615.442012599662
 10
39.14601127850711
 20
-1618.198283256347
 10
37.77984483820242
 20
-1621.095185244794
 10
36.74276158771161
 20
-1624.102992430466
 10
36.04540340458259
 20
-1627.190840641424
 10
35.69492612745065
 20
-1630.327044376498
 10
35.65103575880705
 20
-1631.88863737128
  0
LWPOLYLINE
  5
343
330
A
100
AcDbEntity
  8
0
  6
Continuous
 62
     7
100
AcDbPolyline
 90
       10
 70
   128
 43
0.0
 10
76.00554843153203
 20
-1601.316338288522
 10
76.66278667944038
 20
-1601.392734423487
 10
80.56985156941575
 20
-1602.213841114379
 10
84.14191451012774
 20
-1603.268448696597
 10
87.35043071232089
 20
-1604.434664508279
 10
90.42188406297595
 20
-1605.706383191433
 10
92.91781431351981
 20
-1606.798113727223
 10
94.73006695860121
 20
-1607.547245448193
 10
95.81031685629747
 20
-1607.879773709281
 10
96.09188075595803
 20
-1607.797835365242
  0
LWPOLYLINE
  5
34F
330
A
100
AcDbEntity
  8
0
  6
Continuous
 62
     7
100
AcDbPolyline
 90
       10
 70
   128
 43
0.0
 10
43.65778586699137
 20
-1607.771834551104
 10
43.81939456333833
 20
-1607.884690860602
 10
44.69897073687005
 20
-1607.650088410007
 10
46.06622335169734
 20
-1607.10472559252
 10
47.91529940052911
 20
-1606.301936302867
 10
50.34295970176041
 20
-1605.252235904657
 10
53.19673778357597
 20
-1604.10825250244
 10
56.9161052753554
 20
-1602.836317303881
 10
61.0603116565626
 20
-1601.762408500501
 10
63.69500454608932
 20
-1601.298647885785
  0
LWPOLYLINE
  5
35B
330
A
100
AcDbEntity
  8
0
  6
Continuous
 62
     7
100
AcDbPolyline
 90
       41
 70
   128
 43
0.0
 10
69.85000000000251
 20
-1730.218799560235
 10
74.84950094031977
 20
-1730.058146183185
 10
79.82409461843488
 20
-1729.576986419077
 10
84.74899785887314
 20
-1728.777717381655
 10
89.5996750414209
 20
-1727.664320989057
 10
94.35196033635113
 20
-1726.242344126107
 10
98.98217809737168
 20
-1724.518871010007
 10
103.4672608125042
 20
-1722.502487897128
 10
107.7848640252684
 20
-1720.203240306713
 10
111.9134776536403
 20
-1717.632582974601
 10
115.8325331521991
 20
-1714.803322786312
 10
119.5225059835852
 20
-1711.729554973788
 10
122.9650128887641
 20
-1708.426592893657
 10
126.1429034714974
 20
-1704.910891736856
 10
129.0403456407548
 20
-1701.199966549705
 10
131.6429044853947
 20
-1697.31230497482
 10
133.9376141881659
 20
-1693.267275146613
 10
135.9130426207566
 20
-1689.085029200216
 10
137.5593482980827
 20
-1684.786402874561
 10
138.8683294080713
 20
-1680.392811709774
 10
139.8334646726764
 20
-1675.926144356035
 10
140.4499458365574
 20
-1671.40865352542
 10
140.7147016215658
 20
-1666.862845130008
 10
140.6264130276983
 20
-1662.311366158568
 10
140.1855199042885
 20
-1657.776891850385
 10
139.3942187586997
 20
-1653.282012728375
 10
138.2564518134355
 20
-1648.849122054223
 10
136.7778873661858
 20
-1644.500304266286
 10
134.9658915506527
 20
-1640.257224956032
 10
132.8294916388431
 20
-1636.141022931151
 10
130.3793310676535
 20
-1632.17220490308
 10
127.6276164138026
 20
-1628.370543323597
 10
124.5880565812805
 20
-1624.754977879462
 10
121.2757945042784
 20
-1621.343521135849
 10
117.707331705852
 20
-1618.153168798653
 10
113.900446088164
 20
-1615.199815042739
 10
109.8741033638694
 20
-1612.498173327959
 10
105.6483625698896
 20
-1610.061703097441
 10
101.244276134299
 20
-1607.902542723315
 10
96.68378499418734
 20
-1606.031449033956
 10
96.10000000000207
 20
-1605.816900176755
  0
LWPOLYLINE
  5
386
330
A
100
AcDbEntity
  8
0
  6
Continuous
 62
     7
100
AcDbPolyline
 90
       41
 70
   128
 43
0.0
 10
43.60000000000208
 20
-1605.816900176755
 10
43.0162150058159
 20
-1606.031449033956
 10
38.45572386570429
 20
-1607.902542723316
 10
34.0516374301137
 20
-1610.061703097442
 10
29.82589663613398
 20
-1612.49817332796
 10
25.79955391183949
 20
-1615.199815042739
 10
21.99266829415151
 20
-1618.153168798654
 10
18.42420549572518
 20
-1621.34352113585
 10
15.11194341872315
 20
-1624.754977879463
 10
12.07238358620118
 20
-1628.370543323599
 10
9.320668932350388
 20
-1632.172204903081
 10
6.870508361160834
 20
-1636.141022931152
 10
4.734108449351348
 20
-1640.257224956033
 10
2.922112633818377
 20
-1644.500304266287
 10
1.443548186568777
 20
-1648.849122054224
 10
0.3057812413046479
 20
-1653.282012728376
 10
-0.4855199042840681
 20
-1657.776891850387
 10
-0.9264130276937232
 20
-1662.311366158569
 10
-1.0147016215611
 20
-1666.86284513001
 10
-0.749945836552593
 20
-1671.408653525421
 10
-0.1334646726715016
 20
-1675.926144356036
 10
0.8316705919336753
 20
-1680.392811709776
 10
2.140651701922444
 20
-1684.786402874562
 10
3.786957379248598
 20
-1689.085029200217
 10
5.762385811839368
 20
-1693.267275146615
 10
8.057095514610681
 20
-1697.312304974822
 10
10.65965435925072
 20
-1701.199966549706
 10
13.55709652850818
 20
-1704.910891736857
 10
16.73498711124158
 20
-1708.426592893658
 10
20.17749401642049
 20
-1711.729554973789
 10
23.86746684780669
 20
-1714.803322786313
 10
27.78652234636544
 20
-1717.632582974601
 10
31.91513597473746
 20
-1720.203240306714
 10
36.23273918750171
 20
-1722.502487897129
 10
40.71782190263427
 20
-1724.518871010007
 10
45.34803966365486
 20
-1726.242344126107
 10
50.1003249585851
 20
-1727.664320989057
 10
54.95100214113286
 20
-1728.777717381655
 10
59.87590538157114
 20
-1729.576986419077
 10
64.85049905968626
 20
-1730.058146183185
 10
69.85000000000251
 20
-1730.218799560235
  0
LWPOLYLINE
  5
3B1
330
A
100
AcDbEntity
  8
0
  6
Continuous
 62
     7
100
AcDbPolyline
 90
       10
 70
   128
 43
0.0
 10
99.53251929292513
 20
-1644.625912741129
 10
99.60684520150735
 20
-1644.475137521333
 10
100.8286900000672
 20
-1641.578717580328
 10
101.7111257882786
 20
-1638.581946498384
 10
102.2444844149845
 20
-1635.517657526589
 10
102.4229222914582
 20
-1632.419423656164
 10
102.2444844149845
 20
-1629.321189785738
 10
101.7111257882785
 20
-1626.256900813944
 10
100.828690000067
 20
-1623.260129731999
 10
100.5856536813386
 20
-1622.605548960299
  0
LWPOLYLINE
  5
3BD
330
A
100
AcDbEntity
  8
0
  6
Continuous
 62
     7
100
AcDbPolyline
 90
       10
 70
   128
 43
0.0
 10
39.49406674540096
 20
-1621.671375636121
 10
38.87130999993713
 20
-1623.260129732
 10
37.98887421172569
 20
-1626.256900813944
 10
37.4555155850198
 20
-1629.321189785738
 10
37.27707770854615
 20
-1632.419423656164
 10
37.45551558501989
 20
-1635.51765752659
 10
37.98887421172587
 20
-1638.581946498385
 10
38.8713099999374
 20
-1641.578717580328
 10
40.09315479849728
 20
-1644.475137521334
 10
40.1674807070793
 20
-1644.625912741129
  0
LWPOLYLINE
  5
3C9
330
A
100
AcDbEntity
  8
0
  6
Continuous
 62
     7
100
AcDbPolyline
 90
       38
 70
   128
 43
0.0
 10
69.85000000000221
 20
-1644.131023960511
 10
71.96251025402533
 20
-1643.967411904255
 10
74.01424743427795
 20
-1643.481282556461
 10
75.94618679767267
 20
-1642.68662097337
 10
77.70274996619775
 20
-1641.606288121891
 10
79.23340381566127
 20
-1640.271363211204
 10
80.49411422166862
 20
-1638.720249600498
 10
81.44861284120857
 20
-1636.997570004248
 10
82.06944048684828
 20
-1635.152882777962
 10
82.33873707756071
 20
-1633.239256214527
 10
82.24875544073814
 20
-1631.311741866043
 10
81.8020841842428
 20
-1629.425790810899
 10
81.01157322687175
 20
-1627.635658427208
 10
79.89996412958887
 20
-1625.992843564364
 10
78.49923586222144
 20
-1624.544607014905
 10
76.84968482672203
 20
-1623.332611907561
 10
74.99876560305198
 20
-1622.391725134897
 10
72.99972576731612
 20
-1621.749014296295
 10
70.9100740559459
 20
-1621.422969012399
 10
68.78992594405817
 20
-1621.4229690124
 10
66.70027423268797
 20
-1621.749014296295
 10
64.70123439695213
 20
-1622.391725134897
 10
62.8503151732821
 20
-1623.332611907561
 10
61.20076413778273
 20
-1624.544607014905
 10
59.80003587041531
 20
-1625.992843564364
 10
58.68842677313249
 20
-1627.635658427208
 10
57.89791581576148
 20
-1629.425790810899
 10
57.45124455926618
 20
-1631.311741866043
 10
57.36126292244366
 20
-1633.239256214528
 10
57.63055951315614
 20
-1635.152882777962
 10
58.25138715879588
 20
-1636.997570004248
 10
59.20588577833588
 20
-1638.720249600498
 10
60.46659618434325
 20
-1640.271363211204
 10
61.99725003380681
 20
-1641.606288121892
 10
63.75381320233191
 20
-1642.68662097337
 10
65.68575256572666
 20
-1643.481282556461
 10
67.73748974597928
 20
-1643.967411904255
 10
69.85000000000221
 20
-1644.131023960511
  0
LWPOLYLINE
  5
3F1
330
A
100
AcDbEntity
  8
0
  6
Continuous
 62
     7
100
AcDbPolyline
 90
       20
 70
   128
 43
0.0
 10
82.34792296323503
 20
-1632.963854695678
 10
82.24875544073814
 20
-1631.726435108699
 10
81.8020841842428
 20
-1629.840484053555
 10
81.01157322687175
 20
-1628.050351669864
 10
79.89996412958887
 20
-1626.40753680702
 10
78.49923586222144
 20
-1624.959300257561
 10
76.84968482672203
 20
-1623.747305150217
 10
74.99876560305198
 20
-1622.806418377553
 10
72.99972576731612
 20
-1622.163707538951
 10
70.9100740559459
 20
-1621.837662255056
 10
68.78992594405817
 20
-1621.837662255056
 10
66.70027423268797
 20
-1622.163707538951
 10
64.70123439695213
 20
-1622.806418377554
 10
62.8503151732821
 20
-1623.747305150217
 10
61.20076413778273
 20
-1624.959300257561
 10
59.8000358704153
 20
-1626.40753680702
 10
58.68842677313249
 20
-1628.050351669864
 10
57.89791581576148
 20
-1629.840484053555
 10
57.45124455926618
 20
-1631.726435108699
 10
57.35207703676932
 20
-1632.963854695678
  0
LWPOLYLINE
  5
407
330
A
100
AcDbEntity
  8
0
  6
Continuous
 62
     7
100
AcDbPolyline
 90
        7
 70
   128
 43
0.0
 10
72.34999999999995
 20
-995.3517541797697
 10
72.36012119033244
 20
-995.3545650884873
 10
72.88674478740638
 20
-995.5456771233857
 10
73.47981827635876
 20
-995.8858115954685
 10
73.94442063351778
 20
-996.305157117283
 10
74.24487941040422
 20
-996.7722501743113
 10
74.34999999999994
 20
-997.2472377603834
  0
LWPOLYLINE
  5
410
330
A
100
AcDbEntity
  8
0
  6
Continuous
 62
     7
100
AcDbPolyline
 90
        7
 70
   128
 43
0.0
 10
65.34999999999995
 20
-997.2472377603834
 10
65.45512058959568
 20
-996.7722501743114
 10
65.75557936648213
 20
-996.305157117283
 10
66.22018172364113
 20
-995.8858115954685
 10
66.81325521259353
 20
-995.5456771233857
 10
67.33987880966818
 20
-995.3545650884885
 10
67.34999999999994
 20
-995.3517541797697
  0
LWPOLYLINE
  5
419
330
A
100
AcDbEntity
  8
0
  6
Continuous
 62
     7
100
AcDbPolyline
 90
        9
 70
   128
 43
0.0
 10
71.34999999999998
 20
-1005.34539417263
 10
71.16658755956241
 20
-1005.380435515335
 10
70.98154537179114
 20
-1005.410892890872
 10
70.79510249248269
 20
-1005.436728597361
 10
70.6074897112896
 20
-1005.457910653888
 10
70.41893926603589
 20
-1005.474412840092
 10
70.22968455523967
 20
-1005.486214728624
 10
70.03995984919929
 20
-1005.493301710433
 10
69.84999999999998
 20
-1005.495665012846
  0
LWPOLYLINE
  5
424
330
A
100
AcDbEntity
  8
0
  6
Continuous
 62
     7
100
AcDbPolyline
 90
        9
 70
   128
 43
0.0
 10
69.84999999999998
 20
-1005.495665012846
 10
69.66004015080068
 20
-1005.493301710433
 10
69.47031544476029
 20
-1005.486214728624
 10
69.28106073396408
 20
-1005.474412840092
 10
69.09251028871037
 20
-1005.457910653888
 10
68.9048975075173
 20
-1005.436728597361
 10
68.71845462820885
 20
-1005.410892890872
 10
68.53341244043756
 20
-1005.380435515334
 10
68.34999999999998
 20
-1005.34539417263
  0
LINE
  5
42F
330
A
100
AcDbEntity
  8
0
  6
Continuous
 62
     7
100
AcDbLine
 10
65.34999999999998
 20
-1004.696958434494
 30
0.0
 11
65.35000000000005
 21
-1025.631409116048
 31
0.0
  0
LWPOLYLINE
  5
430
330
A
100
AcDbEntity
  8
0
  6
Continuous
 62
     7
100
AcDbPolyline
 90
        4
 70
   128
 43
0.0
 10
65.34999999999996
 20
-1002.878992538223
 10
65.51853353016563
 20
-1003.671018366534
 10
65.50554590457851
 20
-1004.317084706191
 10
65.35
 20
-1004.696958434494
  0
LINE
  5
436
330
A
100
AcDbEntity
  8
0
  6
Continuous
 62
     7
100
AcDbLine
 10
65.34999999999995
 20
-997.2472377603834
 30
0.0
 11
65.34999999999996
 21
-1002.878992538223
 31
0.0
  0
LINE
  5
437
330
A
100
AcDbEntity
  8
0
  6
Continuous
 62
     7
100
AcDbLine
 10
74.34999999999996
 20
-1002.878992538223
 30
0.0
 11
74.34999999999994
 21
-997.2472377603834
 31
0.0
  0
LWPOLYLINE
  5
438
330
A
100
AcDbEntity
  8
0
  6
Continuous
 62
     7
100
AcDbPolyline
 90
        4
 70
   128
 43
0.0
 10
74.34999999999998
 20
-1004.696958434494
 10
74.1814664698343
 20
-1004.243908895871
 10
74.19445409542148
 20
-1003.573066712823
 10
74.34999999999998
 20
-1002.878992538223
  0
LINE
  5
43E
330
A
100
AcDbEntity
  8
0
  6
Continuous
 62
     7
100
AcDbLine
 10
74.35000000000004
 20
-1025.631409116048
 30
0.0
 11
74.34999999999998
 21
-1004.696958434494
 31
0.0
  0
LINE
  5
43F
330
A
100
AcDbEntity
  8
0
  6
Continuous
 62
     7
100
AcDbLine
 10
65.34999999999995
 20
-997.2472377603834
 30
0.0
 11
65.34999999999993
 21
-993.0258635765422
 31
0.0
  0
LWPOLYLINE
  5
440
330
A
100
AcDbEntity
  8
0
  6
Continuous
 62
     7
100
AcDbPolyline
 90
        7
 70
   128
 43
0.0
 10
65.34999999999993
 20
-993.0258635765422
 10
65.45512058959568
 20
-992.595940095132
 10
65.75557936648213
 20
-992.2604180304364
 10
66.22018172364112
 20
-992.0534042847966
 10
66.81325521259359
 20
-992.0027572492333
 10
67.33987880966769
 20
-992.0901453414005
 10
67.34999999999994
 20
-992.0929200324097
  0
LWPOLYLINE
  5
449
330
A
100
AcDbEntity
  8
0
  6
Continuous
 62
     7
100
AcDbPolyline
 90
        7
 70
   128
 43
0.0
 10
72.34999999999992
 20
-992.0929200324097
 10
72.36012119033171
 20
-992.0901453413998
 10
72.88674478740628
 20
-992.0027572492333
 10
73.47981827635874
 20
-992.0534042847965
 10
73.94442063351775
 20
-992.2604180304364
 10
74.24487941040418
 20
-992.5959400951319
 10
74.34999999999992
 20
-993.0258635765422
  0
LINE
  5
452
330
A
100
AcDbEntity
  8
0
  6
Continuous
 62
     7
100
AcDbLine
 10
74.34999999999992
 20
-993.0258635765422
 30
0.0
 11
74.34999999999994
 21
-997.2472377603834
 31
0.0
  0
LWPOLYLINE
  5
453
330
A
100
AcDbEntity
  8
0
  6
Continuous
 62
     7
100
AcDbPolyline
 90
       13
 70
   128
 43
0.0
 10
70.43983841496604
 20
-1012.769907504028
 10
70.44769394307518
 20
-1012.704007893779
 10
70.30884993889928
 20
-1012.160165330646
 10
70.21635217968508
 20
-1011.985622390082
 10
70.06571529431702
 20
-1011.801409972404
 10
69.98471982386984
 20
-1011.743624453002
 10
69.88731971789507
 20
-1011.70973946193
 10
69.8101451406831
 20
-1011.710134347512
 10
69.73730139068165
 20
-1011.732591376079
 10
69.63465137379303
 20
-1011.801086496553
 10
69.48739119814179
 20
-1011.979695882935
 10
69.30007161758571
 20
-1012.417811737691
 10
69.26810672365796
 20
-1012.769710328272
  0
LINE
  5
462
330
A
100
AcDbEntity
  8
0
  6
Continuous
 62
     7
100
AcDbLine
 10
68.34999999999998
 20
-1005.495665012846
 30
0.0
 11
68.35000000000002
 21
-1014.884752309371
 31
0.0
  0
LINE
  5
463
330
A
100
AcDbEntity
  8
0
  6
Continuous
 62
     7
100
AcDbLine
 10
71.34999999999998
 20
-1005.495665012846
 30
0.0
 11
71.35000000000001
 21
-1014.884752309371
 31
0.0
  0
LWPOLYLINE
  5
464
330
A
100
AcDbEntity
  8
0
  6
Continuous
 62
     7
100
AcDbPolyline
 90
       12
 70
   128
 43
0.0
 10
69.26123657937234
 20
-1472.725445813581
 10
69.2522657314166
 20
-1472.810048949838
 10
69.43081197374382
 20
-1473.608634847523
 10
69.64090242536965
 20
-1473.960365339141
 10
69.7193592407189
 20
-1474.027410689729
 10
69.79477503609934
 20
-1474.062398797129
 10
69.86116083990051
 20
-1474.069681343563
 10
69.92632676989277
 20
-1474.055482079006
 10
70.00831298771808
 20
-1474.007375617252
 10
70.12482970927428
 20
-1473.879172825669
 10
70.33574116787526
 20
-1473.425421659981
 10
70.43370999871278
 20
-1472.718785650119
  0
LINE
  5
472
330
A
100
AcDbEntity
  8
0
  6
Continuous
 62
     7
100
AcDbLine
 10
71.34999999999998
 20
-1005.34539417263
 30
0.0
 11
71.34999999999998
 21
-1005.495665012846
 31
0.0
  0
LINE
  5
473
330
A
100
AcDbEntity
  8
0
  6
Continuous
 62
     7
100
AcDbLine
 10
68.34999999999998
 20
-1005.34539417263
 30
0.0
 11
68.34999999999998
 21
-1005.495665012846
 31
0.0
  0
LINE
  5
474
330
A
100
AcDbEntity
  8
0
  6
Continuous
 62
     7
100
AcDbLine
 10
66.73075658233059
 20
-1600.91321007135
 30
0.0
 11
43.60000000000207
 21
-1600.91321007135
 31
0.0
  0
LINE
  5
475
330
A
100
AcDbEntity
  8
0
  6
Continuous
 62
     7
100
AcDbLine
 10
96.10000000000205
 20
-1600.91321007135
 30
0.0
 11
72.96924341767354
 21
-1600.91321007135
 31
0.0
  0
LWPOLYLINE
  5
476
330
A
100
AcDbEntity
  8
0
  6
Continuous
 62
     7
100
AcDbPolyline
 90
       11
 70
   128
 43
0.0
 10
93.80000000000199
 20
-1577.61321007135
 10
93.67782406853169
 20
-1577.213400198438
 10
93.36219160575458
 20
-1576.068934553361
 10
92.96863387072654
 20
-1574.250689019769
 10
92.66578310688649
 20
-1571.904148032418
 10
92.60622250520324
 20
-1569.410954629059
 10
92.79501274694926
 20
-1567.093092530993
 10
93.14784525971271
 20
-1565.069690095636
 10
93.53292140771452
 20
-1563.515614569662
 10
93.77271648661411
 20
-1562.700797232144
 10
93.76835389859902
 20
-1562.714903205787
  0
LINE
  5
483
330
A
100
AcDbEntity
  8
0
  6
Continuous
 62
     7
100
AcDbLine
 10
93.80000000000194
 20
-1560.11321007135
 30
0.0
 11
45.90000000000189
 21
-1560.11321007135
 31
0.0
  0
LWPOLYLINE
  5
484
330
A
100
AcDbEntity
  8
0
  6
Continuous
 62
     7
100
AcDbPolyline
 90
       12
 70
   128
 43
0.0
 10
45.93164610140483
 20
-1562.714903205787
 10
45.93670679489725
 20
-1562.731266430729
 10
46.17001781351095
 20
-1563.526173077942
 10
46.54249007640403
 20
-1565.025232198107
 10
46.91298634932818
 20
-1567.154478043742
 10
47.0995155157261
 20
-1569.631500335851
 10
47.02177241646125
 20
-1572.056268126563
 10
46.73453124327905
 20
-1574.232966841237
 10
46.34421068286266
 20
-1576.04360899737
 10
46.01378349050086
 20
-1577.241514041286
 10
45.90000000000195
 20
-1577.61321007135
 10
45.90000000000195
 20
-1577.61321007135
  0
LINE
  5
492
330
A
100
AcDbEntity
  8
0
  6
Continuous
 62
     7
100
AcDbLine
 10
93.80000000000201
 20
-1580.11321007135
 30
0.0
 11
45.90000000000197
 21
-1580.11321007135
 31
0.0
  0
LINE
  5
493
330
A
100
AcDbEntity
  8
0
  6
Continuous
 62
     7
100
AcDbLine
 10
81.10000000000164
 20
-1518.11321007135
 30
0.0
 11
58.60000042530188
 21
-1518.11321007135
 31
0.0
  0
LINE
  5
494
330
A
100
AcDbEntity
  8
0
  6
Continuous
 62
     7
100
AcDbLine
 10
74.85000000000001
 20
-1014.61321007135
 30
0.0
 11
74.85000000000013
 21
-1050.61321007135
 31
0.0
  0
LINE
  5
495
330
A
100
AcDbEntity
  8
0
  6
Continuous
 62
     7
100
AcDbLine
 10
79.85000000000002
 20
-1014.61321007135
 30
0.0
 11
79.85000000000013
 21
-1050.61321007135
 31
0.0
  0
LINE
  5
496
330
A
100
AcDbEntity
  8
0
  6
Continuous
 62
     7
100
AcDbLine
 10
64.8500000000016
 20
-1468.61321007135
 30
0.0
 11
64.85000000000166
 21
-1483.61321007135
 31
0.0
  0
LINE
  5
497
330
A
100
AcDbEntity
  8
0
  6
Continuous
 62
     7
100
AcDbLine
 10
74.8500000000016
 20
-1468.61321007135
 30
0.0
 11
74.85000000000166
 21
-1483.61321007135
 31
0.0
  0
LINE
  5
498
330
A
100
AcDbEntity
  8
0
  6
Continuous
 62
     7
100
AcDbLine
 10
74.35000000000005
 20
-1025.631409116048
 30
0.0
 11
74.35000000000005
 21
-1029.478126927496
 31
0.0
  0
LINE
  5
499
330
A
100
AcDbEntity
  8
0
  6
Continuous
 62
     7
100
AcDbLine
 10
65.35000000000007
 20
-1029.478126927496
 30
0.0
 11
65.35000000000005
 21
-1025.631409116048
 31
0.0
  0
LINE
  5
49A
330
A
100
AcDbEntity
  8
0
  6
Continuous
 62
     7
100
AcDbLine
 10
74.35000000000009
 20
-1042.344622917317
 30
0.0
 11
74.35000000000005
 21
-1029.478126927496
 31
0.0
  0
LINE
  5
49B
330
A
100
AcDbEntity
  8
0
  6
Continuous
 62
     7
100
AcDbLine
 10
65.3500000000001
 20
-1042.344622917317
 30
0.0
 11
65.35000000000007
 21
-1029.478126927496
 31
0.0
  0
LINE
  5
49C
330
A
100
AcDbEntity
  8
0
  6
Continuous
 62
     7
100
AcDbLine
 10
36.85000000000193
 20
-1564.11321007135
 30
0.0
 11
40.85000000000192
 21
-1564.11321007135
 31
0.0
  0
LINE
  5
49D
330
A
100
AcDbEntity
  8
0
  6
Continuous
 62
     7
100
AcDbLine
 10
34.85000000000198
 20
-1577.61321007135
 30
0.0
 11
34.85000000000192
 21
-1562.61321007135
 31
0.0
  0
LINE
  5
49E
330
A
100
AcDbEntity
  8
0
  6
Continuous
 62
     7
100
AcDbLine
 10
98.85000000000195
 20
-1564.11321007135
 30
0.0
 11
102.8500000000019
 21
-1564.11321007135
 31
0.0
  0
LINE
  5
49F
330
A
100
AcDbEntity
  8
0
  6
Continuous
 62
     7
100
AcDbLine
 10
104.8500000000019
 20
-1577.61321007135
 30
0.0
 11
104.8500000000019
 21
-1562.61321007135
 31
0.0
  0
LINE
  5
4A0
330
A
100
AcDbEntity
  8
0
  6
Continuous
 62
     7
100
AcDbLine
 10
76.85000000000163
 20
-1467.61321007135
 30
0.0
 11
70.45000000000161
 21
-1467.61321007135
 31
0.0
  0
LINE
  5
4A1
330
A
100
AcDbEntity
  8
0
  6
Continuous
 62
     7
100
AcDbLine
 10
69.25000000000159
 20
-1467.61321007135
 30
0.0
 11
62.85000000000157
 21
-1467.61321007135
 31
0.0
  0
LINE
  5
4A2
330
A
100
AcDbEntity
  8
0
  6
Continuous
 62
     7
100
AcDbLine
 10
76.85000000000025
 20
-1077.61321007135
 30
0.0
 11
70.45000000000024
 21
-1077.61321007135
 31
0.0
  0
LINE
  5
4A3
330
A
100
AcDbEntity
  8
0
  6
Continuous
 62
     7
100
AcDbLine
 10
69.25000000000022
 20
-1077.61321007135
 30
0.0
 11
62.85000000000021
 21
-1077.61321007135
 31
0.0
  0
LINE
  5
4A4
330
A
100
AcDbEntity
  8
0
  6
Continuous
 62
     7
100
AcDbLine
 10
74.35000000000009
 20
-1042.344622917317
 30
0.0
 11
74.35000000000011
 21
-1045.471929983447
 31
0.0
  0
LINE
  5
4A5
330
A
100
AcDbEntity
  8
0
  6
Continuous
 62
     7
100
AcDbLine
 10
65.35000000000012
 20
-1045.471929983448
 30
0.0
 11
65.3500000000001
 21
-1042.344622917317
 31
0.0
  0
LINE
  5
4A6
330
A
100
AcDbEntity
  8
0
  6
Continuous
 62
     7
100
AcDbLine
 10
76.10000000000173
 20
-1509.11321007135
 30
0.0
 11
63.60000000000177
 21
-1509.11321007135
 31
0.0
  0
LINE
  5
4A7
330
A
100
AcDbEntity
  8
0
  6
Continuous
 62
     7
100
AcDbLine
 10
74.35000000000011
 20
-1045.471929983447
 30
0.0
 11
74.35000000000022
 21
-1077.61321007135
 31
0.0
  0
LINE
  5
4A8
330
A
100
AcDbEntity
  8
0
  6
Continuous
 62
     7
100
AcDbLine
 10
65.35000000000022
 20
-1077.61321007135
 30
0.0
 11
65.35000000000012
 21
-1045.471929983448
 31
0.0
  0
LINE
  5
4A9
330
A
100
AcDbEntity
  8
0
  6
Continuous
 62
     7
100
AcDbLine
 10
64.85000000000006
 20
-1027.61321007135
 30
0.0
 11
64.8500000000001
 21
-1037.61321007135
 31
0.0
  0
ARC
  5
4AA
330
A
100
AcDbEntity
  8
0
  6
Continuous
 62
     7
100
AcDbCircle
 10
69.8500000000018
 20
-1524.11321007135
 30
0.0
 40
33.00000000000001
100
AcDbArc
 50
90.00000000000023
 51
180.0000000000004
  0
ARC
  5
4AB
330
A
100
AcDbEntity
  8
0
  6
Continuous
 62
     7
100
AcDbCircle
 10
69.8500000000018
 20
-1524.11321007135
 30
0.0
 40
33.0
100
AcDbArc
 50
0.0
 51
90.00000000000023
  0
LINE
  5
4AC
330
A
100
AcDbEntity
  8
0
  6
Continuous
 62
     7
100
AcDbLine
 10
102.8500000000019
 20
-1564.11321007135
 30
0.0
 11
102.8500000000018
 21
-1524.11321007135
 31
0.0
  0
LINE
  5
4AD
330
A
100
AcDbEntity
  8
0
  6
Continuous
 62
     7
100
AcDbLine
 10
98.8500000000018
 20
-1524.11321007135
 30
0.0
 11
98.85000000000195
 21
-1564.11321007135
 31
0.0
  0
ARC
  5
4AE
330
A
100
AcDbEntity
  8
0
  6
Continuous
 62
     7
100
AcDbCircle
 10
69.8500000000018
 20
-1524.11321007135
 30
0.0
 40
29.0
100
AcDbArc
 50
0.0
 51
180.0000000000004
  0
LINE
  5
4AF
330
A
100
AcDbEntity
  8
0
  6
Continuous
 62
     7
100
AcDbLine
 10
40.85000000000192
 20
-1564.11321007135
 30
0.0
 11
40.8500000000018
 21
-1524.11321007135
 31
0.0
  0
LINE
  5
4B0
330
A
100
AcDbEntity
  8
0
  6
Continuous
 62
     7
100
AcDbLine
 10
36.85000000000179
 20
-1524.11321007135
 30
0.0
 11
36.85000000000193
 21
-1564.11321007135
 31
0.0
  0
LINE
  5
4B1
330
A
100
AcDbEntity
  8
0
  6
Continuous
 62
     7
100
AcDbLine
 10
74.34999999999992
 20
-992.9779400444934
 30
0.0
 11
74.34999999999991
 21
-989.6132100713499
 31
0.0
  0
LINE
  5
4B2
330
A
100
AcDbEntity
  8
0
  6
Continuous
 62
     7
100
AcDbLine
 10
65.34999999999993
 20
-993.0258635765422
 30
0.0
 11
65.34999999999993
 21
-989.6132100713499
 31
0.0
  0
LINE
  5
4B3
330
A
100
AcDbEntity
  8
0
  6
Continuous
 62
     7
100
AcDbLine
 10
74.84999999999994
 20
-991.6132100713499
 30
0.0
 11
74.84999999999995
 21
-998.7142305857835
 31
0.0
  0
LINE
  5
4B4
330
A
100
AcDbEntity
  8
0
  6
Continuous
 62
     7
100
AcDbLine
 10
64.84999999999994
 20
-991.6132100713499
 30
0.0
 11
64.84999999999996
 21
-998.7142305857837
 31
0.0
  0
LWPOLYLINE
  5
4B5
330
A
100
AcDbEntity
  8
0
  6
Continuous
 62
     7
100
AcDbPolyline
 90
       12
 70
   128
 43
0.0
 10
70.44425184516869
 20
-968.043499371539
 10
70.44917904487234
 20
-968.014657751493
 10
70.38374536504626
 20
-967.7856053491742
 10
70.24769401354851
 20
-967.6207832646708
 10
70.1012129266372
 20
-967.5310139881101
 10
69.95663672422897
 20
-967.4882745277269
 10
69.79750674848613
 20
-967.481476107566
 10
69.66149766350949
 20
-967.5078051636774
 10
69.51114072485727
 20
-967.5776859964566
 10
69.36288433794044
 20
-967.7138257798434
 10
69.26146286340301
 20
-967.9340141261425
 10
69.26368825145542
 20
-968.0442001394265
  0
LINE
  5
4C3
330
A
100
AcDbEntity
  8
0
  6
Continuous
 62
     7
100
AcDbLine
 10
74.74897948556637
 20
-1014.61321007135
 30
0.0
 11
76.70857127979288
 21
-1005.01321007135
 31
0.0
  0
LINE
  5
4C4
330
A
100
AcDbEntity
  8
0
  6
Continuous
 62
     7
100
AcDbLine
 10
62.99142872020709
 20
-1005.01321007135
 30
0.0
 11
64.95102051443367
 21
-1014.61321007135
 31
0.0
  0
ARC
  5
4C5
330
A
100
AcDbEntity
  8
0
  6
Continuous
 62
     7
100
AcDbCircle
 10
69.84999999999998
 20
-1003.61321007135
 30
0.0
 40
7.00000000000003
100
AcDbArc
 50
348.4630409671841
 51
44.41530859719356
  0
ARC
  5
4C6
330
A
100
AcDbEntity
  8
0
  6
Continuous
 62
     7
100
AcDbCircle
 10
69.84999999999998
 20
-1003.61321007135
 30
0.0
 40
7.00000000000001
100
AcDbArc
 50
135.159817700012
 51
191.536959032817
  0
ARC
  5
4C7
330
A
100
AcDbEntity
  8
0
  6
Continuous
 62
     7
100
AcDbCircle
 10
69.85000000000001
 20
-1013.61321007135
 30
0.0
 40
5.000000000000051
100
AcDbArc
 50
191.5369590328199
 51
205.8419327631692
  0
ARC
  5
4C8
330
A
100
AcDbEntity
  8
0
  6
Continuous
 62
     7
100
AcDbCircle
 10
69.85000000000001
 20
-1013.61321007135
 30
0.0
 40
5.000000000000051
100
AcDbArc
 50
334.1580672368325
 51
348.4630409671825
  0
LWPOLYLINE
  5
4C9
330
A
100
AcDbEntity
  8
0
  6
Continuous
 62
     7
100
AcDbPolyline
 90
        3
 70
   128
 43
0.0
 10
74.84999999999995
 20
-997.8376669134025
 10
75.16542648685605
 20
-997.2739446947427
 10
75.34767070275761
 20
-996.0643748364045
  0
LWPOLYLINE
  5
4CE
330
A
100
AcDbEntity
  8
0
  6
Continuous
 62
     7
100
AcDbPolyline
 90
        4
 70
   128
 43
0.0
 10
64.37964048756825
 20
-996.0786015180657
 10
64.36507477835083
 20
-996.6425984753692
 10
64.83643671539003
 20
-997.9583109221296
 10
64.84999999999995
 20
-997.9771831114955
  0
LWPOLYLINE
  5
4D4
330
A
100
AcDbEntity
  8
0
  6
Continuous
 62
     7
100
AcDbPolyline
 90
       12
 70
   128
 43
0.0
 10
75.38999999999984
 20
-965.3125896377828
 10
75.35469653796655
 20
-965.7969462648489
 10
75.18231108238744
 20
-966.6355446973083
 10
74.89451548050493
 20
-967.5993677055126
 10
74.5530988723825
 20
-968.6835013856594
 10
74.36333649525993
 20
-969.5351957323865
 10
74.36373480311191
 20
-970.2317946591136
 10
74.53099189189663
 20
-970.6499921202139
 10
74.81666597235573
 20
-970.8526048724626
 10
75.15550220599884
 20
-970.7407546402555
 10
75.3671906415352
 20
-970.2362922450554
 10
75.38999999999986
 20
-969.9087837154952
  0
LWPOLYLINE
  5
4E2
330
A
100
AcDbEntity
  8
0
  6
Continuous
 62
     7
100
AcDbPolyline
 90
        3
 70
   128
 43
0.0
 10
75.38999999999986
 20
-969.9087837154952
 10
75.2012290776413
 20
-968.8948933470122
 10
74.84999999999985
 20
-968.2218338051539
  0
LWPOLYLINE
  5
4E7
330
A
100
AcDbEntity
  8
0
  6
Continuous
 62
     7
100
AcDbPolyline
 90
        3
 70
   128
 43
0.0
 10
64.84999999999985
 20
-968.2218338051539
 10
64.49877092235841
 20
-968.8948933470122
 10
64.30999999999986
 20
-969.9087837154952
  0
LWPOLYLINE
  5
4EC
330
A
100
AcDbEntity
  8
0
  6
Continuous
 62
     7
100
AcDbPolyline
 90
       12
 70
   128
 43
0.0
 10
64.30999999999986
 20
-969.9087837154952
 10
64.35299456915178
 20
-970.3436675358171
 10
64.53424915952243
 20
-970.7299027399866
 10
64.82875061865988
 20
-970.8601188387149
 10
65.16853318382667
 20
-970.6506382269077
 10
65.34372945798269
 20
-970.1872100442136
 10
65.329823260238
 20
-969.4864287684847
 10
65.1545816692071
 20
-968.7104584790137
 10
64.86256572118077
 20
-967.7757765188696
 10
64.52567186606342
 20
-966.6658394086969
 10
64.32708071827083
 20
-965.6406169415683
 10
64.30999999999984
 20
-965.3125896377828
  0
LWPOLYLINE
  5
4FA
330
A
100
AcDbEntity
  8
0
  6
Continuous
 62
     7
100
AcDbPolyline
 90
        6
 70
   128
 43
0.0
 10
70.44999999999986
 20
-971.5050158871704
 10
70.60710326363099
 20
-971.4913048392643
 10
70.79471043213023
 20
-971.4706816377381
 10
70.98120804443374
 20
-971.4455248974905
 10
71.16637706032114
 20
-971.4158641649474
 10
71.34999999999985
 20
-971.3817342764446
  0
LWPOLYLINE
  5
502
330
A
100
AcDbEntity
  8
0
  6
Continuous
 62
     7
100
AcDbPolyline
 90
        6
 70
   128
 43
0.0
 10
68.34999999999986
 20
-971.3817342764446
 10
68.53362293967859
 20
-971.4158641649474
 10
68.71879195556599
 20
-971.4455248974905
 10
68.90528956786948
 20
-971.4706816377381
 10
69.09289673636871
 20
-971.4913048392643
 10
69.24999999999987
 20
-971.5050158871704
  0
LINE
  5
50A
330
A
100
AcDbEntity
  8
0
  6
Continuous
 62
     7
100
AcDbLine
 10
68.34999999999986
 20
-971.5280582444123
 30
0.0
 11
68.3499999999999
 21
-980.9171455409382
 31
0.0
  0
LINE
  5
50B
330
A
100
AcDbEntity
  8
0
  6
Continuous
 62
     7
100
AcDbLine
 10
71.34999999999985
 20
-971.5280582444123
 30
0.0
 11
71.3499999999999
 21
-980.9171455409382
 31
0.0
  0
LINE
  5
50C
330
A
100
AcDbEntity
  8
0
  6
Continuous
 62
     7
100
AcDbLine
 10
71.34999999999985
 20
-971.3817342764446
 30
0.0
 11
71.34999999999985
 21
-971.5280582444123
 31
0.0
  0
LINE
  5
50D
330
A
100
AcDbEntity
  8
0
  6
Continuous
 62
     7
100
AcDbLine
 10
68.34999999999986
 20
-971.3817342764446
 30
0.0
 11
68.34999999999986
 21
-971.5280582444123
 31
0.0
  0
LINE
  5
50E
330
A
100
AcDbEntity
  8
0
  6
Continuous
 62
     7
100
AcDbLine
 10
64.84999999999985
 20
-967.7353252736404
 30
0.0
 11
64.84999999999986
 21
-970.6106866766388
 31
0.0
  0
LINE
  5
50F
330
A
100
AcDbEntity
  8
0
  6
Continuous
 62
     7
100
AcDbLine
 10
74.84999999999985
 20
-967.7418829560169
 30
0.0
 11
74.84999999999986
 21
-970.6106866766388
 31
0.0
  0
LINE
  5
510
330
A
100
AcDbEntity
  8
0
  6
Continuous
 62
     7
100
AcDbLine
 10
78.84999999999992
 20
-985.6132100713484
 30
0.0
 11
78.85000000000002
 21
-1014.61321007135
 31
0.0
  0
LINE
  5
511
330
A
100
AcDbEntity
  8
0
  6
Continuous
 62
     7
100
AcDbLine
 10
83.8499999999999
 20
-985.6132100713484
 30
0.0
 11
83.85000000000003
 21
-1021.613210071348
 31
0.0
  0
LINE
  5
512
330
A
100
AcDbEntity
  8
0
  6
Continuous
 62
     7
100
AcDbLine
 10
63.84999999999994
 20
-992.5332100713484
 30
0.0
 11
63.84999999999997
 21
-1000.007658795886
 31
0.0
  0
LINE
  5
513
330
A
100
AcDbEntity
  8
0
  6
Continuous
 62
     7
100
AcDbLine
 10
63.84999999999998
 20
-1009.219333157951
 30
0.0
 11
63.85000000000001
 21
-1014.693210071348
 31
0.0
  0
LINE
  5
514
330
A
100
AcDbEntity
  8
0
  6
Continuous
 62
     7
100
AcDbLine
 10
75.84999999999993
 20
-992.5332100713484
 30
0.0
 11
75.84999999999997
 21
-1000.007658795886
 31
0.0
  0
LINE
  5
515
330
A
100
AcDbEntity
  8
0
  6
Continuous
 62
     7
100
AcDbLine
 10
75.84999999999999
 20
-1009.219333157951
 30
0.0
 11
75.85
 21
-1014.61321007135
 31
0.0
  0
ARC
  5
516
330
A
100
AcDbEntity
  8
0
  6
Continuous
 62
     7
100
AcDbCircle
 10
69.84999999999999
 20
-1009.153210071348
 30
0.0
 40
7.000000000000007
100
AcDbArc
 50
158.8585481843246
 51
180.0000000000004
  0
ARC
  5
517
330
A
100
AcDbEntity
  8
0
  6
Continuous
 62
     7
100
AcDbCircle
 10
69.84999999999999
 20
-1009.153210071348
 30
0.0
 40
7.000000000000015
100
AcDbArc
 50
328.9972808661269
 51
356.2321336109019
  0
ARC
  5
518
330
A
100
AcDbEntity
  8
0
  6
Continuous
 62
     7
100
AcDbCircle
 10
69.84999999999999
 20
-1009.153210071348
 30
0.0
 40
7.000000000000007
100
AcDbArc
 50
180.0000000000004
 51
211.002719133875
  0
ARC
  5
519
330
A
100
AcDbEntity
  8
0
  6
PHANTOM
 62
     7
100
AcDbCircle
 10
69.85000000000001
 20
-1009.153210071346
 30
0.0
 40
16.95252170911831
100
AcDbArc
 50
110.7278590886153
 51
254.7916206604794
  0
ARC
  5
51A
330
A
100
AcDbEntity
  8
0
  6
PHANTOM
 62
     7
100
AcDbCircle
 10
69.85000000000001
 20
-1009.153210071346
 30
0.0
 40
16.95252170911821
100
AcDbArc
 50
285.2909032151974
 51
287.1540217730528
  0
ARC
  5
51B
330
A
100
AcDbEntity
  8
0
  6
PHANTOM
 62
     7
100
AcDbCircle
 10
69.85000000000001
 20
-1009.153210071346
 30
0.0
 40
16.95252170911832
100
AcDbArc
 50
306.1486877032262
 51
312.6932995627795
  0
ARC
  5
51C
330
A
100
AcDbEntity
  8
0
  6
PHANTOM
 62
     7
100
AcDbCircle
 10
69.85000000000001
 20
-1009.153210071346
 30
0.0
 40
16.95252170911828
100
AcDbArc
 50
325.6733243475022
 51
34.32667565249903
  0
ARC
  5
51D
330
A
100
AcDbEntity
  8
0
  6
PHANTOM
 62
     7
100
AcDbCircle
 10
69.85000000000001
 20
-1009.153210071346
 30
0.0
 40
16.95252170911832
100
AcDbArc
 50
57.93408960872361
 51
69.27214091138516
  0
ARC
  5
51E
330
A
100
AcDbEntity
  8
0
  6
PHANTOM
 62
     7
100
AcDbCircle
 10
69.85000000000001
 20
-1009.153210071346
 30
0.0
 40
21.91391109268679
100
AcDbArc
 50
104.6437050660498
 51
256.8109048353396
  0
ARC
  5
51F
330
A
100
AcDbEntity
  8
0
  6
PHANTOM
 62
     7
100
AcDbCircle
 10
69.85000000000001
 20
-1009.153210071346
 30
0.0
 40
21.91391109268663
100
AcDbArc
 50
65.75130883201608
 51
75.3562949339506
  0
ARC
  5
520
330
A
100
AcDbEntity
  8
0
  6
PHANTOM
 62
     7
100
AcDbCircle
 10
69.85000000000001
 20
-1009.153210071346
 30
0.0
 40
21.91391109268659
100
AcDbArc
 50
297.1506147841552
 51
50.29286732906012
  0
ARC
  5
521
330
A
100
AcDbEntity
  8
0
  6
PHANTOM
 62
     7
100
AcDbCircle
 10
69.85000000000001
 20
-1009.153210071346
 30
0.0
 40
162.5
100
AcDbArc
 50
272.4688898426448
 51
267.5311101573573
  0
LWPOLYLINE
  5
522
330
A
100
AcDbEntity
  8
0
  6
PHANTOM
 62
     7
100
AcDbPolyline
 90
       17
 70
   128
 43
0.0
 10
69.85000000000228
 20
-1663.02296954539
 10
73.30985220654142
 20
-1662.863304241862
 10
76.73420164751336
 20
-1662.385946713353
 10
80.08790986376858
 20
-1661.595795294074
 10
83.33656327071599
 20
-1660.500958006832
 10
86.44682628826984
 20
-1659.112669363745
 10
89.38678340901169
 20
-1657.445175084948
 10
92.12626669448512
 20
-1655.51558591822
 10
94.63716533906795
 20
-1653.343702059563
 10
96.89371412487808
 20
-1650.951809976396
 10
98.87275780777461
 20
-1648.364453718239
 10
100.5539887214971
 20
-1645.608183061554
 10
101.9201551618018
 20
-1642.711281073107
 10
102.9572384122926
 20
-1639.703473887436
 10
103.6545965954217
 20
-1636.615625676477
 10
104.0050738725536
 20
-1633.479421941403
 10
104.0489137040209
 20
-1631.84777837257
  0
LWPOLYLINE
  5
535
330
A
100
AcDbEntity
  8
0
  6
PHANTOM
 62
     7
100
AcDbPolyline
 90
       17
 70
   128
 43
0.0
 10
35.65103575880705
 20
-1631.88863737128
 10
35.69492612745069
 20
-1633.479421941404
 10
36.04540340458273
 20
-1636.615625676478
 10
36.74276158771184
 20
-1639.703473887436
 10
37.77984483820274
 20
-1642.711281073108
 10
39.1460112785075
 20
-1645.608183061554
 10
40.82724219223005
 20
-1648.36445371824
 10
42.80628587512665
 20
-1650.951809976397
 10
45.0628346609368
 20
-1653.343702059564
 10
47.5737333055197
 20
-1655.515585918221
 10
50.31321659099316
 20
-1657.445175084949
 10
53.25317371173508
 20
-1659.112669363746
 10
56.36343672928894
 20
-1660.500958006832
 10
59.61209013623638
 20
-1661.595795294074
 10
62.96579835249164
 20
-1662.385946713353
 10
66.39014779346361
 20
-1662.863304241863
 10
69.85000000000228
 20
-1663.02296954539
  0
LWPOLYLINE
  5
548
330
A
100
AcDbEntity
  8
0
  6
PHANTOM
 62
     7
100
AcDbPolyline
 90
       25
 70
   128
 43
0.0
 10
100.5856536813386
 20
-1622.605548960299
 10
99.60684520150717
 20
-1620.363709790994
 10
98.05897817989942
 20
-1617.599374773916
 10
96.20204769024452
 20
-1614.997411313686
 10
94.05639865157482
 20
-1612.58632706647
 10
91.64553924376392
 20
-1610.392538375834
 10
88.99588334698856
 20
-1608.440080849751
 10
86.13646114572995
 20
-1606.750346021456
 10
83.09860106799765
 20
-1605.341846979326
 10
79.91558654451636
 20
-1604.230015533614
 10
76.62229134849397
 20
-1603.427033142306
 10
73.25479751126446
 20
-1602.941697448516
 10
69.85000000000185
 20
-1602.779325891667
 10
66.44520248873925
 20
-1602.941697448516
 10
63.07770865150973
 20
-1603.427033142306
 10
59.78441345548738
 20
-1604.230015533614
 10
56.60139893200612
 20
-1605.341846979326
 10
53.56353885427384
 20
-1606.750346021456
 10
50.70411665301527
 20
-1608.440080849751
 10
48.05446075623995
 20
-1610.392538375835
 10
45.64360134842909
 20
-1612.586327066471
 10
43.49795230975946
 20
-1614.997411313686
 10
41.64102182010462
 20
-1617.599374773916
 10
40.09315479849693
 20
-1620.363709790995
 10
39.49406674540096
 20
-1621.671375636121
  0
LWPOLYLINE
  5
563
330
A
100
AcDbEntity
  8
0
  6
PHANTOM
 62
     7
100
AcDbPolyline
 90
       60
 70
   128
 43
0.0
 10
69.85000000000226
 20
-1661.502721932317
 10
73.207873975411
 20
-1661.33986888761
 10
76.52770189694002
 20
-1660.853154943561
 10
79.7718687877024
 20
-1660.048094763634
 10
82.90361694052256
 20
-1658.933810001357
 10
85.8874623974459
 20
-1657.522925948328
 10
88.68959699716141
 20
-1655.831428484632
 10
91.2782714349781
 20
-1653.87848295242
 10
93.62415499513367
 20
-1651.686217004927
 10
95.70066787952409
 20
-1649.279469891327
 10
97.48428236743675
 20
-1646.685511018101
 10
98.95478939402739
 20
-1643.933730975778
 10
100.0955275270999
 20
-1641.055308531792
 10
100.8935717477909
 20
-1638.082857362594
 10
101.3398798961975
 20
-1635.050056527661
 10
101.4293951226627
 20
-1631.991268872298
 10
101.161103183902
 20
-1628.941151682871
 10
100.5380439347858
 20
-1625.934264005901
 10
99.5672768855683
 20
-1623.00467508026
 10
98.25980121481597
 20
-1620.185578319078
 10
96.63043114431921
 20
-1617.508915215115
 10
94.69762808804
 20
-1615.005013430877
 10
92.48329147691491
 20
-1612.702243174091
 10
90.01251062955201
 20
-1610.626695751904
 10
87.31328048022582
 20
-1608.801887945957
 10
84.41618438508589
 20
-1607.248495557848
 10
81.35404760051098
 20
-1605.984119144038
 10
78.16156535983814
 20
-1605.023084594513
 10
74.87490976250535
 20
-1604.376280814733
 10
71.53131992971133
 20
-1604.051036349968
 10
68.16868007029234
 20
-1604.051036349968
 10
64.82509023749833
 20
-1604.376280814733
 10
61.53843464016554
 20
-1605.023084594513
 10
58.34595239949272
 20
-1605.984119144038
 10
55.28381561491785
 20
-1607.248495557848
 10
52.38671951977796
 20
-1608.801887945958
 10
49.68748937045182
 20
-1610.626695751905
 10
47.21670852308895
 20
-1612.702243174091
 10
45.00237191196393
 20
-1615.005013430878
 10
43.06956885568479
 20
-1617.508915215115
 10
41.4401987851881
 20
-1620.185578319079
 10
40.13272311443583
 20
-1623.004675080261
 10
39.16195606521839
 20
-1625.934264005902
 10
38.53889681610222
 20
-1628.941151682872
 10
38.27060487734165
 20
-1631.991268872299
 10
38.36012010380688
 20
-1635.050056527661
 10
38.80642825221357
 20
-1638.082857362594
 10
39.6044724729046
 20
-1641.055308531793
 10
40.74521060597724
 20
-1643.933730975778
 10
42.21571763256794
 20
-1646.685511018102
 10
43.99933212048064
 20
-1649.279469891327
 10
46.07584500487112
 20
-1651.686217004928
 10
48.42172856502676
 20
-1653.87848295242
 10
51.01040300284348
 20
-1655.831428484632
 10
53.81253760255902
 20
-1657.522925948329
 10
56.79638305948242
 20
-1658.933810001357
 10
59.92813121230259
 20
-1660.048094763635
 10
63.172298103065
 20
-1660.853154943561
 10
66.492126024594
 20
-1661.33986888761
 10
69.85000000000226
 20
-1661.502721932317
  0
LWPOLYLINE
  5
5A1
330
A
100
AcDbEntity
  8
0
  6
PHANTOM
 62
     7
100
AcDbPolyline
 90
        9
 70
   128
 43
0.0
 10
67.34999999999995
 20
-995.3517541797697
 10
67.87565556187063
 20
-995.6796265634297
 10
68.48522321657087
 20
-995.9243117121436
 10
69.15279558105277
 20
-996.0754102029358
 10
69.84999999999995
 20
-996.126500162124
 10
70.54720441894713
 20
-996.0754102029357
 10
71.21477678342903
 20
-995.9243117121436
 10
71.82434443812927
 20
-995.6796265634295
 10
72.34999999999995
 20
-995.3517541797697
  0
LWPOLYLINE
  5
5AC
330
A
100
AcDbEntity
  8
0
  6
PHANTOM
 62
     7
100
AcDbPolyline
 90
        9
 70
   128
 43
0.0
 10
74.34999999999994
 20
-997.2472377603834
 10
73.48649891257199
 20
-997.9593042583871
 10
72.4035468978337
 20
-998.5010267228108
 10
71.16649660116751
 20
-998.8397139580785
 10
69.84999999999995
 20
-998.9549272868702
 10
68.53350339883239
 20
-998.8397139580785
 10
67.2964531021662
 20
-998.5010267228108
 10
66.2135010874279
 20
-997.9593042583871
 10
65.34999999999995
 20
-997.2472377603834
  0
LWPOLYLINE
  5
5B7
330
A
100
AcDbEntity
  8
0
  6
PHANTOM
 62
     7
100
AcDbPolyline
 90
        5
 70
   128
 43
0.0
 10
65.35000000000005
 20
-1025.631409116048
 10
66.29053551939337
 20
-1026.849737905047
 10
67.89103471367987
 20
-1028.102403016952
 10
69.21508062019822
 20
-1028.567078937137
 10
69.25000000000004
 20
-1028.571128503275
  0
LWPOLYLINE
  5
5BE
330
A
100
AcDbEntity
  8
0
  6
PHANTOM
 62
     7
100
AcDbPolyline
 90
        6
 70
   128
 43
0.0
 10
70.45000000000007
 20
-1028.518609846809
 10
70.93610314281652
 20
-1028.462704190655
 10
71.20973143542646
 20
-1028.372450756663
 10
72.6391505972491
 20
-1027.556463923635
 10
73.92359430204805
 20
-1026.245037900691
 10
74.35000000000004
 20
-1025.631409116048
  0
LINE
  5
5C6
330
A
100
AcDbEntity
  8
0
  6
PHANTOM
 62
     7
100
AcDbLine
 10
67.34999999999994
 20
-992.0929200324097
 30
0.0
 11
67.34999999999995
 21
-995.3517541797697
 31
0.0
  0
LWPOLYLINE
  5
5C7
330
A
100
AcDbEntity
  8
0
  6
PHANTOM
 62
     7
100
AcDbPolyline
 90
        9
 70
   128
 43
0.0
 10
72.34999999999992
 20
-992.0929200324097
 10
71.82434443812924
 20
-991.7650476487498
 10
71.214776783429
 20
-991.5203625000359
 10
70.5472044189471
 20
-991.3692640092438
 10
69.84999999999992
 20
-991.3181740500556
 10
69.15279558105275
 20
-991.3692640092438
 10
68.48522321657085
 20
-991.5203625000359
 10
67.87565556187063
 20
-991.7650476487498
 10
67.34999999999994
 20
-992.0929200324097
  0
LINE
  5
5D2
330
A
100
AcDbEntity
  8
0
  6
PHANTOM
 62
     7
100
AcDbLine
 10
72.34999999999995
 20
-995.3517541797697
 30
0.0
 11
72.34999999999992
 21
-992.0929200324097
 31
0.0
  0
LINE
  5
5D3
330
A
100
AcDbEntity
  8
0
  6
PHANTOM
 62
     7
100
AcDbLine
 10
69.84999999999998
 20
-1005.495665012846
 30
0.0
 11
68.34999999999998
 21
-1005.495665012846
 31
0.0
  0
LINE
  5
5D4
330
A
100
AcDbEntity
  8
0
  6
PHANTOM
 62
     7
100
AcDbLine
 10
71.34999999999998
 20
-1005.495665012846
 30
0.0
 11
69.84999999999998
 21
-1005.495665012846
 31
0.0
  0
LINE
  5
5D5
330
A
100
AcDbEntity
  8
0
  6
PHANTOM
 62
     7
100
AcDbLine
 10
91.10000000000178
 20
-1528.11321007135
 30
0.0
 11
48.60000000000181
 21
-1528.11321007135
 31
0.0
  0
LWPOLYLINE
  5
5D6
330
A
100
AcDbEntity
  8
0
  6
PHANTOM
 62
     7
100
AcDbPolyline
 90
        4
 70
   128
 43
0.0
 10
74.35000000000005
 20
-1029.478126927496
 10
73.93042402190146
 20
-1029.722423430799
 10
71.83923672960535
 20
-1030.549007673191
 10
70.45000000000008
 20
-1030.693747867786
  0
LWPOLYLINE
  5
5DC
330
A
100
AcDbEntity
  8
0
  6
PHANTOM
 62
     7
100
AcDbPolyline
 90
        3
 70
   128
 43
0.0
 10
69.25000000000006
 20
-1030.73767231619
 10
66.9841063403835
 20
-1030.27689367463
 10
65.35000000000007
 20
-1029.478126927496
  0
LWPOLYLINE
  5
5E1
330
A
100
AcDbEntity
  8
0
  6
PHANTOM
 62
     7
100
AcDbPolyline
 90
        4
 70
   128
 43
0.0
 10
65.35000000000012
 20
-1042.344622917317
 10
66.58038010814578
 20
-1042.011963120077
 10
68.80034270810128
 20
-1041.666020928591
 10
69.2500000000001
 20
-1041.643060956035
  0
LWPOLYLINE
  5
5E7
330
A
100
AcDbEntity
  8
0
  6
PHANTOM
 62
     7
100
AcDbPolyline
 90
        4
 70
   128
 43
0.0
 10
70.45000000000013
 20
-1041.686286416187
 10
71.83923672960524
 20
-1041.770401349257
 10
73.93042402190137
 20
-1042.220695437193
 10
74.35000000000013
 20
-1042.344622917317
  0
LWPOLYLINE
  5
5ED
330
A
100
AcDbEntity
  8
0
  6
PHANTOM
 62
     7
100
AcDbPolyline
 90
        5
 70
   128
 43
0.0
 10
74.35000000000002
 20
-1045.471929983447
 10
73.92359430204803
 20
-1045.163996895526
 10
72.6391505972491
 20
-1044.38844935548
 10
71.20973143542643
 20
-1043.836554615932
 10
70.45000000000013
 20
-1043.749579199005
  0
LWPOLYLINE
  5
5F4
330
A
100
AcDbEntity
  8
0
  6
PHANTOM
 62
     7
100
AcDbPolyline
 90
        5
 70
   128
 43
0.0
 10
69.2500000000001
 20
-1043.69786608524
 10
69.1325127371832
 20
-1043.708622656307
 10
67.6150699473402
 20
-1044.132620396415
 10
66.0941230296833
 20
-1044.950074580087
 10
65.35000000000012
 20
-1045.471929983448
  0
LWPOLYLINE
  5
5FB
330
A
100
AcDbEntity
  8
0
  6
PHANTOM
 62
     7
100
AcDbPolyline
 90
       41
 70
   128
 43
0.0
 10
69.85000000000252
 20
-1731.241832368836
 10
74.87246610957955
 20
-1731.082235734498
 10
79.87046326912727
 20
-1730.604223370244
 10
84.81964173888124
 20
-1729.810124104262
 10
89.69588961882653
 20
-1728.703806708355
 10
94.47545031945074
 20
-1727.290661049668
 10
99.13503830146023
 20
-1725.577571831801
 10
103.6519525205867
 20
-1723.572885053226
 10
108.0041870247933
 20
-1721.286367346416
 10
112.1705381650607
 20
-1718.729158395799
 10
116.1307078974334
 20
-1715.913716666333
 10
119.8654026730504
 20
-1712.853758707117
 10
123.356427434375
 20
-1709.564192325743
 10
126.5867742596866
 20
-1706.061043958953
 10
129.5407052239656
 20
-1702.361380593456
 10
132.2038290724821
 20
-1698.48322661728
 10
134.5631713335425
 20
-1694.445476006765
 10
136.6072375288112
 20
-1690.267800277014
 10
138.3260691732536
 20
-1685.970552644243
 10
139.7112922918742
 20
-1681.574668866961
 10
140.7561582168814
 20
-1677.101565249058
 10
141.4555764665181
 20
-1672.573034301726
 10
141.8061395453773
 20
-1668.011138572534
 10
141.8061395453772
 20
-1663.438103158914
 10
141.455576466518
 20
-1658.876207429722
 10
140.7561582168812
 20
-1654.34767648239
 10
139.711292291874
 20
-1649.874572864487
 10
138.3260691732532
 20
-1645.478689087205
 10
136.6072375288108
 20
-1641.181441454434
 10
134.5631713335421
 20
-1637.003765724683
 10
132.2038290724816
 20
-1632.966015114168
 10
129.540705223965
 20
-1629.087861137992
 10
126.5867742596859
 20
-1625.388197772495
 10
123.3564274343743
 20
-1621.885049405705
 10
119.8654026730497
 20
-1618.59548302433
 10
116.1307078974327
 20
-1615.535525065115
 10
112.1705381650599
 20
-1612.720083335649
 10
108.0041870247925
 20
-1610.162874385032
 10
103.6519525205858
 20
-1607.876356678223
 10
99.13503830145932
 20
-1605.871669899647
 10
96.10000000000207
 20
-1604.716908928531
  0
LWPOLYLINE
  5
626
330
A
100
AcDbEntity
  8
0
  6
PHANTOM
 62
     7
100
AcDbPolyline
 90
       41
 70
   128
 43
0.0
 10
43.60000000000208
 20
-1604.716908928531
 10
40.56496169854395
 20
-1605.871669899648
 10
36.04804747941745
 20
-1607.876356678223
 10
31.69581297521085
 20
-1610.162874385033
 10
27.52946183494357
 20
-1612.72008333565
 10
23.56929210257083
 20
-1615.535525065116
 10
19.8345973269539
 20
-1618.595483024332
 10
16.34357256562934
 20
-1621.885049405707
 10
13.11322574031778
 20
-1625.388197772496
 10
10.15929477603881
 20
-1629.087861137993
 10
7.496170927522277
 20
-1632.966015114169
 10
5.136828666461895
 20
-1637.003765724684
 10
3.092762471193291
 20
-1641.181441454435
 10
1.373930826750982
 20
-1645.478689087206
 10
-0.0112922918696495
 20
-1649.874572864488
 10
-1.056158216876823
 20
-1654.347676482391
 10
-1.755576466513461
 20
-1658.876207429723
 10
-2.106139545372587
 20
-1663.438103158915
 10
-2.106139545372518
 20
-1668.011138572535
 10
-1.755576466513225
 20
-1672.573034301727
 10
-1.056158216876448
 20
-1677.101565249059
 10
-0.0112922918691499
 20
-1681.574668866963
 10
1.373930826751607
 20
-1685.970552644245
 10
3.092762471194041
 20
-1690.267800277016
 10
5.136828666462784
 20
-1694.445476006767
 10
7.496170927523311
 20
-1698.483226617281
 10
10.15929477603997
 20
-1702.361380593457
 10
13.11322574031905
 20
-1706.061043958954
 10
16.3435725656307
 20
-1709.564192325743
 10
19.83459732695535
 20
-1712.853758707118
 10
23.56929210257239
 20
-1715.913716666334
 10
27.52946183494521
 20
-1718.7291583958
 10
31.69581297521256
 20
-1721.286367346416
 10
36.04804747941922
 20
-1723.572885053226
 10
40.56496169854578
 20
-1725.577571831802
 10
45.22454968055528
 20
-1727.290661049668
 10
50.00411038117952
 20
-1728.703806708355
 10
54.88035826112481
 20
-1729.810124104262
 10
59.82953673087879
 20
-1730.604223370244
 10
64.82753389042649
 20
-1731.082235734498
 10
69.85000000000252
 20
-1731.241832368836
  0
LWPOLYLINE
  5
651
330
A
100
AcDbEntity
  8
0
  6
PHANTOM
 62
     7
100
AcDbPolyline
 90
       20
 70
   128
 43
0.0
 10
69.84999999999982
 20
-962.1588933936903
 10
70.9994361209844
 20
-962.0232653884988
 10
72.02431300292123
 20
-961.6310787717713
 10
72.81356933304916
 20
-961.0248330488333
 10
73.28167694142502
 20
-960.2702243506362
 10
73.37790910524339
 20
-959.4490262385903
 10
73.09183757635867
 20
-958.6502282703373
 10
72.45446264378266
 20
-957.9603926003651
 10
71.53485377135102
 20
-957.454273627418
 10
70.43266484959358
 20
-957.1867171954604
 10
69.26733515040599
 20
-957.1867171954604
 10
68.16514622864857
 20
-957.454273627418
 10
67.24553735621694
 20
-957.9603926003651
 10
66.60816242364093
 20
-958.6502282703374
 10
66.32209089475624
 20
-959.4490262385903
 10
66.41832305857464
 20
-960.2702243506362
 10
66.88643066695053
 20
-961.0248330488333
 10
67.67568699707846
 20
-961.6310787717713
 10
68.70056387901531
 20
-962.0232653884988
 10
69.84999999999982
 20
-962.1588933936903
  0
LWPOLYLINE
  5
667
330
A
100
AcDbEntity
  8
0
  6
PHANTOM
 62
     7
100
AcDbPolyline
 90
        7
 70
   128
 43
0.0
 10
69.84999999999984
 20
-964.9873205184366
 10
68.41614249013187
 20
-964.8538393191461
 10
67.07999999999983
 20
-964.462492244418
 10
65.93262843222636
 20
-963.8399489506632
 10
65.05221926303405
 20
-963.0286347345499
 10
64.49877092235841
 20
-962.0838393191462
 10
64.31000309933262
 20
-961.074092656591
  0
LWPOLYLINE
  5
670
330
A
100
AcDbEntity
  8
0
  6
PHANTOM
 62
     7
100
AcDbPolyline
 90
        8
 70
   128
 43
0.0
 10
75.38996208489094
 20
-961.0554558838906
 10
75.3899999999998
 20
-961.0699489506632
 10
75.20122907764123
 20
-962.0838393191462
 10
74.64778073696557
 20
-963.0286347345499
 10
73.76737156777323
 20
-963.8399489506632
 10
72.61999999999976
 20
-964.462492244418
 10
71.28385750986772
 20
-964.8538393191461
 10
69.84999999999984
 20
-964.9873205184366
  0
LINE
  5
67A
330
A
100
AcDbEntity
  8
0
  6
PHANTOM
 62
     7
100
AcDbLine
 10
69.24999999999987
 20
-971.5280582444123
 30
0.0
 11
68.34999999999986
 21
-971.5280582444123
 31
0.0
  0
LINE
  5
67B
330
A
100
AcDbEntity
  8
0
  6
PHANTOM
 62
     7
100
AcDbLine
 10
71.34999999999985
 20
-971.5280582444123
 30
0.0
 11
70.44999999999986
 21
-971.5280582444123
 31
0.0
  0
LINE
  5
67C
330
A
100
AcDbEntity
  8
0
  6
PHANTOM
 62
     7
100
AcDbLine
 10
64.30999999999986
 20
-969.9087837154952
 30
0.0
 11
64.84999999999985
 21
-969.9087837154952
 31
0.0
  0
LINE
  5
67D
330
A
100
AcDbEntity
  8
0
  6
PHANTOM
 62
     7
100
AcDbLine
 10
74.84999999999986
 20
-969.9087837154952
 30
0.0
 11
75.38999999999986
 21
-969.9087837154952
 31
0.0
  0
LINE
  5
67E
330
A
100
AcDbEntity
  8
0
  6
Continuous
 62
     7
100
AcDbLine
 10
503.6438718959779
 20
-472.6269307113321
 30
0.0
 11
503.6438718959781
 21
-486.1269307113322
 31
0.0
  0
LINE
  5
67F
330
A
100
AcDbEntity
  8
0
  6
Continuous
 62
     7
100
AcDbLine
 10
833.6438718959779
 20
-486.1269307113322
 30
0.0
 11
833.6438718959779
 21
-472.6269307113321
 31
0.0
  0
ARC
  5
680
330
A
100
AcDbEntity
  8
0
  6
Continuous
 62
     7
100
AcDbCircle
 10
506.1438718959778
 20
-472.6269307113321
 30
0.0
 40
2.500000000000056
100
AcDbArc
 50
90.0
 51
180.0000000000004
  0
ARC
  5
681
330
A
100
AcDbEntity
  8
0
  6
Continuous
 62
     7
100
AcDbCircle
 10
831.1438718959779
 20
-472.6269307113321
 30
0.0
 40
2.500000000000113
100
AcDbArc
 50
0.0
 51
90.0
  0
LINE
  5
682
330
A
100
AcDbEntity
  8
0
  6
Continuous
 62
     7
100
AcDbLine
 10
511.1438718959779
 20
-486.1269307113322
 30
0.0
 11
511.1438718959779
 21
-492.1269307113322
 31
0.0
  0
LINE
  5
683
330
A
100
AcDbEntity
  8
0
  6
Continuous
 62
     7
100
AcDbLine
 10
826.1438718959778
 20
-492.1269307113322
 30
0.0
 11
826.1438718959778
 21
-486.1269307113322
 31
0.0
  0
LINE
  5
684
330
A
100
AcDbEntity
  8
0
  6
Continuous
 62
     7
100
AcDbLine
 10
701.3611661365977
 20
-492.1269307113322
 30
0.0
 11
701.3611661365977
 21
-496.1269307113322
 31
0.0
  0
LINE
  5
685
330
A
100
AcDbEntity
  8
0
  6
Continuous
 62
     7
100
AcDbLine
 10
719.3611661365977
 20
-496.1269307113322
 30
0.0
 11
719.3611661365977
 21
-492.1269307113322
 31
0.0
  0
LINE
  5
686
330
A
100
AcDbEntity
  8
0
  6
Continuous
 62
     7
100
AcDbLine
 10
550.4265776553564
 20
-492.1269307113322
 30
0.0
 11
550.4265776553564
 21
-496.1269307113322
 31
0.0
  0
LINE
  5
687
330
A
100
AcDbEntity
  8
0
  6
Continuous
 62
     7
100
AcDbLine
 10
568.4265776553627
 20
-496.1269307113322
 30
0.0
 11
568.4265776553627
 21
-492.1269307113322
 31
0.0
  0
ARC
  5
688
330
A
100
AcDbEntity
  8
0
  6
Continuous
 62
     7
100
AcDbCircle
 10
646.7299608032913
 20
-465.1269307113321
 30
0.0
 40
5.0
100
AcDbArc
 50
270.0000000000008
 51
352.8749836510958
  0
ARC
  5
689
330
A
100
AcDbEntity
  8
0
  6
Continuous
 62
     7
100
AcDbCircle
 10
690.5577829886644
 20
-465.1269307113321
 30
0.0
 40
5.0
100
AcDbArc
 50
187.1250163489058
 51
270.0000000000008
  0
LINE
  5
68A
330
A
100
AcDbEntity
  8
0
  6
Continuous
 62
     7
100
AcDbLine
 10
685.5963936050962
 20
-465.7471043842782
 30
0.0
 11
681.1438718959778
 21
-430.1269307113322
 31
0.0
  0
LINE
  5
68B
330
A
100
AcDbEntity
  8
0
  6
Continuous
 62
     7
100
AcDbLine
 10
656.1438718959778
 20
-430.1269307113322
 30
0.0
 11
651.6913501868596
 21
-465.7471043842782
 31
0.0
  0
LINE
  5
68C
330
A
100
AcDbEntity
  8
0
  6
Continuous
 62
     7
100
AcDbLine
 10
656.1438718959778
 20
232.8730692886678
 30
0.0
 11
656.1438718959778
 21
-430.1269307113322
 31
0.0
  0
LINE
  5
68D
330
A
100
AcDbEntity
  8
0
  6
Continuous
 62
     7
100
AcDbLine
 10
681.1438718959778
 20
-430.1269307113322
 30
0.0
 11
681.1438718959778
 21
232.8730692886678
 31
0.0
  0
LINE
  5
68E
330
A
100
AcDbEntity
  8
0
  6
Continuous
 62
     7
100
AcDbLine
 10
794.6438718959779
 20
-492.1269307113322
 30
0.0
 11
794.6438718959779
 21
-496.1269307113322
 31
0.0
  0
LINE
  5
68F
330
A
100
AcDbEntity
  8
0
  6
Continuous
 62
     7
100
AcDbLine
 10
812.6438718959779
 20
-496.1269307113322
 30
0.0
 11
812.6438718959779
 21
-492.1269307113322
 31
0.0
  0
ARC
  5
690
330
A
100
AcDbEntity
  8
0
  6
Continuous
 62
     7
100
AcDbCircle
 10
1260.734804293882
 20
699.261337055684
 30
0.0
 40
2.500000000000058
100
AcDbArc
 50
114.5000000000012
 51
294.4999999999906
  0
ARC
  5
691
330
A
100
AcDbEntity
  8
0
  6
Continuous
 62
     7
100
AcDbCircle
 10
1391.769227300104
 20
758.9771639981822
 30
0.0
 40
2.500000000000058
100
AcDbArc
 50
294.4999999999962
 51
114.5000000000012
  0
LINE
  5
692
330
A
100
AcDbEntity
  8
0
  6
Continuous
 62
     7
100
AcDbLine
 10
1389.709461384862
 20
760.7858442642228
 30
0.0
 11
1322.513631370018
 21
819.790496593281
 31
0.0
  0
LINE
  5
693
330
A
100
AcDbEntity
  8
0
  6
Continuous
 62
     7
100
AcDbLine
 10
1260.577661540276
 20
730.7021203333144
 30
0.0
 11
1260.721103995842
 21
702.0024631440261
 31
0.0
  0
LINE
  5
694
330
A
100
AcDbEntity
  8
0
  6
Continuous
 62
     7
100
AcDbLine
 10
1260.274158597139
 20
791.4263347201742
 30
0.0
 11
1260.314171229219
 21
783.4206935770994
 31
0.0
  0
ARC
  5
695
330
A
100
AcDbEntity
  8
0
  6
Continuous
 62
     7
100
AcDbCircle
 10
1261.024149229608
 20
791.4300832143558
 30
0.0
 40
0.7500000000000497
100
AcDbArc
 50
114.4999999999981
 51
180.28636505562
  0
ARC
  5
696
330
A
100
AcDbEntity
  8
0
  6
Continuous
 62
     7
100
AcDbCircle
 10
1322.018764219458
 20
819.2269307113319
 30
0.0
 40
0.7500000000003233
100
AcDbArc
 50
48.71363494626937
 51
114.4999999999886
  0
LINE
  5
697
330
A
100
AcDbEntity
  8
0
  6
Continuous
 62
     7
100
AcDbLine
 10
1321.707744287466
 20
819.9094016644894
 30
0.0
 11
1260.713129297615
 21
792.1125541675133
 31
0.0
  0
ARC
  5
698
330
A
100
AcDbEntity
  8
0
  6
Continuous
 62
     7
100
AcDbCircle
 10
1259.603871895978
 20
783.123069288668
 30
0.0
 40
0.8000000000000415
100
AcDbArc
 50
27.44797028312293
 51
180.0000000000004
  0
ARC
  5
699
330
A
100
AcDbEntity
  8
0
  6
Continuous
 62
     7
100
AcDbCircle
 10
1259.603871895978
 20
730.6230692886678
 30
0.0
 40
0.7999999999999546
100
AcDbArc
 50
180.0000000000004
 51
0.0
  0
LINE
  5
69A
330
A
100
AcDbEntity
  8
0
  6
Continuous
 62
     7
100
AcDbLine
 10
1258.803871895978
 20
783.123069288668
 30
0.0
 11
1258.803871895978
 21
730.6230692886678
 31
0.0
  0
LINE
  5
69B
330
A
100
AcDbEntity
  8
0
  6
Continuous
 62
     7
100
AcDbLine
 10
1239.603871895978
 20
780.8230692886681
 30
0.0
 11
1219.603871895978
 21
780.8230692886681
 31
0.0
  0
LINE
  5
69C
330
A
100
AcDbEntity
  8
0
  6
Continuous
 62
     7
100
AcDbLine
 10
1219.603871895978
 20
732.9230692886677
 30
0.0
 11
1239.603871895978
 21
732.9230692886677
 31
0.0
  0
ARC
  5
69D
330
A
100
AcDbEntity
  8
0
  6
Continuous
 62
     7
100
AcDbCircle
 10
1187.603871895978
 20
768.1230692886679
 30
0.0
 40
10.0
100
AcDbArc
 50
90.0
 51
180.0000000000004
  0
ARC
  5
69E
330
A
100
AcDbEntity
  8
0
  6
Continuous
 62
     7
100
AcDbCircle
 10
1187.603871895978
 20
745.6230692886679
 30
0.0
 40
10.0
100
AcDbArc
 50
180.0000000000004
 51
270.0000000000008
  0
LINE
  5
69F
330
A
100
AcDbEntity
  8
0
  6
Continuous
 62
     7
100
AcDbLine
 10
1219.603871895978
 20
778.1230692886679
 30
0.0
 11
1187.603871895978
 21
778.1230692886679
 31
0.0
  0
LINE
  5
6A0
330
A
100
AcDbEntity
  8
0
  6
Continuous
 62
     7
100
AcDbLine
 10
1187.603871895978
 20
735.6230692886679
 30
0.0
 11
1219.603871895978
 21
735.6230692886679
 31
0.0
  0
LINE
  5
6A1
330
A
100
AcDbEntity
  8
0
  6
Continuous
 62
     7
100
AcDbLine
 10
1258.803871895978
 20
778.1230692886679
 30
0.0
 11
1239.603871895978
 21
778.1230692886679
 31
0.0
  0
LINE
  5
6A2
330
A
100
AcDbEntity
  8
0
  6
Continuous
 62
     7
100
AcDbLine
 10
1239.603871895978
 20
735.6230692886679
 30
0.0
 11
1258.803871895978
 21
735.6230692886679
 31
0.0
  0
LINE
  5
6A3
330
A
100
AcDbEntity
  8
0
  6
Continuous
 62
     7
100
AcDbLine
 10
1263.137032768092
 20
697.6087259693027
 30
0.0
 11
1293.472381048931
 21
631.0424127051516
 31
0.0
  0
LINE
  5
6A4
330
A
100
AcDbEntity
  8
0
  6
Continuous
 62
     7
100
AcDbLine
 10
1295.292303590684
 20
631.8717991904642
 30
0.0
 11
1264.95640184859
 21
698.4378602277899
 31
0.0
  0
LINE
  5
6A5
330
A
100
AcDbEntity
  8
0
  6
Continuous
 62
     7
100
AcDbLine
 10
656.1038718959779
 20
711.873069288668
 30
0.0
 11
656.1038718959778
 21
321.8730692886679
 31
0.0
  0
LINE
  5
6A6
330
A
100
AcDbEntity
  8
0
  6
Continuous
 62
     7
100
AcDbLine
 10
1127.103871895978
 20
763.873069288668
 30
0.0
 11
737.1038718959779
 21
763.873069288668
 31
0.0
  0
LINE
  5
6A7
330
A
100
AcDbEntity
  8
0
  6
Continuous
 62
     7
100
AcDbLine
 10
1177.603871895978
 20
763.123069288668
 30
0.0
 11
1168.603871895977
 21
763.123069288668
 31
0.0
  0
LINE
  5
6A8
330
A
100
AcDbEntity
  8
0
  6
Continuous
 62
     7
100
AcDbLine
 10
1168.603871895977
 20
750.6230692886678
 30
0.0
 11
1177.603871895978
 21
750.6230692886678
 31
0.0
  0
ARC
  5
6A9
330
A
100
AcDbEntity
  8
0
  6
Continuous
 62
     7
100
AcDbCircle
 10
658.6438718959779
 20
268.730933664937
 30
0.0
 40
15.54000000000003
100
AcDbArc
 50
360.0000000000008
 51
18.47801182848549
  0
ARC
  5
6AA
330
A
100
AcDbEntity
  8
0
  6
Continuous
 62
     7
100
AcDbCircle
 10
1296.185166883572
 20
627.5011684922012
 30
0.0
 40
1.000000000000166
100
AcDbArc
 50
204.5000000000325
 51
24.50000000000029
  0
LINE
  5
6AB
330
A
100
AcDbEntity
  8
0
  6
Continuous
 62
     7
100
AcDbLine
 10
1297.095128154448
 20
627.9158617348575
 30
0.0
 11
1295.292303590684
 21
631.8717991904642
 31
0.0
  0
LINE
  5
6AC
330
A
100
AcDbEntity
  8
0
  6
Continuous
 62
     7
100
AcDbLine
 10
1293.472381048931
 20
631.0424127051516
 30
0.0
 11
1295.275205612695
 21
627.0864752495449
 31
0.0
  0
LINE
  5
6AD
330
A
100
AcDbEntity
  8
0
  6
Continuous
 62
     7
100
AcDbLine
 10
625.482073972351
 20
308.2001240767477
 30
0.0
 11
652.4989454785933
 21
281.1832525705055
 31
0.0
  0
LINE
  5
6AE
330
A
100
AcDbEntity
  8
0
  6
Continuous
 62
     7
100
AcDbLine
 10
616.643239207519
 20
317.0389588415797
 30
0.0
 11
620.8858798946383
 21
312.7963181544602
 31
0.0
  0
LINE
  5
6AF
330
A
100
AcDbEntity
  8
0
  6
Continuous
 62
     7
100
AcDbLine
 10
626.9747377188037
 20
322.3769466013889
 30
0.0
 11
624.4779823430659
 21
324.8737019771267
 31
0.0
  0
LINE
  5
6B0
330
A
100
AcDbEntity
  8
0
  6
Continuous
 62
     7
100
AcDbLine
 10
631.0187200690417
 20
318.3329642511509
 30
0.0
 11
628.1051372686524
 21
321.2465470515401
 31
0.0
  0
LINE
  5
6B1
330
A
100
AcDbEntity
  8
0
  6
Continuous
 62
     7
100
AcDbLine
 10
657.7165344793671
 20
291.6351498408255
 30
0.0
 11
638.7968946620937
 21
310.5547896580989
 31
0.0
  0
ARC
  5
6B2
330
A
100
AcDbEntity
  8
0
  6
Continuous
 62
     7
100
AcDbCircle
 10
618.0574527698921
 20
318.4531724039526
 30
0.0
 40
1.999999999999935
100
AcDbArc
 50
134.9999999999977
 51
224.9999999999985
  0
ARC
  5
6B3
330
A
100
AcDbEntity
  8
0
  6
Continuous
 62
     7
100
AcDbCircle
 10
623.0637687806929
 20
323.4594884147534
 30
0.0
 40
2.000000000000056
100
AcDbArc
 50
45.00000000000576
 51
134.9999999999988
  0
LINE
  5
6B4
330
A
100
AcDbEntity
  8
0
  6
Continuous
 62
     7
100
AcDbLine
 10
674.1838718959778
 20
232.8730692886679
 30
0.0
 11
674.1838718959778
 21
268.7309336649369
 31
0.0
  0
LINE
  5
6B5
330
A
100
AcDbEntity
  8
0
  6
Continuous
 62
     7
100
AcDbLine
 10
663.1038718959778
 20
266.7930692886679
 30
0.0
 11
663.1038718959778
 21
232.8730692886679
 31
0.0
  0
LINE
  5
6B6
330
A
100
AcDbEntity
  8
0
  6
Continuous
 62
     7
100
AcDbLine
 10
657.7038718959779
 20
321.8730692886679
 30
0.0
 11
657.7038718959779
 21
291.6299854111911
 31
0.0
  0
LINE
  5
6B7
330
A
100
AcDbEntity
  8
0
  6
Continuous
 62
     7
100
AcDbLine
 10
668.5038718959779
 20
287.5481093402645
 30
0.0
 11
668.5038718959779
 21
321.8730692886679
 31
0.0
  0
LINE
  5
6B8
330
A
100
AcDbEntity
  8
0
  6
Continuous
 62
     7
100
AcDbLine
 10
678.1038718959779
 20
321.8730692886679
 30
0.0
 11
678.1038718959779
 21
711.873069288668
 31
0.0
  0
LINE
  5
6B9
330
A
100
AcDbEntity
  8
0
  6
Continuous
 62
     7
100
AcDbLine
 10
737.1038718959779
 20
741.8730692886677
 30
0.0
 11
1127.103871895978
 21
741.8730692886677
 31
0.0
  0
LINE
  5
6BA
330
A
100
AcDbEntity
  8
0
  6
Continuous
 62
     7
100
AcDbLine
 10
664.9863268374733
 20
791.6273675839866
 30
0.0
 11
658.4455891114978
 21
798.1681053099621
 31
0.0
  0
LINE
  5
6BB
330
A
100
AcDbEntity
  8
0
  6
Continuous
 62
     7
100
AcDbLine
 10
688.0948715814481
 20
768.5188228400122
 30
0.0
 11
672.7645014305254
 21
783.8491929909345
 31
0.0
  0
ARC
  5
6BC
330
A
100
AcDbEntity
  8
0
  6
Continuous
 62
     7
100
AcDbCircle
 10
652.2230494370562
 20
791.9455656355204
 30
0.0
 40
2.000000000000015
100
AcDbArc
 50
135.0
 51
225.0000000000008
  0
ARC
  5
6BD
330
A
100
AcDbEntity
  8
0
  6
Continuous
 62
     7
100
AcDbCircle
 10
657.0313755491248
 20
796.753891747589
 30
0.0
 40
2.000000000000015
100
AcDbArc
 50
45.0000000000046
 51
135.0
  0
LINE
  5
6BE
330
A
100
AcDbEntity
  8
0
  6
Continuous
 62
     7
100
AcDbLine
 10
650.8088358746832
 20
790.5313520731473
 30
0.0
 11
655.0514765618024
 21
786.2887113860281
 31
0.0
  0
LWPOLYLINE
  5
6BF
330
A
100
AcDbEntity
  8
0
  6
Continuous
 62
     7
100
AcDbPolyline
 90
        8
 70
   128
 43
0.0
 10
653.95305436669
 20
714.7105887197977
 10
653.9689140936596
 20
714.7052082912864
 10
654.2740104859874
 20
714.5929628628954
 10
654.6700381276341
 20
714.4241633043889
 10
655.1994673587369
 20
714.1544042117581
 10
656.1110985001966
 20
713.5522121027259
 10
656.9207186278438
 20
712.8289696119638
 10
657.7328033750315
 20
711.8106242931337
  0
LWPOLYLINE
  5
6C9
330
A
100
AcDbEntity
  8
0
  6
Continuous
 62
     7
100
AcDbPolyline
 90
       13
 70
   128
 43
0.0
 10
660.4991479840707
 20
731.9798042208177
 10
660.4589928618693
 20
731.8967925582157
 10
659.777444533032
 20
730.9300072775299
 10
659.0158458337529
 20
730.1387056473648
 10
658.2217192766644
 20
729.5173184905758
 10
657.4406956515231
 20
729.0532921828397
 10
656.7167855530025
 20
728.7278009088601
 10
656.0925702650735
 20
728.5170118430662
 10
655.6126914899225
 20
728.3951469670021
 10
655.3411082998126
 20
728.3409037827034
 10
655.2426453930262
 20
728.3238188108819
 10
655.1912674208641
 20
728.3154552477928
 10
655.1708569869057
 20
728.3122773639483
  0
LINE
  5
6D8
330
A
100
AcDbEntity
  8
0
  6
Continuous
 62
     7
100
AcDbLine
 10
659.6476706395151
 20
781.6925173083155
 30
0.0
 11
680.4581183446336
 21
760.8820696031973
 31
0.0
  0
ARC
  5
6D9
330
A
100
AcDbEntity
  8
0
  6
Continuous
 62
     7
100
AcDbCircle
 10
678.1038718959779
 20
721.6598658530714
 30
0.0
 40
20.40000000000001
100
AcDbArc
 50
135.0000000000007
 51
149.6024530744837
  0
LINE
  5
6DA
330
A
100
AcDbEntity
  8
0
  6
Continuous
 62
     7
100
AcDbLine
 10
680.4608512075929
 20
752.8668018370973
 30
0.0
 11
663.6788935597722
 21
736.0848441892767
 31
0.0
  0
LINE
  5
6DB
330
A
100
AcDbEntity
  8
0
  6
Continuous
 62
     7
100
AcDbLine
 10
668.5038718959779
 20
711.873069288668
 30
0.0
 11
668.5038718959779
 21
721.6598658530714
 31
0.0
  0
ARC
  5
6DC
330
A
100
AcDbEntity
  8
0
  6
Continuous
 62
     7
100
AcDbCircle
 10
678.1038718959779
 20
721.6598658530714
 30
0.0
 40
9.600000000000022
100
AcDbArc
 50
135.0000000000007
 51
180.0000000000004
  0
LINE
  5
6DD
330
A
100
AcDbEntity
  8
0
  6
Continuous
 62
     7
100
AcDbLine
 10
671.3156467965871
 20
728.448090952462
 30
0.0
 11
688.0984358566472
 21
745.2308800125223
 31
0.0
  0
LWPOLYLINE
  5
6DE
330
A
100
AcDbEntity
  8
0
  6
Continuous
 62
     7
100
AcDbPolyline
 90
        9
 70
   128
 43
0.0
 10
681.1787885663211
 20
755.0246721685144
 10
681.1801556879355
 20
755.0156710812931
 10
681.1833600497567
 20
754.9934101160728
 10
681.1892985766493
 20
754.9476965786729
 10
681.2071216159456
 20
754.674559858653
 10
681.1902745060243
 20
754.3577026617201
 10
680.948294004495
 20
753.54056229684
 10
680.5855868801107
 20
752.9987912561169
 10
680.4490536152187
 20
752.8838404448718
  0
LWPOLYLINE
  5
6E9
330
A
100
AcDbEntity
  8
0
  6
Continuous
 62
     7
100
AcDbPolyline
 90
       10
 70
   128
 43
0.0
 10
680.4437541543931
 20
760.8657308386202
 10
680.6724934511976
 20
760.6429526976029
 10
680.9691939681319
 20
760.1623979046488
 10
681.1307736647973
 20
759.7112891353396
 10
681.1968549707083
 20
759.3253242162253
 10
681.2062844108723
 20
759.0287338264208
 10
681.1935933732972
 20
758.8369479276556
 10
681.1875264492191
 20
758.7845046503185
 10
681.1842676118045
 20
758.7597449813655
 10
681.1820235480227
 20
758.7437582398769
  0
LWPOLYLINE
  5
6F5
330
A
100
AcDbEntity
  8
0
  6
Continuous
 62
     7
100
AcDbPolyline
 90
       11
 70
   128
 43
0.0
 10
688.1131436129886
 20
745.2159879203158
 10
688.3766538830491
 20
745.4743769195146
 10
688.8575910884751
 20
745.758091758217
 10
689.3055155990785
 20
745.9096907771513
 10
689.6857928378993
 20
745.9689461721198
 10
689.9752611033671
 20
745.9746178919388
 10
690.1623776978485
 20
745.9603901911423
 10
690.2225735918096
 20
745.9527904689809
 10
690.2449467966121
 20
745.9495854050711
 10
690.2561348063056
 20
745.9479043552189
 10
690.2580886579365
 20
745.9476022425672
  0
LWPOLYLINE
  5
702
330
A
100
AcDbEntity
  8
0
  6
Continuous
 62
     7
100
AcDbPolyline
 90
        9
 70
   128
 43
0.0
 10
690.2326613113542
 20
767.7948570425183
 10
690.2292114168261
 20
767.7943479353671
 10
690.2065873489624
 20
767.7912459233439
 10
690.1699743959361
 20
767.7866780409724
 10
690.0618491361136
 20
767.776386182459
 10
689.8391737647687
 20
767.770024897738
 10
689.0357751868492
 20
767.9162828935469
 10
688.357165217461
 20
768.2864434272885
 10
688.1213912723713
 20
768.5409924578859
  0
LWPOLYLINE
  5
70D
330
A
100
AcDbEntity
  8
0
  6
Continuous
 62
     7
100
AcDbPolyline
 90
        9
 70
   128
 43
0.0
 10
701.1498877728187
 20
750.4733447986525
 10
701.1519672235119
 20
750.4761442355828
 10
701.1657714015811
 20
750.4943353211265
 10
701.1884306883229
 20
750.5234545690637
 10
701.2576093498141
 20
750.6071881164492
 10
701.4105665070991
 20
750.7691414888727
 10
702.0820751117128
 20
751.2338100515286
 10
702.8236678470494
 20
751.4519167387815
 10
703.1678260070214
 20
751.4387384883957
  0
LWPOLYLINE
  5
718
330
A
100
AcDbEntity
  8
0
  6
Continuous
 62
     7
100
AcDbPolyline
 90
       11
 70
   128
 43
0.0
 10
703.1688157148525
 20
762.29461560551
 10
702.8913285263996
 20
762.2862560871829
 10
702.3345100521635
 20
762.4095294109569
 10
701.8939023041637
 20
762.6112016429844
 10
701.5673174334495
 20
762.8374519140867
 10
701.3448062000613
 20
763.0431050033853
 10
701.2127725896077
 20
763.1923675108619
 10
701.1765719205089
 20
763.2378119164128
 10
701.1603276621112
 20
763.2589347251091
 10
701.1499535142096
 20
763.2726781193139
 10
701.1495749682615
 20
763.2731868164107
  0
LINE
  5
725
330
A
100
AcDbEntity
  8
0
  6
Continuous
 62
     7
100
AcDbLine
 10
703.1712791780269
 20
751.473069288668
 30
0.0
 11
737.1038718959779
 21
751.473069288668
 31
0.0
  0
LINE
  5
726
330
A
100
AcDbEntity
  8
0
  6
Continuous
 62
     7
100
AcDbLine
 10
737.1038718959779
 20
762.2730692886677
 30
0.0
 11
703.1712791780269
 21
762.2730692886677
 31
0.0
  0
LINE
  5
727
330
A
100
AcDbEntity
  8
0
  6
Continuous
 62
     7
100
AcDbLine
 10
1127.103871895978
 20
752.373069288668
 30
0.0
 11
1150.603871895978
 21
752.373069288668
 31
0.0
  0
LINE
  5
728
330
A
100
AcDbEntity
  8
0
  6
Continuous
 62
     7
100
AcDbLine
 10
1128.103871895978
 20
761.3730692886679
 30
0.0
 11
1127.103871895978
 21
761.3730692886679
 31
0.0
  0
LINE
  5
729
330
A
100
AcDbEntity
  8
0
  6
Continuous
 62
     7
100
AcDbLine
 10
1150.603871895978
 20
761.3730692886679
 30
0.0
 11
1143.103871895978
 21
761.3730692886679
 31
0.0
  0
LINE
  5
72A
330
A
100
AcDbEntity
  8
0
  6
Continuous
 62
     7
100
AcDbLine
 10
1133.559147680294
 20
768.5894666793658
 30
0.0
 11
671.2006569076658
 21
792.7238494831684
 31
0.0
  0
LINE
  5
72B
330
A
100
AcDbEntity
  8
0
  6
Continuous
 62
     7
100
AcDbLine
 10
672.95158251914
 20
791.4308202393064
 30
0.0
 11
1131.287384327162
 21
767.5064154445815
 31
0.0
  0
LINE
  5
72C
330
A
100
AcDbEntity
  8
0
  6
Continuous
 62
     7
100
AcDbLine
 10
650.2663780576794
 20
717.509898830024
 30
0.0
 11
626.9696965020589
 21
322.3768754494004
 31
0.0
  0
LINE
  5
72D
330
A
100
AcDbEntity
  8
0
  6
Continuous
 62
     7
100
AcDbLine
 10
628.1051372686524
 20
321.2465470515401
 30
0.0
 11
651.3910672858417
 21
716.1972145083749
 31
0.0
  0
LINE
  5
72E
330
A
100
AcDbEntity
  8
0
  6
Continuous
 62
     7
100
AcDbLine
 10
503.6438718959781
 20
-486.1269307113322
 30
0.0
 11
833.6438718959779
 21
-486.1269307113322
 31
0.0
  0
LINE
  5
72F
330
A
100
AcDbEntity
  8
0
  6
Continuous
 62
     7
100
AcDbLine
 10
506.14387189895
 20
-470.1269307113321
 30
0.0
 11
831.1438718959779
 21
-470.1269307113321
 31
0.0
  0
LINE
  5
730
330
A
100
AcDbEntity
  8
0
  6
Continuous
 62
     7
100
AcDbLine
 10
511.1438718959779
 20
-492.1269307113322
 30
0.0
 11
826.1438718959778
 21
-492.1269307113322
 31
0.0
  0
LINE
  5
731
330
A
100
AcDbEntity
  8
0
  6
Continuous
 62
     7
100
AcDbLine
 10
719.3611661365977
 20
-496.1269307113322
 30
0.0
 11
701.3611661365977
 21
-496.1269307113322
 31
0.0
  0
LINE
  5
732
330
A
100
AcDbEntity
  8
0
  6
Continuous
 62
     7
100
AcDbLine
 10
568.4265776553627
 20
-496.1269307113322
 30
0.0
 11
550.4265776553564
 21
-496.1269307113322
 31
0.0
  0
LINE
  5
733
330
A
100
AcDbEntity
  8
0
  6
Continuous
 62
     7
100
AcDbLine
 10
656.1438718959778
 20
-430.1269307113322
 30
0.0
 11
681.1438718959778
 21
-430.1269307113322
 31
0.0
  0
LINE
  5
734
330
A
100
AcDbEntity
  8
0
  6
Continuous
 62
     7
100
AcDbLine
 10
656.1438718959778
 20
232.8730692886678
 30
0.0
 11
681.1438718959778
 21
232.8730692886678
 31
0.0
  0
LINE
  5
735
330
A
100
AcDbEntity
  8
0
  6
Continuous
 62
     7
100
AcDbLine
 10
812.6438718959779
 20
-496.1269307113322
 30
0.0
 11
794.6438718959779
 21
-496.1269307113322
 31
0.0
  0
CIRCLE
  5
736
330
A
100
AcDbEntity
  8
0
  6
Continuous
 62
     7
100
AcDbCircle
 10
661.1679502190664
 20
787.8089909655796
 30
0.0
 40
3.0
  0
LINE
  5
737
330
A
100
AcDbEntity
  8
0
  6
Continuous
 62
     7
100
AcDbLine
 10
1392.805960406745
 20
756.7022608209915
 30
0.0
 11
1263.202230151682
 21
697.6384381287971
 31
0.0
  0
LWPOLYLINE
  5
738
330
A
100
AcDbEntity
  8
0
  6
Continuous
 62
     7
100
AcDbPolyline
 90
        3
 70
   128
 43
0.0
 10
1263.137032768092
 20
697.6087259693027
 10
1263.18089639415
 20
697.6287352767788
 10
1263.202230151682
 20
697.6384381287971
  0
LINE
  5
73D
330
A
100
AcDbEntity
  8
0
  6
Continuous
 62
     7
100
AcDbLine
 10
1263.137032768092
 20
697.6087259693027
 30
0.0
 11
1261.771537400522
 21
696.9864338784929
 31
0.0
  0
LINE
  5
73E
330
A
100
AcDbEntity
  8
0
  6
Continuous
 62
     7
100
AcDbLine
 10
1259.698071187501
 20
701.536240232994
 30
0.0
 11
1390.732494193463
 21
761.2520671753737
 31
0.0
  0
LWPOLYLINE
  5
73F
330
A
100
AcDbEntity
  8
0
  6
Continuous
 62
     7
100
AcDbPolyline
 90
       22
 70
   128
 43
0.0
 10
1260.609983799493
 20
730.7022818817331
 10
1260.596210566501
 20
730.6673839128211
 10
1260.822925987594
 20
731.2392206704033
 10
1261.288221815283
 20
732.431028044533
 10
1261.955754293594
 20
734.1989497527154
 10
1262.816853126757
 20
736.5961179236385
 10
1263.781939137514
 20
739.4918184043294
 10
1264.845624520592
 20
743.0576693280236
 10
1265.846288503612
 20
747.0297621634704
 10
1266.68715731144
 20
751.4031983602563
 10
1267.23269271858
 20
755.9826131285626
 10
1267.37535268523
 20
760.2316251659628
 10
1267.140750234635
 20
764.3889343090815
 10
1266.595387417148
 20
767.9771292618331
 10
1265.792598127495
 20
771.2928962505799
 10
1264.742897729286
 20
774.4369238870781
 10
1263.598914327068
 20
777.1642338080085
 10
1262.326979128508
 20
779.7132669503374
 10
1261.253070325129
 20
781.6077388604491
 10
1260.725530633949
 20
782.4749589013634
 10
1260.403871895978
 20
782.9851402694739
 10
1260.403871895978
 20
782.9851402694739
  0
LWPOLYLINE
  5
757
330
A
100
AcDbEntity
  8
0
  6
Continuous
 62
     7
100
AcDbPolyline
 90
        8
 70
   128
 43
0.0
 10
1260.403871895978
 20
782.9851402694739
 10
1260.403854327851
 20
782.9904637986783
 10
1260.403446952287
 20
783.0118492108692
 10
1260.402231604106
 20
783.0388544523924
 10
1260.397860857903
 20
783.0923023282983
 10
1260.380015407639
 20
783.2158832844121
 10
1260.328088568709
 20
783.4412664543772
 10
1260.333522116898
 20
783.4207902938937
  0
CIRCLE
  5
761
330
A
100
AcDbEntity
  8
0
  6
Continuous
 62
     7
100
AcDbCircle
 10
1229.603871895978
 20
756.8730692886679
 30
0.0
 40
7.5
  0
LINE
  5
762
330
A
100
AcDbEntity
  8
0
  6
Continuous
 62
     7
100
AcDbLine
 10
1150.603871895978
 20
752.373069288668
 30
0.0
 11
1183.603871895978
 21
752.373069288668
 31
0.0
  0
LWPOLYLINE
  5
763
330
A
100
AcDbEntity
  8
0
  6
Continuous
 62
     7
100
AcDbPolyline
 90
       11
 70
   128
 43
0.0
 10
1150.603871895978
 20
761.3730692886679
 10
1150.636294583541
 20
761.1287894217914
 10
1150.720980958174
 20
760.4134811894916
 10
1150.822385597368
 20
759.297083303874
 10
1150.895980343025
 20
757.9007705291652
 10
1150.912129819422
 20
756.8730692886679
 10
1150.87857102947
 20
755.3914091375331
 10
1150.792767956182
 20
754.0769037449172
 10
1150.691544537499
 20
753.0689541285251
 10
1150.619163184602
 20
752.4866118599114
 10
1150.603871895978
 20
752.373069288668
  0
LINE
  5
770
330
A
100
AcDbEntity
  8
0
  6
Continuous
 62
     7
100
AcDbLine
 10
1150.603871895978
 20
761.3730692886679
 30
0.0
 11
1183.603871895978
 21
761.3730692886679
 31
0.0
  0
LINE
  5
771
330
A
100
AcDbEntity
  8
0
  6
Continuous
 62
     7
100
AcDbLine
 10
1183.603871895978
 20
752.373069288668
 30
0.0
 11
1223.603871895978
 21
752.373069288668
 31
0.0
  0
LINE
  5
772
330
A
100
AcDbEntity
  8
0
  6
Continuous
 62
     7
100
AcDbLine
 10
1183.603871895978
 20
761.3730692886679
 30
0.0
 11
1223.603871895978
 21
761.3730692886679
 31
0.0
  0
LINE
  5
773
330
A
100
AcDbEntity
  8
0
  6
Continuous
 62
     7
100
AcDbLine
 10
1260.403871895978
 20
782.9851402694739
 30
0.0
 11
1260.403871895978
 21
730.623069288668
 31
0.0
  0
LINE
  5
774
330
A
100
AcDbEntity
  8
0
  6
Continuous
 62
     7
100
AcDbLine
 10
1239.603871895978
 20
780.8230692886681
 30
0.0
 11
1239.603871895978
 21
732.9230692886677
 31
0.0
  0
LINE
  5
775
330
A
100
AcDbEntity
  8
0
  6
Continuous
 62
     7
100
AcDbLine
 10
1219.603871895978
 20
780.8230692886681
 30
0.0
 11
1219.603871895978
 21
761.3730692886679
 31
0.0
  0
LINE
  5
776
330
A
100
AcDbEntity
  8
0
  6
Continuous
 62
     7
100
AcDbLine
 10
1219.603871895978
 20
752.373069288668
 30
0.0
 11
1219.603871895978
 21
732.9230692886677
 31
0.0
  0
LINE
  5
777
330
A
100
AcDbEntity
  8
0
  6
Continuous
 62
     7
100
AcDbLine
 10
1177.603871895978
 20
768.1230692886679
 30
0.0
 11
1177.603871895978
 21
761.3730692886679
 31
0.0
  0
LINE
  5
778
330
A
100
AcDbEntity
  8
0
  6
Continuous
 62
     7
100
AcDbLine
 10
1177.603871895978
 20
752.373069288668
 30
0.0
 11
1177.603871895978
 21
745.6230692886679
 31
0.0
  0
LINE
  5
779
330
A
100
AcDbEntity
  8
0
  6
Continuous
 62
     7
100
AcDbLine
 10
656.1038718959779
 20
711.873069288668
 30
0.0
 11
664.5038718959779
 21
711.873069288668
 31
0.0
  0
LINE
  5
77A
330
A
100
AcDbEntity
  8
0
  6
Continuous
 62
     7
100
AcDbLine
 10
656.1038718959778
 20
321.8730692886679
 30
0.0
 11
664.5038718959779
 21
321.8730692886679
 31
0.0
  0
LINE
  5
77B
330
A
100
AcDbEntity
  8
0
  6
Continuous
 62
     7
100
AcDbLine
 10
1127.103871895978
 20
763.873069288668
 30
0.0
 11
1127.103871895978
 21
755.473069288668
 31
0.0
  0
LINE
  5
77C
330
A
100
AcDbEntity
  8
0
  6
Continuous
 62
     7
100
AcDbLine
 10
737.1038718959779
 20
763.873069288668
 30
0.0
 11
737.1038718959779
 21
755.473069288668
 31
0.0
  0
LINE
  5
77D
330
A
100
AcDbEntity
  8
0
  6
Continuous
 62
     7
100
AcDbLine
 10
664.5038718959779
 20
711.873069288668
 30
0.0
 11
674.1038718959779
 21
711.873069288668
 31
0.0
  0
LINE
  5
77E
330
A
100
AcDbEntity
  8
0
  6
Continuous
 62
     7
100
AcDbLine
 10
664.5038718959779
 20
321.8730692886679
 30
0.0
 11
674.1038718959779
 21
321.8730692886679
 31
0.0
  0
LINE
  5
77F
330
A
100
AcDbEntity
  8
0
  6
Continuous
 62
     7
100
AcDbLine
 10
1127.103871895978
 20
755.473069288668
 30
0.0
 11
1127.103871895978
 21
745.8730692886677
 31
0.0
  0
LINE
  5
780
330
A
100
AcDbEntity
  8
0
  6
Continuous
 62
     7
100
AcDbLine
 10
737.1038718959779
 20
755.473069288668
 30
0.0
 11
737.1038718959779
 21
745.8730692886677
 31
0.0
  0
LINE
  5
781
330
A
100
AcDbEntity
  8
0
  6
Continuous
 62
     7
100
AcDbLine
 10
1168.603871895977
 20
763.123069288668
 30
0.0
 11
1168.603871895977
 21
761.3730692886679
 31
0.0
  0
LINE
  5
782
330
A
100
AcDbEntity
  8
0
  6
Continuous
 62
     7
100
AcDbLine
 10
1168.603871895977
 20
752.373069288668
 30
0.0
 11
1168.603871895977
 21
750.6230692886678
 31
0.0
  0
CIRCLE
  5
783
330
A
100
AcDbEntity
  8
0
  6
Continuous
 62
     7
100
AcDbCircle
 10
663.1038718959779
 20
277.8730692886679
 30
0.0
 40
11.08000000000004
  0
LWPOLYLINE
  5
784
330
A
100
AcDbEntity
  8
0
  6
Continuous
 62
     7
100
AcDbPolyline
 90
       12
 70
   128
 43
0.0
 10
626.9743804662714
 20
322.3765893488565
 10
626.9721379321955
 20
322.3791946721516
 10
626.9984669883067
 20
322.3486806903131
 10
627.0683478210859
 20
322.2686668148325
 10
627.2044876044727
 20
322.1168521260925
 10
627.4246759507718
 20
321.8826726736481
 10
627.6667348860314
 20
321.6413492949425
 10
627.8638688718996
 20
321.4571531049887
 10
627.9961847843614
 20
321.3396513909241
 10
628.0734561559172
 20
321.2732822841673
 10
628.1041180939033
 20
321.2474028253308
 10
628.1051372686524
 20
321.2465470515401
  0
LWPOLYLINE
  5
792
330
A
100
AcDbEntity
  8
0
  6
Continuous
 62
     7
100
AcDbPolyline
 90
        5
 70
   128
 43
0.0
 10
657.7113683315103
 20
291.6299836929685
 10
657.7379517869139
 20
291.5667616872712
 10
657.8907133720719
 20
291.2036444957676
 10
658.27701234154
 20
290.2869385860066
 10
659.150908064342
 20
288.2239377037227
  0
LINE
  5
799
330
A
100
AcDbEntity
  8
0
  6
Continuous
 62
     7
100
AcDbLine
 10
624.803251462412
 20
316.7136897222338
 30
0.0
 11
620.8858798946383
 21
312.7963181544602
 31
0.0
  0
LINE
  5
79A
330
A
100
AcDbEntity
  8
0
  6
Continuous
 62
     7
100
AcDbLine
 10
625.482073972351
 20
308.2001240767477
 30
0.0
 11
629.3994455401246
 21
312.1174956445212
 31
0.0
  0
LWPOLYLINE
  5
79B
330
A
100
AcDbEntity
  8
0
  6
Continuous
 62
     7
100
AcDbPolyline
 90
       12
 70
   128
 43
0.0
 10
629.3994455401246
 20
312.1174956445212
 10
629.8343293604464
 20
312.6568102569909
 10
630.220564564616
 20
313.5029091948918
 10
630.3507806633442
 20
314.4763431900956
 10
630.1413000515371
 20
315.5650249658623
 10
629.6778718688431
 20
316.3965084656208
 10
628.9770905931139
 20
317.0696634444685
 10
628.2011203036431
 20
317.4738604909282
 10
627.2664383434988
 20
317.6613969510424
 10
626.1565012333262
 20
317.5252170401547
 10
625.1312787661976
 20
317.000418642501
 10
624.803251462412
 20
316.7136897222338
  0
LINE
  5
7A9
330
A
100
AcDbEntity
  8
0
  6
Continuous
 62
     7
100
AcDbLine
 10
638.6505706941258
 20
310.408465690131
 30
0.0
 11
630.8723961010738
 21
318.1866402831831
 31
0.0
  0
LINE
  5
7AA
330
A
100
AcDbEntity
  8
0
  6
Continuous
 62
     7
100
AcDbLine
 10
616.6432395090329
 20
319.8673862678395
 30
0.0
 11
621.6495552183198
 21
324.8737019771265
 31
0.0
  0
CIRCLE
  5
7AB
330
A
100
AcDbEntity
  8
0
  6
Continuous
 62
     7
100
AcDbCircle
 10
627.1013485012682
 20
314.4155926833775
 30
0.0
 40
3.0
  0
CIRCLE
  5
7AC
330
A
100
AcDbEntity
  8
0
  6
Continuous
 62
     7
100
AcDbCircle
 10
656.1038718959779
 20
721.3730692886677
 30
0.0
 40
5.000000000000113
  0
CIRCLE
  5
7AD
330
A
100
AcDbEntity
  8
0
  6
Continuous
 62
     7
100
AcDbCircle
 10
692.1038718959779
 20
756.8730692886679
 30
0.0
 40
5.0
  0
CIRCLE
  5
7AE
330
A
100
AcDbEntity
  8
0
  6
Continuous
 62
     7
100
AcDbCircle
 10
1135.603871895978
 20
761.3730692886679
 30
0.0
 40
7.499999999999772
  0
LINE
  5
7AF
330
A
100
AcDbEntity
  8
0
  6
Continuous
 62
     7
100
AcDbLine
 10
674.1038718959779
 20
711.873069288668
 30
0.0
 11
678.1038718959779
 21
711.873069288668
 31
0.0
  0
LINE
  5
7B0
330
A
100
AcDbEntity
  8
0
  6
Continuous
 62
     7
100
AcDbLine
 10
674.1038718959779
 20
321.8730692886679
 30
0.0
 11
678.1038718959779
 21
321.8730692886679
 31
0.0
  0
LINE
  5
7B1
330
A
100
AcDbEntity
  8
0
  6
Continuous
 62
     7
100
AcDbLine
 10
1127.103871895978
 20
745.8730692886677
 30
0.0
 11
1127.103871895978
 21
741.8730692886677
 31
0.0
  0
LINE
  5
7B2
330
A
100
AcDbEntity
  8
0
  6
Continuous
 62
     7
100
AcDbLine
 10
737.1038718959779
 20
745.8730692886677
 30
0.0
 11
737.1038718959779
 21
741.8730692886677
 31
0.0
  0
LINE
  5
7B3
330
A
100
AcDbEntity
  8
0
  6
Continuous
 62
     7
100
AcDbLine
 10
672.6142305903096
 20
783.6989221507183
 30
0.0
 11
664.8360559972575
 21
791.4770967437704
 31
0.0
  0
LINE
  5
7B4
330
A
100
AcDbEntity
  8
0
  6
Continuous
 62
     7
100
AcDbLine
 10
664.1876202591223
 20
789.0106951093642
 30
0.0
 11
685.1220709406756
 21
768.0762444278111
 31
0.0
  0
LWPOLYLINE
  5
7B5
330
A
100
AcDbEntity
  8
0
  6
Continuous
 62
     7
100
AcDbPolyline
 90
        4
 70
   128
 43
0.0
 10
662.369654362851
 20
790.8286610056353
 10
663.1616801911615
 20
790.3756114670113
 10
663.8077465308188
 20
789.7047692839646
 10
664.1876202591223
 20
789.0106951093642
  0
LINE
  5
7BB
330
A
100
AcDbEntity
  8
0
  6
Continuous
 62
     7
100
AcDbLine
 10
656.737899585011
 20
796.4604157834752
 30
0.0
 11
662.369654362851
 21
790.8286610056353
 31
0.0
  0
LINE
  5
7BC
330
A
100
AcDbEntity
  8
0
  6
Continuous
 62
     7
100
AcDbLine
 10
650.8088358746833
 20
793.3597791978935
 30
0.0
 11
651.5835818570374
 21
794.1345251802476
 31
0.0
  0
LWPOLYLINE
  5
7BD
330
A
100
AcDbEntity
  8
0
  6
Continuous
 62
     7
100
AcDbPolyline
 90
        7
 70
   128
 43
0.0
 10
652.51652540117
 20
792.2390415996342
 10
652.0866019197598
 20
792.714029185706
 10
651.7510798550642
 20
793.1811222427346
 10
651.5440661094244
 20
793.6004677645491
 10
651.493419073861
 20
793.9406022366319
 10
651.5808071660282
 20
794.1317142715299
 10
651.5835818570374
 20
794.1345251802476
  0
LINE
  5
7C6
330
A
100
AcDbEntity
  8
0
  6
Continuous
 62
     7
100
AcDbLine
 10
651.5835818570374
 20
794.1345251802476
 30
0.0
 11
654.8424160043975
 21
797.3933593276077
 31
0.0
  0
LWPOLYLINE
  5
7C7
330
A
100
AcDbEntity
  8
0
  6
Continuous
 62
     7
100
AcDbPolyline
 90
        7
 70
   128
 43
0.0
 10
656.737899585011
 20
796.4604157834752
 10
656.2629119989391
 20
796.8903392648854
 10
655.7958189419106
 20
797.2258613295812
 10
655.3764734200962
 20
797.4328750752209
 10
655.0363389480134
 20
797.4835221107841
 10
654.8452269131161
 20
797.3961340186178
 10
654.8424160043975
 20
797.3933593276077
  0
LINE
  5
7D0
330
A
100
AcDbEntity
  8
0
  6
Continuous
 62
     7
100
AcDbLine
 10
654.8424160043975
 20
797.3933593276077
 30
0.0
 11
655.6171619867517
 21
798.168105309962
 31
0.0
  0
LWPOLYLINE
  5
7D1
330
A
100
AcDbEntity
  8
0
  6
Continuous
 62
     7
100
AcDbPolyline
 90
        4
 70
   128
 43
0.0
 10
688.968788752124
 20
767.5002821726334
 10
687.3665016772795
 20
767.3148809651883
 10
685.7533632237983
 20
767.6604413148547
 10
685.1220709406756
 20
768.0762444278111
  0
ARC
  5
7D7
330
A
100
AcDbEntity
  8
0
  6
Continuous
 62
     7
100
AcDbCircle
 10
692.1038718959779
 20
756.8730692886679
 30
0.0
 40
11.07999999999996
100
AcDbArc
 50
28.56366628540683
 51
106.4363337145949
  0
LWPOLYLINE
  5
7D8
330
A
100
AcDbEntity
  8
0
  6
Continuous
 62
     7
100
AcDbPolyline
 90
        5
 70
   128
 43
0.0
 10
704.9625918080756
 20
759.8580315999877
 10
704.1375665755323
 20
760.0443489571214
 10
702.9954667369553
 20
760.7669387587244
 10
702.0173106351035
 20
761.8665437683124
 10
701.8352847419455
 20
762.1708050334305
  0
LINE
  5
7DF
330
A
100
AcDbEntity
  8
0
  6
Continuous
 62
     7
100
AcDbLine
 10
737.1038718959779
 20
759.8580315999877
 30
0.0
 11
704.9625918080756
 21
759.8580315999877
 31
0.0
  0
LINE
  5
7E0
330
A
100
AcDbEntity
  8
0
  6
Continuous
 62
     7
100
AcDbLine
 10
704.9625918080756
 20
753.8881069773481
 30
0.0
 11
737.1038718959779
 21
753.8881069773481
 31
0.0
  0
LWPOLYLINE
  5
7E1
330
A
100
AcDbEntity
  8
0
  6
Continuous
 62
     7
100
AcDbPolyline
 90
        4
 70
   128
 43
0.0
 10
701.8352847419455
 20
751.5753335439053
 10
702.837174346951
 20
752.8394200509601
 10
704.2221835529548
 20
753.7357331238495
 10
704.9625918080754
 20
753.8881069773481
  0
ARC
  5
7E7
330
A
100
AcDbEntity
  8
0
  6
Continuous
 62
     7
100
AcDbCircle
 10
692.1038718959779
 20
756.8730692886679
 30
0.0
 40
11.07999999999993
100
AcDbArc
 50
253.563666285407
 51
331.4363337145944
  0
LWPOLYLINE
  5
7E8
330
A
100
AcDbEntity
  8
0
  6
Continuous
 62
     7
100
AcDbPolyline
 90
        5
 70
   128
 43
0.0
 10
685.1220709406758
 20
745.6698941495247
 10
685.8371981439397
 20
746.1215288194246
 10
687.1557328333208
 20
746.4181672113442
 10
688.6249318049067
 20
746.3322898651154
 10
688.9687887521241
 20
746.2458564047024
  0
LINE
  5
7EF
330
A
100
AcDbEntity
  8
0
  6
Continuous
 62
     7
100
AcDbLine
 10
669.6079572701001
 20
730.155780478949
 30
0.0
 11
685.1220709406758
 21
745.6698941495247
 31
0.0
  0
ARC
  5
7F0
330
A
100
AcDbEntity
  8
0
  6
Continuous
 62
     7
100
AcDbCircle
 10
678.1038718959779
 20
721.6598658530714
 30
0.0
 40
12.01503768868023
100
AcDbArc
 50
135.0000000000007
 51
180.0000000000004
  0
LINE
  5
7F1
330
A
100
AcDbEntity
  8
0
  6
Continuous
 62
     7
100
AcDbLine
 10
666.0888342072978
 20
721.6598658530714
 30
0.0
 11
666.0888342072978
 21
711.873069288668
 31
0.0
  0
LWPOLYLINE
  5
7F2
330
A
100
AcDbEntity
  8
0
  6
Continuous
 62
     7
100
AcDbPolyline
 90
        4
 70
   128
 43
0.0
 10
654.4656829803849
 20
714.5674585830199
 10
656.446846058666
 20
713.891826257528
 10
658.3576239016097
 20
712.9237890045146
 10
660.1189095846494
 20
711.8730692886524
  0
ARC
  5
7F8
330
A
100
AcDbEntity
  8
0
  6
Continuous
 62
     7
100
AcDbCircle
 10
656.1038718959779
 20
721.3730692886677
 30
0.0
 40
7.000000000000123
100
AcDbArc
 50
94.29774705668497
 51
256.4657260063458
  0
LWPOLYLINE
  5
7F9
330
A
100
AcDbEntity
  8
0
  6
Continuous
 62
     7
100
AcDbPolyline
 90
        6
 70
   128
 43
0.0
 10
663.8572410038072
 20
732.6367678550862
 10
662.5006078803497
 20
731.3150395371868
 10
660.8787530605779
 20
730.1976621701392
 10
658.8373260399857
 20
729.1563786598113
 10
656.5741815904251
 20
728.4813340057078
 10
655.5792952827612
 20
728.3533858557632
  0
ARC
  5
801
330
A
100
AcDbEntity
  8
0
  6
Continuous
 62
     7
100
AcDbCircle
 10
678.1038718959779
 20
721.6598658530714
 30
0.0
 40
17.98496231131985
100
AcDbArc
 50
135.0000000000005
 51
142.3860692064834
  0
LINE
  5
802
330
A
100
AcDbEntity
  8
0
  6
Continuous
 62
     7
100
AcDbLine
 10
680.9006967568345
 20
749.8912683333657
 30
0.0
 11
665.386583086259
 21
734.37715466279
 31
0.0
  0
LWPOLYLINE
  5
803
330
A
100
AcDbEntity
  8
0
  6
Continuous
 62
     7
100
AcDbPolyline
 90
        4
 70
   128
 43
0.0
 10
681.4766590120123
 20
753.737986144814
 10
681.6620602194576
 20
752.1356990699696
 10
681.3164998697929
 20
750.5225606164923
 10
680.9006967568344
 20
749.8912683333657
  0
ARC
  5
809
330
A
100
AcDbEntity
  8
0
  6
Continuous
 62
     7
100
AcDbCircle
 10
692.1038718959779
 20
756.8730692886679
 30
0.0
 40
11.07999999999998
100
AcDbArc
 50
163.5636662854069
 51
196.436333714596
  0
LWPOLYLINE
  5
80A
330
A
100
AcDbEntity
  8
0
  6
Continuous
 62
     7
100
AcDbPolyline
 90
        5
 70
   128
 43
0.0
 10
680.9006967568344
 20
763.8548702439701
 10
681.3523314267331
 20
763.1397430407039
 10
681.6489698186541
 20
761.8212083513261
 10
681.5630924724262
 20
760.3520093797425
 10
681.4766590120123
 20
760.0081524325214
  0
LINE
  5
811
330
A
100
AcDbEntity
  8
0
  6
Continuous
 62
     7
100
AcDbLine
 10
680.9006967568344
 20
763.8548702439701
 30
0.0
 11
661.3553601660019
 21
783.4002068348024
 31
0.0
  0
LINE
  5
812
330
A
100
AcDbEntity
  8
0
  6
Continuous
 62
     7
100
AcDbLine
 10
663.4660472579228
 20
785.5108939267231
 30
0.0
 11
661.3553601660019
 21
783.4002068348024
 31
0.0
  0
ARC
  5
813
330
A
100
AcDbEntity
  8
0
  6
Continuous
 62
     7
100
AcDbCircle
 10
661.1679502190664
 20
787.8089909655796
 30
0.0
 40
3.250000000000146
100
AcDbArc
 50
314.9999999999994
 51
21.70051576762412
  0
LINE
  5
814
330
A
100
AcDbEntity
  8
0
  6
Continuous
 62
     7
100
AcDbLine
 10
656.7591660882893
 20
787.996400912515
 30
0.0
 11
652.51652540117
 21
792.2390415996342
 31
0.0
  0
LINE
  5
815
330
A
100
AcDbEntity
  8
0
  6
Continuous
 62
     7
100
AcDbLine
 10
655.0514765618024
 20
786.2887113860281
 30
0.0
 11
656.7591660882893
 21
787.996400912515
 31
0.0
  0
LINE
  5
816
330
A
100
AcDbEntity
  8
0
  6
Continuous
 62
     7
100
AcDbLine
 10
656.7591660882893
 20
787.996400912515
 30
0.0
 11
658.8698531802101
 21
790.1070880044357
 31
0.0
  0
ARC
  5
817
330
A
100
AcDbEntity
  8
0
  6
Continuous
 62
     7
100
AcDbCircle
 10
661.1679502190664
 20
787.8089909655796
 30
0.0
 40
3.249999999999905
100
AcDbArc
 50
68.29948423238123
 51
135.0000000000028
  0
LINE
  5
818
330
A
100
AcDbEntity
  8
0
  6
Continuous
 62
     7
100
AcDbLine
 10
661.3553601660019
 20
783.4002068348024
 30
0.0
 11
659.6476706395151
 21
781.6925173083155
 31
0.0
  0
LINE
  5
819
330
A
100
AcDbEntity
  8
0
  6
Continuous
 62
     7
100
AcDbLine
 10
630.8723961010738
 20
318.1866402831831
 30
0.0
 11
631.0187200690417
 21
318.3329642511509
 31
0.0
  0
ARC
  5
81A
330
A
100
AcDbEntity
  8
0
  6
Continuous
 62
     7
100
AcDbCircle
 10
634.9078073655675
 20
314.4438769546249
 30
0.0
 40
5.500000000000084
100
AcDbArc
 50
315.0000000000012
 51
134.9999999999971
  0
LINE
  5
81B
330
A
100
AcDbEntity
  8
0
  6
Continuous
 62
     7
100
AcDbLine
 10
638.7968946620937
 20
310.5547896580989
 30
0.0
 11
638.6505706941258
 21
310.408465690131
 31
0.0
  0
ARC
  5
81C
330
A
100
AcDbEntity
  8
0
  6
Continuous
 62
     7
100
AcDbCircle
 10
668.8754141339995
 20
787.7382802874604
 30
0.0
 40
5.500000000000124
100
AcDbArc
 50
314.9999999999991
 51
135.0
  0
LINE
  5
81D
330
A
100
AcDbEntity
  8
0
  6
Continuous
 62
     7
100
AcDbLine
 10
672.7645014305254
 20
783.8491929909345
 30
0.0
 11
672.6142305903096
 21
783.6989221507183
 31
0.0
  0
LINE
  5
81E
330
A
100
AcDbEntity
  8
0
  6
Continuous
 62
     7
100
AcDbLine
 10
664.8360559972575
 20
791.4770967437704
 30
0.0
 11
664.9863268374733
 21
791.6273675839866
 31
0.0
  0
ARC
  5
81F
330
A
100
AcDbEntity
  8
0
  6
Continuous
 62
     7
100
AcDbCircle
 10
692.1038718959778
 20
756.8730692886679
 30
0.0
 40
18.00000000000011
100
AcDbArc
 50
152.4576031237219
 51
180.0000000000004
  0
ARC
  5
820
330
A
100
AcDbEntity
  8
0
  6
Continuous
 62
     7
100
AcDbCircle
 10
692.1038718959778
 20
756.8730692886679
 30
0.0
 40
18.00000000000009
100
AcDbArc
 50
17.45760312372156
 51
117.5423968762781
  0
ARC
  5
821
330
A
100
AcDbEntity
  8
0
  6
Continuous
 62
     7
100
AcDbCircle
 10
692.1038718959778
 20
756.8730692886679
 30
0.0
 40
18.00000000000009
100
AcDbArc
 50
242.4576031237239
 51
342.5423968762793
  0
ARC
  5
822
330
A
100
AcDbEntity
  8
0
  6
Continuous
 62
     7
100
AcDbCircle
 10
692.1038718959778
 20
756.8730692886679
 30
0.0
 40
18.00000000000011
100
AcDbArc
 50
180.0000000000004
 51
207.5423968762789
  0
ARC
  5
823
330
A
100
AcDbEntity
  8
0
  6
Continuous
 62
     7
100
AcDbCircle
 10
663.1038718959778
 20
277.8730692886679
 30
0.0
 40
18.0
100
AcDbArc
 50
151.6523934336511
 51
180.0000000000004
  0
ARC
  5
824
330
A
100
AcDbEntity
  8
0
  6
Continuous
 62
     7
100
AcDbCircle
 10
663.1038718959778
 20
277.8730692886679
 30
0.0
 40
18.0
100
AcDbArc
 50
107.4576031237216
 51
115.7924563932202
  0
ARC
  5
825
330
A
100
AcDbEntity
  8
0
  6
Continuous
 62
     7
100
AcDbCircle
 10
663.1038718959778
 20
277.8730692886679
 30
0.0
 40
18.00000000000005
100
AcDbArc
 50
307.9922990426724
 51
72.54239687627766
  0
ARC
  5
826
330
A
100
AcDbEntity
  8
0
  6
Continuous
 62
     7
100
AcDbCircle
 10
663.1038718959778
 20
277.8730692886679
 30
0.0
 40
18.00000000000006
100
AcDbArc
 50
180.0000000000004
 51
270.0000000000008
  0
LINE
  5
827
330
A
100
AcDbEntity
  8
0
  6
PHANTOM
 62
     7
100
AcDbLine
 10
833.6438718959779
 20
-472.6269307113321
 30
0.0
 11
503.6438718959779
 21
-472.6269307113321
 31
0.0
  0
LINE
  5
828
330
A
100
AcDbEntity
  8
0
  6
PHANTOM
 62
     7
100
AcDbLine
 10
651.6913501868596
 20
-465.7471043842782
 30
0.0
 11
685.5963936050962
 21
-465.7471043842782
 31
0.0
  0
LINE
  5
829
330
A
100
AcDbEntity
  8
0
  6
PHANTOM
 62
     7
100
AcDbLine
 10
1260.274158597139
 20
791.4263347201742
 30
0.0
 11
1322.513631370018
 21
819.790496593281
 31
0.0
  0
LINE
  5
82A
330
A
100
AcDbEntity
  8
0
  6
PHANTOM
 62
     7
100
AcDbLine
 10
1183.603871895978
 20
761.3730692886679
 30
0.0
 11
1183.603871895978
 21
752.373069288668
 31
0.0
  0
LINE
  5
82B
330
A
100
AcDbEntity
  8
0
  6
PHANTOM
 62
     7
100
AcDbLine
 10
1187.603871895978
 20
778.1230692886679
 30
0.0
 11
1187.603871895978
 21
761.3730692886679
 31
0.0
  0
LINE
  5
82C
330
A
100
AcDbEntity
  8
0
  6
PHANTOM
 62
     7
100
AcDbLine
 10
1187.603871895978
 20
752.373069288668
 30
0.0
 11
1187.603871895978
 21
735.6230692886679
 31
0.0
  0
LWPOLYLINE
  5
82D
330
A
100
AcDbEntity
  8
0
  6
PHANTOM
 62
     7
100
AcDbPolyline
 90
       10
 70
   128
 43
0.0
 10
1295.292303590684
 20
631.8717991904642
 10
1295.243750928424
 20
631.7947797892572
 10
1295.06405661419
 20
631.6663526067104
 10
1294.780577478392
 20
631.5060695171713
 10
1294.43647064971
 20
631.3383321680527
 10
1294.084123273475
 20
631.1886770502147
 10
1293.777177043682
 20
631.0798877987212
 10
1293.562361741342
 20
631.0285265909353
 10
1293.472381048931
 20
631.0424127051516
 10
1293.472381048931
 20
631.0424127051516
  0
LINE
  5
839
330
A
100
AcDbEntity
  8
0
  6
PHANTOM
 62
     7
100
AcDbLine
 10
664.5038718959779
 20
711.873069288668
 30
0.0
 11
664.5038718959779
 21
321.8730692886679
 31
0.0
  0
LINE
  5
83A
330
A
100
AcDbEntity
  8
0
  6
PHANTOM
 62
     7
100
AcDbLine
 10
1127.103871895978
 20
755.473069288668
 30
0.0
 11
737.1038718959779
 21
755.473069288668
 31
0.0
  0
LINE
  5
83B
330
A
100
AcDbEntity
  8
0
  6
PHANTOM
 62
     7
100
AcDbLine
 10
674.1038718959779
 20
711.873069288668
 30
0.0
 11
674.1038718959779
 21
321.8730692886679
 31
0.0
  0
LINE
  5
83C
330
A
100
AcDbEntity
  8
0
  6
PHANTOM
 62
     7
100
AcDbLine
 10
1127.103871895978
 20
745.8730692886677
 30
0.0
 11
737.1038718959779
 21
745.8730692886677
 31
0.0
  0
LINE
  5
83D
330
A
100
AcDbEntity
  8
0
  6
PHANTOM
 62
     7
100
AcDbLine
 10
669.3638843749838
 20
268.7309336649369
 30
0.0
 11
674.1838718959778
 21
268.7309336649369
 31
0.0
  0
LINE
  5
83E
330
A
100
AcDbEntity
  8
0
  6
PHANTOM
 62
     7
100
AcDbLine
 10
624.4779823430659
 20
324.8737019771267
 30
0.0
 11
616.643239207519
 21
317.0389588415797
 31
0.0
  0
LWPOLYLINE
  5
83F
330
A
100
AcDbEntity
  8
0
  6
PHANTOM
 62
     7
100
AcDbPolyline
 90
        6
 70
   128
 43
0.0
 10
685.1220709406756
 20
768.0762444278111
 10
686.3403997296747
 20
768.3794000830934
 10
687.5930648415801
 20
768.5004000740725
 10
688.0577407617647
 20
768.5029827748676
 10
688.1047135683614
 20
768.5020583233985
 10
688.0784898698559
 20
768.5024411284201
  0
LINE
  5
847
330
A
100
AcDbEntity
  8
0
  6
PHANTOM
 62
     7
100
AcDbLine
 10
658.4455891114978
 20
798.1681053099621
 30
0.0
 11
656.737899585011
 21
796.4604157834752
 31
0.0
  0
LINE
  5
848
330
A
100
AcDbEntity
  8
0
  6
PHANTOM
 62
     7
100
AcDbLine
 10
652.51652540117
 20
792.2390415996342
 30
0.0
 11
650.8088358746832
 21
790.5313520731473
 31
0.0
  0
LINE
  5
849
330
A
100
AcDbEntity
  8
0
  6
PHANTOM
 62
     7
100
AcDbLine
 10
656.737899585011
 20
796.4604157834752
 30
0.0
 11
652.51652540117
 21
792.2390415996342
 31
0.0
  0
LWPOLYLINE
  5
84A
330
A
100
AcDbEntity
  8
0
  6
PHANTOM
 62
     7
100
AcDbPolyline
 90
        6
 70
   128
 43
0.0
 10
660.5340614498138
 20
731.9629133008652
 10
660.5783896491868
 20
731.9823259879268
 10
660.660258571675
 20
732.017301061079
 10
661.4217557849295
 20
732.2971705789483
 10
662.7470995960993
 20
732.5908456003325
 10
663.8572410038071
 20
732.6367678550862
  0
LWPOLYLINE
  5
852
330
A
100
AcDbEntity
  8
0
  6
PHANTOM
 62
     7
100
AcDbPolyline
 90
        6
 70
   128
 43
0.0
 10
680.4745000562256
 20
760.8984513147897
 10
680.4726735388926
 20
761.0235751693623
 10
680.4724251405298
 20
761.1138286033543
 10
680.5079149478886
 20
761.929815436383
 10
680.7225511214331
 20
763.2412414593267
 10
680.9006967568344
 20
763.8548702439701
  0
LINE
  5
85A
330
A
100
AcDbEntity
  8
0
  6
PHANTOM
 62
     7
100
AcDbLine
 10
663.6788935597722
 20
736.0848441892767
 30
0.0
 11
665.386583086259
 21
734.37715466279
 31
0.0
  0
LWPOLYLINE
  5
85B
330
A
100
AcDbEntity
  8
0
  6
PHANTOM
 62
     7
100
AcDbPolyline
 90
        6
 70
   128
 43
0.0
 10
680.9006967568345
 20
749.8912683333657
 10
680.7295014518717
 20
750.4769184876113
 10
680.5041926382873
 20
751.8604897622577
 10
680.4725352301541
 20
752.599399683446
 10
680.4731316936436
 20
752.7705224197475
 10
680.4745307483754
 20
752.8531222963149
  0
LINE
  5
863
330
A
100
AcDbEntity
  8
0
  6
PHANTOM
 62
     7
100
AcDbLine
 10
666.0888342072978
 20
721.6598658530714
 30
0.0
 11
668.5038718959779
 21
721.6598658530714
 31
0.0
  0
LINE
  5
864
330
A
100
AcDbEntity
  8
0
  6
PHANTOM
 62
     7
100
AcDbLine
 10
669.6079572701001
 20
730.155780478949
 30
0.0
 11
671.3156467965871
 21
728.448090952462
 31
0.0
  0
LWPOLYLINE
  5
865
330
A
100
AcDbEntity
  8
0
  6
PHANTOM
 62
     7
100
AcDbPolyline
 90
        6
 70
   128
 43
0.0
 10
688.0855717416555
 20
745.2437441275137
 10
688.1047135683616
 20
745.2440802539374
 10
687.7642457813591
 20
745.2422783039882
 10
687.6485594610544
 20
745.244291263283
 10
686.6442988737511
 20
745.3211075066859
 10
685.1220709406758
 20
745.6698941495247
  0
LWPOLYLINE
  5
86D
330
A
100
AcDbEntity
  8
0
  6
PHANTOM
 62
     7
100
AcDbPolyline
 90
        5
 70
   128
 43
0.0
 10
704.9625918080756
 20
753.8881069773479
 10
704.654658720154
 20
753.3282379157643
 10
703.8791111801074
 20
752.249148988115
 10
703.3272164405603
 20
751.6470640816753
 10
703.1698916701194
 20
751.4929572055672
  0
LWPOLYLINE
  5
874
330
A
100
AcDbEntity
  8
0
  6
PHANTOM
 62
     7
100
AcDbPolyline
 90
        7
 70
   128
 43
0.0
 10
703.1700609995196
 20
762.2530155058034
 10
703.1522705030109
 20
762.2704421184956
 10
703.154640873276
 20
762.2681743209737
 10
703.1992844809354
 20
762.2251914871696
 10
703.6232822210426
 20
761.7888690872477
 10
704.4407364047149
 20
760.7529388977971
 10
704.9625918080756
 20
759.8580315999877
  0
ENDSEC
  0
SECTION
  2
OBJECTS
  0
DICTIONARY
  5
19
330
0
100
AcDbDictionary
281
     1
  3
ACAD_COLOR
350
881
  3
ACAD_GROUP
350
1A
  3
ACAD_LAYOUT
350
882
  3
ACAD_MATERIAL
350
880
  3
ACAD_MLINESTYLE
350
1B
  3
ACAD_PLOTSETTINGS
350
883
  3
ACAD_PLOTSTYLENAME
350
87E
  3
ACDBHEADERROUNDTRIPXREC
350
89B
  3
AcDbVariableDictionary
350
894
  3
ASE_INDEX_DICTIONARY
350
889
  0
DICTIONARY
  5
881
102
{ACAD_REACTORS
330
19
102
}
330
19
100
AcDbDictionary
281
     1
  0
DICTIONARY
  5
1A
102
{ACAD_REACTORS
330
19
102
}
330
19
100
AcDbDictionary
281
     1
  0
DICTIONARY
  5
882
102
{ACAD_REACTORS
330
19
102
}
330
19
100
AcDbDictionary
281
     1
  3
Layout1
350
885
  3
Model
350
884
  0
DICTIONARY
  5
880
102
{ACAD_REACTORS
330
19
102
}
330
19
100
AcDbDictionary
281
     1
  0
DICTIONARY
  5
1B
102
{ACAD_REACTORS
330
19
102
}
330
19
100
AcDbDictionary
281
     1
  3
STANDARD
350
1C
  0
DICTIONARY
  5
883
102
{ACAD_REACTORS
330
19
102
}
330
19
100
AcDbDictionary
281
     1
  0
ACDBDICTIONARYWDFLT
  5
87E
102
{ACAD_REACTORS
330
19
102
}
330
19
100
AcDbDictionary
281
     1
  3
Normal
350
87F
100
AcDbDictionaryWithDefault
340
87F
  0
DICTIONARY
  5
89B
102
{ACAD_REACTORS
330
19
102
}
330
19
100
AcDbDictionary
281
     1
  3
COLORDICT
350
89D
  3
MATERIALDICT
350
89C
  0
DICTIONARY
  5
894
102
{ACAD_REACTORS
330
19
102
}
330
19
100
AcDbDictionary
281
     1
  3
DIMASSOC
350
895
  3
PROJECTNAME
350
896
  0
DICTIONARY
  5
889
102
{ACAD_REACTORS
330
19
102
}
330
19
100
AcDbDictionary
281
     1
  3
ASEBlockHierarchyIndexRecord
350
88B
1001
DCO15
1040
1552229142.046
  0
LAYOUT
  5
885
102
{ACAD_XDICTIONARY
360
8A0
102
}
102
{ACAD_REACTORS
330
882
102
}
330
882
100
AcDbPlotSettings
  1

  2
ProgeSOFT PDF Wizard
  4

  6

 40
0.0
 41
0.0
 42
0.0
 43
0.0
 44
0.0
 45
0.0
 46
0.0
 47
0.0
 48
0.0
 49
0.0
140
0.0
141
0.0
142
1.0
143
1.0
 70
   688
 72
     0
 73
     0
 74
     5
  7

 75
    16
147
1.0
148
0.0
149
0.0
100
AcDbLayout
  1
Layout1
 70
     1
 71
     1
 10
0.0
 20
0.0
 11
12.0
 21
9.0
 12
0.0
 22
0.0
 32
0.0
 14
1.000000000000000E+20
 24
1.000000000000000E+20
 34
1.000000000000000E+20
 15
-1.000000000000000E+20
 25
-1.000000000000000E+20
 35
-1.000000000000000E+20
146
0.0
 13
0.0
 23
0.0
 33
0.0
 16
1.0
 26
0.0
 36
0.0
 17
0.0
 27
1.0
 37
0.0
 76
     0
330
B
  0
LAYOUT
  5
884
102
{ACAD_XDICTIONARY
360
89E
102
}
102
{ACAD_REACTORS
330
882
102
}
330
882
100
AcDbPlotSettings
  1

  2
ProgeSOFT PDF Wizard
  4

  6

 40
0.0
 41
0.0
 42
0.0
 43
0.0
 44
0.0
 45
0.0
 46
0.0
 47
0.0
 48
0.0
 49
0.0
140
0.0
141
0.0
142
1.0
143
1.0
 70
  1712
 72
     0
 73
     0
 74
     0
  7

 75
     0
147
1.0
148
0.0
149
0.0
100
AcDbLayout
  1
Model
 70
     1
 71
     0
 10
0.0
 20
0.0
 11
12.0
 21
9.0
 12
0.0
 22
0.0
 32
0.0
 14
0.0
 24
0.0
 34
0.0
 15
0.0
 25
0.0
 35
0.0
146
0.0
 13
0.0
 23
0.0
 33
0.0
 16
1.0
 26
0.0
 36
0.0
 17
0.0
 27
1.0
 37
0.0
 76
     0
330
A
  0
MLINESTYLE
  5
1C
102
{ACAD_REACTORS
330
1B
102
}
330
1B
100
AcDbMlineStyle
  2
STANDARD
 70
     0
  3

 62
     0
 51
90.0
 52
90.0
 71
     2
 49
0.5
 62
   256
  6
BYLAYER
 49
-0.5
 62
   256
  6
BYLAYER
  0
ACDBPLACEHOLDER
  5
87F
102
{ACAD_REACTORS
330
87E
102
}
330
87E
  0
XRECORD
  5
89D
102
{ACAD_REACTORS
330
89B
102
}
330
89B
100
AcDbXrecord
280
     1
340
881
  0
XRECORD
  5
89C
102
{ACAD_REACTORS
330
89B
102
}
330
89B
100
AcDbXrecord
280
     1
340
880
  0
DICTIONARYVAR
  5
895
102
{ACAD_REACTORS
330
894
102
}
330
894
100
DictionaryVariables
280
     0
  1
1
  0
DICTIONARYVAR
  5
896
102
{ACAD_REACTORS
330
894
102
}
330
894
100
DictionaryVariables
280
     0
  1

  0
XRECORD
  5
88B
102
{ACAD_REACTORS
330
889
102
}
330
889
100
AcDbXrecord
280
     1
  0
DICTIONARY
  5
8A0
330
885
100
AcDbDictionary
280
     1
281
     1
  3
ACAD_XREC_ROUNDTRIP
360
8A1
  0
DICTIONARY
  5
89E
330
884
100
AcDbDictionary
280
     1
281
     1
  3
ACAD_XREC_ROUNDTRIP
360
89F
  0
XRECORD
  5
8A1
102
{ACAD_REACTORS
330
8A0
102
}
330
8A0
100
AcDbXrecord
280
     1
102
SHADEPLOT
 70
     0
102
SHADEPLOTRESLEVEL
 70
     2
102
SHADEPLOTCUSTOMDPI
 70
   300
  0
XRECORD
  5
89F
102
{ACAD_REACTORS
330
89E
102
}
330
89E
100
AcDbXrecord
280
     1
102
SHADEPLOT
 70
     0
102
SHADEPLOTRESLEVEL
 70
     2
102
SHADEPLOTCUSTOMDPI
 70
   300
  0
ENDSEC
  0
EOF
