  0
SECTION
  2
HEADER
  9
$ACADVER
  1
AC1015
  9
$ACADMAINTVER
 70
    20
  9
$DWGCODEPAGE
  3
ANSI_1252
  9
$INSBASE
 10
0.0
 20
0.0
 30
0.0
  9
$EXTMIN
 10
-95.66776695296654
 20
-1953.423393899306
 30
0.0
  9
$EXTMAX
 10
1427.153156712196
 20
1035.02835052793
 30
0.0
  9
$LIMMIN
 10
0.0
 20
0.0
  9
$LIMMAX
 10
0.0
 20
0.0
  9
$ORTHOMODE
 70
     0
  9
$REGENMODE
 70
     1
  9
$FILLMODE
 70
     1
  9
$QTEXTMODE
 70
     0
  9
$MIRRTEXT
 70
     1
  9
$LTSCALE
 40
1.0
  9
$ATTMODE
 70
     1
  9
$TEXTSIZE
 40
0.0
  9
$TRACEWID
 40
0.05
  9
$TEXTSTYLE
  7
STANDARD
  9
$CLAYER
  8
0
  9
$CELTYPE
  6
CONTINUOUS
  9
$CECOLOR
 62
   256
  9
$CELTSCALE
 40
1.0
  9
$DISPSILH
 70
     0
  9
$DIMSCALE
 40
1.0
  9
$DIMASZ
 40
6.0
  9
$DIMEXO
 40
1.0
  9
$DIMDLI
 40
0.38
  9
$DIMRND
 40
0.0
  9
$DIMDLE
 40
1.0
  9
$DIMEXE
 40
0.18
  9
$DIMTP
 40
0.0
  9
$DIMTM
 40
0.0
  9
$DIMTXT
 40
3.5
  9
$DIMCEN
 40
0.09
  9
$DIMTSZ
 40
0.0
  9
$DIMTOL
 70
     0
  9
$DIMLIM
 70
     0
  9
$DIMTIH
 70
     1
  9
$DIMTOH
 70
     1
  9
$DIMSE1
 70
     0
  9
$DIMSE2
 70
     0
  9
$DIMTAD
 70
     1
  9
$DIMZIN
 70
     0
  9
$DIMBLK
  1

  9
$DIMASO
 70
     1
  9
$DIMSHO
 70
     1
  9
$DIMPOST
  1

  9
$DIMAPOST
  1

  9
$DIMALT
 70
     0
  9
$DIMALTD
 70
     2
  9
$DIMALTF
 40
0.0394
  9
$DIMLFAC
 40
20.0
  9
$DIMTOFL
 70
     0
  9
$DIMTVP
 40
0.0
  9
$DIMTIX
 70
     0
  9
$DIMSOXD
 70
     0
  9
$DIMSAH
 70
     0
  9
$DIMBLK1
  1

  9
$DIMBLK2
  1

  9
$DIMSTYLE
  2
STANDARD
  9
$DIMCLRD
 70
     0
  9
$DIMCLRE
 70
     0
  9
$DIMCLRT
 70
     0
  9
$DIMTFAC
 40
1.0
  9
$DIMGAP
 40
1.0
  9
$DIMJUST
 70
     0
  9
$DIMSD1
 70
     0
  9
$DIMSD2
 70
     0
  9
$DIMTOLJ
 70
     1
  9
$DIMTZIN
 70
     0
  9
$DIMALTZ
 70
     0
  9
$DIMALTTZ
 70
     0
  9
$DIMUPT
 70
     0
  9
$DIMDEC
 70
     4
  9
$DIMTDEC
 70
     4
  9
$DIMALTU
 70
     2
  9
$DIMALTTD
 70
     2
  9
$DIMTXSTY
  7
STANDARD
  9
$DIMAUNIT
 70
     0
  9
$DIMADEC
 70
     0
  9
$DIMALTRND
 40
0.0
  9
$DIMAZIN
 70
     0
  9
$DIMDSEP
 70
    46
  9
$DIMATFIT
 70
     3
  9
$DIMFRAC
 70
     0
  9
$DIMLDRBLK
  1

  9
$DIMLUNIT
 70
     2
  9
$DIMLWD
 70
    -2
  9
$DIMLWE
 70
    -2
  9
$DIMTMOVE
 70
     0
  9
$LUNITS
 70
     2
  9
$LUPREC
 70
     2
  9
$SKETCHINC
 40
0.1
  9
$FILLETRAD
 40
0.0
  9
$AUNITS
 70
     0
  9
$AUPREC
 70
     2
  9
$MENU
  1
acad
  9
$ELEVATION
 40
0.0
  9
$PELEVATION
 40
0.0
  9
$THICKNESS
 40
0.0
  9
$LIMCHECK
 70
     0
  9
$CHAMFERA
 40
0.0
  9
$CHAMFERB
 40
0.0
  9
$CHAMFERC
 40
0.0
  9
$CHAMFERD
 40
0.0
  9
$SKPOLY
 70
     0
  9
$TDCREATE
 40
2444972.041666667
  9
$TDUCREATE
 40
2444972.000000000
  9
$TDUPDATE
 40
2453768.826799942
  9
$TDUUPDATE
 40
2453768.785133276
  9
$TDINDWG
 40
0.0009658796
  9
$TDUSRTIMER
 40
0.0009658796
  9
$USRTIMER
 70
     1
  9
$ANGBASE
 50
0.0
  9
$ANGDIR
 70
     0
  9
$PDMODE
 70
     0
  9
$PDSIZE
 40
-1.0
  9
$PLINEWID
 40
0.0
  9
$SPLFRAME
 70
     0
  9
$SPLINETYPE
 70
     6
  9
$SPLINESEGS
 70
     8
  9
$HANDSEED
  5
8A1
  9
$SURFTAB1
 70
     6
  9
$SURFTAB2
 70
     6
  9
$SURFTYPE
 70
     6
  9
$SURFU
 70
     6
  9
$SURFV
 70
     6
  9
$UCSBASE
  2

  9
$UCSNAME
  2

  9
$UCSORG
 10
0.0
 20
0.0
 30
0.0
  9
$UCSXDIR
 10
1.0
 20
0.0
 30
0.0
  9
$UCSYDIR
 10
0.0
 20
1.0
 30
0.0
  9
$UCSORTHOREF
  2

  9
$UCSORTHOVIEW
 70
     1
  9
$UCSORGTOP
 10
0.0
 20
0.0
 30
0.0
  9
$UCSORGBOTTOM
 10
0.0
 20
0.0
 30
0.0
  9
$UCSORGLEFT
 10
0.0
 20
0.0
 30
0.0
  9
$UCSORGRIGHT
 10
0.0
 20
0.0
 30
0.0
  9
$UCSORGFRONT
 10
0.0
 20
0.0
 30
0.0
  9
$UCSORGBACK
 10
0.0
 20
0.0
 30
0.0
  9
$PUCSBASE
  2

  9
$PUCSNAME
  2

  9
$PUCSORG
 10
0.0
 20
0.0
 30
0.0
  9
$PUCSXDIR
 10
1.0
 20
0.0
 30
0.0
  9
$PUCSYDIR
 10
0.0
 20
1.0
 30
0.0
  9
$PUCSORTHOREF
  2

  9
$PUCSORTHOVIEW
 70
     0
  9
$PUCSORGTOP
 10
0.0
 20
0.0
 30
0.0
  9
$PUCSORGBOTTOM
 10
0.0
 20
0.0
 30
0.0
  9
$PUCSORGLEFT
 10
0.0
 20
0.0
 30
0.0
  9
$PUCSORGRIGHT
 10
0.0
 20
0.0
 30
0.0
  9
$PUCSORGFRONT
 10
0.0
 20
0.0
 30
0.0
  9
$PUCSORGBACK
 10
0.0
 20
0.0
 30
0.0
  9
$USERI1
 70
     0
  9
$USERI2
 70
     0
  9
$USERI3
 70
     0
  9
$USERI4
 70
     0
  9
$USERI5
 70
     0
  9
$USERR1
 40
0.0
  9
$USERR2
 40
0.0
  9
$USERR3
 40
0.0
  9
$USERR4
 40
0.0
  9
$USERR5
 40
0.0
  9
$WORLDVIEW
 70
     1
  9
$SHADEDGE
 70
     3
  9
$SHADEDIF
 70
    70
  9
$TILEMODE
 70
     1
  9
$MAXACTVP
 70
    16
  9
$PINSBASE
 10
0.0
 20
0.0
 30
0.0
  9
$PLIMCHECK
 70
     0
  9
$PEXTMIN
 10
1.000000000000000E+20
 20
1.000000000000000E+20
 30
1.000000000000000E+20
  9
$PEXTMAX
 10
-1.000000000000000E+20
 20
-1.000000000000000E+20
 30
-1.000000000000000E+20
  9
$PLIMMIN
 10
0.0
 20
0.0
  9
$PLIMMAX
 10
12.0
 20
9.0
  9
$UNITMODE
 70
     0
  9
$VISRETAIN
 70
     0
  9
$PLINEGEN
 70
     1
  9
$PSLTSCALE
 70
     1
  9
$TREEDEPTH
 70
  3020
  9
$CMLSTYLE
  2
STANDARD
  9
$CMLJUST
 70
     0
  9
$CMLSCALE
 40
1.0
  9
$PROXYGRAPHICS
 70
     0
  9
$MEASUREMENT
 70
     0
  9
$CELWEIGHT
370
    -1
  9
$ENDCAPS
280
     0
  9
$JOINSTYLE
280
     0
  9
$LWDISPLAY
290
     0
  9
$INSUNITS
 70
     0
  9
$HYPERLINKBASE
  1

  9
$STYLESHEET
  1

  9
$XEDIT
290
     1
  9
$CEPSNTYPE
380
     0
  9
$PSTYLEMODE
290
     1
  9
$FINGERPRINTGUID
  2
{CFB44F9D-6902-426F-A194-B4B442012213}
  9
$VERSIONGUID
  2
{86560336-50C9-4FB9-8CD1-4219FD6947DE}
  9
$EXTNAMES
290
     1
  9
$PSVPSCALE
 40
0.0
  9
$OLESTARTUP
290
     0
  0
ENDSEC
  0
SECTION
  2
CLASSES
  0
CLASS
  1
IMAGE
  2
AcDbRasterImage
  3
ISM
 90
    32895
280
     0
281
     1
  0
CLASS
  1
DICTIONARYVAR
  2
AcDbDictionaryVar
  3
ObjectDBX Classes
 90
        0
280
     0
281
     0
  0
CLASS
  1
RASTERVARIABLES
  2
AcDbRasterVariables
  3
ISM
 90
    32768
280
     0
281
     0
  0
CLASS
  1
IMAGEDEF
  2
AcDbRasterImageDef
  3
ISM
 90
    32768
280
     0
281
     0
  0
CLASS
  1
IMAGEDEF_REACTOR
  2
AcDbRasterImageDefReactor
  3
ISM
 90
    32769
280
     0
281
     0
  0
CLASS
  1
IDBUFFER
  2
AcDbIdBuffer
  3
ObjectDBX Classes
 90
    32768
280
     0
281
     0
  0
CLASS
  1
SPATIAL_FILTER
  2
AcDbSpatialFilter
  3
ObjectDBX Classes
 90
    32768
280
     0
281
     0
  0
CLASS
  1
SORTENTSTABLE
  2
AcDbSortentsTable
  3
ObjectDBX Classes
 90
    32768
280
     0
281
     0
  0
CLASS
  1
LAYER_INDEX
  2
AcDbLayerIndex
  3
ObjectDBX Classes
 90
    32768
280
     0
281
     0
  0
CLASS
  1
SPATIAL_INDEX
  2
AcDbSpatialIndex
  3
ObjectDBX Classes
 90
    32768
280
     0
281
     0
  0
CLASS
  1
OBJECT_PTR
  2
CAseDLPNTableRecord
  3
ASE-LPNTableRecord
 90
    32769
280
     0
281
     0
  0
CLASS
  1
LAYOUT
  2
AcDbLayout
  3
ObjectDBX Classes
 90
        0
280
     0
281
     0
  0
CLASS
  1
PLOTSETTINGS
  2
AcDbPlotSettings
  3
ObjectDBX Classes
 90
    32768
280
     0
281
     0
  0
CLASS
  1
ACDBDICTIONARYWDFLT
  2
AcDbDictionaryWithDefault
  3
ObjectDBX Classes
 90
        0
280
     0
281
     0
  0
CLASS
  1
ACDBPLACEHOLDER
  2
AcDbPlaceHolder
  3
ObjectDBX Classes
 90
        0
280
     0
281
     0
  0
CLASS
  1
VBA_PROJECT
  2
AcDbVbaProject
  3
acad
 90
    32768
280
     0
281
     0
  0
CLASS
  1
WIPEOUT
  2
AcDbWipeout
  3
"WipeOut|Product Desc: Object Enabler for WipeOut entity^I^I^I^I^I^I|Company: Autodesk, Inc.^I^I^I^I^I^I|WEB Address: www.autodesk.com"
 90
    32895
280
     0
281
     1
  0
CLASS
  1
WIPEOUTVARIABLES
  2
AcDbWipeoutVariables
  3
"WipeOut|Product Desc:     WipeOut Dbx Application|Company:          Autodesk, Inc.|WEB Address:      www.autodesk.com"
 90
    32768
280
     0
281
     0
  0
CLASS
  1
RTEXT
  2
RText
  3
RText|AutoCAD Express Tool|expresstools@autodesk.com
 90
    32768
280
     0
281
     1
  0
CLASS
  1
ARCALIGNEDTEXT
  2
AcDbArcAlignedText
  3
ATEXT|AutoCAD Express Tool|expresstools@autodesk.com
 90
    32768
280
     0
281
     1
  0
ENDSEC
  0
SECTION
  2
TABLES
  0
TABLE
  2
VPORT
  5
7
330
0
100
AcDbSymbolTable
 70
     2
  0
VPORT
  5
899
330
7
100
AcDbSymbolTableRecord
100
AcDbViewportTableRecord
  2
*Active
 70
     0
 10
0.0
 20
0.0
 11
1.0
 21
1.0
 12
827.0669940531131
 22
-459.2232315939868
 13
0.0
 23
0.0
 14
1.0
 24
1.0
 15
0.0
 25
0.0
 16
0.0
 26
0.0
 36
1.0
 17
0.0
 27
0.0
 37
0.0
 40
3013.889626220481
 41
1.569570871261378
 42
50.0
 43
0.0
 44
0.0
 50
0.0
 51
0.0
 71
     0
 72
  2000
 73
     1
 74
     1
 75
     0
 76
     0
 77
     0
 78
     0
281
     0
 65
     1
110
0.0
120
0.0
130
0.0
111
1.0
121
0.0
131
0.0
112
0.0
122
1.0
132
0.0
 79
     1
146
0.0
  0
ENDTAB
  0
TABLE
  2
LTYPE
  5
4
330
0
100
AcDbSymbolTable
 70
     6
  0
LTYPE
  5
11
330
4
100
AcDbSymbolTableRecord
100
AcDbLinetypeTableRecord
  2
BYBLOCK
 70
     0
  3

 72
    65
 73
     0
 40
0.0
  0
LTYPE
  5
12
330
4
100
AcDbSymbolTableRecord
100
AcDbLinetypeTableRecord
  2
BYLAYER
 70
     0
  3

 72
    65
 73
     0
 40
0.0
  0
LTYPE
  5
13
330
4
100
AcDbSymbolTableRecord
100
AcDbLinetypeTableRecord
  2
CONTINUOUS
 70
     0
  3
Solid line
 72
    65
 73
     0
 40
0.0
  0
LTYPE
  5
1E
330
4
100
AcDbSymbolTableRecord
100
AcDbLinetypeTableRecord
  2
HIDDEN
 70
     0
  3
Hidden __ __ __ __ __ __ __ __ __ __ __ __ __ __
 72
    65
 73
     2
 40
1.905
 49
1.27
 74
     0
 49
-0.635
 74
     0
  0
LTYPE
  5
1F
330
4
100
AcDbSymbolTableRecord
100
AcDbLinetypeTableRecord
  2
PHANTOM
 70
     0
  3
Phantom ______  __  __  ______  __  __  ______
 72
    65
 73
     6
 40
12.7
 49
6.349999999999999
 74
     0
 49
-1.27
 74
     0
 49
1.27
 74
     0
 49
-1.27
 74
     0
 49
1.27
 74
     0
 49
-1.27
 74
     0
  0
LTYPE
  5
20
330
4
100
AcDbSymbolTableRecord
100
AcDbLinetypeTableRecord
  2
CENTER
 70
     0
  3
Center ____ _ ____ _ ____ _ ____ _ ____ _ ____
 72
    65
 73
     4
 40
10.16
 49
6.349999999999999
 74
     0
 49
-1.27
 74
     0
 49
1.27
 74
     0
 49
-1.27
 74
     0
  0
LTYPE
  5
21
330
4
100
AcDbSymbolTableRecord
100
AcDbLinetypeTableRecord
  2
CENTERX2
 70
     0
  3
Center (2x) ________  __  ________  __  _____
 72
    65
 73
     4
 40
20.32
 49
12.7
 74
     0
 49
-2.54
 74
     0
 49
2.54
 74
     0
 49
-2.54
 74
     0
  0
LTYPE
  5
22
330
4
100
AcDbSymbolTableRecord
100
AcDbLinetypeTableRecord
  2
DOT2
 70
     0
  3
Dot (.5x) ........................................
 72
    65
 73
     2
 40
0.635
 49
0.0
 74
     0
 49
-0.635
 74
     0
  0
ENDTAB
  0
TABLE
  2
LAYER
  5
2
330
0
100
AcDbSymbolTable
 70
     2
  0
LAYER
  5
14
330
2
100
AcDbSymbolTableRecord
100
AcDbLayerTableRecord
  2
0
 70
     0
 62
     7
  6
CONTINUOUS
370
    -3
390
87E
  0
LAYER
  5
26
330
2
100
AcDbSymbolTableRecord
100
AcDbLayerTableRecord
  2
DEFPOINTS
 70
     0
 62
     7
  6
CONTINUOUS
290
     0
370
    -3
390
87E
  0
ENDTAB
  0
TABLE
  2
STYLE
  5
3
330
0
100
AcDbSymbolTable
 70
     1
  0
STYLE
  5
17
330
3
100
AcDbSymbolTableRecord
100
AcDbTextStyleTableRecord
  2
STANDARD
 70
     0
 40
0.0
 41
1.0
 50
0.0
 71
     0
 42
0.0
  3
Century Gothic
  4

  0
ENDTAB
  0
TABLE
  2
VIEW
  5
5
330
0
100
AcDbSymbolTable
 70
     0
  0
ENDTAB
  0
TABLE
  2
UCS
  5
6
330
0
100
AcDbSymbolTable
 70
     0
  0
ENDTAB
  0
TABLE
  2
APPID
  5
8
330
0
100
AcDbSymbolTable
 70
     2
  0
APPID
  5
16
330
8
100
AcDbSymbolTableRecord
100
AcDbRegAppTableRecord
  2
ACAD
 70
     0
  0
APPID
  5
889
330
8
100
AcDbSymbolTableRecord
100
AcDbRegAppTableRecord
  2
DCO15
 70
     0
  0
ENDTAB
  0
TABLE
  2
DIMSTYLE
  5
9
330
0
100
AcDbSymbolTable
 70
     1
100
AcDbDimStyleTable
 71
     0
  0
DIMSTYLE
105
18
330
9
100
AcDbSymbolTableRecord
100
AcDbDimStyleTableRecord
  2
STANDARD
 70
     0
289
     0
340
17
  0
ENDTAB
  0
TABLE
  2
BLOCK_RECORD
  5
1
330
0
100
AcDbSymbolTable
 70
     0
  0
BLOCK_RECORD
  5
A
330
1
100
AcDbSymbolTableRecord
100
AcDbBlockTableRecord
  2
*MODEL_SPACE
340
883
  0
BLOCK_RECORD
  5
B
330
1
100
AcDbSymbolTableRecord
100
AcDbBlockTableRecord
  2
*PAPER_SPACE
340
884
  0
ENDTAB
  0
ENDSEC
  0
SECTION
  2
BLOCKS
  0
BLOCK
  5
D
330
A
100
AcDbEntity
  8
0
100
AcDbBlockBegin
  2
*MODEL_SPACE
 70
     0
 10
0.0
 20
0.0
 30
0.0
  3
*MODEL_SPACE
  1

  0
ENDBLK
  5
E
330
A
100
AcDbEntity
  8
0
100
AcDbBlockEnd
  0
BLOCK
  5
F
330
B
100
AcDbEntity
 67
     1
  8
0
100
AcDbBlockBegin
  2
*PAPER_SPACE
 70
     0
 10
0.0
 20
0.0
 30
0.0
  3
*PAPER_SPACE
  1

  0
ENDBLK
  5
10
330
B
100
AcDbEntity
 67
     1
  8
0
100
AcDbBlockEnd
  0
ENDSEC
  0
SECTION
  2
ENTITIES
  0
ARC
  5
27
330
A
100
AcDbEntity
  8
0
  6
Continuous
 62
     7
100
AcDbCircle
 10
-92.65000000000004
 20
-687.6269307113322
 30
0.0
 40
2.500000000000113
100
AcDbArc
 50
90.0
 51
180.0000000000004
  0
ARC
  5
28
330
A
100
AcDbEntity
  8
0
  6
Continuous
 62
     7
100
AcDbCircle
 10
232.35
 20
-687.6269307113322
 30
0.0
 40
2.500000000000113
100
AcDbArc
 50
0.0
 51
90.0
  0
LINE
  5
29
330
A
100
AcDbEntity
  8
0
  6
Continuous
 62
     7
100
AcDbLine
 10
-95.15000000000004
 20
-687.6269307113322
 30
0.0
 11
-95.14999999999959
 21
-701.1269307113323
 31
0.0
  0
LINE
  5
2A
330
A
100
AcDbEntity
  8
0
  6
Continuous
 62
     7
100
AcDbLine
 10
234.8499999999999
 20
-701.1269307113323
 30
0.0
 11
234.85
 21
-687.6269307113322
 31
0.0
  0
LINE
  5
2B
330
A
100
AcDbEntity
  8
0
  6
Continuous
 62
     7
100
AcDbLine
 10
-87.65000000000004
 20
-701.1269307113323
 30
0.0
 11
-87.65000000000004
 21
-707.1269307113323
 31
0.0
  0
LINE
  5
2C
330
A
100
AcDbEntity
  8
0
  6
Continuous
 62
     7
100
AcDbLine
 10
227.35
 20
-707.1269307113323
 30
0.0
 11
227.35
 21
-701.1269307113323
 31
0.0
  0
LINE
  5
2D
330
A
100
AcDbEntity
  8
0
  6
Continuous
 62
     7
100
AcDbLine
 10
60.84999999999999
 20
-707.1269307113323
 30
0.0
 11
60.84999999999999
 21
-711.1269307113323
 31
0.0
  0
LINE
  5
2E
330
A
100
AcDbEntity
  8
0
  6
Continuous
 62
     7
100
AcDbLine
 10
78.85000000000001
 20
-711.1269307113323
 30
0.0
 11
78.85000000000001
 21
-707.1269307113323
 31
0.0
  0
LINE
  5
2F
330
A
100
AcDbEntity
  8
0
  6
Continuous
 62
     7
100
AcDbLine
 10
-67.54262969984529
 20
-707.1269307113323
 30
0.0
 11
-67.54262969984529
 21
-711.1269307113323
 31
0.0
  0
LINE
  5
30
330
A
100
AcDbEntity
  8
0
  6
Continuous
 62
     7
100
AcDbLine
 10
-49.54262969984527
 20
-711.1269307113323
 30
0.0
 11
-49.54262969984527
 21
-707.1269307113323
 31
0.0
  0
LINE
  5
31
330
A
100
AcDbEntity
  8
0
  6
Continuous
 62
     7
100
AcDbLine
 10
189.2426296998459
 20
-707.1269307113323
 30
0.0
 11
189.2426296998459
 21
-711.1269307113323
 31
0.0
  0
LINE
  5
32
330
A
100
AcDbEntity
  8
0
  6
Continuous
 62
     7
100
AcDbLine
 10
207.2426296998459
 20
-711.1269307113323
 30
0.0
 11
207.2426296998459
 21
-707.1269307113323
 31
0.0
  0
ARC
  5
33
330
A
100
AcDbEntity
  8
0
  6
Continuous
 62
     7
100
AcDbCircle
 10
47.93608890731341
 20
-680.1269307113321
 30
0.0
 40
5.000000000000016
100
AcDbArc
 50
270.0000000000008
 51
352.8749836510975
  0
ARC
  5
34
330
A
100
AcDbEntity
  8
0
  6
Continuous
 62
     7
100
AcDbCircle
 10
91.7639110926866
 20
-680.1269307113321
 30
0.0
 40
5.000000000000023
100
AcDbArc
 50
187.1250163489041
 51
270.0000000000008
  0
LINE
  5
35
330
A
100
AcDbEntity
  8
0
  6
Continuous
 62
     7
100
AcDbLine
 10
86.80252170911826
 20
-680.7471043842784
 30
0.0
 11
82.35000000000001
 21
-645.1269307113323
 31
0.0
  0
LINE
  5
36
330
A
100
AcDbEntity
  8
0
  6
Continuous
 62
     7
100
AcDbLine
 10
57.35000000000001
 20
-645.1269307113323
 30
0.0
 11
52.89747829088176
 21
-680.7471043842784
 31
0.0
  0
LINE
  5
37
330
A
100
AcDbEntity
  8
0
  6
Continuous
 62
     7
100
AcDbLine
 10
57.35000000000001
 20
17.87306928866772
 30
0.0
 11
57.35000000000001
 21
-645.1269307113323
 31
0.0
  0
LINE
  5
38
330
A
100
AcDbEntity
  8
0
  6
Continuous
 62
     7
100
AcDbLine
 10
82.35000000000001
 20
-645.1269307113323
 30
0.0
 11
82.35000000000001
 21
17.87306928866772
 31
0.0
  0
LINE
  5
39
330
A
100
AcDbEntity
  8
0
  6
Continuous
 62
     7
100
AcDbLine
 10
-18.50100905948512
 20
-707.1269307113323
 30
0.0
 11
-18.50100905948512
 21
-711.1269307113323
 31
0.0
  0
LINE
  5
3A
330
A
100
AcDbEntity
  8
0
  6
Continuous
 62
     7
100
AcDbLine
 10
-0.5010090594790018
 20
-711.1269307113323
 30
0.0
 11
-0.5010090594790018
 21
-707.1269307113323
 31
0.0
  0
LINE
  5
3B
330
A
100
AcDbEntity
  8
0
  6
Continuous
 62
     7
100
AcDbLine
 10
140.2010090594832
 20
-707.1269307113323
 30
0.0
 11
140.2010090594832
 21
-711.1269307113323
 31
0.0
  0
LINE
  5
3C
330
A
100
AcDbEntity
  8
0
  6
Continuous
 62
     7
100
AcDbLine
 10
158.2010090594832
 20
-711.1269307113323
 30
0.0
 11
158.2010090594832
 21
-707.1269307113323
 31
0.0
  0
ARC
  5
3D
330
A
100
AcDbEntity
  8
0
  6
Continuous
 62
     7
100
AcDbCircle
 10
69.84999999999999
 20
970.1135932886701
 30
0.0
 40
27.50000000000003
100
AcDbArc
 50
181.403549191807
 51
358.5964508081959
  0
LWPOLYLINE
  5
3E
330
A
100
AcDbEntity
  8
0
  6
Continuous
 62
     7
100
AcDbPolyline
 90
       47
 70
   128
 43
0.0
 10
69.85000000000252
 20
976.477163998182
 10
67.30592271457573
 20
976.4587839574531
 10
62.48566052678592
 20
976.3228098959892
 10
57.69578355917561
 20
976.0548733093632
 10
52.95681831816898
 20
975.6559914377106
 10
48.2884180479948
 20
975.127638937784
 10
43.70989798843182
 20
974.4717377684256
 10
39.24014311124224
 20
973.6906301186111
 10
34.89751957453047
 20
972.7870424082203
 10
30.69979219311762
 20
971.7640390573526
 10
26.66405115027646
 20
970.6249645301138
 10
22.80665301379519
 20
969.3733722884866
 10
19.14318404718448
 20
968.0129402074767
 10
15.68845831311331
 20
966.5473747073342
 10
12.45656956403647
 20
964.9803123691809
 10
9.461024036593283
 20
963.3152419080154
 10
6.714987752309816
 20
961.5554973824764
 10
4.231675384636562
 20
959.7044231298109
 10
2.025281700559183
 20
957.7662879411919
 10
0.111666473604749
 20
955.7480621485037
 10
-1.493617945346068
 20
953.6597249175216
 10
-2.776283172695376
 20
951.5162326269726
 10
-3.726478207703359
 20
949.3372006159962
 10
-4.341664228296446
 20
947.1437902959273
 10
-4.626577423169409
 20
944.954099700678
 10
-4.589707109200174
 20
942.7800667772498
 10
-4.238798223087536
 20
940.6282983229154
 10
-3.579795292427176
 20
938.5063632193197
 10
-2.613566299006331
 20
936.4139879874901
 10
-1.337597350106051
 20
934.3531786407199
 10
0.2498705152933767
 20
932.3305348256782
 10
2.146010597323208
 20
930.3569618418547
 10
4.342082078092598
 20
928.4452669708921
 10
6.824805574670716
 20
926.6074549086109
 10
9.578737486394436
 20
924.8532783699172
 10
12.58698459170477
 20
923.1907182332465
 10
15.83399594574568
 20
921.6253300241289
 10
19.30482283918653
 20
920.1615970790042
 10
22.98438157830564
 20
918.8036113468294
 10
26.85720990457329
 20
917.555241356378
 10
30.9073091030562
 20
916.4201774954291
 10
35.11806525167318
 20
915.4019148692727
 10
39.47223007745639
 20
914.5037099058439
 10
43.95194304457133
 20
913.7285298543861
 10
48.53878086468481
 20
913.0790043669936
 10
53.21382493177182
 20
912.5573830809962
 10
54.33239522033715
 20
912.4649808914968
  0
LWPOLYLINE
  5
6F
330
A
100
AcDbEntity
  8
0
  6
Continuous
 62
     7
100
AcDbPolyline
 90
        8
 70
   128
 43
0.0
 10
56.37766306816278
 20
912.2960266208677
 10
57.95774039584619
 20
912.1655005322089
 10
62.75086276852245
 20
911.9047485653341
 10
67.57328936247455
 20
911.7760559638437
 10
72.40497375220354
 20
911.7798749274207
 10
77.22581668617969
 20
911.9161738722198
 10
82.01559594680302
 20
912.1844243977829
 10
83.32211374309091
 20
912.2944839754737
  0
LWPOLYLINE
  5
79
330
A
100
AcDbEntity
  8
0
  6
Continuous
 62
     7
100
AcDbPolyline
 90
       47
 70
   128
 43
0.0
 10
85.36787030908493
 20
912.4668161888971
 10
86.75441604496331
 20
912.5836172294746
 10
91.42262463084735
 20
913.1122766254961
 10
96.00090738285125
 20
913.7684795884378
 10
100.4703804640126
 20
914.5498829655899
 10
104.812679056185
 20
915.4537594709289
 10
109.010039872015
 20
916.4770439419767
 10
113.0453744160024
 20
917.6163913257857
 10
116.9023279261785
 20
918.8682477574644
 10
120.5653159968914
 20
920.2289351762587
 10
124.0195263726154
 20
921.6947472134883
 10
127.2508668998632
 20
923.2620475633332
 10
130.2458325008826
 20
924.9273479152352
 10
132.9912575595735
 20
926.6873144786718
 10
135.4739267092263
 20
928.5386024636901
 10
137.6796399332833
 20
930.4769374897542
 10
139.5925378081049
 20
932.4953442537045
 10
141.1970682330997
 20
934.5838330422527
 10
142.4789492578125
 20
936.7274349558206
 10
143.4283445837083
 20
938.9065261722761
 10
144.042734341728
 20
941.0999470923824
 10
144.3268689525329
 20
943.2896118376849
 10
144.2892409210388
 20
945.4635983619809
 10
143.9375923495967
 20
947.6152959362062
 10
143.2778580729097
 20
949.7371604424031
 10
142.310894375769
 20
951.8294643721135
 10
141.0341838340917
 20
953.8901925791892
 10
139.4459745185032
 20
955.9127337360989
 10
137.549106885763
 20
957.8861746131671
 10
135.3523350252965
 20
959.7977069126111
 10
132.8689462872694
 20
961.6353302252305
 10
130.1143869239262
 20
963.3892976957531
 10
127.1055527836368
 20
965.0516320132519
 10
123.8579901002481
 20
966.6167830065255
 10
120.386647563315
 20
968.0802686158338
 10
116.7066095109262
 20
969.4379975607734
 10
112.8333393274685
 20
970.68610175643
 10
108.7828371285886
 20
971.8208912442495
 10
104.571718345543
 20
972.8388714307365
 10
100.2172327503983
 20
973.7367865168517
 10
95.73724228812414
 20
974.511670002469
 10
91.1501715136945
 20
975.1608930937603
 10
86.47494012312467
 20
975.6822071042398
 10
81.73088385757928
 20
976.0737785235644
 10
76.937667883533
 20
976.3342165895002
 10
72.11519534420323
 20
976.4625936412814
 10
69.85000000000252
 20
976.477163998182
  0
LINE
  5
AA
330
A
100
AcDbEntity
  8
0
  6
Continuous
 62
     7
100
AcDbLine
 10
135.6069117081684
 20
959.5761857065394
 30
0.0
 11
103.3230657193483
 21
1023.514917844033
 31
0.0
  0
LINE
  5
AB
330
A
100
AcDbEntity
  8
0
  6
Continuous
 62
     7
100
AcDbLine
 10
36.37693428065595
 20
1023.514917844033
 30
0.0
 11
4.098986188480354
 21
959.5878665959176
 31
0.0
  0
LWPOLYLINE
  5
AC
330
A
100
AcDbEntity
  8
0
  6
Continuous
 62
     7
100
AcDbPolyline
 90
       11
 70
   128
 43
0.0
 10
95.21816720126183
 20
1030.240404045399
 10
95.20580871371286
 20
1030.246763669486
 10
92.87072809958486
 20
1031.233859314252
 10
90.32683062857643
 20
1032.118020463168
 10
87.59744774489369
 20
1032.892717221481
 10
84.70729742769437
 20
1033.552076735468
 10
81.68248258192848
 20
1034.090956535724
 10
78.55035549850675
 20
1034.505053046121
 10
75.33930457684475
 20
1034.79100183458
 10
72.07849767407606
 20
1034.946456009147
 10
69.85000000000226
 20
1034.976930711332
  0
LWPOLYLINE
  5
B9
330
A
100
AcDbEntity
  8
0
  6
Continuous
 62
     7
100
AcDbPolyline
 90
       11
 70
   128
 43
0.0
 10
69.85000000000226
 20
1034.976930711332
 10
68.12462638998882
 20
1034.95867101322
 10
64.86013329408703
 20
1034.823473144843
 10
61.64051477659974
 20
1034.557589437091
 10
58.49596165029842
 20
1034.163304173066
 10
55.4549942079067
 20
1033.643921270694
 10
52.5451003673397
 20
1033.003709554007
 10
49.79246913115694
 20
1032.247794897359
 10
47.22175401599399
 20
1031.38201116848
 10
44.85589190624556
 20
1030.412702509371
 10
44.10681178474683
 20
1030.03946074807
  0
LWPOLYLINE
  5
C6
330
A
100
AcDbEntity
  8
0
  6
Continuous
 62
     7
100
AcDbPolyline
 90
       12
 70
   128
 43
0.0
 10
73.81752885447788
 20
846.6002943255206
 10
73.72013052545113
 20
846.1551131274344
 10
73.28442102686254
 20
845.2332840949331
 10
72.57289786845006
 20
844.452390133758
 10
71.64808348638193
 20
843.8809579692959
 10
70.58578802721538
 20
843.5619073286368
 10
69.47027711215342
 20
843.5172443442777
 10
68.38891677801749
 20
843.747081535734
 10
67.42537377559924
 20
844.2291725332543
 10
66.65074689761536
 20
844.9222829066178
 10
66.11892169550817
 20
845.7731201911089
 10
65.88247114552649
 20
846.6002943255206
  0
LWPOLYLINE
  5
D4
330
A
100
AcDbEntity
  8
0
  6
Continuous
 62
     7
100
AcDbPolyline
 90
       14
 70
   128
 43
0.0
 10
63.90308024073977
 20
846.3139175700947
 10
64.06145548848339
 20
845.5897037376537
 10
64.57038086015431
 20
844.4129865630983
 10
65.35367903261235
 20
843.3749477410298
 10
66.37182998720999
 20
842.5278478423788
 10
67.57414875188574
 20
841.9154435887659
 10
68.89944033511202
 20
841.5711732364535
 10
70.27874397078756
 20
841.515338225624
 10
71.63914917146334
 20
841.7533584238009
 10
72.90732848323727
 20
842.274930805582
 10
74.01390838989131
 20
843.0539463257073
 10
74.8973323736258
 20
844.048880189112
 10
75.50852380333623
 20
845.20434094711
 10
75.79691975926458
 20
846.3139175700947
  0
LINE
  5
E4
330
A
100
AcDbEntity
  8
0
  6
Continuous
 62
     7
100
AcDbLine
 10
54.06086928095618
 20
914.3417253012339
 30
0.0
 11
63.90306422585176
 21
846.3140285220667
 31
0.0
  0
LINE
  5
E5
330
A
100
AcDbEntity
  8
0
  6
Continuous
 62
     7
100
AcDbLine
 10
65.88247114552649
 20
846.600294325521
 30
0.0
 11
55.92287348260888
 21
915.4394604093329
 31
0.0
  0
LINE
  5
E6
330
A
100
AcDbEntity
  8
0
  6
Continuous
 62
     7
100
AcDbLine
 10
83.77712651739491
 20
915.4394604093301
 30
0.0
 11
73.81752885447788
 21
846.6002943255206
 31
0.0
  0
LINE
  5
E7
330
A
100
AcDbEntity
  8
0
  6
Continuous
 62
     7
100
AcDbLine
 10
75.79693460808236
 20
846.3140204258715
 30
0.0
 11
85.63913071904785
 21
914.3417253012328
 31
0.0
  0
LINE
  5
E8
330
A
100
AcDbEntity
  8
0
  6
Continuous
 62
     7
100
AcDbLine
 10
78.84999999999998
 20
44.87306928866774
 30
0.0
 11
83.84999999999998
 21
44.87306928866774
 31
0.0
  0
LINE
  5
E9
330
A
100
AcDbEntity
  8
0
  6
Continuous
 62
     7
100
AcDbLine
 10
83.84999999999998
 20
80.87306928866778
 30
0.0
 11
78.84999999999998
 21
80.87306928866778
 31
0.0
  0
LINE
  5
EA
330
A
100
AcDbEntity
  8
0
  6
Continuous
 62
     7
100
AcDbLine
 10
75.39
 20
17.87306928866783
 30
0.0
 11
75.39
 21
53.32746303027002
 31
0.0
  0
LINE
  5
EB
330
A
100
AcDbEntity
  8
0
  6
Continuous
 62
     7
100
AcDbLine
 10
64.30999999999999
 20
53.29093397758922
 30
0.0
 11
64.30999999999999
 21
17.87306928866783
 31
0.0
  0
LINE
  5
EC
330
A
100
AcDbEntity
  8
0
  6
Continuous
 62
     7
100
AcDbLine
 10
75.39
 20
51.79306928866778
 30
0.0
 11
75.84999999999997
 21
51.79306928866778
 31
0.0
  0
LINE
  5
ED
330
A
100
AcDbEntity
  8
0
  6
Continuous
 62
     7
100
AcDbLine
 10
63.84999999999998
 20
51.79306928866778
 30
0.0
 11
64.30999999999999
 21
51.79306928866778
 31
0.0
  0
LINE
  5
EE
330
A
100
AcDbEntity
  8
0
  6
Continuous
 62
     7
100
AcDbLine
 10
64.49534100906237
 20
73.95306928866773
 30
0.0
 11
63.84999999999998
 21
73.95306928866773
 31
0.0
  0
LINE
  5
EF
330
A
100
AcDbEntity
  8
0
  6
Continuous
 62
     7
100
AcDbLine
 10
75.84999999999997
 20
73.95306928866773
 30
0.0
 11
75.17962994965505
 21
73.95306928866773
 31
0.0
  0
LINE
  5
F0
330
A
100
AcDbEntity
  8
0
  6
Continuous
 62
     7
100
AcDbLine
 10
75.84999999999997
 20
56.87306928866775
 30
0.0
 11
78.84999999999998
 21
56.87306928866775
 31
0.0
  0
LINE
  5
F1
330
A
100
AcDbEntity
  8
0
  6
Continuous
 62
     7
100
AcDbLine
 10
78.84999999999998
 20
68.87306928866776
 30
0.0
 11
75.84999999999997
 21
68.87306928866776
 31
0.0
  0
LINE
  5
F2
330
A
100
AcDbEntity
  8
0
  6
Continuous
 62
     7
100
AcDbLine
 10
64.44999999999997
 20
106.8730692886678
 30
0.0
 11
64.44999999999997
 21
73.93141329324283
 31
0.0
  0
LINE
  5
F3
330
A
100
AcDbEntity
  8
0
  6
Continuous
 62
     7
100
AcDbLine
 10
75.24999999999997
 20
73.91894903927497
 30
0.0
 11
75.24999999999997
 21
106.8730692886678
 31
0.0
  0
LINE
  5
F4
330
A
100
AcDbEntity
  8
0
  6
Continuous
 62
     7
100
AcDbLine
 10
76.84999999999998
 20
106.8730692886678
 30
0.0
 11
76.84999999999998
 21
853.5926418765473
 31
0.0
  0
LINE
  5
F5
330
A
100
AcDbEntity
  8
0
  6
Continuous
 62
     7
100
AcDbLine
 10
76.84999999999998
 20
867.5602559521045
 30
0.0
 11
76.84999999999998
 21
911.9055484653218
 31
0.0
  0
LINE
  5
F6
330
A
100
AcDbEntity
  8
0
  6
Continuous
 62
     7
100
AcDbLine
 10
62.84999999999997
 20
911.9021029619279
 30
0.0
 11
62.84999999999997
 21
867.5602559521351
 31
0.0
  0
LINE
  5
F7
330
A
100
AcDbEntity
  8
0
  6
Continuous
 62
     7
100
AcDbLine
 10
62.84999999999997
 20
853.5926418765779
 30
0.0
 11
62.84999999999997
 21
106.8730692886678
 31
0.0
  0
LINE
  5
F8
330
A
100
AcDbEntity
  8
0
  6
Continuous
 62
     7
100
AcDbLine
 10
64.30999999999986
 20
97.11749564452098
 30
0.0
 11
64.30999999999993
 21
73.95306928866773
 31
0.0
  0
LINE
  5
F9
330
A
100
AcDbEntity
  8
0
  6
Continuous
 62
     7
100
AcDbLine
 10
64.30999999999984
 20
105.956330409353
 30
0.0
 11
64.30999999999984
 21
101.7136897222337
 31
0.0
  0
LINE
  5
FA
330
A
100
AcDbEntity
  8
0
  6
Continuous
 62
     7
100
AcDbLine
 10
75.38999999999984
 20
101.7136897222337
 30
0.0
 11
75.3899999999998
 21
105.956330409353
 31
0.0
  0
LINE
  5
FB
330
A
100
AcDbEntity
  8
0
  6
Continuous
 62
     7
100
AcDbLine
 10
75.38999999999994
 20
73.95306928866773
 30
0.0
 11
75.38999999999986
 21
97.11749564452111
 31
0.0
  0
LWPOLYLINE
  5
FC
330
A
100
AcDbEntity
  8
0
  6
Continuous
 62
     7
100
AcDbPolyline
 90
        3
 70
   128
 43
0.0
 10
75.35328593470757
 20
106.0039875288842
 10
75.30961287015611
 20
106.7316899277359
 10
75.25888184452799
 20
106.8730692886678
  0
LINE
  5
101
330
A
100
AcDbEntity
  8
0
  6
Continuous
 62
     7
100
AcDbLine
 10
64.44937588064931
 20
106.8730692886678
 30
0.0
 11
64.31014500191782
 21
105.9504907530593
 31
0.0
  0
LINE
  5
102
330
A
100
AcDbEntity
  8
0
  6
Continuous
 62
     7
100
AcDbLine
 10
69.85000000000001
 20
-685.1269307113321
 30
0.0
 11
232.35
 21
-685.1269307113321
 31
0.0
  0
LINE
  5
103
330
A
100
AcDbEntity
  8
0
  6
Continuous
 62
     7
100
AcDbLine
 10
-92.65000000000004
 20
-685.1269307113321
 30
0.0
 11
69.85000000000001
 21
-685.1269307113321
 31
0.0
  0
LINE
  5
104
330
A
100
AcDbEntity
  8
0
  6
Continuous
 62
     7
100
AcDbLine
 10
69.85000000000001
 20
-701.1269307113323
 30
0.0
 11
234.8499999999999
 21
-701.1269307113323
 31
0.0
  0
LINE
  5
105
330
A
100
AcDbEntity
  8
0
  6
Continuous
 62
     7
100
AcDbLine
 10
-95.14999999999959
 20
-701.1269307113323
 30
0.0
 11
69.85000000000001
 21
-701.1269307113323
 31
0.0
  0
LINE
  5
106
330
A
100
AcDbEntity
  8
0
  6
Continuous
 62
     7
100
AcDbLine
 10
69.85000000000001
 20
-707.1269307113323
 30
0.0
 11
227.35
 21
-707.1269307113323
 31
0.0
  0
LINE
  5
107
330
A
100
AcDbEntity
  8
0
  6
Continuous
 62
     7
100
AcDbLine
 10
-87.65000000000004
 20
-707.1269307113323
 30
0.0
 11
69.85000000000001
 21
-707.1269307113323
 31
0.0
  0
LINE
  5
108
330
A
100
AcDbEntity
  8
0
  6
Continuous
 62
     7
100
AcDbLine
 10
78.85000000000001
 20
-711.1269307113323
 30
0.0
 11
60.84999999999999
 21
-711.1269307113323
 31
0.0
  0
LINE
  5
109
330
A
100
AcDbEntity
  8
0
  6
Continuous
 62
     7
100
AcDbLine
 10
-49.54262969984527
 20
-711.1269307113323
 30
0.0
 11
-67.54262969984529
 21
-711.1269307113323
 31
0.0
  0
LINE
  5
10A
330
A
100
AcDbEntity
  8
0
  6
Continuous
 62
     7
100
AcDbLine
 10
207.2426296998459
 20
-711.1269307113323
 30
0.0
 11
189.2426296998459
 21
-711.1269307113323
 31
0.0
  0
LINE
  5
10B
330
A
100
AcDbEntity
  8
0
  6
Continuous
 62
     7
100
AcDbLine
 10
69.85000000000001
 20
-645.1269307113323
 30
0.0
 11
82.35000000000001
 21
-645.1269307113323
 31
0.0
  0
LINE
  5
10C
330
A
100
AcDbEntity
  8
0
  6
Continuous
 62
     7
100
AcDbLine
 10
57.35000000000001
 20
-645.1269307113323
 30
0.0
 11
69.85000000000001
 21
-645.1269307113323
 31
0.0
  0
LINE
  5
10D
330
A
100
AcDbEntity
  8
0
  6
Continuous
 62
     7
100
AcDbLine
 10
69.85000000000001
 20
17.87306928866772
 30
0.0
 11
82.35000000000001
 21
17.87306928866772
 31
0.0
  0
LINE
  5
10E
330
A
100
AcDbEntity
  8
0
  6
Continuous
 62
     7
100
AcDbLine
 10
57.35000000000001
 20
17.87306928866772
 30
0.0
 11
69.85000000000001
 21
17.87306928866772
 31
0.0
  0
LINE
  5
10F
330
A
100
AcDbEntity
  8
0
  6
Continuous
 62
     7
100
AcDbLine
 10
-0.5010090594790018
 20
-711.1269307113323
 30
0.0
 11
-18.50100905948512
 21
-711.1269307113323
 31
0.0
  0
LINE
  5
110
330
A
100
AcDbEntity
  8
0
  6
Continuous
 62
     7
100
AcDbLine
 10
158.2010090594832
 20
-711.1269307113323
 30
0.0
 11
140.2010090594832
 21
-711.1269307113323
 31
0.0
  0
LWPOLYLINE
  5
111
330
A
100
AcDbEntity
  8
0
  6
Continuous
 62
     7
100
AcDbPolyline
 90
       85
 70
   128
 43
0.0
 10
85.40032313071092
 20
912.6911249665615
 10
89.69085182068933
 20
913.1424798399752
 10
94.47064566503321
 20
913.786361273558
 10
99.13048410041128
 20
914.5669453444444
 10
103.6476637082034
 20
915.4804289321663
 10
108.000176124592
 20
916.5223614102526
 10
112.1668152685487
 20
917.6876663303344
 10
116.1272806609829
 20
918.9706661553492
 10
119.8622763316624
 20
920.3651099213375
 10
123.353604832021
 20
921.8642036930592
 10
126.5842558958051
 20
923.4606436650445
 10
129.5384893155947
 20
925.1466517468109
 10
132.2019116314102
 20
926.9140134588631
 10
134.5615462577677
 20
928.7541179548474
 10
136.605896707513
 20
930.6579999748612
 10
138.3250026043991
 20
932.6163835255186
 10
139.710488211505
 20
934.6197270739571
 10
140.7556032390585
 20
936.6582700355866
 10
141.4552557328415
 20
938.7220803290976
 10
141.8060368829403
 20
940.80110276702
 10
141.806237631969
 20
942.8852080460782
 10
141.4558570018488
 20
944.9642420986458
 10
140.7566020985734
 20
947.0280755648591
 10
139.7118797949369
 20
949.0666531443473
 10
138.3267801317486
 20
951.0700425871371
 10
136.6080515184054
 20
953.0284830850352
 10
134.5640678536471
 20
954.9324328277227
 10
132.2047877266905
 20
956.7726154918599
 10
129.5417058975164
 20
958.5400654366967
 10
126.5877972927077
 20
960.2261713859963
 10
123.3574537896977
 20
961.8227183834392
 10
119.866414097425
 20
963.3219278170981
 10
116.1316870750275
 20
964.7164953179819
 10
112.1714688621777
 20
965.9996263479957
 10
108.0050542248123
 20
967.1650693039296
 10
103.652742548193
 20
968.2071459761903
 10
99.13573893531424
 20
969.1207792138744
 10
94.47605089252055
 20
969.9015176613931
 10
89.6963811056973
 20
970.5455574461334
 10
84.82001682944376
 20
971.0497607114836
 10
79.87071642814166
 20
971.4116709049344
 10
74.87259362170767
 20
971.6295247467632
 10
69.85000000000106
 20
971.7022608209921
 10
64.82740637829447
 20
971.6295247467632
 10
59.82928357186047
 20
971.4116709049344
 10
54.87998317055842
 20
971.0497607114833
 10
50.0036188943049
 20
970.545557446133
 10
45.22394910748171
 20
969.9015176613931
 10
40.56426106468809
 20
969.120779213874
 10
36.04725745180935
 20
968.20714597619
 10
31.69494577519015
 20
967.1650693039289
 10
27.52853113782487
 20
965.9996263479952
 10
23.56831292497522
 20
964.7164953179812
 10
19.83358590257784
 20
963.3219278170974
 10
16.34254621030521
 20
961.8227183834383
 10
13.11220270729532
 20
960.2261713859954
 10
10.1582941024868
 20
958.540065436696
 10
7.495212273312845
 20
956.7726154918588
 10
5.135932146356381
 20
954.9324328277219
 10
3.0919484815983
 20
953.0284830850343
 10
1.373219868255198
 20
951.0700425871361
 10
-0.0118797949328481
 20
949.0666531443464
 10
-1.056602098569212
 20
947.0280755648582
 10
-1.755857001844538
 20
944.964242098645
 10
-2.106237631964505
 20
942.8852080460771
 10
-2.106036882935633
 20
940.8011027670191
 10
-1.755255732836677
 20
938.7220803290967
 10
-1.055603239053501
 20
936.6582700355857
 10
-0.0104882114998345
 20
934.6197270739558
 10
1.374997395606231
 20
932.6163835255178
 10
3.094103292492531
 20
930.6579999748603
 10
5.138453742238008
 20
928.7541179548465
 10
7.498088368595647
 20
926.9140134588624
 10
10.16151068441132
 20
925.1466517468101
 10
13.11574410420103
 20
923.4606436650437
 10
16.34639516798522
 20
921.8642036930583
 10
19.8377236683439
 20
920.365109921337
 10
23.57271933902358
 20
918.9706661553483
 10
27.53318473145784
 20
917.6876663303339
 10
31.6998238754147
 20
916.522361410252
 10
36.05233629180329
 20
915.480428932166
 10
40.56951589959556
 20
914.5669453444439
 10
45.22935433497369
 20
913.7863612735577
 10
50.00914817931763
 20
913.142479839975
 10
54.29967686929326
 20
912.6911249665615
  0
LWPOLYLINE
  5
168
330
A
100
AcDbEntity
  8
0
  6
Continuous
 62
     7
100
AcDbPolyline
 90
        9
 70
   128
 43
0.0
 10
56.34579279381505
 20
912.5163089237492
 10
58.84908163159544
 20
912.3370076957556
 10
62.50004108158274
 20
912.1424143292136
 10
66.17021151110015
 20
912.0254544887357
 10
69.84999999999994
 20
911.9864338784932
 10
73.52978848889974
 20
912.0254544887357
 10
77.19995891841716
 20
912.1424143292134
 10
80.85091836840449
 20
912.3370076957552
 10
83.35420720618913
 20
912.5163089237492
  0
LINE
  5
173
330
A
100
AcDbEntity
  8
0
  6
Continuous
 62
     7
100
AcDbLine
 10
85.68618839333767
 20
915.3434597111909
 30
0.0
 11
85.61288325766092
 21
914.3437462697296
 31
0.0
  0
LINE
  5
174
330
A
100
AcDbEntity
  8
0
  6
Continuous
 62
     7
100
AcDbLine
 10
54.01381160666634
 20
915.3434597111905
 30
0.0
 11
54.08711674234325
 21
914.3437462697304
 31
0.0
  0
LWPOLYLINE
  5
175
330
A
100
AcDbEntity
  8
0
  6
Continuous
 62
     7
100
AcDbPolyline
 90
        7
 70
   128
 43
0.0
 10
95.42307883727664
 20
1030.024665203168
 10
96.89371412487815
 20
1029.289352242967
 10
98.8727578077747
 20
1028.110226063708
 10
100.5539887214972
 20
1026.854121158103
 10
101.9201551618019
 20
1025.533926862263
 10
102.9572384122927
 20
1024.163190156173
 10
103.3230657193483
 20
1023.514917844033
  0
LWPOLYLINE
  5
17E
330
A
100
AcDbEntity
  8
0
  6
Continuous
 62
     7
100
AcDbPolyline
 90
        7
 70
   128
 43
0.0
 10
36.37693428065595
 20
1023.514917844033
 10
36.74276158771175
 20
1024.163190156173
 10
37.77984483820265
 20
1025.533926862263
 10
39.14601127850742
 20
1026.854121158103
 10
40.82724219222996
 20
1028.110226063709
 10
42.80628587512658
 20
1029.289352242968
 10
43.87756308051407
 20
1029.834775866978
  0
LWPOLYLINE
  5
187
330
A
100
AcDbEntity
  8
0
  6
Continuous
 62
     7
100
AcDbPolyline
 90
        9
 70
   128
 43
0.0
 10
55.92100197793094
 20
915.4505573322429
 10
55.83951651338492
 20
915.5745319472066
 10
55.6576180501694
 20
915.6678862239569
 10
55.39545328764271
 20
915.720280434966
 10
55.08205905525141
 20
915.7259115052728
 10
54.75214625307132
 20
915.684155749121
 10
54.44225534396561
 20
915.5996379481106
 10
54.18670920713442
 20
915.4817191199061
 10
54.01381160666634
 20
915.3434597111905
  0
LWPOLYLINE
  5
192
330
A
100
AcDbEntity
  8
0
  6
Continuous
 62
     7
100
AcDbPolyline
 90
        9
 70
   128
 43
0.0
 10
83.77899802207322
 20
915.4505573322428
 10
83.86048348661933
 20
915.5745319472062
 10
84.04238194983483
 20
915.6678862239566
 10
84.30454671236145
 20
915.7202804349656
 10
84.61794094475264
 20
915.7259115052722
 10
84.94785374693259
 20
915.6841557491205
 10
85.25774465603822
 20
915.5996379481102
 10
85.5132907928694
 20
915.4817191199059
 10
85.68618839333767
 20
915.3434597111909
  0
LINE
  5
19D
330
A
100
AcDbEntity
  8
0
  6
Continuous
 62
     7
100
AcDbLine
 10
78.84999999999998
 20
80.87306928866778
 30
0.0
 11
78.84999999999998
 21
44.87306928866774
 31
0.0
  0
LINE
  5
19E
330
A
100
AcDbEntity
  8
0
  6
Continuous
 62
     7
100
AcDbLine
 10
83.84999999999998
 20
80.87306928866778
 30
0.0
 11
83.84999999999998
 21
44.87306928866774
 31
0.0
  0
LINE
  5
19F
330
A
100
AcDbEntity
  8
0
  6
Continuous
 62
     7
100
AcDbLine
 10
64.95102051443367
 20
106.8730692886678
 30
0.0
 11
74.74897948556637
 21
106.8730692886678
 31
0.0
  0
LWPOLYLINE
  5
1A0
330
A
100
AcDbEntity
  8
0
  6
Continuous
 62
     7
100
AcDbPolyline
 90
       11
 70
   128
 43
0.0
 10
75.34301210904144
 20
53.73093366493676
 10
74.61329124161444
 20
55.47641292080907
 10
73.34582386505657
 20
57.07422530092221
 10
71.93982104372077
 20
58.13467812567396
 10
70.65732810234566
 20
58.61646201060755
 10
69.26280382806705
 20
58.65585306695198
 10
68.09405584969768
 20
58.30229088484229
 10
66.68029041970164
 20
57.37505787098684
 10
65.30844973383771
 20
55.82077627096693
 10
64.49995627938318
 20
54.25687569414672
 10
64.35698789095856
 20
53.73093366493676
  0
LINE
  5
1AD
330
A
100
AcDbEntity
  8
0
  6
Continuous
 62
     7
100
AcDbLine
 10
75.34301210904144
 20
53.73093366493676
 30
0.0
 11
75.32519663429032
 21
53.32746303027002
 31
0.0
  0
LINE
  5
1AE
330
A
100
AcDbEntity
  8
0
  6
Continuous
 62
     7
100
AcDbLine
 10
64.32750760607977
 20
53.29093397758922
 30
0.0
 11
64.35698789095856
 21
53.73093366493676
 31
0.0
  0
LINE
  5
1AF
330
A
100
AcDbEntity
  8
0
  6
Continuous
 62
     7
100
AcDbLine
 10
75.84999999999997
 20
73.95306928866773
 30
0.0
 11
75.84999999999997
 21
51.79306928866778
 31
0.0
  0
LWPOLYLINE
  5
1B0
330
A
100
AcDbEntity
  8
0
  6
Continuous
 62
     7
100
AcDbPolyline
 90
       12
 70
   128
 43
0.0
 10
75.17962994965505
 20
73.91894669362952
 10
75.18741390832956
 20
73.92270218885188
 10
74.70364557478617
 20
73.69731408290824
 10
73.75244465093905
 20
73.30549346781445
 10
72.29381859316998
 20
72.85197951555744
 10
70.48266318904669
 20
72.56877260048455
 10
69.84999999999999
 20
72.54810934026446
 10
68.18725661692965
 20
72.6899484036383
 10
66.71630873064585
 20
73.04294740846973
 10
65.46918500140842
 20
73.49370674843846
 10
64.64842368661877
 20
73.85773114709238
 10
64.49534100906237
 20
73.93122919961625
  0
LINE
  5
1BE
330
A
100
AcDbEntity
  8
0
  6
Continuous
 62
     7
100
AcDbLine
 10
63.84999999999998
 20
73.95306928866773
 30
0.0
 11
63.84999999999998
 21
51.79306928866778
 31
0.0
  0
LINE
  5
1BF
330
A
100
AcDbEntity
  8
0
  6
Continuous
 62
     7
100
AcDbLine
 10
62.99142872020709
 20
106.8730692886678
 30
0.0
 11
64.95102051443367
 21
106.8730692886678
 31
0.0
  0
LINE
  5
1C0
330
A
100
AcDbEntity
  8
0
  6
Continuous
 62
     7
100
AcDbLine
 10
74.74897948556637
 20
106.8730692886678
 30
0.0
 11
76.70857127979288
 21
106.8730692886678
 31
0.0
  0
LINE
  5
1C1
330
A
100
AcDbEntity
  8
0
  6
Continuous
 62
     7
100
AcDbLine
 10
76.70857127979288
 20
106.8730692886678
 30
0.0
 11
76.84999999999998
 21
106.8730692886678
 31
0.0
  0
LINE
  5
1C2
330
A
100
AcDbEntity
  8
0
  6
Continuous
 62
     7
100
AcDbLine
 10
62.84999999999997
 20
106.8730692886678
 30
0.0
 11
62.99142872020709
 21
106.8730692886678
 31
0.0
  0
LINE
  5
1C3
330
A
100
AcDbEntity
  8
0
  6
Continuous
 62
     7
100
AcDbLine
 10
64.30999999999984
 20
101.7136897222337
 30
0.0
 11
64.44999999999997
 21
100.8385897279468
 31
0.0
  0
LINE
  5
1C4
330
A
100
AcDbEntity
  8
0
  6
Continuous
 62
     7
100
AcDbLine
 10
75.24999999999997
 20
100.8385897279477
 30
0.0
 11
75.38999999999984
 21
101.7136897222337
 31
0.0
  0
LWPOLYLINE
  5
1C5
330
A
100
AcDbEntity
  8
0
  6
Continuous
 62
     7
100
AcDbPolyline
 90
        3
 70
   128
 43
0.0
 10
75.38999999999984
 20
101.7136897222337
 10
75.35469653796655
 20
102.1124140936009
 10
75.24999999999997
 20
102.3574370161281
  0
LWPOLYLINE
  5
1CA
330
A
100
AcDbEntity
  8
0
  6
Continuous
 62
     7
100
AcDbPolyline
 90
        3
 70
   128
 43
0.0
 10
75.24999999999997
 20
98.07630746466479
 10
75.3671906415352
 20
97.50020880563893
 10
75.38999999999986
 20
97.11749564452111
  0
LWPOLYLINE
  5
1CF
330
A
100
AcDbEntity
  8
0
  6
Continuous
 62
     7
100
AcDbPolyline
 90
        3
 70
   128
 43
0.0
 10
64.30999999999986
 20
97.11749564452111
 10
64.35299456915178
 20
97.6568102569908
 10
64.44999999999997
 20
98.10963295154129
  0
LWPOLYLINE
  5
1D4
330
A
100
AcDbEntity
  8
0
  6
Continuous
 62
     7
100
AcDbPolyline
 90
        3
 70
   128
 43
0.0
 10
64.44999999999997
 20
102.3252460218137
 10
64.32708071827083
 20
102.0004186425008
 10
64.30999999999984
 20
101.7136897222337
  0
LINE
  5
1D9
330
A
100
AcDbEntity
  8
0
  6
PHANTOM
 62
     7
100
AcDbLine
 10
69.85000000000001
 20
-687.6269307113322
 30
0.0
 11
-95.14999999999988
 21
-687.6269307113322
 31
0.0
  0
LINE
  5
1DA
330
A
100
AcDbEntity
  8
0
  6
PHANTOM
 62
     7
100
AcDbLine
 10
234.8499999999996
 20
-687.6269307113322
 30
0.0
 11
69.85000000000001
 21
-687.6269307113322
 31
0.0
  0
LINE
  5
1DB
330
A
100
AcDbEntity
  8
0
  6
PHANTOM
 62
     7
100
AcDbLine
 10
52.89747829088176
 20
-680.7471043842784
 30
0.0
 11
86.80252170911826
 21
-680.7471043842784
 31
0.0
  0
LWPOLYLINE
  5
1DC
330
A
100
AcDbEntity
  8
0
  6
PHANTOM
 62
     7
100
AcDbPolyline
 90
       10
 70
   128
 43
0.0
 10
69.85000000000228
 20
1034.790496593281
 10
73.30985220654142
 20
1034.717732922365
 10
76.73420164751338
 20
1034.500188563348
 10
80.08790986376864
 20
1034.140095815736
 10
83.33656327071604
 20
1033.641149718404
 10
86.4468262882699
 20
1033.008470133492
 10
89.38678340901175
 20
1032.248549209693
 10
92.12626669448518
 20
1031.369184764024
 10
94.63716533906803
 20
1030.379400265667
 10
95.42307883727664
 20
1030.024665203168
  0
LWPOLYLINE
  5
1E8
330
A
100
AcDbEntity
  8
0
  6
PHANTOM
 62
     7
100
AcDbPolyline
 90
       10
 70
   128
 43
0.0
 10
43.87756308051407
 20
1029.834775866978
 10
45.06283466093673
 20
1030.379400265667
 10
47.57373330551963
 20
1031.369184764024
 10
50.31321659099311
 20
1032.248549209693
 10
53.25317371173501
 20
1033.008470133492
 10
56.36343672928891
 20
1033.641149718404
 10
59.61209013623635
 20
1034.140095815736
 10
62.96579835249162
 20
1034.500188563348
 10
66.3901477934636
 20
1034.717732922365
 10
69.85000000000228
 20
1034.790496593281
  0
LWPOLYLINE
  5
1F4
330
A
100
AcDbEntity
  8
0
  6
PHANTOM
 62
     7
100
AcDbPolyline
 90
        6
 70
   128
 43
0.0
 10
64.89277569313315
 20
846.8717991904643
 10
64.51336617058185
 20
846.7947797892573
 10
64.19171830848309
 20
846.6663526067105
 10
63.97680007809631
 20
846.5060695171715
 10
63.90133083175924
 20
846.3383321680527
 10
63.90306422585176
 20
846.3140285220667
  0
LWPOLYLINE
  5
1FC
330
A
100
AcDbEntity
  8
0
  6
PHANTOM
 62
     7
100
AcDbPolyline
 90
        5
 70
   128
 43
0.0
 10
65.88169396640591
 20
846.605163848134
 10
65.80875130816997
 20
846.7255348454012
 10
65.59383307778317
 20
846.8343240968946
 10
65.27218521568443
 20
846.8856853046805
 10
64.89277569313315
 20
846.8717991904643
  0
LWPOLYLINE
  5
203
330
A
100
AcDbEntity
  8
0
  6
PHANTOM
 62
     7
100
AcDbPolyline
 90
        6
 70
   128
 43
0.0
 10
74.80722430687125
 20
846.8717991904641
 10
75.18663382942254
 20
846.794779789257
 10
75.50828169152127
 20
846.6663526067103
 10
75.72319992190807
 20
846.5060695171711
 10
75.79866916824514
 20
846.3383321680524
 10
75.79693460808236
 20
846.3140204258715
  0
LWPOLYLINE
  5
20B
330
A
100
AcDbEntity
  8
0
  6
PHANTOM
 62
     7
100
AcDbPolyline
 90
        5
 70
   128
 43
0.0
 10
73.81828406788679
 20
846.6050377509906
 10
73.89124869183442
 20
846.725534845401
 10
74.10616692222122
 20
846.8343240968945
 10
74.42781478431996
 20
846.8856853046803
 10
74.80722430687125
 20
846.8717991904641
  0
LINE
  5
212
330
A
100
AcDbEntity
  8
0
  6
PHANTOM
 62
     7
100
AcDbLine
 10
64.95102051443367
 20
911.8460345510316
 30
0.0
 11
64.95102051443367
 21
853.0383339796136
 31
0.0
  0
LINE
  5
213
330
A
100
AcDbEntity
  8
0
  6
PHANTOM
 62
     7
100
AcDbLine
 10
64.95102051443367
 20
843.9085570211259
 30
0.0
 11
64.95102051443367
 21
106.8730692886678
 31
0.0
  0
LINE
  5
214
330
A
100
AcDbEntity
  8
0
  6
PHANTOM
 62
     7
100
AcDbLine
 10
74.74897948556637
 20
911.8461466380813
 30
0.0
 11
74.74897948556637
 21
853.0383339795834
 31
0.0
  0
LINE
  5
215
330
A
100
AcDbEntity
  8
0
  6
PHANTOM
 62
     7
100
AcDbLine
 10
74.74897948556637
 20
843.8818015102651
 30
0.0
 11
74.74897948556637
 21
106.8730692886678
 31
0.0
  0
LINE
  5
216
330
A
100
AcDbEntity
  8
0
  6
PHANTOM
 62
     7
100
AcDbLine
 10
64.35698789095856
 20
53.73093366493676
 30
0.0
 11
75.34301210904144
 21
53.73093366493676
 31
0.0
  0
LINE
  5
217
330
A
100
AcDbEntity
  8
0
  6
PHANTOM
 62
     7
100
AcDbLine
 10
62.99142872020709
 20
911.8983287562299
 30
0.0
 11
62.99142872020709
 21
866.582722974512
 31
0.0
  0
LINE
  5
218
330
A
100
AcDbEntity
  8
0
  6
PHANTOM
 62
     7
100
AcDbLine
 10
62.99142872020709
 20
852.615108898955
 30
0.0
 11
62.99142872020709
 21
106.8730692886678
 31
0.0
  0
LINE
  5
219
330
A
100
AcDbEntity
  8
0
  6
PHANTOM
 62
     7
100
AcDbLine
 10
76.70857127979288
 20
911.9015498730441
 30
0.0
 11
76.70857127979288
 21
866.5827229744817
 31
0.0
  0
LINE
  5
21A
330
A
100
AcDbEntity
  8
0
  6
PHANTOM
 62
     7
100
AcDbLine
 10
76.70857127979288
 20
852.6151088989243
 30
0.0
 11
76.70857127979288
 21
106.8730692886678
 31
0.0
  0
LINE
  5
21B
330
A
100
AcDbEntity
  8
0
  6
PHANTOM
 62
     7
100
AcDbLine
 10
64.44999999999997
 20
106.8314304036398
 30
0.0
 11
64.30999999999984
 21
105.956330409353
 31
0.0
  0
LINE
  5
21C
330
A
100
AcDbEntity
  8
0
  6
PHANTOM
 62
     7
100
AcDbLine
 10
75.3899999999998
 20
105.956330409353
 30
0.0
 11
75.24999999999997
 21
106.8314304036389
 31
0.0
  0
LINE
  5
21D
330
A
100
AcDbEntity
  8
0
  6
PHANTOM
 62
     7
100
AcDbLine
 10
64.30999999999984
 20
101.7136897222337
 30
0.0
 11
64.44999999999997
 21
101.7136897222337
 31
0.0
  0
LINE
  5
21E
330
A
100
AcDbEntity
  8
0
  6
PHANTOM
 62
     7
100
AcDbLine
 10
75.24999999999997
 20
101.7136897222337
 30
0.0
 11
75.38999999999984
 21
101.7136897222337
 31
0.0
  0
LINE
  5
21F
330
A
100
AcDbEntity
  8
0
  6
Continuous
 62
     7
100
AcDbLine
 10
64.84999999999998
 20
-1223.322116818269
 30
0.0
 11
65.35805423998971
 21
-1223.322116818269
 31
0.0
  0
LINE
  5
220
330
A
100
AcDbEntity
  8
0
  6
Continuous
 62
     7
100
AcDbLine
 10
74.34268278409655
 20
-1223.322116818269
 30
0.0
 11
74.84999999999998
 21
-1223.322116818269
 31
0.0
  0
LINE
  5
221
330
A
100
AcDbEntity
  8
0
  6
Continuous
 62
     7
100
AcDbLine
 10
74.84999999999995
 20
-1217.322116818268
 30
0.0
 11
74.34999999999999
 21
-1217.322116818268
 31
0.0
  0
LINE
  5
222
330
A
100
AcDbEntity
  8
0
  6
Continuous
 62
     7
100
AcDbLine
 10
65.35000000000001
 20
-1217.322116818269
 30
0.0
 11
64.84999999999996
 21
-1217.322116818269
 31
0.0
  0
LINE
  5
223
330
A
100
AcDbEntity
  8
0
  6
Continuous
 62
     7
100
AcDbLine
 10
76.00894503890086
 20
-1819.931840980229
 30
0.0
 11
75.39140605128443
 21
-1819.839568611524
 31
0.0
  0
LINE
  5
224
330
A
100
AcDbEntity
  8
0
  6
Continuous
 62
     7
100
AcDbLine
 10
64.3085939487197
 20
-1819.839568611524
 30
0.0
 11
63.69290168913106
 21
-1819.931565043045
 31
0.0
  0
LWPOLYLINE
  5
225
330
A
100
AcDbEntity
  8
0
  6
Continuous
 62
     7
100
AcDbPolyline
 90
        9
 70
   128
 43
0.0
 10
74.18147596714745
 20
-1211.126737992421
 10
73.61511456318324
 20
-1210.602227778085
 10
72.6078339260496
 20
-1209.980949692732
 10
71.43263159360555
 20
-1209.565593195506
 10
70.14483490282713
 20
-1209.383605070724
 10
68.82551620599329
 20
-1209.455053840413
 10
67.54677361246894
 20
-1209.78776672234
 10
66.3817964588217
 20
-1210.385724685621
 10
65.51852403285256
 20
-1211.126737992421
  0
LINE
  5
230
330
A
100
AcDbEntity
  8
0
  6
Continuous
 62
     7
100
AcDbLine
 10
68.35000000000002
 20
-1233.529580733202
 30
0.0
 11
69.2500000000001
 21
-1233.529580733202
 31
0.0
  0
LINE
  5
231
330
A
100
AcDbEntity
  8
0
  6
Continuous
 62
     7
100
AcDbLine
 10
70.44999999999993
 20
-1233.529580733202
 30
0.0
 11
71.35000000000001
 21
-1233.529580733202
 31
0.0
  0
LINE
  5
232
330
A
100
AcDbEntity
  8
0
  6
Continuous
 62
     7
100
AcDbLine
 10
70.45000000000152
 20
-1691.363847304456
 30
0.0
 11
70.44999999999991
 21
-1231.414654320526
 31
0.0
  0
LINE
  5
233
330
A
100
AcDbEntity
  8
0
  6
Continuous
 62
     7
100
AcDbLine
 10
69.25000000000008
 20
-1231.414663245786
 30
0.0
 11
69.25000000000171
 21
-1691.370169316367
 31
0.0
  0
ARC
  5
234
330
A
100
AcDbEntity
  8
0
  6
Continuous
 62
     7
100
AcDbCircle
 10
96.10000000000173
 20
-1818.75803849518
 30
0.0
 40
0.7999999999999546
100
AcDbArc
 50
269.9999999999927
 51
90.00000000000103
  0
ARC
  5
235
330
A
100
AcDbEntity
  8
0
  6
Continuous
 62
     7
100
AcDbCircle
 10
43.6000000000024
 20
-1818.75803849518
 30
0.0
 40
0.7999999999999546
100
AcDbArc
 50
90.00000000000051
 51
270.0000000000084
  0
LINE
  5
236
330
A
100
AcDbEntity
  8
0
  6
Continuous
 62
     7
100
AcDbLine
 10
96.10000000000171
 20
-1817.95803849518
 30
0.0
 11
43.6000000000024
 21
-1817.95803849518
 31
0.0
  0
LINE
  5
237
330
A
100
AcDbEntity
  8
0
  6
Continuous
 62
     7
100
AcDbLine
 10
96.10000000000152
 20
-1826.442663789071
 30
0.0
 11
96.1000000000015
 21
-1819.558038495179
 31
0.0
  0
LINE
  5
238
330
A
100
AcDbEntity
  8
0
  6
Continuous
 62
     7
100
AcDbLine
 10
43.60000000000262
 20
-1819.55803849518
 30
0.0
 11
43.60000000000264
 21
-1826.416662974933
 31
0.0
  0
LINE
  5
239
330
A
100
AcDbEntity
  8
0
  6
Continuous
 62
     7
100
AcDbLine
 10
93.80000000000149
 20
-1781.359731629617
 30
0.0
 11
93.8000000000016
 21
-1778.75803849518
 31
0.0
  0
LINE
  5
23A
330
A
100
AcDbEntity
  8
0
  6
Continuous
 62
     7
100
AcDbLine
 10
93.80000000000146
 20
-1798.758038495179
 30
0.0
 11
93.80000000000157
 21
-1796.25803849518
 31
0.0
  0
LINE
  5
23B
330
A
100
AcDbEntity
  8
0
  6
Continuous
 62
     7
100
AcDbLine
 10
45.9000000000024
 20
-1796.25803849518
 30
0.0
 11
45.90000000000241
 21
-1798.75803849518
 31
0.0
  0
LINE
  5
23C
330
A
100
AcDbEntity
  8
0
  6
Continuous
 62
     7
100
AcDbLine
 10
45.90000000000233
 20
-1778.75803849518
 30
0.0
 11
45.90000000000234
 21
-1781.359731629617
 31
0.0
  0
LINE
  5
23D
330
A
100
AcDbEntity
  8
0
  6
Continuous
 62
     7
100
AcDbLine
 10
91.10000000000168
 20
-1778.75803849518
 30
0.0
 11
91.10000000000157
 21
-1746.75803849518
 31
0.0
  0
LINE
  5
23E
330
A
100
AcDbEntity
  8
0
  6
Continuous
 62
     7
100
AcDbLine
 10
48.60000000000204
 20
-1746.75803849518
 30
0.0
 11
48.60000000000215
 21
-1778.75803849518
 31
0.0
  0
ARC
  5
23F
330
A
100
AcDbEntity
  8
0
  6
Continuous
 62
     7
100
AcDbCircle
 10
81.10000000000157
 20
-1746.75803849518
 30
0.0
 40
10.0
100
AcDbArc
 50
0.0
 51
90.00000000000024
  0
ARC
  5
240
330
A
100
AcDbEntity
  8
0
  6
Continuous
 62
     7
100
AcDbCircle
 10
58.60000000000205
 20
-1746.75803849518
 30
0.0
 40
10.0
100
AcDbArc
 50
90.00000000000019
 51
180.0000000000004
  0
LINE
  5
241
330
A
100
AcDbEntity
  8
0
  6
Continuous
 62
     7
100
AcDbLine
 10
91.10000000000182
 20
-1817.95803849518
 30
0.0
 11
91.10000000000175
 21
-1798.758038495179
 31
0.0
  0
LINE
  5
242
330
A
100
AcDbEntity
  8
0
  6
Continuous
 62
     7
100
AcDbLine
 10
48.60000000000223
 20
-1798.75803849518
 30
0.0
 11
48.60000000000229
 21
-1817.95803849518
 31
0.0
  0
LINE
  5
243
330
A
100
AcDbEntity
  8
0
  6
Continuous
 62
     7
100
AcDbLine
 10
74.85000000000013
 20
-1269.25803849518
 30
0.0
 11
79.85000000000013
 21
-1269.25803849518
 31
0.0
  0
LINE
  5
244
330
A
100
AcDbEntity
  8
0
  6
Continuous
 62
     7
100
AcDbLine
 10
79.85000000000002
 20
-1233.25803849518
 30
0.0
 11
74.85000000000001
 21
-1233.25803849518
 31
0.0
  0
LINE
  5
245
330
A
100
AcDbEntity
  8
0
  6
Continuous
 62
     7
100
AcDbLine
 10
70.00745366246087
 20
-1702.25803849518
 30
0.0
 11
74.85000000000166
 21
-1702.25803849518
 31
0.0
  0
LINE
  5
246
330
A
100
AcDbEntity
  8
0
  6
Continuous
 62
     7
100
AcDbLine
 10
64.85000000000166
 20
-1702.25803849518
 30
0.0
 11
70.00745366246087
 21
-1702.25803849518
 31
0.0
  0
LINE
  5
247
330
A
100
AcDbEntity
  8
0
  6
Continuous
 62
     7
100
AcDbLine
 10
69.25000000000169
 20
-1687.25803849518
 30
0.0
 11
64.8500000000016
 21
-1687.25803849518
 31
0.0
  0
LINE
  5
248
330
A
100
AcDbEntity
  8
0
  6
Continuous
 62
     7
100
AcDbLine
 10
74.8500000000016
 20
-1687.25803849518
 30
0.0
 11
70.4500000000015
 21
-1687.25803849518
 31
0.0
  0
LINE
  5
249
330
A
100
AcDbEntity
  8
0
  6
Continuous
 62
     7
100
AcDbLine
 10
34.85000000000198
 20
-1796.25803849518
 30
0.0
 11
45.9000000000024
 21
-1796.25803849518
 31
0.0
  0
LINE
  5
24A
330
A
100
AcDbEntity
  8
0
  6
Continuous
 62
     7
100
AcDbLine
 10
36.85000000000194
 20
-1781.25803849518
 30
0.0
 11
34.85000000000192
 21
-1781.25803849518
 31
0.0
  0
LINE
  5
24B
330
A
100
AcDbEntity
  8
0
  6
Continuous
 62
     7
100
AcDbLine
 10
45.93164177100736
 20
-1781.25803849518
 30
0.0
 11
40.85000000000191
 21
-1781.25803849518
 31
0.0
  0
LINE
  5
24C
330
A
100
AcDbEntity
  8
0
  6
Continuous
 62
     7
100
AcDbLine
 10
93.80000000000157
 20
-1796.25803849518
 30
0.0
 11
104.8500000000019
 21
-1796.25803849518
 31
0.0
  0
LINE
  5
24D
330
A
100
AcDbEntity
  8
0
  6
Continuous
 62
     7
100
AcDbLine
 10
98.85000000000195
 20
-1781.258038495179
 30
0.0
 11
93.76835822899648
 21
-1781.258038495179
 31
0.0
  0
LINE
  5
24E
330
A
100
AcDbEntity
  8
0
  6
Continuous
 62
     7
100
AcDbLine
 10
104.8500000000019
 20
-1781.258038495179
 30
0.0
 11
102.8500000000019
 21
-1781.258038495179
 31
0.0
  0
LINE
  5
24F
330
A
100
AcDbEntity
  8
0
  6
Continuous
 62
     7
100
AcDbLine
 10
62.85000000000022
 20
-1296.25803849518
 30
0.0
 11
62.85000000000159
 21
-1686.25803849518
 31
0.0
  0
LINE
  5
250
330
A
100
AcDbEntity
  8
0
  6
Continuous
 62
     7
100
AcDbLine
 10
76.8500000000016
 20
-1686.25803849518
 30
0.0
 11
76.85000000000023
 21
-1296.25803849518
 31
0.0
  0
LINE
  5
251
330
A
100
AcDbEntity
  8
0
  6
Continuous
 62
     7
100
AcDbLine
 10
76.10000000000176
 20
-1736.75803849518
 30
0.0
 11
76.10000000000183
 21
-1727.75803849518
 31
0.0
  0
LINE
  5
252
330
A
100
AcDbEntity
  8
0
  6
Continuous
 62
     7
100
AcDbLine
 10
63.60000000000177
 20
-1727.75803849518
 30
0.0
 11
63.60000000000179
 21
-1736.75803849518
 31
0.0
  0
LINE
  5
253
330
A
100
AcDbEntity
  8
0
  6
Continuous
 62
     7
100
AcDbLine
 10
74.35000000000011
 20
-1256.25803849518
 30
0.0
 11
74.8500000000001
 21
-1256.25803849518
 31
0.0
  0
LINE
  5
254
330
A
100
AcDbEntity
  8
0
  6
Continuous
 62
     7
100
AcDbLine
 10
74.85000000000005
 20
-1246.25803849518
 30
0.0
 11
74.35000000000008
 21
-1246.25803849518
 31
0.0
  0
LINE
  5
255
330
A
100
AcDbEntity
  8
0
  6
Continuous
 62
     7
100
AcDbLine
 10
64.8500000000001
 20
-1256.25803849518
 30
0.0
 11
65.35000000000017
 21
-1256.25803849518
 31
0.0
  0
LINE
  5
256
330
A
100
AcDbEntity
  8
0
  6
Continuous
 62
     7
100
AcDbLine
 10
65.35000000000014
 20
-1246.25803849518
 30
0.0
 11
64.85000000000006
 21
-1246.25803849518
 31
0.0
  0
LWPOLYLINE
  5
257
330
A
100
AcDbEntity
  8
0
  6
Continuous
 62
     7
100
AcDbPolyline
 90
       45
 70
   128
 43
0.0
 10
69.85000000000254
 20
-1953.423393899306
 10
72.43719607962929
 20
-1953.382379098448
 10
77.28204151116876
 20
-1953.084196534393
 10
82.09611299358117
 20
-1952.498454145192
 10
86.85834023795953
 20
-1951.627618726365
 10
91.54847920712922
 20
-1950.475346488153
 10
96.14658190413502
 20
-1949.04648948963
 10
100.6330798736777
 20
-1947.347078259535
 10
104.9888672091171
 20
-1945.384299879097
 10
109.1953826712652
 20
-1943.166471393326
 10
113.2346907006383
 20
-1940.703008346484
 10
117.0895610295563
 20
-1938.004388195056
 10
120.743546497491
 20
-1935.082108327853
 10
124.1810585439637
 20
-1931.948638431986
 10
127.3874397067446
 20
-1928.61736700066
 10
130.349032305486
 20
-1925.102541897906
 10
133.0532423670554
 20
-1921.41920508441
 10
135.4885977802838
 20
-1917.583121864612
 10
137.644799687606
 20
-1913.61070532034
 10
139.5127662565083
 20
-1909.518936914846
 10
141.0846682368866
 20
-1905.32528453283
 10
142.3539560896313
 20
-1901.047619407975
 10
143.315378926643
 20
-1896.704133425566
 10
143.9649959662491
 20
-1892.313258139193
 10
144.3001815980517
 20
-1887.893586505784
 10
144.3196253869663
 20
-1883.463797861088
 10
144.0233283698628
 20
-1879.042586104635
 10
143.4126129277058
 20
-1874.648682535242
 10
142.4901024317675
 20
-1870.300602655971
 10
141.2597043563495
 20
-1866.016660567873
 10
139.7265974736508
 20
-1861.814909087401
 10
137.8972166776213
 20
-1857.713072716926
 10
135.7792346146926
 20
-1853.728479020913
 10
133.381538934643
 20
-1849.8779882815
 10
130.7142040222729
 20
-1846.177921814562
 10
127.7884563065271
 20
-1842.64398975727
 10
124.6166326042815
 20
-1839.291219426656
 10
121.2121313642476
 20
-1836.133885470168
 10
117.5893570611411
 20
-1833.185442993694
 10
113.7636582990518
 20
-1830.458464695365
 10
109.7512603886707
 20
-1827.964582803013
 10
105.5691932624446
 20
-1825.714436357658
 10
101.2352155993959
 20
-1823.717624144167
 10
96.76773597213527
 20
-1821.982663369015
 10
96.10000000000152
 20
-1821.769065389918
  0
LWPOLYLINE
  5
286
330
A
100
AcDbEntity
  8
0
  6
Continuous
 62
     7
100
AcDbPolyline
 90
       44
 70
   128
 43
0.0
 10
43.60000000000262
 20
-1821.774123054568
 10
39.96983839522786
 20
-1823.097903470499
 10
35.58593147277363
 20
-1825.0077305022
 10
31.34756773516654
 20
-1827.17439007753
 10
27.27281655510069
 20
-1829.588687376523
 10
23.37905808166931
 20
-1832.240357794288
 10
19.68290502137091
 20
-1835.118107801497
 10
16.20012662306679
 20
-1838.20966140872
 10
12.9455755086322
 20
-1841.501812454873
 10
9.93311814010555
 20
-1844.980482834475
 10
7.175569845267834
 20
-1848.630786603722
 10
4.68463540609558
 20
-1852.437099662106
 10
2.470856215281494
 20
-1856.383134408905
 10
0.5435648957193423
 20
-1860.452018454331
 10
-1.089151959403886
 20
-1864.626376171241
 10
-2.420482626201259
 20
-1868.888411663174
 10
-3.444910813790114
 20
-1873.219991654223
 10
-4.158228564895213
 20
-1877.602726915881
 10
-4.557542518106388
 20
-1882.018051144745
 10
-4.641274829384769
 20
-1886.44729666212
 10
-4.409160120139047
 20
-1890.871766852854
 10
-3.862251281162048
 20
-1895.272733404897
 10
-3.002909160176856
 20
-1899.631628834515
 10
-1.834780902914737
 20
-1903.930093972975
 10
-0.3627877463927426
 20
-1908.150017449987
 10
1.406889640756816
 20
-1912.27360245439
 10
3.466828784011694
 20
-1916.283435006553
 10
5.80838716393818
 20
-1920.162553967665
 10
8.421729278308774
 20
-1923.894522504628
 10
11.29585996922658
 20
-1927.463500277065
 10
14.41866463779585
 20
-1930.854315292388
 10
17.77695656416225
 20
-1934.052534219162
 10
21.35653115622796
 20
-1937.044529954763
 10
25.14222662312928
 20
-1939.817545379476
 10
29.11799034180836
 20
-1942.359752448734
 10
33.26695006479233
 20
-1944.660306029225
 10
37.57148909263586
 20
-1946.709392131219
 10
42.01332458239917
 20
-1948.498270400282
 10
46.57358825661829
 20
-1950.019310891689
 10
51.23290889064499
 20
-1951.266025257934
 10
55.97149607051932
 20
-1952.233092539367
 10
60.7692248160689
 20
-1952.916379770336
 10
65.60572074866252
 20
-1953.312957609448
 10
69.85000000000254
 20
-1953.423393899306
  0
LINE
  5
2B4
330
A
100
AcDbEntity
  8
0
  6
Continuous
 62
     7
100
AcDbLine
 10
65.35000000000164
 20
-1702.25803849518
 30
0.0
 11
65.35000000000167
 21
-1710.066296418625
 31
0.0
  0
LINE
  5
2B5
330
A
100
AcDbEntity
  8
0
  6
Continuous
 62
     7
100
AcDbLine
 10
65.35000000000159
 20
-1686.25803849518
 30
0.0
 11
65.3500000000016
 21
-1687.25803849518
 31
0.0
  0
LINE
  5
2B6
330
A
100
AcDbEntity
  8
0
  6
Continuous
 62
     7
100
AcDbLine
 10
74.35000000000162
 20
-1687.25803849518
 30
0.0
 11
74.3500000000016
 21
-1686.25803849518
 31
0.0
  0
LINE
  5
2B7
330
A
100
AcDbEntity
  8
0
  6
Continuous
 62
     7
100
AcDbLine
 10
74.35000000000169
 20
-1710.058563080306
 30
0.0
 11
74.35000000000165
 21
-1702.25803849518
 31
0.0
  0
LINE
  5
2B8
330
A
100
AcDbEntity
  8
0
  6
Continuous
 62
     7
100
AcDbLine
 10
74.34999999999995
 20
-1208.25803849518
 30
0.0
 11
65.34999999999998
 21
-1208.25803849518
 31
0.0
  0
LINE
  5
2B9
330
A
100
AcDbEntity
  8
0
  6
Continuous
 62
     7
100
AcDbLine
 10
74.84999999999994
 20
-1210.25803849518
 30
0.0
 11
74.34999999999996
 21
-1210.25803849518
 31
0.0
  0
LINE
  5
2BA
330
A
100
AcDbEntity
  8
0
  6
Continuous
 62
     7
100
AcDbLine
 10
65.34999999999998
 20
-1210.25803849518
 30
0.0
 11
64.84999999999994
 21
-1210.25803849518
 31
0.0
  0
LINE
  5
2BB
330
A
100
AcDbEntity
  8
0
  6
Continuous
 62
     7
100
AcDbLine
 10
70.44999999999993
 20
-1208.25803849518
 30
0.0
 11
70.44999999999984
 21
-1186.472692002061
 31
0.0
  0
LINE
  5
2BC
330
A
100
AcDbEntity
  8
0
  6
Continuous
 62
     7
100
AcDbLine
 10
69.24999999999986
 20
-1186.472681369759
 30
0.0
 11
69.24999999999993
 21
-1208.25803849518
 31
0.0
  0
LWPOLYLINE
  5
2BD
330
A
100
AcDbEntity
  8
0
  6
Continuous
 62
     7
100
AcDbPolyline
 90
       15
 70
   128
 43
0.0
 10
75.38772144822662
 20
-1179.692639236292
 10
75.22999775597774
 20
-1178.625331128397
 10
74.78747855284151
 20
-1177.648689969263
 10
74.09970204173145
 20
-1176.801340632846
 10
73.1863378967452
 20
-1176.101379942548
 10
72.07268731475685
 20
-1175.580749676805
 10
70.81224551337773
 20
-1175.278239063989
 10
69.48226519824037
 20
-1175.221281288077
 10
68.15763428946258
 20
-1175.421377955318
 10
66.90939567814649
 20
-1175.883282297177
 10
65.81286742766454
 20
-1176.607492552818
 10
65.05628596608196
 20
-1177.4327981429
 10
64.55435178284758
 20
-1178.374270223222
 10
64.32421800019622
 20
-1179.387593829574
 10
64.3439477868208
 20
-1179.71634138148
  0
LINE
  5
2CE
330
A
100
AcDbEntity
  8
0
  6
Continuous
 62
     7
100
AcDbLine
 10
64.30999999999986
 20
-1188.553612139323
 30
0.0
 11
64.30999999999994
 21
-1214.722507919264
 31
0.0
  0
LINE
  5
2CF
330
A
100
AcDbEntity
  8
0
  6
Continuous
 62
     7
100
AcDbLine
 10
64.30999999999983
 20
-1179.714777374491
 30
0.0
 11
64.30999999999984
 21
-1183.957418061611
 31
0.0
  0
LINE
  5
2D0
330
A
100
AcDbEntity
  8
0
  6
Continuous
 62
     7
100
AcDbLine
 10
75.38999999999984
 20
-1183.957418061611
 30
0.0
 11
75.38999999999983
 21
-1179.714777374491
 31
0.0
  0
LINE
  5
2D1
330
A
100
AcDbEntity
  8
0
  6
Continuous
 62
     7
100
AcDbLine
 10
75.38999999999994
 20
-1214.712685906013
 30
0.0
 11
75.38999999999986
 21
-1188.553612139323
 31
0.0
  0
LINE
  5
2D2
330
A
100
AcDbEntity
  8
0
  6
Continuous
 62
     7
100
AcDbLine
 10
68.3499999999999
 20
-1199.561973964767
 30
0.0
 11
71.3499999999999
 21
-1199.561973964767
 31
0.0
  0
LINE
  5
2D3
330
A
100
AcDbEntity
  8
0
  6
Continuous
 62
     7
100
AcDbLine
 10
79.85000000000003
 20
-1240.258038495176
 30
0.0
 11
83.85000000000003
 21
-1240.258038495176
 31
0.0
  0
LINE
  5
2D4
330
A
100
AcDbEntity
  8
0
  6
Continuous
 62
     7
100
AcDbLine
 10
83.8499999999999
 20
-1204.258038495176
 30
0.0
 11
78.84999999999992
 21
-1204.258038495176
 31
0.0
  0
LINE
  5
2D5
330
A
100
AcDbEntity
  8
0
  6
Continuous
 62
     7
100
AcDbLine
 10
63.85000000000001
 20
-1233.338038495177
 30
0.0
 11
64.96803318323377
 21
-1233.338038495177
 31
0.0
  0
LINE
  5
2D6
330
A
100
AcDbEntity
  8
0
  6
Continuous
 62
     7
100
AcDbLine
 10
74.73196681676625
 20
-1233.338038495177
 30
0.0
 11
74.85000000000001
 21
-1233.338038495177
 31
0.0
  0
LINE
  5
2D7
330
A
100
AcDbEntity
  8
0
  6
Continuous
 62
     7
100
AcDbLine
 10
75.84999999999993
 20
-1211.178038495177
 30
0.0
 11
75.38999999999994
 21
-1211.178038495177
 31
0.0
  0
LINE
  5
2D8
330
A
100
AcDbEntity
  8
0
  6
Continuous
 62
     7
100
AcDbLine
 10
64.30999999999993
 20
-1211.178038495177
 30
0.0
 11
63.84999999999994
 21
-1211.178038495177
 31
0.0
  0
LINE
  5
2D9
330
A
100
AcDbEntity
  8
0
  6
Continuous
 62
     7
100
AcDbLine
 10
75.84999999999999
 20
-1228.258038495176
 30
0.0
 11
78.85000000000001
 21
-1228.258038495176
 31
0.0
  0
LINE
  5
2DA
330
A
100
AcDbEntity
  8
0
  6
Continuous
 62
     7
100
AcDbLine
 10
78.84999999999997
 20
-1216.258038495176
 30
0.0
 11
75.84999999999997
 21
-1216.258038495176
 31
0.0
  0
ARC
  5
2DB
330
A
100
AcDbEntity
  8
0
  6
Continuous
 62
     7
100
AcDbCircle
 10
69.85000000000001
 20
-1227.798038495176
 30
0.0
 40
12.49999999999995
100
AcDbArc
 50
291.1001960240942
 51
293.5781784782029
  0
ARC
  5
2DC
330
A
100
AcDbEntity
  8
0
  6
Continuous
 62
     7
100
AcDbCircle
 10
69.85000000000001
 20
-1227.798038495176
 30
0.0
 40
12.50000000000023
100
AcDbArc
 50
118.6854020141185
 51
248.8998039759086
  0
ARC
  5
2DD
330
A
100
AcDbEntity
  8
0
  6
Continuous
 62
     7
100
AcDbCircle
 10
69.85000000000001
 20
-1227.798038495174
 30
0.0
 40
165.0000000000001
100
AcDbArc
 50
272.4314597757397
 51
267.5685402242623
  0
LINE
  5
2DE
330
A
100
AcDbEntity
  8
0
  6
Continuous
 62
     7
100
AcDbLine
 10
74.84999999999995
 20
-1217.322116818268
 30
0.0
 11
74.84999999999998
 21
-1223.322116818269
 31
0.0
  0
LINE
  5
2DF
330
A
100
AcDbEntity
  8
0
  6
Continuous
 62
     7
100
AcDbLine
 10
64.84999999999996
 20
-1217.322116818269
 30
0.0
 11
64.84999999999998
 21
-1223.322116818269
 31
0.0
  0
LWPOLYLINE
  5
2E0
330
A
100
AcDbEntity
  8
0
  6
Continuous
 62
     7
100
AcDbPolyline
 90
       61
 70
   128
 43
0.0
 10
69.85000000000226
 20
-1880.444311270411
 10
73.27625510854052
 20
-1880.280916421145
 10
76.66497144911966
 20
-1879.792522061508
 10
79.9790215363778
 20
-1878.984479142309
 10
83.18209594404939
 20
-1877.865640750862
 10
86.23910111863756
 20
-1876.448265114717
 10
89.11654387173005
 20
-1874.747881297949
 10
91.78289833838038
 20
-1872.783119061482
 10
94.20895138108141
 20
-1870.575504751532
 10
96.36812265501303
 20
-1868.149225452452
 10
98.23675582786243
 20
-1865.530863987973
 10
99.79437776355126
 20
-1862.749107674229
 10
101.0239228301987
 20
-1859.834434015512
 10
101.9119198747558
 20
-1856.818776786362
 10
102.448639815777
 20
-1853.735176158448
 10
102.6282022372726
 20
-1850.617416705535
 10
102.448639815777
 20
-1847.499657252623
 10
101.9119198747557
 20
-1844.416056624709
 10
101.0239228301986
 20
-1841.400399395559
 10
99.79437776355107
 20
-1838.485725736843
 10
98.23675582786222
 20
-1835.703969423098
 10
96.36812265501278
 20
-1833.085607958619
 10
94.20895138108111
 20
-1830.659328659539
 10
91.78289833838006
 20
-1828.451714349589
 10
89.11654387172969
 20
-1826.486952113122
 10
86.23910111863716
 20
-1824.786568296354
 10
83.18209594404899
 20
-1823.369192660209
 10
79.97902153637738
 20
-1822.250354268763
 10
76.66497144911923
 20
-1821.442311349563
 10
73.27625510854011
 20
-1820.953916989926
 10
69.85000000000184
 20
-1820.79052214066
 10
66.42374489146359
 20
-1820.953916989926
 10
63.03502855088447
 20
-1821.442311349563
 10
59.72097846362633
 20
-1822.250354268763
 10
56.51790405595477
 20
-1823.369192660209
 10
53.46089888136661
 20
-1824.786568296354
 10
50.58345612827412
 20
-1826.486952113122
 10
47.9171016616238
 20
-1828.45171434959
 10
45.4910486189228
 20
-1830.659328659539
 10
43.33187734499118
 20
-1833.08560795862
 10
41.46324417214181
 20
-1835.703969423098
 10
39.90562223645302
 20
-1838.485725736843
 10
38.67607716980556
 20
-1841.40039939556
 10
37.78808012524849
 20
-1844.41605662471
 10
37.2513601842273
 20
-1847.499657252623
 10
37.07179776273168
 20
-1850.617416705536
 10
37.2513601842274
 20
-1853.735176158449
 10
37.78808012524869
 20
-1856.818776786362
 10
38.67607716980584
 20
-1859.834434015512
 10
39.90562223645337
 20
-1862.749107674229
 10
41.46324417214225
 20
-1865.530863987974
 10
43.33187734499171
 20
-1868.149225452452
 10
45.4910486189234
 20
-1870.575504751533
 10
47.91710166162446
 20
-1872.783119061483
 10
50.58345612827484
 20
-1874.74788129795
 10
53.46089888136738
 20
-1876.448265114718
 10
56.51790405595557
 20
-1877.865640750862
 10
59.72097846362717
 20
-1878.984479142309
 10
63.03502855088533
 20
-1879.792522061508
 10
66.42374489146447
 20
-1880.280916421145
 10
69.85000000000226
 20
-1880.444311270411
  0
LWPOLYLINE
  5
31F
330
A
100
AcDbEntity
  8
0
  6
Continuous
 62
     7
100
AcDbPolyline
 90
       33
 70
   128
 43
0.0
 10
104.0489137040211
 20
-1850.492606796408
 10
104.0050738725537
 20
-1848.971872800327
 10
103.6545965954217
 20
-1845.835669065253
 10
102.9572384122926
 20
-1842.747820854295
 10
101.9201551618017
 20
-1839.740013668624
 10
100.553988721497
 20
-1836.843111680176
 10
98.87275780777446
 20
-1834.086841023491
 10
96.89371412487787
 20
-1831.499484765334
 10
94.63716533906774
 20
-1829.107592682167
 10
92.12626669448486
 20
-1826.93570882351
 10
89.38678340901139
 20
-1825.006119656782
 10
86.4468262882695
 20
-1823.338625377985
 10
83.33656327071564
 20
-1821.950336734899
 10
80.08790986376821
 20
-1820.855499447657
 10
76.73420164751295
 20
-1820.065348028377
 10
73.30985220654098
 20
-1819.587990499869
 10
69.85000000000183
 20
-1819.428325196341
 10
66.39014779346267
 20
-1819.587990499869
 10
62.96579835249072
 20
-1820.065348028378
 10
59.61209013623548
 20
-1820.855499447657
 10
56.36343672928808
 20
-1821.950336734899
 10
53.25317371173423
 20
-1823.338625377985
 10
50.31321659099237
 20
-1825.006119656783
 10
47.57373330551895
 20
-1826.935708823511
 10
45.06283466093612
 20
-1829.107592682168
 10
42.80628587512603
 20
-1831.499484765335
 10
40.82724219222948
 20
-1834.086841023491
 10
39.14601127850702
 20
-1836.843111680177
 10
37.77984483820234
 20
-1839.740013668624
 10
36.74276158771153
 20
-1842.747820854295
 10
36.0454034045825
 20
-1845.835669065254
 10
35.69492612745055
 20
-1848.971872800328
 10
35.65103575880689
 20
-1850.533465795109
  0
LWPOLYLINE
  5
342
330
A
100
AcDbEntity
  8
0
  6
Continuous
 62
     7
100
AcDbPolyline
 90
       10
 70
   128
 43
0.0
 10
76.00554843153227
 20
-1819.961166712351
 10
76.66278667944353
 20
-1820.037562847318
 10
80.56985156941909
 20
-1820.858669538209
 10
84.1419145101309
 20
-1821.913277120427
 10
87.35043071232379
 20
-1823.079492932109
 10
90.42188406297841
 20
-1824.351211615264
 10
92.91781431352168
 20
-1825.442942151053
 10
94.73006695860217
 20
-1826.192073872024
 10
95.81031685629756
 20
-1826.52460213311
 10
96.09188075595717
 20
-1826.442663789071
  0
LWPOLYLINE
  5
34E
330
A
100
AcDbEntity
  8
0
  6
Continuous
 62
     7
100
AcDbPolyline
 90
       10
 70
   128
 43
0.0
 10
43.65778586699168
 20
-1826.416662974933
 10
43.81939456333947
 20
-1826.529519284431
 10
44.69897073687185
 20
-1826.294916833835
 10
46.06622335169965
 20
-1825.749554016349
 10
47.91529940053182
 20
-1824.946764726696
 10
50.34295970176371
 20
-1823.897064328486
 10
53.19673778357992
 20
-1822.753080926268
 10
56.91610527535996
 20
-1821.481145727709
 10
61.06031165656771
 20
-1820.40723692433
 10
63.69500454608909
 20
-1819.943476309615
  0
LWPOLYLINE
  5
35A
330
A
100
AcDbEntity
  8
0
  6
Continuous
 62
     7
100
AcDbPolyline
 90
       41
 70
   128
 43
0.0
 10
69.85000000000251
 20
-1948.863627984065
 10
74.84950094031979
 20
-1948.702974607015
 10
79.82409461843492
 20
-1948.221814842908
 10
84.74899785887322
 20
-1947.422545805485
 10
89.59967504142097
 20
-1946.309149412887
 10
94.35196033635122
 20
-1944.887172549937
 10
98.98217809737181
 20
-1943.163699433837
 10
103.4672608125043
 20
-1941.147316320959
 10
107.7848640252685
 20
-1938.848068730544
 10
111.9134776536405
 20
-1936.277411398431
 10
115.8325331521993
 20
-1933.448151210142
 10
119.5225059835854
 20
-1930.374383397618
 10
122.9650128887642
 20
-1927.071421317487
 10
126.1429034714976
 20
-1923.555720160686
 10
129.040345640755
 20
-1919.844794973535
 10
131.6429044853949
 20
-1915.957133398651
 10
133.9376141881662
 20
-1911.912103570443
 10
135.9130426207568
 20
-1907.729857624046
 10
137.5593482980829
 20
-1903.431231298391
 10
138.8683294080716
 20
-1899.037640133604
 10
139.8334646726767
 20
-1894.570972779865
 10
140.4499458365576
 20
-1890.053481949249
 10
140.714701621566
 20
-1885.507673553838
 10
140.6264130276986
 20
-1880.956194582397
 10
140.1855199042888
 20
-1876.421720274215
 10
139.3942187587
 20
-1871.926841152205
 10
138.2564518134357
 20
-1867.493950478053
 10
136.777887366186
 20
-1863.145132690116
 10
134.9658915506529
 20
-1858.902053379862
 10
132.8294916388434
 20
-1854.785851354981
 10
130.3793310676537
 20
-1850.81703332691
 10
127.6276164138028
 20
-1847.015371747427
 10
124.5880565812808
 20
-1843.399806303292
 10
121.2757945042786
 20
-1839.988349559679
 10
117.7073317058522
 20
-1836.797997222483
 10
113.9004460881641
 20
-1833.844643466568
 10
109.8741033638696
 20
-1831.143001751789
 10
105.6483625698898
 20
-1828.706531521271
 10
101.2442761342991
 20
-1826.547371147144
 10
96.68378499418745
 20
-1824.676277457785
 10
96.10000000000152
 20
-1824.461728600584
  0
LWPOLYLINE
  5
385
330
A
100
AcDbEntity
  8
0
  6
Continuous
 62
     7
100
AcDbPolyline
 90
       41
 70
   128
 43
0.0
 10
43.60000000000264
 20
-1824.461728600584
 10
43.01621500581579
 20
-1824.676277457786
 10
38.45572386570416
 20
-1826.547371147146
 10
34.05163743011355
 20
-1828.706531521272
 10
29.82589663613382
 20
-1831.143001751789
 10
25.79955391183931
 20
-1833.844643466569
 10
21.99266829415132
 20
-1836.797997222484
 10
18.42420549572498
 20
-1839.98834955968
 10
15.11194341872293
 20
-1843.399806303293
 10
12.07238358620095
 20
-1847.015371747428
 10
9.320668932350152
 20
-1850.817033326911
 10
6.870508361160585
 20
-1854.785851354982
 10
4.734108449351098
 20
-1858.902053379863
 10
2.922112633818113
 20
-1863.145132690117
 10
1.443548186568499
 20
-1867.493950478054
 10
0.3057812413043842
 20
-1871.926841152206
 10
-0.4855199042843456
 20
-1876.421720274217
 10
-0.9264130276940008
 20
-1880.956194582399
 10
-1.014701621561378
 20
-1885.50767355384
 10
-0.7499458365528705
 20
-1890.05348194925
 10
-0.1334646726717792
 20
-1894.570972779866
 10
0.8316705919333976
 20
-1899.037640133605
 10
2.14065170192218
 20
-1903.431231298392
 10
3.786957379248334
 20
-1907.729857624048
 10
5.762385811839118
 20
-1911.912103570445
 10
8.057095514610438
 20
-1915.957133398652
 10
10.65965435925049
 20
-1919.844794973537
 10
13.55709652850795
 20
-1923.555720160688
 10
16.73498711124137
 20
-1927.071421317488
 10
20.1774940164203
 20
-1930.374383397619
 10
23.86746684780651
 20
-1933.448151210143
 10
27.78652234636528
 20
-1936.277411398432
 10
31.9151359747373
 20
-1938.848068730544
 10
36.23273918750158
 20
-1941.147316320959
 10
40.71782190263416
 20
-1943.163699433837
 10
45.34803966365476
 20
-1944.887172549937
 10
50.10032495858503
 20
-1946.309149412888
 10
54.95100214113279
 20
-1947.422545805485
 10
59.8759053815711
 20
-1948.221814842908
 10
64.85049905968624
 20
-1948.702974607015
 10
69.85000000000251
 20
-1948.863627984065
  0
LWPOLYLINE
  5
3B0
330
A
100
AcDbEntity
  8
0
  6
Continuous
 62
     7
100
AcDbPolyline
 90
       10
 70
   128
 43
0.0
 10
99.53251950328951
 20
-1863.270740741386
 10
99.60684520150733
 20
-1863.119965945163
 10
100.8286900000672
 20
-1860.223546004158
 10
101.7111257882786
 20
-1857.226774922214
 10
102.2444844149845
 20
-1854.162485950419
 10
102.4229222914582
 20
-1851.064252079993
 10
102.2444844149845
 20
-1847.966018209568
 10
101.7111257882785
 20
-1844.901729237773
 10
100.828690000067
 20
-1841.904958155829
 10
100.5856536813381
 20
-1841.250377384128
  0
LWPOLYLINE
  5
3BC
330
A
100
AcDbEntity
  8
0
  6
Continuous
 62
     7
100
AcDbPolyline
 90
       10
 70
   128
 43
0.0
 10
39.49406674540236
 20
-1840.316204059948
 10
38.87130999993713
 20
-1841.904958155829
 10
37.98887421172569
 20
-1844.901729237774
 10
37.4555155850198
 20
-1847.966018209568
 10
37.27707770854616
 20
-1851.064252079994
 10
37.4555155850199
 20
-1854.16248595042
 10
37.98887421172587
 20
-1857.226774922214
 10
38.8713099999374
 20
-1860.223546004158
 10
40.0931547984973
 20
-1863.119965945164
 10
40.16748049671493
 20
-1863.270740741386
  0
LWPOLYLINE
  5
3C8
330
A
100
AcDbEntity
  8
0
  6
Continuous
 62
     7
100
AcDbPolyline
 90
       38
 70
   128
 43
0.0
 10
69.85000000000221
 20
-1862.775852384341
 10
71.96251025402533
 20
-1862.612240328085
 10
74.01424743427795
 20
-1862.126110980291
 10
75.94618679767267
 20
-1861.3314493972
 10
77.70274996619775
 20
-1860.251116545721
 10
79.23340381566127
 20
-1858.916191635034
 10
80.49411422166862
 20
-1857.365078024328
 10
81.44861284120857
 20
-1855.642398428077
 10
82.06944048684828
 20
-1853.797711201792
 10
82.33873707756071
 20
-1851.884084638357
 10
82.24875544073814
 20
-1849.956570289873
 10
81.8020841842428
 20
-1848.070619234729
 10
81.01157322687175
 20
-1846.280486851038
 10
79.89996412958887
 20
-1844.637671988193
 10
78.49923586222144
 20
-1843.189435438734
 10
76.84968482672203
 20
-1841.977440331391
 10
74.99876560305198
 20
-1841.036553558727
 10
72.99972576731612
 20
-1840.393842720125
 10
70.9100740559459
 20
-1840.067797436229
 10
68.78992594405817
 20
-1840.067797436229
 10
66.70027423268797
 20
-1840.393842720125
 10
64.70123439695213
 20
-1841.036553558727
 10
62.8503151732821
 20
-1841.977440331391
 10
61.20076413778273
 20
-1843.189435438734
 10
59.80003587041531
 20
-1844.637671988193
 10
58.68842677313249
 20
-1846.280486851038
 10
57.89791581576148
 20
-1848.070619234729
 10
57.45124455926618
 20
-1849.956570289873
 10
57.36126292244366
 20
-1851.884084638357
 10
57.63055951315614
 20
-1853.797711201792
 10
58.25138715879588
 20
-1855.642398428078
 10
59.20588577833588
 20
-1857.365078024329
 10
60.46659618434325
 20
-1858.916191635034
 10
61.99725003380681
 20
-1860.251116545721
 10
63.75381320233191
 20
-1861.3314493972
 10
65.68575256572666
 20
-1862.126110980291
 10
67.73748974597928
 20
-1862.612240328085
 10
69.85000000000221
 20
-1862.775852384341
  0
LWPOLYLINE
  5
3F0
330
A
100
AcDbEntity
  8
0
  6
Continuous
 62
     7
100
AcDbPolyline
 90
       20
 70
   128
 43
0.0
 10
82.34792296440003
 20
-1851.608683177654
 10
82.24875544073814
 20
-1850.37126353253
 10
81.8020841842428
 20
-1848.485312477385
 10
81.01157322687175
 20
-1846.695180093694
 10
79.89996412958887
 20
-1845.05236523085
 10
78.49923586222144
 20
-1843.604128681391
 10
76.84968482672203
 20
-1842.392133574048
 10
74.99876560305198
 20
-1841.451246801384
 10
72.99972576731612
 20
-1840.808535962781
 10
70.9100740559459
 20
-1840.482490678885
 10
68.78992594405817
 20
-1840.482490678885
 10
66.70027423268797
 20
-1840.808535962781
 10
64.70123439695213
 20
-1841.451246801384
 10
62.8503151732821
 20
-1842.392133574048
 10
61.20076413778273
 20
-1843.604128681391
 10
59.80003587041531
 20
-1845.05236523085
 10
58.68842677313249
 20
-1846.695180093695
 10
57.89791581576148
 20
-1848.485312477385
 10
57.45124455926618
 20
-1850.37126353253
 10
57.35207703560431
 20
-1851.608683177654
  0
LWPOLYLINE
  5
406
330
A
100
AcDbEntity
  8
0
  6
Continuous
 62
     7
100
AcDbPolyline
 90
        7
 70
   128
 43
0.0
 10
72.34999999999991
 20
-1213.9965826036
 10
72.36012119033109
 20
-1213.99939351232
 10
72.88674478740645
 20
-1214.190505547216
 10
73.47981827635888
 20
-1214.530640019299
 10
73.94442063351776
 20
-1214.949985541113
 10
74.24487941040426
 20
-1215.417078598141
 10
74.34999999999996
 20
-1215.892066184213
  0
LWPOLYLINE
  5
40F
330
A
100
AcDbEntity
  8
0
  6
Continuous
 62
     7
100
AcDbPolyline
 90
        7
 70
   128
 43
0.0
 10
65.35000000000002
 20
-1215.892066184214
 10
65.45512058959579
 20
-1215.417078598141
 10
65.75557936648222
 20
-1214.949985541113
 10
66.22018172364118
 20
-1214.530640019299
 10
66.81325521259364
 20
-1214.190505547216
 10
67.3398788096685
 20
-1213.999393512319
 10
67.35000000000002
 20
-1213.9965826036
  0
LWPOLYLINE
  5
418
330
A
100
AcDbEntity
  8
0
  6
Continuous
 62
     7
100
AcDbPolyline
 90
        9
 70
   128
 43
0.0
 10
71.34999999999998
 20
-1223.99022259646
 10
71.16658755956241
 20
-1224.025263939165
 10
70.98154537179114
 20
-1224.055721314702
 10
70.79510249248269
 20
-1224.081557021191
 10
70.6074897112896
 20
-1224.102739077718
 10
70.41893926603589
 20
-1224.119241263922
 10
70.22968455523967
 20
-1224.131043152455
 10
70.03995984919929
 20
-1224.138130134263
 10
69.84999999999998
 20
-1224.140493436676
  0
LWPOLYLINE
  5
423
330
A
100
AcDbEntity
  8
0
  6
Continuous
 62
     7
100
AcDbPolyline
 90
        9
 70
   128
 43
0.0
 10
69.84999999999998
 20
-1224.140493436676
 10
69.66004015080066
 20
-1224.138130134263
 10
69.47031544476027
 20
-1224.131043152455
 10
69.28106073396408
 20
-1224.119241263922
 10
69.09251028871036
 20
-1224.102739077718
 10
68.90489750751727
 20
-1224.081557021191
 10
68.7184546282088
 20
-1224.055721314702
 10
68.53341244043753
 20
-1224.025263939165
 10
68.34999999999998
 20
-1223.99022259646
  0
LINE
  5
42E
330
A
100
AcDbEntity
  8
0
  6
Continuous
 62
     7
100
AcDbLine
 10
65.35000000000005
 20
-1223.341786858324
 30
0.0
 11
65.35000000000014
 21
-1244.276237539877
 31
0.0
  0
LWPOLYLINE
  5
42F
330
A
100
AcDbEntity
  8
0
  6
Continuous
 62
     7
100
AcDbPolyline
 90
        4
 70
   128
 43
0.0
 10
65.35000000000002
 20
-1221.523820962054
 10
65.51853353016555
 20
-1222.315846790364
 10
65.5055459045783
 20
-1222.961913130021
 10
65.35000000000002
 20
-1223.341786858324
  0
LINE
  5
435
330
A
100
AcDbEntity
  8
0
  6
Continuous
 62
     7
100
AcDbLine
 10
65.35000000000002
 20
-1215.892066184214
 30
0.0
 11
65.35000000000002
 21
-1221.523820962054
 31
0.0
  0
LINE
  5
436
330
A
100
AcDbEntity
  8
0
  6
Continuous
 62
     7
100
AcDbLine
 10
74.35000000000001
 20
-1221.523820962054
 30
0.0
 11
74.34999999999996
 21
-1215.892066184213
 31
0.0
  0
LWPOLYLINE
  5
437
330
A
100
AcDbEntity
  8
0
  6
Continuous
 62
     7
100
AcDbPolyline
 90
        4
 70
   128
 43
0.0
 10
74.35000000000001
 20
-1223.341786858324
 10
74.18146646983441
 20
-1222.8887373197
 10
74.19445409542165
 20
-1222.217895136653
 10
74.34999999999998
 20
-1221.523820962054
  0
LINE
  5
43D
330
A
100
AcDbEntity
  8
0
  6
Continuous
 62
     7
100
AcDbLine
 10
74.35000000000006
 20
-1244.276237539877
 30
0.0
 11
74.35000000000001
 21
-1223.341786858324
 31
0.0
  0
LINE
  5
43E
330
A
100
AcDbEntity
  8
0
  6
Continuous
 62
     7
100
AcDbLine
 10
65.35000000000002
 20
-1215.892066184214
 30
0.0
 11
65.35
 21
-1211.670692000372
 31
0.0
  0
LWPOLYLINE
  5
43F
330
A
100
AcDbEntity
  8
0
  6
Continuous
 62
     7
100
AcDbPolyline
 90
        7
 70
   128
 43
0.0
 10
65.35000000000001
 20
-1211.670692000372
 10
65.45512058959578
 20
-1211.240768518962
 10
65.75557936648225
 20
-1210.905246454266
 10
66.22018172364111
 20
-1210.698232708627
 10
66.81325521259364
 20
-1210.647585673063
 10
67.33987880966798
 20
-1210.73497376523
 10
67.35000000000003
 20
-1210.73774845624
  0
LWPOLYLINE
  5
448
330
A
100
AcDbEntity
  8
0
  6
Continuous
 62
     7
100
AcDbPolyline
 90
        7
 70
   128
 43
0.0
 10
72.34999999999994
 20
-1210.73774845624
 10
72.36012119033197
 20
-1210.73497376523
 10
72.88674478740654
 20
-1210.647585673063
 10
73.47981827635904
 20
-1210.698232708627
 10
73.94442063351793
 20
-1210.905246454267
 10
74.24487941040422
 20
-1211.240768518962
 10
74.34999999999995
 20
-1211.670692000372
  0
LINE
  5
451
330
A
100
AcDbEntity
  8
0
  6
Continuous
 62
     7
100
AcDbLine
 10
74.34999999999995
 20
-1211.670692000372
 30
0.0
 11
74.34999999999996
 21
-1215.892066184213
 31
0.0
  0
LWPOLYLINE
  5
452
330
A
100
AcDbEntity
  8
0
  6
Continuous
 62
     7
100
AcDbPolyline
 90
       13
 70
   128
 43
0.0
 10
70.4398384149659
 20
-1231.414735927858
 10
70.44769394307507
 20
-1231.348836317607
 10
70.30884993889903
 20
-1230.804993754475
 10
70.21635217968505
 20
-1230.630450813912
 10
70.06571529431733
 20
-1230.446238396233
 10
69.98471982387004
 20
-1230.388452876832
 10
69.88731971789512
 20
-1230.354567885759
 10
69.81014514068323
 20
-1230.354962771341
 10
69.73730139068184
 20
-1230.377419799908
 10
69.63465137379332
 20
-1230.445914920381
 10
69.48739119814217
 20
-1230.624524306764
 10
69.30007161758604
 20
-1231.06264016152
 10
69.26810672365796
 20
-1231.414538752101
  0
LINE
  5
461
330
A
100
AcDbEntity
  8
0
  6
Continuous
 62
     7
100
AcDbLine
 10
68.34999999999998
 20
-1224.140493436676
 30
0.0
 11
68.35000000000002
 21
-1233.529580733202
 31
0.0
  0
LINE
  5
462
330
A
100
AcDbEntity
  8
0
  6
Continuous
 62
     7
100
AcDbLine
 10
71.34999999999998
 20
-1224.140493436676
 30
0.0
 11
71.35000000000001
 21
-1233.529580733202
 31
0.0
  0
LWPOLYLINE
  5
463
330
A
100
AcDbEntity
  8
0
  6
Continuous
 62
     7
100
AcDbPolyline
 90
       12
 70
   128
 43
0.0
 10
69.26123657937241
 20
-1691.370274237411
 10
69.25226573141666
 20
-1691.454877373668
 10
69.43081197374368
 20
-1692.253463271353
 10
69.64090242536927
 20
-1692.605193762971
 10
69.71935924071852
 20
-1692.67223911356
 10
69.79477503609899
 20
-1692.707227220961
 10
69.86116083990018
 20
-1692.714509767395
 10
69.92632676989241
 20
-1692.700310502837
 10
70.00831298771749
 20
-1692.652204041084
 10
70.12482970927341
 20
-1692.524001249501
 10
70.33574116787399
 20
-1692.070250083816
 10
70.43370999871332
 20
-1691.36361407395
  0
LINE
  5
471
330
A
100
AcDbEntity
  8
0
  6
Continuous
 62
     7
100
AcDbLine
 10
68.34999999999998
 20
-1223.99022259646
 30
0.0
 11
68.34999999999998
 21
-1224.140493436676
 31
0.0
  0
LINE
  5
472
330
A
100
AcDbEntity
  8
0
  6
Continuous
 62
     7
100
AcDbLine
 10
71.34999999999998
 20
-1223.99022259646
 30
0.0
 11
71.34999999999998
 21
-1224.140493436676
 31
0.0
  0
LINE
  5
473
330
A
100
AcDbEntity
  8
0
  6
Continuous
 62
     7
100
AcDbLine
 10
66.73075658232884
 20
-1819.55803849518
 30
0.0
 11
43.60000000000262
 21
-1819.55803849518
 31
0.0
  0
LINE
  5
474
330
A
100
AcDbEntity
  8
0
  6
Continuous
 62
     7
100
AcDbLine
 10
96.1000000000015
 20
-1819.558038495179
 30
0.0
 11
72.96924341767527
 21
-1819.55803849518
 31
0.0
  0
LWPOLYLINE
  5
475
330
A
100
AcDbEntity
  8
0
  6
Continuous
 62
     7
100
AcDbPolyline
 90
       11
 70
   128
 43
0.0
 10
93.80000000000157
 20
-1796.25803849518
 10
93.67782406853123
 20
-1795.858228622268
 10
93.36219160575412
 20
-1794.71376297719
 10
92.9686338707261
 20
-1792.895517443599
 10
92.66578310688599
 20
-1790.548976456248
 10
92.60622250520276
 20
-1788.055783052888
 10
92.79501274694878
 20
-1785.737920954822
 10
93.14784525971225
 20
-1783.714518519466
 10
93.53292140771406
 20
-1782.160442993492
 10
93.77271648661366
 20
-1781.345625655974
 10
93.76835389859857
 20
-1781.359731629617
  0
LINE
  5
482
330
A
100
AcDbEntity
  8
0
  6
Continuous
 62
     7
100
AcDbLine
 10
93.8000000000016
 20
-1778.75803849518
 30
0.0
 11
45.90000000000233
 21
-1778.75803849518
 31
0.0
  0
LINE
  5
483
330
A
100
AcDbEntity
  8
0
  6
Continuous
 62
     7
100
AcDbLine
 10
93.80000000000146
 20
-1798.758038495179
 30
0.0
 11
45.90000000000241
 21
-1798.75803849518
 31
0.0
  0
LWPOLYLINE
  5
484
330
A
100
AcDbEntity
  8
0
  6
Continuous
 62
     7
100
AcDbPolyline
 90
       12
 70
   128
 43
0.0
 10
45.93164610140528
 20
-1781.359731629617
 10
45.93670679489769
 20
-1781.376094854559
 10
46.1700178135114
 20
-1782.171001501772
 10
46.54249007640448
 20
-1783.670060621936
 10
46.91298634932867
 20
-1785.799306467572
 10
47.09951551572656
 20
-1788.276328759681
 10
47.02177241646171
 20
-1790.701096550393
 10
46.73453124327951
 20
-1792.877795265067
 10
46.3442106828631
 20
-1794.6884374212
 10
46.01378349050132
 20
-1795.886342465116
 10
45.9000000000024
 20
-1796.25803849518
 10
45.9000000000024
 20
-1796.25803849518
  0
LINE
  5
492
330
A
100
AcDbEntity
  8
0
  6
Continuous
 62
     7
100
AcDbLine
 10
81.10000000000153
 20
-1736.75803849518
 30
0.0
 11
58.60000042530199
 21
-1736.75803849518
 31
0.0
  0
LINE
  5
493
330
A
100
AcDbEntity
  8
0
  6
Continuous
 62
     7
100
AcDbLine
 10
74.85000000000001
 20
-1233.25803849518
 30
0.0
 11
74.85000000000013
 21
-1269.25803849518
 31
0.0
  0
LINE
  5
494
330
A
100
AcDbEntity
  8
0
  6
Continuous
 62
     7
100
AcDbLine
 10
79.85000000000002
 20
-1233.25803849518
 30
0.0
 11
79.85000000000013
 21
-1269.25803849518
 31
0.0
  0
LINE
  5
495
330
A
100
AcDbEntity
  8
0
  6
Continuous
 62
     7
100
AcDbLine
 10
64.8500000000016
 20
-1687.25803849518
 30
0.0
 11
64.85000000000166
 21
-1702.25803849518
 31
0.0
  0
LINE
  5
496
330
A
100
AcDbEntity
  8
0
  6
Continuous
 62
     7
100
AcDbLine
 10
74.8500000000016
 20
-1687.25803849518
 30
0.0
 11
74.85000000000166
 21
-1702.25803849518
 31
0.0
  0
LINE
  5
497
330
A
100
AcDbEntity
  8
0
  6
Continuous
 62
     7
100
AcDbLine
 10
65.35000000000015
 20
-1248.122955351326
 30
0.0
 11
65.35000000000014
 21
-1244.276237539877
 31
0.0
  0
LINE
  5
498
330
A
100
AcDbEntity
  8
0
  6
Continuous
 62
     7
100
AcDbLine
 10
74.35000000000008
 20
-1244.276237539877
 30
0.0
 11
74.35000000000008
 21
-1248.122955351326
 31
0.0
  0
LINE
  5
499
330
A
100
AcDbEntity
  8
0
  6
Continuous
 62
     7
100
AcDbLine
 10
65.35000000000017
 20
-1260.989451341148
 30
0.0
 11
65.35000000000015
 21
-1248.122955351326
 31
0.0
  0
LINE
  5
49A
330
A
100
AcDbEntity
  8
0
  6
Continuous
 62
     7
100
AcDbLine
 10
74.35000000000012
 20
-1260.989451341148
 30
0.0
 11
74.35000000000008
 21
-1248.122955351326
 31
0.0
  0
LINE
  5
49B
330
A
100
AcDbEntity
  8
0
  6
Continuous
 62
     7
100
AcDbLine
 10
36.85000000000193
 20
-1782.75803849518
 30
0.0
 11
40.85000000000192
 21
-1782.75803849518
 31
0.0
  0
LINE
  5
49C
330
A
100
AcDbEntity
  8
0
  6
Continuous
 62
     7
100
AcDbLine
 10
34.85000000000198
 20
-1796.25803849518
 30
0.0
 11
34.85000000000192
 21
-1781.25803849518
 31
0.0
  0
LINE
  5
49D
330
A
100
AcDbEntity
  8
0
  6
Continuous
 62
     7
100
AcDbLine
 10
98.85000000000195
 20
-1782.758038495179
 30
0.0
 11
102.8500000000019
 21
-1782.758038495179
 31
0.0
  0
LINE
  5
49E
330
A
100
AcDbEntity
  8
0
  6
Continuous
 62
     7
100
AcDbLine
 10
104.8500000000019
 20
-1796.25803849518
 30
0.0
 11
104.8500000000019
 21
-1781.258038495179
 31
0.0
  0
LINE
  5
49F
330
A
100
AcDbEntity
  8
0
  6
Continuous
 62
     7
100
AcDbLine
 10
76.8500000000016
 20
-1686.25803849518
 30
0.0
 11
70.4500000000015
 21
-1686.25803849518
 31
0.0
  0
LINE
  5
4A0
330
A
100
AcDbEntity
  8
0
  6
Continuous
 62
     7
100
AcDbLine
 10
69.25000000000169
 20
-1686.25803849518
 30
0.0
 11
62.85000000000159
 21
-1686.25803849518
 31
0.0
  0
LINE
  5
4A1
330
A
100
AcDbEntity
  8
0
  6
Continuous
 62
     7
100
AcDbLine
 10
76.85000000000023
 20
-1296.25803849518
 30
0.0
 11
70.45000000000015
 21
-1296.25803849518
 31
0.0
  0
LINE
  5
4A2
330
A
100
AcDbEntity
  8
0
  6
Continuous
 62
     7
100
AcDbLine
 10
69.25000000000032
 20
-1296.25803849518
 30
0.0
 11
62.85000000000022
 21
-1296.25803849518
 31
0.0
  0
LINE
  5
4A3
330
A
100
AcDbEntity
  8
0
  6
Continuous
 62
     7
100
AcDbLine
 10
65.35000000000019
 20
-1264.116758407278
 30
0.0
 11
65.35000000000017
 21
-1260.989451341148
 31
0.0
  0
LINE
  5
4A4
330
A
100
AcDbEntity
  8
0
  6
Continuous
 62
     7
100
AcDbLine
 10
74.35000000000012
 20
-1260.989451341148
 30
0.0
 11
74.35000000000013
 21
-1264.116758407277
 31
0.0
  0
LINE
  5
4A5
330
A
100
AcDbEntity
  8
0
  6
Continuous
 62
     7
100
AcDbLine
 10
76.10000000000183
 20
-1727.75803849518
 30
0.0
 11
63.60000000000177
 21
-1727.75803849518
 31
0.0
  0
LINE
  5
4A6
330
A
100
AcDbEntity
  8
0
  6
Continuous
 62
     7
100
AcDbLine
 10
65.35000000000031
 20
-1296.25803849518
 30
0.0
 11
65.35000000000019
 21
-1264.116758407278
 31
0.0
  0
LINE
  5
4A7
330
A
100
AcDbEntity
  8
0
  6
Continuous
 62
     7
100
AcDbLine
 10
74.35000000000013
 20
-1264.116758407278
 30
0.0
 11
74.35000000000025
 21
-1296.25803849518
 31
0.0
  0
LINE
  5
4A8
330
A
100
AcDbEntity
  8
0
  6
Continuous
 62
     7
100
AcDbLine
 10
64.85000000000006
 20
-1246.25803849518
 30
0.0
 11
64.8500000000001
 21
-1256.25803849518
 31
0.0
  0
ARC
  5
4A9
330
A
100
AcDbEntity
  8
0
  6
Continuous
 62
     7
100
AcDbCircle
 10
69.8500000000018
 20
-1742.75803849518
 30
0.0
 40
33.00000000000023
100
AcDbArc
 50
0.0
 51
90.00000000000023
  0
ARC
  5
4AA
330
A
100
AcDbEntity
  8
0
  6
Continuous
 62
     7
100
AcDbCircle
 10
69.8500000000018
 20
-1742.75803849518
 30
0.0
 40
29.0
100
AcDbArc
 50
0.0
 51
180.0000000000004
  0
LINE
  5
4AB
330
A
100
AcDbEntity
  8
0
  6
Continuous
 62
     7
100
AcDbLine
 10
36.85000000000179
 20
-1742.75803849518
 30
0.0
 11
36.85000000000193
 21
-1782.75803849518
 31
0.0
  0
LINE
  5
4AC
330
A
100
AcDbEntity
  8
0
  6
Continuous
 62
     7
100
AcDbLine
 10
102.8500000000019
 20
-1782.758038495179
 30
0.0
 11
102.8500000000018
 21
-1742.75803849518
 31
0.0
  0
ARC
  5
4AD
330
A
100
AcDbEntity
  8
0
  6
Continuous
 62
     7
100
AcDbCircle
 10
69.8500000000018
 20
-1742.75803849518
 30
0.0
 40
33.00000000000023
100
AcDbArc
 50
90.00000000000023
 51
180.0000000000004
  0
LINE
  5
4AE
330
A
100
AcDbEntity
  8
0
  6
Continuous
 62
     7
100
AcDbLine
 10
98.8500000000018
 20
-1742.75803849518
 30
0.0
 11
98.85000000000195
 21
-1782.758038495179
 31
0.0
  0
LINE
  5
4AF
330
A
100
AcDbEntity
  8
0
  6
Continuous
 62
     7
100
AcDbLine
 10
40.85000000000192
 20
-1782.75803849518
 30
0.0
 11
40.8500000000018
 21
-1742.75803849518
 31
0.0
  0
LINE
  5
4B0
330
A
100
AcDbEntity
  8
0
  6
Continuous
 62
     7
100
AcDbLine
 10
65.35
 20
-1211.670692000372
 30
0.0
 11
65.34999999999998
 21
-1208.25803849518
 31
0.0
  0
LINE
  5
4B1
330
A
100
AcDbEntity
  8
0
  6
Continuous
 62
     7
100
AcDbLine
 10
74.34999999999996
 20
-1211.622768468323
 30
0.0
 11
74.34999999999995
 21
-1208.25803849518
 31
0.0
  0
LINE
  5
4B2
330
A
100
AcDbEntity
  8
0
  6
Continuous
 62
     7
100
AcDbLine
 10
74.84999999999994
 20
-1210.25803849518
 30
0.0
 11
74.84999999999995
 21
-1217.359059009613
 31
0.0
  0
LINE
  5
4B3
330
A
100
AcDbEntity
  8
0
  6
Continuous
 62
     7
100
AcDbLine
 10
64.84999999999994
 20
-1210.25803849518
 30
0.0
 11
64.84999999999996
 21
-1217.359059009613
 31
0.0
  0
LWPOLYLINE
  5
4B4
330
A
100
AcDbEntity
  8
0
  6
Continuous
 62
     7
100
AcDbPolyline
 90
       12
 70
   128
 43
0.0
 10
69.25520441167638
 20
-1186.471781423338
 10
69.25062475742001
 20
-1186.446016541606
 10
69.31676248012512
 20
-1186.205404258062
 10
69.45320888032698
 20
-1186.035662374647
 10
69.59764105206009
 20
-1185.944302148524
 10
69.73902185373841
 20
-1185.900430683093
 10
69.89581568803991
 20
-1185.89210238268
 10
70.02869696676971
 20
-1185.916772723173
 10
70.17641951755004
 20
-1185.983935074075
 10
70.32616800942101
 20
-1186.11808891055
 10
70.4351523473834
 20
-1186.343690583289
 10
70.43605768340495
 20
-1186.472787049204
  0
LINE
  5
4C2
330
A
100
AcDbEntity
  8
0
  6
Continuous
 62
     7
100
AcDbLine
 10
62.99142872020709
 20
-1223.65803849518
 30
0.0
 11
64.95102051443367
 21
-1233.25803849518
 31
0.0
  0
ARC
  5
4C3
330
A
100
AcDbEntity
  8
0
  6
Continuous
 62
     7
100
AcDbCircle
 10
69.84999999999998
 20
-1222.25803849518
 30
0.0
 40
7.000000000000109
100
AcDbArc
 50
348.4630409671809
 51
44.41530859719422
  0
ARC
  5
4C4
330
A
100
AcDbEntity
  8
0
  6
Continuous
 62
     7
100
AcDbCircle
 10
69.84999999999998
 20
-1222.25803849518
 30
0.0
 40
7.000000000000089
100
AcDbArc
 50
135.1598177000123
 51
191.5369590328202
  0
ARC
  5
4C5
330
A
100
AcDbEntity
  8
0
  6
Continuous
 62
     7
100
AcDbCircle
 10
69.85000000000001
 20
-1232.25803849518
 30
0.0
 40
5.000000000000036
100
AcDbArc
 50
191.5369590328191
 51
205.8419327631706
  0
ARC
  5
4C6
330
A
100
AcDbEntity
  8
0
  6
Continuous
 62
     7
100
AcDbCircle
 10
69.85000000000001
 20
-1232.25803849518
 30
0.0
 40
5.000000000000039
100
AcDbArc
 50
334.1580672368339
 51
348.4630409671831
  0
LINE
  5
4C7
330
A
100
AcDbEntity
  8
0
  6
Continuous
 62
     7
100
AcDbLine
 10
74.74897948556637
 20
-1233.25803849518
 30
0.0
 11
76.70857127979288
 21
-1223.65803849518
 31
0.0
  0
LWPOLYLINE
  5
4C8
330
A
100
AcDbEntity
  8
0
  6
Continuous
 62
     7
100
AcDbPolyline
 90
        3
 70
   128
 43
0.0
 10
74.84999999999995
 20
-1216.482495337231
 10
75.16542648685605
 20
-1215.918773118571
 10
75.34767070275761
 20
-1214.709203260232
  0
LWPOLYLINE
  5
4CD
330
A
100
AcDbEntity
  8
0
  6
Continuous
 62
     7
100
AcDbPolyline
 90
        4
 70
   128
 43
0.0
 10
64.37964048756825
 20
-1214.723429941894
 10
64.36507477835083
 20
-1215.287426899197
 10
64.83643671539003
 20
-1216.603139345958
 10
64.84999999999995
 20
-1216.622011535324
  0
LWPOLYLINE
  5
4D3
330
A
100
AcDbEntity
  8
0
  6
Continuous
 62
     7
100
AcDbPolyline
 90
       12
 70
   128
 43
0.0
 10
75.38999999999984
 20
-1183.957418061611
 10
75.35469653796655
 20
-1184.441774688677
 10
75.18231108238744
 20
-1185.280373121137
 10
74.89451548050493
 20
-1186.244196129341
 10
74.5530988723825
 20
-1187.328329809488
 10
74.36333649525993
 20
-1188.180024156215
 10
74.36373480311191
 20
-1188.876623082942
 10
74.53099189189663
 20
-1189.294820544042
 10
74.81666597235573
 20
-1189.497433296291
 10
75.15550220599884
 20
-1189.385583064084
 10
75.3671906415352
 20
-1188.881120668883
 10
75.38999999999986
 20
-1188.553612139323
  0
LWPOLYLINE
  5
4E1
330
A
100
AcDbEntity
  8
0
  6
Continuous
 62
     7
100
AcDbPolyline
 90
        3
 70
   128
 43
0.0
 10
75.38999999999986
 20
-1188.553612139323
 10
75.2012290776413
 20
-1187.53972177084
 10
74.84999999999985
 20
-1186.866662228982
  0
LWPOLYLINE
  5
4E6
330
A
100
AcDbEntity
  8
0
  6
Continuous
 62
     7
100
AcDbPolyline
 90
        3
 70
   128
 43
0.0
 10
64.84999999999985
 20
-1186.866662228982
 10
64.49877092235841
 20
-1187.53972177084
 10
64.30999999999986
 20
-1188.553612139323
  0
LWPOLYLINE
  5
4EB
330
A
100
AcDbEntity
  8
0
  6
Continuous
 62
     7
100
AcDbPolyline
 90
       12
 70
   128
 43
0.0
 10
64.30999999999986
 20
-1188.553612139323
 10
64.35299456915178
 20
-1188.988495959645
 10
64.53424915952243
 20
-1189.374731163814
 10
64.82875061865988
 20
-1189.504947262543
 10
65.16853318382667
 20
-1189.295466650736
 10
65.34372945798269
 20
-1188.832038468042
 10
65.329823260238
 20
-1188.131257192313
 10
65.1545816692071
 20
-1187.355286902842
 10
64.86256572118077
 20
-1186.420604942697
 10
64.52567186606342
 20
-1185.310667832525
 10
64.32708071827083
 20
-1184.285445365396
 10
64.30999999999984
 20
-1183.957418061611
  0
LWPOLYLINE
  5
4F9
330
A
100
AcDbEntity
  8
0
  6
Continuous
 62
     7
100
AcDbPolyline
 90
        6
 70
   128
 43
0.0
 10
70.44999999999986
 20
-1190.149844310999
 10
70.60710326363099
 20
-1190.136133263093
 10
70.79471043213023
 20
-1190.115510061566
 10
70.98120804443374
 20
-1190.090353321319
 10
71.16637706032114
 20
-1190.060692588776
 10
71.34999999999985
 20
-1190.026562700273
  0
LWPOLYLINE
  5
501
330
A
100
AcDbEntity
  8
0
  6
Continuous
 62
     7
100
AcDbPolyline
 90
        6
 70
   128
 43
0.0
 10
68.34999999999986
 20
-1190.026562700273
 10
68.53362293967859
 20
-1190.060692588776
 10
68.71879195556599
 20
-1190.090353321319
 10
68.90528956786948
 20
-1190.115510061566
 10
69.09289673636871
 20
-1190.136133263093
 10
69.24999999999987
 20
-1190.149844310999
  0
LINE
  5
509
330
A
100
AcDbEntity
  8
0
  6
Continuous
 62
     7
100
AcDbLine
 10
71.34999999999985
 20
-1190.17288666824
 30
0.0
 11
71.3499999999999
 21
-1199.561973964767
 31
0.0
  0
LINE
  5
50A
330
A
100
AcDbEntity
  8
0
  6
Continuous
 62
     7
100
AcDbLine
 10
68.34999999999986
 20
-1190.17288666824
 30
0.0
 11
68.3499999999999
 21
-1199.561973964767
 31
0.0
  0
LINE
  5
50B
330
A
100
AcDbEntity
  8
0
  6
Continuous
 62
     7
100
AcDbLine
 10
71.34999999999985
 20
-1190.026562700273
 30
0.0
 11
71.34999999999985
 21
-1190.17288666824
 31
0.0
  0
LINE
  5
50C
330
A
100
AcDbEntity
  8
0
  6
Continuous
 62
     7
100
AcDbLine
 10
68.34999999999986
 20
-1190.026562700273
 30
0.0
 11
68.34999999999986
 21
-1190.17288666824
 31
0.0
  0
LINE
  5
50D
330
A
100
AcDbEntity
  8
0
  6
Continuous
 62
     7
100
AcDbLine
 10
74.84999999999985
 20
-1186.386711379845
 30
0.0
 11
74.84999999999986
 21
-1189.255515100467
 31
0.0
  0
LINE
  5
50E
330
A
100
AcDbEntity
  8
0
  6
Continuous
 62
     7
100
AcDbLine
 10
64.84999999999985
 20
-1186.380153697469
 30
0.0
 11
64.84999999999986
 21
-1189.255515100467
 31
0.0
  0
LINE
  5
50F
330
A
100
AcDbEntity
  8
0
  6
Continuous
 62
     7
100
AcDbLine
 10
78.84999999999992
 20
-1204.258038495176
 30
0.0
 11
78.85000000000002
 21
-1233.25803849518
 31
0.0
  0
LINE
  5
510
330
A
100
AcDbEntity
  8
0
  6
Continuous
 62
     7
100
AcDbLine
 10
83.8499999999999
 20
-1204.258038495176
 30
0.0
 11
83.85000000000003
 21
-1240.258038495176
 31
0.0
  0
LINE
  5
511
330
A
100
AcDbEntity
  8
0
  6
Continuous
 62
     7
100
AcDbLine
 10
63.84999999999994
 20
-1211.178038495177
 30
0.0
 11
63.84999999999997
 21
-1218.652487219716
 31
0.0
  0
LINE
  5
512
330
A
100
AcDbEntity
  8
0
  6
Continuous
 62
     7
100
AcDbLine
 10
63.84999999999998
 20
-1227.864161581782
 30
0.0
 11
63.85000000000001
 21
-1233.338038495177
 31
0.0
  0
LINE
  5
513
330
A
100
AcDbEntity
  8
0
  6
Continuous
 62
     7
100
AcDbLine
 10
75.84999999999993
 20
-1211.178038495177
 30
0.0
 11
75.84999999999997
 21
-1218.652487219715
 31
0.0
  0
LINE
  5
514
330
A
100
AcDbEntity
  8
0
  6
Continuous
 62
     7
100
AcDbLine
 10
75.84999999999999
 20
-1227.864161581782
 30
0.0
 11
75.85
 21
-1233.25803849518
 31
0.0
  0
ARC
  5
515
330
A
100
AcDbEntity
  8
0
  6
Continuous
 62
     7
100
AcDbCircle
 10
69.84999999999999
 20
-1227.798038495176
 30
0.0
 40
7.00000000000011
100
AcDbArc
 50
158.8585481843273
 51
180.0000000000004
  0
ARC
  5
516
330
A
100
AcDbEntity
  8
0
  6
Continuous
 62
     7
100
AcDbCircle
 10
69.84999999999999
 20
-1227.798038495176
 30
0.0
 40
6.999999999999985
100
AcDbArc
 50
328.9972808661273
 51
356.2321336109055
  0
ARC
  5
517
330
A
100
AcDbEntity
  8
0
  6
Continuous
 62
     7
100
AcDbCircle
 10
69.84999999999999
 20
-1227.798038495176
 30
0.0
 40
7.000000000000007
100
AcDbArc
 50
180.0000000000004
 51
211.002719133875
  0
ARC
  5
518
330
A
100
AcDbEntity
  8
0
  6
PHANTOM
 62
     7
100
AcDbCircle
 10
69.85000000000001
 20
-1227.798038495174
 30
0.0
 40
16.95252170911853
100
AcDbArc
 50
110.727859088615
 51
254.7916206604809
  0
ARC
  5
519
330
A
100
AcDbEntity
  8
0
  6
PHANTOM
 62
     7
100
AcDbCircle
 10
69.85000000000001
 20
-1227.798038495174
 30
0.0
 40
16.95252170911847
100
AcDbArc
 50
285.2909032151968
 51
287.1540217730525
  0
ARC
  5
51A
330
A
100
AcDbEntity
  8
0
  6
PHANTOM
 62
     7
100
AcDbCircle
 10
69.85000000000001
 20
-1227.798038495174
 30
0.0
 40
16.95252170911829
100
AcDbArc
 50
306.1486877032263
 51
312.6932995627796
  0
ARC
  5
51B
330
A
100
AcDbEntity
  8
0
  6
PHANTOM
 62
     7
100
AcDbCircle
 10
69.85000000000001
 20
-1227.798038495174
 30
0.0
 40
16.9525217091184
100
AcDbArc
 50
325.6733243475016
 51
34.32667565249963
  0
ARC
  5
51C
330
A
100
AcDbEntity
  8
0
  6
PHANTOM
 62
     7
100
AcDbCircle
 10
69.85000000000001
 20
-1227.798038495174
 30
0.0
 40
16.95252170911816
100
AcDbArc
 50
57.93408960872327
 51
69.27214091138496
  0
ARC
  5
51D
330
A
100
AcDbEntity
  8
0
  6
PHANTOM
 62
     7
100
AcDbCircle
 10
69.85000000000001
 20
-1227.798038495174
 30
0.0
 40
21.91391109268668
100
AcDbArc
 50
104.6437050660498
 51
256.8109048353395
  0
ARC
  5
51E
330
A
100
AcDbEntity
  8
0
  6
PHANTOM
 62
     7
100
AcDbCircle
 10
69.85000000000001
 20
-1227.798038495174
 30
0.0
 40
21.91391109268644
100
AcDbArc
 50
65.75130883201585
 51
75.35629493395048
  0
ARC
  5
51F
330
A
100
AcDbEntity
  8
0
  6
PHANTOM
 62
     7
100
AcDbCircle
 10
69.85000000000001
 20
-1227.798038495174
 30
0.0
 40
21.91391109268677
100
AcDbArc
 50
297.1506147841549
 51
50.29286732906051
  0
ARC
  5
520
330
A
100
AcDbEntity
  8
0
  6
PHANTOM
 62
     7
100
AcDbCircle
 10
69.85000000000001
 20
-1227.798038495174
 30
0.0
 40
162.5000000000003
100
AcDbArc
 50
272.4688898426448
 51
267.5311101573573
  0
LWPOLYLINE
  5
521
330
A
100
AcDbEntity
  8
0
  6
PHANTOM
 62
     7
100
AcDbPolyline
 90
       17
 70
   128
 43
0.0
 10
69.85000000000228
 20
-1881.66779796922
 10
73.30985220654142
 20
-1881.508132665692
 10
76.73420164751338
 20
-1881.030775137183
 10
80.08790986376864
 20
-1880.240623717904
 10
83.33656327071604
 20
-1879.145786430662
 10
86.4468262882699
 20
-1877.757497787575
 10
89.38678340901175
 20
-1876.090003508778
 10
92.12626669448518
 20
-1874.16041434205
 10
94.63716533906803
 20
-1871.988530483394
 10
96.89371412487815
 20
-1869.596638400226
 10
98.8727578077747
 20
-1867.009282142069
 10
100.5539887214972
 20
-1864.253011485384
 10
101.9201551618019
 20
-1861.356109496937
 10
102.9572384122927
 20
-1858.348302311265
 10
103.6545965954217
 20
-1855.260454100307
 10
104.0050738725537
 20
-1852.124250365233
 10
104.0489137040211
 20
-1850.492606796408
  0
LWPOLYLINE
  5
534
330
A
100
AcDbEntity
  8
0
  6
PHANTOM
 62
     7
100
AcDbPolyline
 90
       17
 70
   128
 43
0.0
 10
35.65103575880689
 20
-1850.533465795109
 10
35.69492612745059
 20
-1852.124250365234
 10
36.04540340458264
 20
-1855.260454100308
 10
36.74276158771175
 20
-1858.348302311266
 10
37.77984483820265
 20
-1861.356109496938
 10
39.14601127850742
 20
-1864.253011485384
 10
40.82724219222996
 20
-1867.00928214207
 10
42.80628587512658
 20
-1869.596638400227
 10
45.06283466093673
 20
-1871.988530483394
 10
47.57373330551963
 20
-1874.16041434205
 10
50.31321659099311
 20
-1876.090003508778
 10
53.25317371173501
 20
-1877.757497787576
 10
56.36343672928891
 20
-1879.145786430662
 10
59.61209013623635
 20
-1880.240623717904
 10
62.96579835249162
 20
-1881.030775137183
 10
66.3901477934636
 20
-1881.508132665692
 10
69.85000000000228
 20
-1881.66779796922
  0
LWPOLYLINE
  5
547
330
A
100
AcDbEntity
  8
0
  6
PHANTOM
 62
     7
100
AcDbPolyline
 90
       25
 70
   128
 43
0.0
 10
100.5856536813381
 20
-1841.250377384128
 10
99.60684520150715
 20
-1839.008538214823
 10
98.05897817989942
 20
-1836.244203197745
 10
96.20204769024452
 20
-1833.642239737515
 10
94.0563986515748
 20
-1831.2311554903
 10
91.64553924376392
 20
-1829.037366799664
 10
88.99588334698856
 20
-1827.084909273581
 10
86.13646114572993
 20
-1825.395174445285
 10
83.09860106799764
 20
-1823.986675403155
 10
79.91558654451636
 20
-1822.874843957444
 10
76.62229134849397
 20
-1822.071861566136
 10
73.25479751126446
 20
-1821.586525872346
 10
69.85000000000185
 20
-1821.424154315497
 10
66.44520248873925
 20
-1821.586525872346
 10
63.07770865150973
 20
-1822.071861566136
 10
59.78441345548738
 20
-1822.874843957444
 10
56.60139893200612
 20
-1823.986675403155
 10
53.56353885427385
 20
-1825.395174445285
 10
50.70411665301527
 20
-1827.084909273581
 10
48.05446075623995
 20
-1829.037366799664
 10
45.64360134842909
 20
-1831.231155490301
 10
43.49795230975946
 20
-1833.642239737516
 10
41.64102182010462
 20
-1836.244203197746
 10
40.09315479849694
 20
-1839.008538214824
 10
39.49406674540236
 20
-1840.316204059948
  0
LWPOLYLINE
  5
562
330
A
100
AcDbEntity
  8
0
  6
PHANTOM
 62
     7
100
AcDbPolyline
 90
       60
 70
   128
 43
0.0
 10
69.85000000000226
 20
-1880.147550356146
 10
73.20787397541099
 20
-1879.98469731144
 10
76.52770189693999
 20
-1879.49798336739
 10
79.77186878770237
 20
-1878.692923187464
 10
82.90361694052251
 20
-1877.578638425186
 10
85.88746239744585
 20
-1876.167754372158
 10
88.68959699716134
 20
-1874.476256908462
 10
91.27827143497803
 20
-1872.523311376249
 10
93.6241549951336
 20
-1870.331045428757
 10
95.70066787952402
 20
-1867.924298315156
 10
97.48428236743666
 20
-1865.330339441931
 10
98.9547893940273
 20
-1862.578559399608
 10
100.0955275270998
 20
-1859.700136955623
 10
100.8935717477908
 20
-1856.727685786424
 10
101.3398798961974
 20
-1853.69488495149
 10
101.4293951226626
 20
-1850.636097296128
 10
101.1611031839019
 20
-1847.585980106701
 10
100.5380439347857
 20
-1844.579092429731
 10
99.56727688556821
 20
-1841.64950350409
 10
98.25980121481586
 20
-1838.830406742908
 10
96.63043114431912
 20
-1836.153743638945
 10
94.69762808803993
 20
-1833.649841854708
 10
92.48329147691483
 20
-1831.347071597921
 10
90.01251062955194
 20
-1829.271524175734
 10
87.31328048022577
 20
-1827.446716369787
 10
84.41618438508584
 20
-1825.893323981678
 10
81.35404760051095
 20
-1824.628947567867
 10
78.16156535983812
 20
-1823.667913018344
 10
74.87490976250533
 20
-1823.021109238563
 10
71.53131992971132
 20
-1822.695864773798
 10
68.16868007029235
 20
-1822.695864773798
 10
64.82509023749834
 20
-1823.021109238563
 10
61.53843464016556
 20
-1823.667913018344
 10
58.34595239949276
 20
-1824.628947567868
 10
55.2838156149179
 20
-1825.893323981678
 10
52.38671951977801
 20
-1827.446716369787
 10
49.68748937045188
 20
-1829.271524175734
 10
47.21670852308903
 20
-1831.347071597921
 10
45.00237191196402
 20
-1833.649841854708
 10
43.06956885568488
 20
-1836.153743638945
 10
41.44019878518819
 20
-1838.830406742909
 10
40.13272311443593
 20
-1841.64950350409
 10
39.16195606521848
 20
-1844.579092429732
 10
38.53889681610232
 20
-1847.585980106702
 10
38.27060487734176
 20
-1850.636097296128
 10
38.36012010380699
 20
-1853.694884951491
 10
38.80642825221368
 20
-1856.727685786424
 10
39.60447247290471
 20
-1859.700136955623
 10
40.74521060597733
 20
-1862.578559399608
 10
42.21571763256803
 20
-1865.330339441931
 10
43.99933212048074
 20
-1867.924298315157
 10
46.0758450048712
 20
-1870.331045428758
 10
48.42172856502682
 20
-1872.52331137625
 10
51.01040300284354
 20
-1874.476256908462
 10
53.81253760255908
 20
-1876.167754372158
 10
56.79638305948247
 20
-1877.578638425186
 10
59.92813121230263
 20
-1878.692923187464
 10
63.17229810306503
 20
-1879.49798336739
 10
66.49212602459401
 20
-1879.98469731144
 10
69.85000000000226
 20
-1880.147550356146
  0
LWPOLYLINE
  5
5A0
330
A
100
AcDbEntity
  8
0
  6
PHANTOM
 62
     7
100
AcDbPolyline
 90
        9
 70
   128
 43
0.0
 10
67.35000000000005
 20
-1213.9965826036
 10
67.87565556187073
 20
-1214.32445498726
 10
68.48522321657096
 20
-1214.569140135974
 10
69.15279558105282
 20
-1214.720238626765
 10
69.84999999999998
 20
-1214.771328585954
 10
70.54720441894713
 20
-1214.720238626765
 10
71.214776783429
 20
-1214.569140135973
 10
71.82434443812923
 20
-1214.32445498726
 10
72.34999999999991
 20
-1213.9965826036
  0
LWPOLYLINE
  5
5AB
330
A
100
AcDbEntity
  8
0
  6
PHANTOM
 62
     7
100
AcDbPolyline
 90
        9
 70
   128
 43
0.0
 10
74.34999999999996
 20
-1215.892066184213
 10
73.48649891257203
 20
-1216.604132682217
 10
72.40354689783377
 20
-1217.145855146641
 10
71.16649660116761
 20
-1217.484542381909
 10
69.85000000000006
 20
-1217.5997557107
 10
68.53350339883252
 20
-1217.484542381909
 10
67.29645310216632
 20
-1217.145855146641
 10
66.21350108742802
 20
-1216.604132682217
 10
65.35000000000002
 20
-1215.892066184214
  0
LINE
  5
5B6
330
A
100
AcDbEntity
  8
0
  6
PHANTOM
 62
     7
100
AcDbLine
 10
67.35000000000003
 20
-1210.73774845624
 30
0.0
 11
67.35000000000005
 21
-1213.9965826036
 31
0.0
  0
LWPOLYLINE
  5
5B7
330
A
100
AcDbEntity
  8
0
  6
PHANTOM
 62
     7
100
AcDbPolyline
 90
        9
 70
   128
 43
0.0
 10
72.34999999999994
 20
-1210.73774845624
 10
71.8243444381293
 20
-1210.40987607258
 10
71.21477678342907
 20
-1210.165190923866
 10
70.54720441894722
 20
-1210.014092433074
 10
69.85000000000006
 20
-1209.963002473885
 10
69.15279558105291
 20
-1210.014092433074
 10
68.48522321657104
 20
-1210.165190923866
 10
67.87565556187079
 20
-1210.40987607258
 10
67.35000000000003
 20
-1210.73774845624
  0
LINE
  5
5C2
330
A
100
AcDbEntity
  8
0
  6
PHANTOM
 62
     7
100
AcDbLine
 10
72.34999999999991
 20
-1213.9965826036
 30
0.0
 11
72.34999999999994
 21
-1210.73774845624
 31
0.0
  0
LWPOLYLINE
  5
5C3
330
A
100
AcDbEntity
  8
0
  6
PHANTOM
 62
     7
100
AcDbPolyline
 90
        5
 70
   128
 43
0.0
 10
65.35000000000009
 20
-1244.276237539877
 10
66.29053551939333
 20
-1245.494566328877
 10
67.89103471367991
 20
-1246.747231440782
 10
69.21508062019833
 20
-1247.211907360967
 10
69.25000000000014
 20
-1247.215956927105
  0
LWPOLYLINE
  5
5CA
330
A
100
AcDbEntity
  8
0
  6
PHANTOM
 62
     7
100
AcDbPolyline
 90
        6
 70
   128
 43
0.0
 10
70.44999999999998
 20
-1247.163438270639
 10
70.93610314281659
 20
-1247.107532614485
 10
71.2097314354265
 20
-1247.017279180493
 10
72.63915059724914
 20
-1246.201292347464
 10
73.92359430204807
 20
-1244.889866324521
 10
74.35000000000008
 20
-1244.276237539877
  0
LINE
  5
5D2
330
A
100
AcDbEntity
  8
0
  6
PHANTOM
 62
     7
100
AcDbLine
 10
69.84999999999998
 20
-1224.140493436676
 30
0.0
 11
68.34999999999998
 21
-1224.140493436676
 31
0.0
  0
LINE
  5
5D3
330
A
100
AcDbEntity
  8
0
  6
PHANTOM
 62
     7
100
AcDbLine
 10
71.34999999999998
 20
-1224.140493436676
 30
0.0
 11
69.84999999999998
 21
-1224.140493436676
 31
0.0
  0
LINE
  5
5D4
330
A
100
AcDbEntity
  8
0
  6
PHANTOM
 62
     7
100
AcDbLine
 10
91.10000000000157
 20
-1746.75803849518
 30
0.0
 11
48.60000000000204
 21
-1746.75803849518
 31
0.0
  0
LWPOLYLINE
  5
5D5
330
A
100
AcDbEntity
  8
0
  6
PHANTOM
 62
     7
100
AcDbPolyline
 90
        4
 70
   128
 43
0.0
 10
74.35000000000006
 20
-1248.122955351326
 10
73.93042402190153
 20
-1248.367251854628
 10
71.83923672960543
 20
-1249.193836097021
 10
70.44999999999999
 20
-1249.338576291616
  0
LWPOLYLINE
  5
5DB
330
A
100
AcDbEntity
  8
0
  6
PHANTOM
 62
     7
100
AcDbPolyline
 90
        3
 70
   128
 43
0.0
 10
69.25000000000015
 20
-1249.38250074002
 10
66.98410634038356
 20
-1248.92172209846
 10
65.35000000000017
 20
-1248.122955351326
  0
LWPOLYLINE
  5
5E0
330
A
100
AcDbEntity
  8
0
  6
PHANTOM
 62
     7
100
AcDbPolyline
 90
        4
 70
   128
 43
0.0
 10
65.35000000000017
 20
-1260.989451341148
 10
66.58038010814585
 20
-1260.656791543907
 10
68.80034270810118
 20
-1260.310849352421
 10
69.2500000000002
 20
-1260.287889379865
  0
LWPOLYLINE
  5
5E6
330
A
100
AcDbEntity
  8
0
  6
PHANTOM
 62
     7
100
AcDbPolyline
 90
        4
 70
   128
 43
0.0
 10
70.45000000000003
 20
-1260.331114840017
 10
71.83923672960528
 20
-1260.415229773087
 10
73.93042402190137
 20
-1260.865523861024
 10
74.35000000000018
 20
-1260.989451341148
  0
LWPOLYLINE
  5
5EC
330
A
100
AcDbEntity
  8
0
  6
PHANTOM
 62
     7
100
AcDbPolyline
 90
        5
 70
   128
 43
0.0
 10
74.35000000000002
 20
-1264.116758407278
 10
73.92359430204803
 20
-1263.808825319356
 10
72.63915059724905
 20
-1263.03327777931
 10
71.20973143542645
 20
-1262.481383039762
 10
70.45000000000003
 20
-1262.394407622835
  0
LWPOLYLINE
  5
5F3
330
A
100
AcDbEntity
  8
0
  6
PHANTOM
 62
     7
100
AcDbPolyline
 90
        5
 70
   128
 43
0.0
 10
69.2500000000002
 20
-1262.34269450907
 10
69.13251273718313
 20
-1262.353451080137
 10
67.6150699473402
 20
-1262.777448820245
 10
66.09412302968337
 20
-1263.594903003917
 10
65.35000000000021
 20
-1264.116758407278
  0
LWPOLYLINE
  5
5FA
330
A
100
AcDbEntity
  8
0
  6
PHANTOM
 62
     7
100
AcDbPolyline
 90
       41
 70
   128
 43
0.0
 10
69.85000000000252
 20
-1949.886660792666
 10
74.87246610957956
 20
-1949.727064158327
 10
79.8704632691273
 20
-1949.249051794073
 10
84.81964173888128
 20
-1948.454952528092
 10
89.69588961882656
 20
-1947.348635132185
 10
94.47545031945081
 20
-1945.935489473498
 10
99.1350383014603
 20
-1944.222400255631
 10
103.6519525205868
 20
-1942.217713477056
 10
108.0041870247935
 20
-1939.931195770246
 10
112.1705381650608
 20
-1937.373986819629
 10
116.1307078974335
 20
-1934.558545090164
 10
119.8654026730505
 20
-1931.498587130947
 10
123.3564274343751
 20
-1928.209020749573
 10
126.5867742596867
 20
-1924.705872382783
 10
129.5407052239657
 20
-1921.006209017286
 10
132.2038290724823
 20
-1917.12805504111
 10
134.5631713335427
 20
-1913.090304430595
 10
136.6072375288114
 20
-1908.912628700844
 10
138.3260691732537
 20
-1904.615381068073
 10
139.7112922918744
 20
-1900.219497290791
 10
140.7561582168816
 20
-1895.746393672888
 10
141.4555764665183
 20
-1891.217862725556
 10
141.8061395453775
 20
-1886.655966996363
 10
141.8061395453775
 20
-1882.082931582744
 10
141.4555764665182
 20
-1877.521035853552
 10
140.7561582168814
 20
-1872.992504906219
 10
139.7112922918742
 20
-1868.519401288317
 10
138.3260691732534
 20
-1864.123517511034
 10
136.607237528811
 20
-1859.826269878263
 10
134.5631713335423
 20
-1855.648594148512
 10
132.2038290724818
 20
-1851.610843537998
 10
129.5407052239651
 20
-1847.732689561822
 10
126.5867742596861
 20
-1844.033026196325
 10
123.3564274343744
 20
-1840.529877829535
 10
119.8654026730498
 20
-1837.24031144816
 10
116.1307078974328
 20
-1834.180353488944
 10
112.17053816506
 20
-1831.364911759479
 10
108.0041870247926
 20
-1828.807702808862
 10
103.6519525205859
 20
-1826.521185102052
 10
99.13503830145939
 20
-1824.516498323477
 10
96.10000000000152
 20
-1823.36173735236
  0
LWPOLYLINE
  5
625
330
A
100
AcDbEntity
  8
0
  6
PHANTOM
 62
     7
100
AcDbPolyline
 90
       41
 70
   128
 43
0.0
 10
43.60000000000264
 20
-1823.36173735236
 10
40.56496169854387
 20
-1824.516498323477
 10
36.04804747941737
 20
-1826.521185102053
 10
31.69581297521074
 20
-1828.807702808863
 10
27.52946183494346
 20
-1831.364911759479
 10
23.56929210257071
 20
-1834.180353488945
 10
19.83459732695376
 20
-1837.240311448161
 10
16.3435725656292
 20
-1840.529877829536
 10
13.11322574031763
 20
-1844.033026196326
 10
10.15929477603865
 20
-1847.732689561823
 10
7.49617092752211
 20
-1851.610843537999
 10
5.136828666461728
 20
-1855.648594148513
 10
3.092762471193111
 20
-1859.826269878265
 10
1.373930826750802
 20
-1864.123517511036
 10
-0.01129229186983
 20
-1868.519401288318
 10
-1.056158216877003
 20
-1872.992504906221
 10
-1.755576466513655
 20
-1877.521035853553
 10
-2.106139545372781
 20
-1882.082931582745
 10
-2.106139545372712
 20
-1886.655966996365
 10
-1.755576466513419
 20
-1891.217862725557
 10
-1.056158216876643
 20
-1895.746393672889
 10
-0.0112922918693442
 20
-1900.219497290792
 10
1.373930826751426
 20
-1904.615381068074
 10
3.09276247119386
 20
-1908.912628700845
 10
5.136828666462617
 20
-1913.090304430596
 10
7.496170927523138
 20
-1917.128055041111
 10
10.1592947760398
 20
-1921.006209017287
 10
13.1132257403189
 20
-1924.705872382784
 10
16.34357256563055
 20
-1928.209020749574
 10
19.83459732695521
 20
-1931.498587130948
 10
23.56929210257226
 20
-1934.558545090164
 10
27.52946183494509
 20
-1937.37398681963
 10
31.69581297521246
 20
-1939.931195770246
 10
36.04804747941913
 20
-1942.217713477056
 10
40.5649616985457
 20
-1944.222400255631
 10
45.22454968055522
 20
-1945.935489473498
 10
50.00411038117946
 20
-1947.348635132185
 10
54.88035826112477
 20
-1948.454952528092
 10
59.82953673087877
 20
-1949.249051794073
 10
64.82753389042648
 20
-1949.727064158327
 10
69.85000000000252
 20
-1949.886660792666
  0
LWPOLYLINE
  5
650
330
A
100
AcDbEntity
  8
0
  6
PHANTOM
 62
     7
100
AcDbPolyline
 90
       20
 70
   128
 43
0.0
 10
69.84999999999982
 20
-1180.803721817519
 10
70.9994361209844
 20
-1180.668093812327
 10
72.02431300292123
 20
-1180.2759071956
 10
72.81356933304916
 20
-1179.669661472661
 10
73.28167694142502
 20
-1178.915052774465
 10
73.37790910524339
 20
-1178.093854662418
 10
73.09183757635867
 20
-1177.295056694166
 10
72.45446264378266
 20
-1176.605221024193
 10
71.53485377135102
 20
-1176.099102051246
 10
70.43266484959358
 20
-1175.831545619289
 10
69.26733515040599
 20
-1175.831545619289
 10
68.16514622864857
 20
-1176.099102051246
 10
67.24553735621694
 20
-1176.605221024193
 10
66.60816242364093
 20
-1177.295056694166
 10
66.32209089475624
 20
-1178.093854662418
 10
66.41832305857464
 20
-1178.915052774465
 10
66.88643066695053
 20
-1179.669661472661
 10
67.67568699707846
 20
-1180.2759071956
 10
68.70056387901531
 20
-1180.668093812327
 10
69.84999999999982
 20
-1180.803721817519
  0
LWPOLYLINE
  5
666
330
A
100
AcDbEntity
  8
0
  6
PHANTOM
 62
     7
100
AcDbPolyline
 90
        7
 70
   128
 43
0.0
 10
69.84999999999984
 20
-1183.632148942265
 10
68.41614249013187
 20
-1183.498667742974
 10
67.07999999999983
 20
-1183.107320668246
 10
65.93262843222636
 20
-1182.484777374491
 10
65.05221926303405
 20
-1181.673463158378
 10
64.49877092235841
 20
-1180.728667742974
 10
64.31000309933262
 20
-1179.718921080419
  0
LWPOLYLINE
  5
66F
330
A
100
AcDbEntity
  8
0
  6
PHANTOM
 62
     7
100
AcDbPolyline
 90
        8
 70
   128
 43
0.0
 10
75.38996208489094
 20
-1179.700284307719
 10
75.3899999999998
 20
-1179.714777374491
 10
75.20122907764123
 20
-1180.728667742974
 10
74.64778073696557
 20
-1181.673463158378
 10
73.76737156777323
 20
-1182.484777374491
 10
72.61999999999976
 20
-1183.107320668246
 10
71.28385750986772
 20
-1183.498667742974
 10
69.84999999999984
 20
-1183.632148942265
  0
LINE
  5
679
330
A
100
AcDbEntity
  8
0
  6
PHANTOM
 62
     7
100
AcDbLine
 10
69.24999999999987
 20
-1190.17288666824
 30
0.0
 11
68.34999999999986
 21
-1190.17288666824
 31
0.0
  0
LINE
  5
67A
330
A
100
AcDbEntity
  8
0
  6
PHANTOM
 62
     7
100
AcDbLine
 10
71.34999999999985
 20
-1190.17288666824
 30
0.0
 11
70.44999999999986
 21
-1190.17288666824
 31
0.0
  0
LINE
  5
67B
330
A
100
AcDbEntity
  8
0
  6
PHANTOM
 62
     7
100
AcDbLine
 10
64.30999999999986
 20
-1188.553612139323
 30
0.0
 11
64.84999999999985
 21
-1188.553612139323
 31
0.0
  0
LINE
  5
67C
330
A
100
AcDbEntity
  8
0
  6
PHANTOM
 62
     7
100
AcDbLine
 10
74.84999999999986
 20
-1188.553612139323
 30
0.0
 11
75.38999999999986
 21
-1188.553612139323
 31
0.0
  0
LINE
  5
67D
330
A
100
AcDbEntity
  8
0
  6
Continuous
 62
     7
100
AcDbLine
 10
535.7161650242379
 20
-687.6269307113322
 30
0.0
 11
535.7161650242381
 21
-701.1269307113323
 31
0.0
  0
LINE
  5
67E
330
A
100
AcDbEntity
  8
0
  6
Continuous
 62
     7
100
AcDbLine
 10
865.7161650242379
 20
-701.1269307113323
 30
0.0
 11
865.7161650242379
 21
-687.6269307113322
 31
0.0
  0
ARC
  5
67F
330
A
100
AcDbEntity
  8
0
  6
Continuous
 62
     7
100
AcDbCircle
 10
538.2161650242379
 20
-687.6269307113322
 30
0.0
 40
2.500000000000113
100
AcDbArc
 50
90.0
 51
180.0000000000004
  0
ARC
  5
680
330
A
100
AcDbEntity
  8
0
  6
Continuous
 62
     7
100
AcDbCircle
 10
863.2161650242379
 20
-687.6269307113322
 30
0.0
 40
2.500000000000113
100
AcDbArc
 50
0.0
 51
90.0
  0
LINE
  5
681
330
A
100
AcDbEntity
  8
0
  6
Continuous
 62
     7
100
AcDbLine
 10
543.2161650242378
 20
-701.1269307113323
 30
0.0
 11
543.2161650242378
 21
-707.1269307113323
 31
0.0
  0
LINE
  5
682
330
A
100
AcDbEntity
  8
0
  6
Continuous
 62
     7
100
AcDbLine
 10
858.216165024238
 20
-707.1269307113323
 30
0.0
 11
858.216165024238
 21
-701.1269307113323
 31
0.0
  0
LINE
  5
683
330
A
100
AcDbEntity
  8
0
  6
Continuous
 62
     7
100
AcDbLine
 10
733.4334592648576
 20
-707.1269307113323
 30
0.0
 11
733.4334592648576
 21
-711.1269307113323
 31
0.0
  0
LINE
  5
684
330
A
100
AcDbEntity
  8
0
  6
Continuous
 62
     7
100
AcDbLine
 10
751.4334592648577
 20
-711.1269307113323
 30
0.0
 11
751.4334592648577
 21
-707.1269307113323
 31
0.0
  0
LINE
  5
685
330
A
100
AcDbEntity
  8
0
  6
Continuous
 62
     7
100
AcDbLine
 10
582.4988707836165
 20
-707.1269307113323
 30
0.0
 11
582.4988707836165
 21
-711.1269307113323
 31
0.0
  0
LINE
  5
686
330
A
100
AcDbEntity
  8
0
  6
Continuous
 62
     7
100
AcDbLine
 10
600.4988707836226
 20
-711.1269307113323
 30
0.0
 11
600.4988707836226
 21
-707.1269307113323
 31
0.0
  0
ARC
  5
687
330
A
100
AcDbEntity
  8
0
  6
Continuous
 62
     7
100
AcDbCircle
 10
678.8022539315512
 20
-680.1269307113321
 30
0.0
 40
5.000000000000095
100
AcDbArc
 50
270.0000000000008
 51
352.8749836510976
  0
ARC
  5
688
330
A
100
AcDbEntity
  8
0
  6
Continuous
 62
     7
100
AcDbCircle
 10
722.6300761169244
 20
-680.1269307113321
 30
0.0
 40
5.0
100
AcDbArc
 50
187.1250163489058
 51
270.0000000000008
  0
LINE
  5
689
330
A
100
AcDbEntity
  8
0
  6
Continuous
 62
     7
100
AcDbLine
 10
717.6686867333561
 20
-680.7471043842784
 30
0.0
 11
713.2161650242379
 21
-645.1269307113323
 31
0.0
  0
LINE
  5
68A
330
A
100
AcDbEntity
  8
0
  6
Continuous
 62
     7
100
AcDbLine
 10
688.2161650242379
 20
-645.1269307113323
 30
0.0
 11
683.7636433151196
 21
-680.7471043842784
 31
0.0
  0
LINE
  5
68B
330
A
100
AcDbEntity
  8
0
  6
Continuous
 62
     7
100
AcDbLine
 10
688.2161650242379
 20
17.87306928866772
 30
0.0
 11
688.2161650242379
 21
-645.1269307113323
 31
0.0
  0
LINE
  5
68C
330
A
100
AcDbEntity
  8
0
  6
Continuous
 62
     7
100
AcDbLine
 10
713.2161650242379
 20
-645.1269307113323
 30
0.0
 11
713.2161650242379
 21
17.87306928866772
 31
0.0
  0
LINE
  5
68D
330
A
100
AcDbEntity
  8
0
  6
Continuous
 62
     7
100
AcDbLine
 10
826.7161650242378
 20
-707.1269307113323
 30
0.0
 11
826.7161650242378
 21
-711.1269307113323
 31
0.0
  0
LINE
  5
68E
330
A
100
AcDbEntity
  8
0
  6
Continuous
 62
     7
100
AcDbLine
 10
844.7161650242378
 20
-711.1269307113323
 30
0.0
 11
844.7161650242378
 21
-707.1269307113323
 31
0.0
  0
ARC
  5
68F
330
A
100
AcDbEntity
  8
0
  6
Continuous
 62
     7
100
AcDbCircle
 10
1292.807097422141
 20
914.2613370556842
 30
0.0
 40
2.499999999999955
100
AcDbArc
 50
114.5000000000022
 51
294.4999999999973
  0
ARC
  5
690
330
A
100
AcDbEntity
  8
0
  6
Continuous
 62
     7
100
AcDbCircle
 10
1423.841520428364
 20
973.9771639981823
 30
0.0
 40
2.499999999999861
100
AcDbArc
 50
294.500000000004
 51
114.4999999999975
  0
LINE
  5
691
330
A
100
AcDbEntity
  8
0
  6
Continuous
 62
     7
100
AcDbLine
 10
1421.781754513123
 20
975.7858442642229
 30
0.0
 11
1354.585924498278
 21
1034.790496593281
 31
0.0
  0
LINE
  5
692
330
A
100
AcDbEntity
  8
0
  6
Continuous
 62
     7
100
AcDbLine
 10
1292.649954668535
 20
945.702120333315
 30
0.0
 11
1292.793397124102
 21
917.0024631440258
 31
0.0
  0
LINE
  5
693
330
A
100
AcDbEntity
  8
0
  6
Continuous
 62
     7
100
AcDbLine
 10
1292.346451725398
 20
1006.426334720174
 30
0.0
 11
1292.386464357478
 21
998.420693577089
 31
0.0
  0
ARC
  5
694
330
A
100
AcDbEntity
  8
0
  6
Continuous
 62
     7
100
AcDbCircle
 10
1293.096442357868
 20
1006.430083214356
 30
0.0
 40
0.7500000000003807
100
AcDbArc
 50
114.5000000000057
 51
180.28636505373
  0
ARC
  5
695
330
A
100
AcDbEntity
  8
0
  6
Continuous
 62
     7
100
AcDbCircle
 10
1354.091057347718
 20
1034.226930711332
 30
0.0
 40
0.7500000000003442
100
AcDbArc
 50
48.71363494629387
 51
114.4999999999879
  0
LINE
  5
696
330
A
100
AcDbEntity
  8
0
  6
Continuous
 62
     7
100
AcDbLine
 10
1353.780037415726
 20
1034.909401664489
 30
0.0
 11
1292.785422425875
 21
1007.112554167513
 31
0.0
  0
ARC
  5
697
330
A
100
AcDbEntity
  8
0
  6
Continuous
 62
     7
100
AcDbCircle
 10
1291.676165024238
 20
998.1230692886674
 30
0.0
 40
0.7999999999999546
100
AcDbArc
 50
27.44797028318159
 51
180.0000000000004
  0
ARC
  5
698
330
A
100
AcDbEntity
  8
0
  6
Continuous
 62
     7
100
AcDbCircle
 10
1291.676165024238
 20
945.6230692886681
 30
0.0
 40
0.7999999999999546
100
AcDbArc
 50
180.0000000000004
 51
0.0
  0
LINE
  5
699
330
A
100
AcDbEntity
  8
0
  6
Continuous
 62
     7
100
AcDbLine
 10
1290.876165024238
 20
998.1230692886674
 30
0.0
 11
1290.876165024238
 21
945.6230692886681
 31
0.0
  0
LINE
  5
69A
330
A
100
AcDbEntity
  8
0
  6
Continuous
 62
     7
100
AcDbLine
 10
1271.676165024238
 20
995.8230692886672
 30
0.0
 11
1251.676165024238
 21
995.8230692886672
 31
0.0
  0
LINE
  5
69B
330
A
100
AcDbEntity
  8
0
  6
Continuous
 62
     7
100
AcDbLine
 10
1251.676165024238
 20
947.9230692886684
 30
0.0
 11
1271.676165024238
 21
947.9230692886684
 31
0.0
  0
ARC
  5
69C
330
A
100
AcDbEntity
  8
0
  6
Continuous
 62
     7
100
AcDbCircle
 10
1219.676165024238
 20
983.1230692886675
 30
0.0
 40
10.0
100
AcDbArc
 50
90.0
 51
180.0000000000004
  0
ARC
  5
69D
330
A
100
AcDbEntity
  8
0
  6
Continuous
 62
     7
100
AcDbCircle
 10
1219.676165024238
 20
960.6230692886681
 30
0.0
 40
10.0
100
AcDbArc
 50
180.0000000000004
 51
270.0000000000008
  0
LINE
  5
69E
330
A
100
AcDbEntity
  8
0
  6
Continuous
 62
     7
100
AcDbLine
 10
1251.676165024238
 20
993.1230692886675
 30
0.0
 11
1219.676165024238
 21
993.1230692886675
 31
0.0
  0
LINE
  5
69F
330
A
100
AcDbEntity
  8
0
  6
Continuous
 62
     7
100
AcDbLine
 10
1219.676165024238
 20
950.6230692886679
 30
0.0
 11
1251.676165024238
 21
950.6230692886679
 31
0.0
  0
LINE
  5
6A0
330
A
100
AcDbEntity
  8
0
  6
Continuous
 62
     7
100
AcDbLine
 10
1290.876165024238
 20
993.1230692886675
 30
0.0
 11
1271.676165024238
 21
993.1230692886675
 31
0.0
  0
LINE
  5
6A1
330
A
100
AcDbEntity
  8
0
  6
Continuous
 62
     7
100
AcDbLine
 10
1271.676165024238
 20
950.6230692886679
 30
0.0
 11
1290.876165024238
 21
950.6230692886679
 31
0.0
  0
LINE
  5
6A2
330
A
100
AcDbEntity
  8
0
  6
Continuous
 62
     7
100
AcDbLine
 10
1295.209325896352
 20
912.6087259693033
 30
0.0
 11
1325.544674177191
 21
846.0424127051517
 31
0.0
  0
LINE
  5
6A3
330
A
100
AcDbEntity
  8
0
  6
Continuous
 62
     7
100
AcDbLine
 10
1327.364596718944
 20
846.8717991904643
 30
0.0
 11
1297.02869497685
 21
913.4378602277903
 31
0.0
  0
LINE
  5
6A4
330
A
100
AcDbEntity
  8
0
  6
Continuous
 62
     7
100
AcDbLine
 10
688.1761650242379
 20
926.8730692886677
 30
0.0
 11
688.1761650242379
 21
106.8730692886678
 31
0.0
  0
LINE
  5
6A5
330
A
100
AcDbEntity
  8
0
  6
Continuous
 62
     7
100
AcDbLine
 10
1159.176165024238
 20
978.8730692886677
 30
0.0
 11
769.1761650242378
 21
978.8730692886677
 31
0.0
  0
LINE
  5
6A6
330
A
100
AcDbEntity
  8
0
  6
Continuous
 62
     7
100
AcDbLine
 10
1209.676165024238
 20
978.1230692886676
 30
0.0
 11
1200.676165024238
 21
978.1230692886676
 31
0.0
  0
LINE
  5
6A7
330
A
100
AcDbEntity
  8
0
  6
Continuous
 62
     7
100
AcDbLine
 10
1200.676165024238
 20
965.6230692886678
 30
0.0
 11
1209.676165024238
 21
965.6230692886678
 31
0.0
  0
ARC
  5
6A8
330
A
100
AcDbEntity
  8
0
  6
Continuous
 62
     7
100
AcDbCircle
 10
690.7161650242379
 20
53.73093366493686
 30
0.0
 40
15.53999999999993
100
AcDbArc
 50
360.0000000000008
 51
18.47801182848565
  0
ARC
  5
6A9
330
A
100
AcDbEntity
  8
0
  6
Continuous
 62
     7
100
AcDbCircle
 10
1328.257460011832
 20
842.5011684922013
 30
0.0
 40
1.000000000000373
100
AcDbArc
 50
204.5000000000585
 51
24.49999999999486
  0
LINE
  5
6AA
330
A
100
AcDbEntity
  8
0
  6
Continuous
 62
     7
100
AcDbLine
 10
1329.167421282709
 20
842.9158617348576
 30
0.0
 11
1327.364596718944
 21
846.8717991904643
 31
0.0
  0
LINE
  5
6AB
330
A
100
AcDbEntity
  8
0
  6
Continuous
 62
     7
100
AcDbLine
 10
1325.544674177191
 20
846.0424127051517
 30
0.0
 11
1327.347498740955
 21
842.086475249545
 31
0.0
  0
LINE
  5
6AC
330
A
100
AcDbEntity
  8
0
  6
Continuous
 62
     7
100
AcDbLine
 10
657.5543671006109
 20
93.20012407674759
 30
0.0
 11
684.5712386068533
 21
66.18325257050539
 31
0.0
  0
LINE
  5
6AD
330
A
100
AcDbEntity
  8
0
  6
Continuous
 62
     7
100
AcDbLine
 10
648.7155323357789
 20
102.0389588415795
 30
0.0
 11
652.9581730228983
 21
97.79631815446011
 31
0.0
  0
LINE
  5
6AE
330
A
100
AcDbEntity
  8
0
  6
Continuous
 62
     7
100
AcDbLine
 10
658.8129868260384
 20
107.6109906224139
 30
0.0
 11
656.5502754713259
 21
109.8737019771265
 31
0.0
  0
LINE
  5
6AF
330
A
100
AcDbEntity
  8
0
  6
Continuous
 62
     7
100
AcDbLine
 10
663.0910131973016
 20
103.3329642511508
 30
0.0
 11
659.975560492492
 21
106.4484169559604
 31
0.0
  0
LINE
  5
6B0
330
A
100
AcDbEntity
  8
0
  6
Continuous
 62
     7
100
AcDbLine
 10
689.7888276076271
 20
76.63514984082542
 30
0.0
 11
670.8691877903536
 21
95.55478965809882
 31
0.0
  0
ARC
  5
6B1
330
A
100
AcDbEntity
  8
0
  6
Continuous
 62
     7
100
AcDbCircle
 10
650.1297458981522
 20
103.4531724039525
 30
0.0
 40
2.000000000000046
100
AcDbArc
 50
134.9999999999991
 51
224.9999999999971
  0
ARC
  5
6B2
330
A
100
AcDbEntity
  8
0
  6
Continuous
 62
     7
100
AcDbCircle
 10
655.1360619089528
 20
108.4594884147533
 30
0.0
 40
2.000000000000035
100
AcDbArc
 50
45.00000000000517
 51
134.9999999999948
  0
LINE
  5
6B3
330
A
100
AcDbEntity
  8
0
  6
Continuous
 62
     7
100
AcDbLine
 10
706.2561650242378
 20
17.87306928866783
 30
0.0
 11
706.2561650242378
 21
53.73093366493676
 31
0.0
  0
LINE
  5
6B4
330
A
100
AcDbEntity
  8
0
  6
Continuous
 62
     7
100
AcDbLine
 10
695.1761650242379
 20
51.79306928866778
 30
0.0
 11
695.1761650242379
 21
17.87306928866783
 31
0.0
  0
LINE
  5
6B5
330
A
100
AcDbEntity
  8
0
  6
Continuous
 62
     7
100
AcDbLine
 10
689.7761650242379
 20
106.8730692886678
 30
0.0
 11
689.7761650242379
 21
76.62998541119105
 31
0.0
  0
LINE
  5
6B6
330
A
100
AcDbEntity
  8
0
  6
Continuous
 62
     7
100
AcDbLine
 10
700.5761650242378
 20
72.54810934026446
 30
0.0
 11
700.5761650242378
 21
106.8730692886678
 31
0.0
  0
LINE
  5
6B7
330
A
100
AcDbEntity
  8
0
  6
Continuous
 62
     7
100
AcDbLine
 10
710.176165024238
 20
106.8730692886678
 30
0.0
 11
710.176165024238
 21
926.8730692886677
 31
0.0
  0
LINE
  5
6B8
330
A
100
AcDbEntity
  8
0
  6
Continuous
 62
     7
100
AcDbLine
 10
769.1761650242378
 20
956.8730692886676
 30
0.0
 11
1159.176165024238
 21
956.8730692886676
 31
0.0
  0
LINE
  5
6B9
330
A
100
AcDbEntity
  8
0
  6
Continuous
 62
     7
100
AcDbLine
 10
697.0586199657336
 20
1006.627367583986
 30
0.0
 11
690.5178822397581
 21
1013.168105309962
 31
0.0
  0
LINE
  5
6BA
330
A
100
AcDbEntity
  8
0
  6
Continuous
 62
     7
100
AcDbLine
 10
720.167164709708
 20
983.5188228400122
 30
0.0
 11
704.8367945587856
 21
998.8491929909342
 31
0.0
  0
ARC
  5
6BB
330
A
100
AcDbEntity
  8
0
  6
Continuous
 62
     7
100
AcDbCircle
 10
689.103668677385
 20
1011.753891747589
 30
0.0
 40
2.000000000000015
100
AcDbArc
 50
45.0
 51
135.0
  0
ARC
  5
6BC
330
A
100
AcDbEntity
  8
0
  6
Continuous
 62
     7
100
AcDbCircle
 10
684.2953425653165
 20
1006.94556563552
 30
0.0
 40
2.000000000000176
100
AcDbArc
 50
134.9999999999954
 51
225.0000000000008
  0
LWPOLYLINE
  5
6BD
330
A
100
AcDbEntity
  8
0
  6
Continuous
 62
     7
100
AcDbPolyline
 90
        8
 70
   128
 43
0.0
 10
686.0253474949497
 20
929.7105887197949
 10
686.0412072229478
 20
929.7052082909335
 10
686.346303617924
 20
929.5929628614514
 10
686.7423312699872
 20
929.4241632978982
 10
687.2717605031868
 20
929.1544042026837
 10
688.183391637023
 20
928.552212096123
 10
688.9930117726452
 20
927.8289695948792
 10
689.8050965000729
 20
926.8106242911663
  0
LINE
  5
6C7
330
A
100
AcDbEntity
  8
0
  6
Continuous
 62
     7
100
AcDbLine
 10
682.8811290029433
 20
1005.531352073147
 30
0.0
 11
687.1237696900626
 21
1001.288711386028
 31
0.0
  0
LWPOLYLINE
  5
6C8
330
A
100
AcDbEntity
  8
0
  6
Continuous
 62
     7
100
AcDbPolyline
 90
       13
 70
   128
 43
0.0
 10
692.5714411127771
 20
946.9798042205667
 10
692.5312859937093
 20
946.8967925642544
 10
691.8497376638903
 20
945.9300072806588
 10
691.0881389665717
 20
945.1387056514546
 10
690.2940124080927
 20
944.5173184927279
 10
689.5129887834825
 20
944.0532921847445
 10
688.789078684458
 20
943.7278009100982
 10
688.1648633958808
 20
943.5170118438035
 10
687.6849846200594
 20
943.395146967414
 10
687.413401428848
 20
943.3409037828434
 10
687.3149385216113
 20
943.3238188109362
 10
687.2635605492948
 20
943.31545524782
 10
687.2431501151607
 20
943.3122773639476
  0
ARC
  5
6D7
330
A
100
AcDbEntity
  8
0
  6
Continuous
 62
     7
100
AcDbCircle
 10
710.1761650242378
 20
936.659865853071
 30
0.0
 40
20.39999999999999
100
AcDbArc
 50
135.0000000000003
 51
149.6024530744826
  0
LINE
  5
6D8
330
A
100
AcDbEntity
  8
0
  6
Continuous
 62
     7
100
AcDbLine
 10
691.719963767775
 20
996.6925173083152
 30
0.0
 11
712.5304114728935
 21
975.8820696031973
 31
0.0
  0
LINE
  5
6D9
330
A
100
AcDbEntity
  8
0
  6
Continuous
 62
     7
100
AcDbLine
 10
712.5331443358528
 20
967.8668018370974
 30
0.0
 11
695.7511866880322
 21
951.0848441892763
 31
0.0
  0
LINE
  5
6DA
330
A
100
AcDbEntity
  8
0
  6
Continuous
 62
     7
100
AcDbLine
 10
700.5761650242378
 20
926.8730692886677
 30
0.0
 11
700.5761650242379
 21
936.659865853071
 31
0.0
  0
ARC
  5
6DB
330
A
100
AcDbEntity
  8
0
  6
Continuous
 62
     7
100
AcDbCircle
 10
710.1761650242378
 20
936.659865853071
 30
0.0
 40
9.599999999999909
100
AcDbArc
 50
135.0000000000004
 51
180.0000000000004
  0
LINE
  5
6DC
330
A
100
AcDbEntity
  8
0
  6
Continuous
 62
     7
100
AcDbLine
 10
703.387939924847
 20
943.4480909524618
 30
0.0
 11
720.170728984907
 21
960.2308800125221
 31
0.0
  0
LWPOLYLINE
  5
6DD
330
A
100
AcDbEntity
  8
0
  6
Continuous
 62
     7
100
AcDbPolyline
 90
        9
 70
   128
 43
0.0
 10
713.2510816945814
 20
970.024672168514
 10
713.2524488161944
 20
970.0156710812999
 10
713.2556531780203
 20
969.9934101160474
 10
713.2615917049118
 20
969.9476965786514
 10
713.2794147442113
 20
969.6745598581161
 10
713.26256763411
 20
969.3577026602321
 10
713.0205871325162
 20
968.5405622963568
 10
712.6578800081141
 20
967.9987912558244
 10
712.521346743501
 20
967.8838404448592
  0
LWPOLYLINE
  5
6E8
330
A
100
AcDbEntity
  8
0
  6
Continuous
 62
     7
100
AcDbPolyline
 90
       10
 70
   128
 43
0.0
 10
712.5160472826597
 20
975.8657308386389
 10
712.744786579705
 20
975.6429526972883
 10
713.0414870963633
 20
975.1623979047096
 10
713.20306679306
 20
974.7112891353291
 10
713.2691480989755
 20
974.3253242161458
 10
713.278577539131
 20
974.0287338263769
 10
713.2658865015549
 20
973.8369479276316
 10
713.2598195774777
 20
973.7845046503066
 10
713.2565607400631
 20
973.7597449813554
 10
713.2543166762827
 20
973.7437582398772
  0
LWPOLYLINE
  5
6F4
330
A
100
AcDbEntity
  8
0
  6
Continuous
 62
     7
100
AcDbPolyline
 90
       11
 70
   128
 43
0.0
 10
720.1854367405474
 20
960.2159879204652
 10
720.4489470304265
 20
960.4743769338943
 10
720.9298842332851
 20
960.7580917656289
 10
721.3778087444545
 20
960.9096907811881
 10
721.758085976836
 20
960.9689461729493
 10
722.0475542409026
 20
960.974617891583
 10
722.2346708309729
 20
960.9603901905883
 10
722.2948667211656
 20
960.9527904688292
 10
722.317239925238
 20
960.9495854050173
 10
722.3284279347625
 20
960.9479043551887
 10
722.3303817861943
 20
960.9476022425676
  0
LWPOLYLINE
  5
701
330
A
100
AcDbEntity
  8
0
  6
Continuous
 62
     7
100
AcDbPolyline
 90
        9
 70
   128
 43
0.0
 10
722.3049544396074
 20
982.7948570425171
 10
722.3015045450681
 20
982.7943479353642
 10
722.2788804772524
 20
982.7912459233475
 10
722.2422675242242
 20
982.7866780409754
 10
722.1341422645397
 20
982.7763861824706
 10
721.9114668941069
 20
982.7700248977205
 10
721.1080683196737
 20
982.9162828919109
 10
720.4294583502977
 20
983.2864434237755
 10
720.1936844008204
 20
983.5409924581965
  0
LWPOLYLINE
  5
70C
330
A
100
AcDbEntity
  8
0
  6
Continuous
 62
     7
100
AcDbPolyline
 90
        9
 70
   128
 43
0.0
 10
733.2221809010776
 20
965.473344798651
 10
733.224260351758
 20
965.476144235564
 10
733.238064529816
 20
965.4943353210935
 10
733.2607238165522
 20
965.5234545690246
 10
733.3299024779513
 20
965.607188116307
 10
733.4828596345034
 20
965.7691414880442
 10
734.154368233046
 20
966.2338100482568
 10
734.8959609655207
 20
966.4519167374935
 10
735.2401191353965
 20
966.4387384876759
  0
LWPOLYLINE
  5
717
330
A
100
AcDbEntity
  8
0
  6
Continuous
 62
     7
100
AcDbPolyline
 90
       11
 70
   128
 43
0.0
 10
735.2411088428046
 20
977.2946156052716
 10
734.9636216719763
 20
977.2862560853827
 10
734.4068031938896
 20
977.4095294063114
 10
733.9661954429093
 20
977.6112016368923
 10
733.6396105690217
 20
977.8374519081083
 10
733.4170993332738
 20
978.0431049982173
 10
733.2850657202945
 20
978.1923675078875
 10
733.2488650497026
 20
978.2378119152118
 10
733.2326207907769
 20
978.2589347245762
 10
733.2222466428218
 20
978.272678118844
 10
733.2218680965494
 20
978.2731868163759
  0
LINE
  5
724
330
A
100
AcDbEntity
  8
0
  6
Continuous
 62
     7
100
AcDbLine
 10
735.2435723062869
 20
966.4730692886676
 30
0.0
 11
769.1761650242378
 21
966.4730692886676
 31
0.0
  0
LINE
  5
725
330
A
100
AcDbEntity
  8
0
  6
Continuous
 62
     7
100
AcDbLine
 10
769.1761650242378
 20
977.2730692886678
 30
0.0
 11
735.2435723062869
 21
977.2730692886678
 31
0.0
  0
LINE
  5
726
330
A
100
AcDbEntity
  8
0
  6
Continuous
 62
     7
100
AcDbLine
 10
1159.176165024238
 20
967.3730692886678
 30
0.0
 11
1182.676165024238
 21
967.3730692886678
 31
0.0
  0
LINE
  5
727
330
A
100
AcDbEntity
  8
0
  6
Continuous
 62
     7
100
AcDbLine
 10
1160.176165024238
 20
976.3730692886676
 30
0.0
 11
1159.176165024238
 21
976.3730692886676
 31
0.0
  0
LINE
  5
728
330
A
100
AcDbEntity
  8
0
  6
Continuous
 62
     7
100
AcDbLine
 10
1182.676165024238
 20
976.3730692886676
 30
0.0
 11
1175.176165024238
 21
976.3730692886676
 31
0.0
  0
LINE
  5
729
330
A
100
AcDbEntity
  8
0
  6
Continuous
 62
     7
100
AcDbLine
 10
1165.631440808555
 20
983.5894666793661
 30
0.0
 11
703.2729500359249
 21
1007.723849483169
 31
0.0
  0
LINE
  5
72A
330
A
100
AcDbEntity
  8
0
  6
Continuous
 62
     7
100
AcDbLine
 10
705.0238756473996
 20
1006.430820239307
 30
0.0
 11
1163.359677455423
 21
982.5064154445819
 31
0.0
  0
LINE
  5
72B
330
A
100
AcDbEntity
  8
0
  6
Continuous
 62
     7
100
AcDbLine
 10
682.458075536473
 20
932.3352638309195
 30
0.0
 11
658.8083995967194
 21
107.6108021726777
 31
0.0
  0
LINE
  5
72C
330
A
100
AcDbEntity
  8
0
  6
Continuous
 62
     7
100
AcDbLine
 10
659.975560492492
 20
106.4484169559604
 30
0.0
 11
683.6219182514565
 21
931.0571651950434
 31
0.0
  0
LINE
  5
72D
330
A
100
AcDbEntity
  8
0
  6
Continuous
 62
     7
100
AcDbLine
 10
535.7161650242381
 20
-701.1269307113323
 30
0.0
 11
865.7161650242379
 21
-701.1269307113323
 31
0.0
  0
LINE
  5
72E
330
A
100
AcDbEntity
  8
0
  6
Continuous
 62
     7
100
AcDbLine
 10
538.2161650272101
 20
-685.1269307113321
 30
0.0
 11
863.2161650242379
 21
-685.1269307113321
 31
0.0
  0
LINE
  5
72F
330
A
100
AcDbEntity
  8
0
  6
Continuous
 62
     7
100
AcDbLine
 10
543.2161650242378
 20
-707.1269307113323
 30
0.0
 11
858.216165024238
 21
-707.1269307113323
 31
0.0
  0
LINE
  5
730
330
A
100
AcDbEntity
  8
0
  6
Continuous
 62
     7
100
AcDbLine
 10
751.4334592648577
 20
-711.1269307113323
 30
0.0
 11
733.4334592648576
 21
-711.1269307113323
 31
0.0
  0
LINE
  5
731
330
A
100
AcDbEntity
  8
0
  6
Continuous
 62
     7
100
AcDbLine
 10
600.4988707836226
 20
-711.1269307113323
 30
0.0
 11
582.4988707836165
 21
-711.1269307113323
 31
0.0
  0
LINE
  5
732
330
A
100
AcDbEntity
  8
0
  6
Continuous
 62
     7
100
AcDbLine
 10
688.2161650242379
 20
-645.1269307113323
 30
0.0
 11
713.2161650242379
 21
-645.1269307113323
 31
0.0
  0
LINE
  5
733
330
A
100
AcDbEntity
  8
0
  6
Continuous
 62
     7
100
AcDbLine
 10
688.2161650242379
 20
17.87306928866772
 30
0.0
 11
713.2161650242379
 21
17.87306928866772
 31
0.0
  0
LINE
  5
734
330
A
100
AcDbEntity
  8
0
  6
Continuous
 62
     7
100
AcDbLine
 10
844.7161650242378
 20
-711.1269307113323
 30
0.0
 11
826.7161650242378
 21
-711.1269307113323
 31
0.0
  0
CIRCLE
  5
735
330
A
100
AcDbEntity
  8
0
  6
Continuous
 62
     7
100
AcDbCircle
 10
693.2402433473265
 20
1002.808990965579
 30
0.0
 40
3.0
  0
LINE
  5
736
330
A
100
AcDbEntity
  8
0
  6
Continuous
 62
     7
100
AcDbLine
 10
1424.878253535004
 20
971.7022608209921
 30
0.0
 11
1295.274523279942
 21
912.6384381287973
 31
0.0
  0
LWPOLYLINE
  5
737
330
A
100
AcDbEntity
  8
0
  6
Continuous
 62
     7
100
AcDbPolyline
 90
        3
 70
   128
 43
0.0
 10
1295.209325896352
 20
912.6087259693033
 10
1295.253189522411
 20
912.6287352767791
 10
1295.274523279942
 20
912.6384381287973
  0
LINE
  5
73C
330
A
100
AcDbEntity
  8
0
  6
Continuous
 62
     7
100
AcDbLine
 10
1295.209325896352
 20
912.6087259693033
 30
0.0
 11
1293.843830528782
 21
911.9864338784932
 31
0.0
  0
LINE
  5
73D
330
A
100
AcDbEntity
  8
0
  6
Continuous
 62
     7
100
AcDbLine
 10
1291.770364315761
 20
916.5362402329938
 30
0.0
 11
1422.804787321723
 21
976.2520671753737
 31
0.0
  0
LWPOLYLINE
  5
73E
330
A
100
AcDbEntity
  8
0
  6
Continuous
 62
     7
100
AcDbPolyline
 90
       22
 70
   128
 43
0.0
 10
1292.682276927752
 20
945.7022818817337
 10
1292.668503694761
 20
945.6673839128221
 10
1292.895219115853
 20
946.2392206704047
 10
1293.360514943543
 20
947.4310280445351
 10
1294.028047421855
 20
949.1989497527178
 10
1294.889146255018
 20
951.5961179236414
 10
1295.854232265775
 20
954.491818404333
 10
1296.917917648853
 20
958.0576693280276
 10
1297.918581631872
 20
962.0297621634751
 10
1298.759450439701
 20
966.4031983602612
 10
1299.30498584684
 20
970.9826131285671
 10
1299.447645813489
 20
975.2316251659673
 10
1299.213043362893
 20
979.3889343090855
 10
1298.667680545407
 20
982.9771292618362
 10
1297.864891255754
 20
986.2928962505826
 10
1296.815190857544
 20
989.436923887081
 10
1295.671207455326
 20
992.1642338080111
 10
1294.399272256767
 20
994.7132669503393
 10
1293.325363453388
 20
996.6077388604501
 10
1292.797823762208
 20
997.4749589013629
 10
1292.476165024238
 20
997.9851402694729
 10
1292.476165024238
 20
997.9851402694729
  0
LWPOLYLINE
  5
756
330
A
100
AcDbEntity
  8
0
  6
Continuous
 62
     7
100
AcDbPolyline
 90
        8
 70
   128
 43
0.0
 10
1292.476165024238
 20
997.9851402694729
 10
1292.47614745611
 20
997.9904637986759
 10
1292.475740080547
 20
998.0118492108664
 10
1292.474524732366
 20
998.0388544523885
 10
1292.470153986164
 20
998.0923023282908
 10
1292.452308535902
 20
998.2158832843948
 10
1292.400381696975
 20
998.4412664543551
 10
1292.40581524516
 20
998.4207902938836
  0
CIRCLE
  5
760
330
A
100
AcDbEntity
  8
0
  6
Continuous
 62
     7
100
AcDbCircle
 10
1261.676165024238
 20
971.8730692886678
 30
0.0
 40
7.5
  0
LWPOLYLINE
  5
761
330
A
100
AcDbEntity
  8
0
  6
Continuous
 62
     7
100
AcDbPolyline
 90
       11
 70
   128
 43
0.0
 10
1182.676165024238
 20
976.3730692886676
 10
1182.708587711801
 20
976.1287894217909
 10
1182.793274086434
 20
975.4134811894918
 10
1182.894678725628
 20
974.2970833038739
 10
1182.968273471285
 20
972.9007705291648
 10
1182.984422947683
 20
971.8730692886678
 10
1182.95086415773
 20
970.3914091375327
 10
1182.865061084442
 20
969.0769037449168
 10
1182.763837665759
 20
968.0689541285246
 10
1182.691456312862
 20
967.4866118599116
 10
1182.676165024238
 20
967.3730692886678
  0
LINE
  5
76E
330
A
100
AcDbEntity
  8
0
  6
Continuous
 62
     7
100
AcDbLine
 10
1182.676165024238
 20
976.3730692886676
 30
0.0
 11
1215.676165024238
 21
976.3730692886676
 31
0.0
  0
LINE
  5
76F
330
A
100
AcDbEntity
  8
0
  6
Continuous
 62
     7
100
AcDbLine
 10
1182.676165024238
 20
967.3730692886678
 30
0.0
 11
1215.676165024238
 21
967.3730692886678
 31
0.0
  0
LINE
  5
770
330
A
100
AcDbEntity
  8
0
  6
Continuous
 62
     7
100
AcDbLine
 10
1215.676165024238
 20
976.3730692886676
 30
0.0
 11
1255.676165024238
 21
976.3730692886676
 31
0.0
  0
LINE
  5
771
330
A
100
AcDbEntity
  8
0
  6
Continuous
 62
     7
100
AcDbLine
 10
1215.676165024238
 20
967.3730692886678
 30
0.0
 11
1255.676165024238
 21
967.3730692886678
 31
0.0
  0
LINE
  5
772
330
A
100
AcDbEntity
  8
0
  6
Continuous
 62
     7
100
AcDbLine
 10
1292.476165024238
 20
997.9851402694729
 30
0.0
 11
1292.476165024238
 21
945.6230692886684
 31
0.0
  0
LINE
  5
773
330
A
100
AcDbEntity
  8
0
  6
Continuous
 62
     7
100
AcDbLine
 10
1251.676165024238
 20
995.8230692886672
 30
0.0
 11
1251.676165024238
 21
976.3730692886676
 31
0.0
  0
LINE
  5
774
330
A
100
AcDbEntity
  8
0
  6
Continuous
 62
     7
100
AcDbLine
 10
1251.676165024238
 20
967.3730692886678
 30
0.0
 11
1251.676165024238
 21
947.9230692886684
 31
0.0
  0
LINE
  5
775
330
A
100
AcDbEntity
  8
0
  6
Continuous
 62
     7
100
AcDbLine
 10
1271.676165024238
 20
995.8230692886672
 30
0.0
 11
1271.676165024238
 21
947.9230692886684
 31
0.0
  0
LINE
  5
776
330
A
100
AcDbEntity
  8
0
  6
Continuous
 62
     7
100
AcDbLine
 10
1209.676165024238
 20
983.1230692886675
 30
0.0
 11
1209.676165024238
 21
976.3730692886676
 31
0.0
  0
LINE
  5
777
330
A
100
AcDbEntity
  8
0
  6
Continuous
 62
     7
100
AcDbLine
 10
1209.676165024238
 20
967.3730692886678
 30
0.0
 11
1209.676165024238
 21
960.6230692886681
 31
0.0
  0
LINE
  5
778
330
A
100
AcDbEntity
  8
0
  6
Continuous
 62
     7
100
AcDbLine
 10
688.1761650242379
 20
106.8730692886678
 30
0.0
 11
696.5761650242378
 21
106.8730692886678
 31
0.0
  0
LINE
  5
779
330
A
100
AcDbEntity
  8
0
  6
Continuous
 62
     7
100
AcDbLine
 10
688.1761650242379
 20
926.8730692886677
 30
0.0
 11
696.5761650242379
 21
926.8730692886677
 31
0.0
  0
LINE
  5
77A
330
A
100
AcDbEntity
  8
0
  6
Continuous
 62
     7
100
AcDbLine
 10
1159.176165024238
 20
978.8730692886677
 30
0.0
 11
1159.176165024238
 21
970.4730692886677
 31
0.0
  0
LINE
  5
77B
330
A
100
AcDbEntity
  8
0
  6
Continuous
 62
     7
100
AcDbLine
 10
769.1761650242378
 20
978.8730692886677
 30
0.0
 11
769.1761650242378
 21
970.4730692886677
 31
0.0
  0
LINE
  5
77C
330
A
100
AcDbEntity
  8
0
  6
Continuous
 62
     7
100
AcDbLine
 10
696.5761650242378
 20
106.8730692886678
 30
0.0
 11
706.176165024238
 21
106.8730692886678
 31
0.0
  0
LINE
  5
77D
330
A
100
AcDbEntity
  8
0
  6
Continuous
 62
     7
100
AcDbLine
 10
696.5761650242379
 20
926.8730692886677
 30
0.0
 11
706.176165024238
 21
926.8730692886677
 31
0.0
  0
LINE
  5
77E
330
A
100
AcDbEntity
  8
0
  6
Continuous
 62
     7
100
AcDbLine
 10
1159.176165024238
 20
970.4730692886677
 30
0.0
 11
1159.176165024238
 21
960.8730692886679
 31
0.0
  0
LINE
  5
77F
330
A
100
AcDbEntity
  8
0
  6
Continuous
 62
     7
100
AcDbLine
 10
769.1761650242378
 20
970.4730692886677
 30
0.0
 11
769.1761650242378
 21
960.8730692886679
 31
0.0
  0
LINE
  5
780
330
A
100
AcDbEntity
  8
0
  6
Continuous
 62
     7
100
AcDbLine
 10
1200.676165024238
 20
978.1230692886676
 30
0.0
 11
1200.676165024238
 21
976.3730692886676
 31
0.0
  0
LINE
  5
781
330
A
100
AcDbEntity
  8
0
  6
Continuous
 62
     7
100
AcDbLine
 10
1200.676165024238
 20
967.3730692886678
 30
0.0
 11
1200.676165024238
 21
965.6230692886678
 31
0.0
  0
CIRCLE
  5
782
330
A
100
AcDbEntity
  8
0
  6
Continuous
 62
     7
100
AcDbCircle
 10
695.176165024238
 20
62.87306928866776
 30
0.0
 40
11.08000000000015
  0
LWPOLYLINE
  5
783
330
A
100
AcDbEntity
  8
0
  6
Continuous
 62
     7
100
AcDbPolyline
 90
       11
 70
   128
 43
0.0
 10
659.975560492492
 20
106.4484169559604
 10
659.9526190398161
 20
106.4678304424928
 10
659.8896396810306
 20
106.5218390865594
 10
659.7915526819031
 20
106.6080498328137
 10
659.6118361221637
 20
106.772677306605
 10
659.3641430706674
 20
107.0138458690809
 10
659.1235307871228
 20
107.2640697325464
 10
658.9537889037085
 20
107.450067192412
 10
658.8624286775853
 20
107.5534160078116
 10
658.8185572121542
 20
107.6038480871465
 10
658.8126623258828
 20
107.6106661222581
  0
LWPOLYLINE
  5
790
330
A
100
AcDbEntity
  8
0
  6
Continuous
 62
     7
100
AcDbPolyline
 90
        5
 70
   128
 43
0.0
 10
689.7836614597703
 20
76.62998369296847
 10
689.8102449151738
 20
76.56676168727106
 10
689.9630065003321
 20
76.20364449576754
 10
690.3493054698
 20
75.28693858600654
 10
691.223201192602
 20
73.2239377037226
  0
LINE
  5
797
330
A
100
AcDbEntity
  8
0
  6
Continuous
 62
     7
100
AcDbLine
 10
656.8755445906719
 20
101.7136897222337
 30
0.0
 11
652.9581730228983
 21
97.79631815446011
 31
0.0
  0
LINE
  5
798
330
A
100
AcDbEntity
  8
0
  6
Continuous
 62
     7
100
AcDbLine
 10
657.5543671006109
 20
93.20012407674759
 30
0.0
 11
661.4717386683845
 21
97.11749564452111
 31
0.0
  0
LWPOLYLINE
  5
799
330
A
100
AcDbEntity
  8
0
  6
Continuous
 62
     7
100
AcDbPolyline
 90
       12
 70
   128
 43
0.0
 10
661.4717386683845
 20
97.11749564452111
 10
661.9066224887063
 20
97.6568102569908
 10
662.2928576928759
 20
98.50290919489168
 10
662.4230737916042
 20
99.47634319009559
 10
662.2135931797971
 20
100.5650249658621
 10
661.7501649971032
 20
101.3965084656207
 10
661.049383721374
 20
102.0696634444684
 10
660.273413431903
 20
102.4738604909281
 10
659.3387314717588
 20
102.6613969510423
 10
658.2287943615861
 20
102.5252170401546
 10
657.2035718944577
 20
102.0004186425008
 10
656.8755445906719
 20
101.7136897222337
  0
LINE
  5
7A7
330
A
100
AcDbEntity
  8
0
  6
Continuous
 62
     7
100
AcDbLine
 10
670.7228638223859
 20
95.40846569013096
 30
0.0
 11
662.9446892293337
 21
103.186640283183
 31
0.0
  0
LINE
  5
7A8
330
A
100
AcDbEntity
  8
0
  6
Continuous
 62
     7
100
AcDbLine
 10
648.7155326372929
 20
104.8673862678394
 30
0.0
 11
653.7218483465799
 21
109.8737019771264
 31
0.0
  0
CIRCLE
  5
7A9
330
A
100
AcDbEntity
  8
0
  6
Continuous
 62
     7
100
AcDbCircle
 10
659.1736416295283
 20
99.41559268337741
 30
0.0
 40
3.0
  0
CIRCLE
  5
7AA
330
A
100
AcDbEntity
  8
0
  6
Continuous
 62
     7
100
AcDbCircle
 10
688.1761650242379
 20
936.3730692886676
 30
0.0
 40
5.000000000000113
  0
CIRCLE
  5
7AB
330
A
100
AcDbEntity
  8
0
  6
Continuous
 62
     7
100
AcDbCircle
 10
724.176165024238
 20
971.8730692886678
 30
0.0
 40
5.000000000000113
  0
CIRCLE
  5
7AC
330
A
100
AcDbEntity
  8
0
  6
Continuous
 62
     7
100
AcDbCircle
 10
1167.676165024238
 20
976.3730692886676
 30
0.0
 40
7.5
  0
LINE
  5
7AD
330
A
100
AcDbEntity
  8
0
  6
Continuous
 62
     7
100
AcDbLine
 10
706.176165024238
 20
106.8730692886678
 30
0.0
 11
710.176165024238
 21
106.8730692886678
 31
0.0
  0
LINE
  5
7AE
330
A
100
AcDbEntity
  8
0
  6
Continuous
 62
     7
100
AcDbLine
 10
706.176165024238
 20
926.8730692886677
 30
0.0
 11
710.176165024238
 21
926.8730692886677
 31
0.0
  0
LINE
  5
7AF
330
A
100
AcDbEntity
  8
0
  6
Continuous
 62
     7
100
AcDbLine
 10
1159.176165024238
 20
960.8730692886679
 30
0.0
 11
1159.176165024238
 21
956.8730692886676
 31
0.0
  0
LINE
  5
7B0
330
A
100
AcDbEntity
  8
0
  6
Continuous
 62
     7
100
AcDbLine
 10
769.1761650242378
 20
960.8730692886679
 30
0.0
 11
769.1761650242378
 21
956.8730692886676
 31
0.0
  0
LINE
  5
7B1
330
A
100
AcDbEntity
  8
0
  6
Continuous
 62
     7
100
AcDbLine
 10
704.6865237185695
 20
998.6989221507181
 30
0.0
 11
696.9083491255174
 21
1006.47709674377
 31
0.0
  0
LINE
  5
7B2
330
A
100
AcDbEntity
  8
0
  6
Continuous
 62
     7
100
AcDbLine
 10
696.2599133873821
 20
1004.010695109364
 30
0.0
 11
717.1943640689356
 21
983.0762444278111
 31
0.0
  0
LWPOLYLINE
  5
7B3
330
A
100
AcDbEntity
  8
0
  6
Continuous
 62
     7
100
AcDbPolyline
 90
        4
 70
   128
 43
0.0
 10
694.4419474911117
 20
1005.828661005635
 10
695.2339733194219
 20
1005.37561146701
 10
695.8800396590792
 20
1004.704769283964
 10
696.2599133873821
 20
1004.010695109364
  0
LINE
  5
7B9
330
A
100
AcDbEntity
  8
0
  6
Continuous
 62
     7
100
AcDbLine
 10
688.8101927132715
 20
1011.460415783475
 30
0.0
 11
694.4419474911117
 21
1005.828661005635
 31
0.0
  0
LWPOLYLINE
  5
7BA
330
A
100
AcDbEntity
  8
0
  6
Continuous
 62
     7
100
AcDbPolyline
 90
        7
 70
   128
 43
0.0
 10
684.5888185294302
 20
1007.239041599634
 10
684.1588950480199
 20
1007.714029185706
 10
683.8233729833242
 20
1008.181122242734
 10
683.6163592376845
 20
1008.600467764548
 10
683.5657122021213
 20
1008.940602236632
 10
683.6531002942881
 20
1009.131714271529
 10
683.6558749852976
 20
1009.134525180247
  0
LINE
  5
7C3
330
A
100
AcDbEntity
  8
0
  6
Continuous
 62
     7
100
AcDbLine
 10
683.6558749852975
 20
1009.134525180247
 30
0.0
 11
686.9147091326578
 21
1012.393359327607
 31
0.0
  0
LWPOLYLINE
  5
7C4
330
A
100
AcDbEntity
  8
0
  6
Continuous
 62
     7
100
AcDbPolyline
 90
        7
 70
   128
 43
0.0
 10
688.8101927132713
 20
1011.460415783475
 10
688.3352051271994
 20
1011.890339264885
 10
687.868112070171
 20
1012.225861329581
 10
687.4487665483566
 20
1012.43287507522
 10
687.1086320762735
 20
1012.483522110784
 10
686.917520041377
 20
1012.396134018618
 10
686.9147091326578
 20
1012.393359327607
  0
LINE
  5
7CD
330
A
100
AcDbEntity
  8
0
  6
Continuous
 62
     7
100
AcDbLine
 10
686.9147091326578
 20
1012.393359327607
 30
0.0
 11
687.6894551150119
 21
1013.168105309962
 31
0.0
  0
LINE
  5
7CE
330
A
100
AcDbEntity
  8
0
  6
Continuous
 62
     7
100
AcDbLine
 10
682.8811290029435
 20
1008.359779197893
 30
0.0
 11
683.6558749852975
 21
1009.134525180247
 31
0.0
  0
LWPOLYLINE
  5
7CF
330
A
100
AcDbEntity
  8
0
  6
Continuous
 62
     7
100
AcDbPolyline
 90
        4
 70
   128
 43
0.0
 10
721.0410818803841
 20
982.5002821726332
 10
719.4387948055394
 20
982.3148809651881
 10
717.8256563520582
 20
982.6604413148546
 10
717.1943640689356
 20
983.0762444278111
  0
ARC
  5
7D5
330
A
100
AcDbEntity
  8
0
  6
Continuous
 62
     7
100
AcDbCircle
 10
724.176165024238
 20
971.8730692886678
 30
0.0
 40
11.07999999999996
100
AcDbArc
 50
28.56366628540807
 51
106.4363337145949
  0
LWPOLYLINE
  5
7D6
330
A
100
AcDbEntity
  8
0
  6
Continuous
 62
     7
100
AcDbPolyline
 90
        5
 70
   128
 43
0.0
 10
737.0348849363355
 20
974.8580315999875
 10
736.2098597037922
 20
975.0443489571212
 10
735.0677598652151
 20
975.7669387587245
 10
734.0896037633633
 20
976.8665437683123
 10
733.9075778702055
 20
977.1708050334304
  0
LINE
  5
7DD
330
A
100
AcDbEntity
  8
0
  6
Continuous
 62
     7
100
AcDbLine
 10
769.1761650242378
 20
974.8580315999875
 30
0.0
 11
737.0348849363355
 21
974.8580315999875
 31
0.0
  0
LINE
  5
7DE
330
A
100
AcDbEntity
  8
0
  6
Continuous
 62
     7
100
AcDbLine
 10
737.0348849363355
 20
968.8881069773479
 30
0.0
 11
769.1761650242378
 21
968.8881069773479
 31
0.0
  0
LWPOLYLINE
  5
7DF
330
A
100
AcDbEntity
  8
0
  6
Continuous
 62
     7
100
AcDbPolyline
 90
        4
 70
   128
 43
0.0
 10
733.9075778702055
 20
966.5753335439053
 10
734.9094674752111
 20
967.8394200509602
 10
736.2944766812147
 20
968.7357331238496
 10
737.0348849363353
 20
968.8881069773479
  0
ARC
  5
7E5
330
A
100
AcDbEntity
  8
0
  6
Continuous
 62
     7
100
AcDbCircle
 10
724.176165024238
 20
971.8730692886678
 30
0.0
 40
11.08000000000015
100
AcDbArc
 50
253.5636662854067
 51
331.436333714591
  0
LWPOLYLINE
  5
7E6
330
A
100
AcDbEntity
  8
0
  6
Continuous
 62
     7
100
AcDbPolyline
 90
        5
 70
   128
 43
0.0
 10
717.1943640689358
 20
960.6698941495244
 10
717.9094912721999
 20
961.1215288194244
 10
719.2280259615809
 20
961.418167211344
 10
720.6972249331666
 20
961.3322898651153
 10
721.0410818803842
 20
961.245856404702
  0
LINE
  5
7ED
330
A
100
AcDbEntity
  8
0
  6
Continuous
 62
     7
100
AcDbLine
 10
701.6802503983604
 20
945.1557804789487
 30
0.0
 11
717.1943640689358
 21
960.6698941495244
 31
0.0
  0
ARC
  5
7EE
330
A
100
AcDbEntity
  8
0
  6
Continuous
 62
     7
100
AcDbCircle
 10
710.1761650242378
 20
936.659865853071
 30
0.0
 40
12.01503768868007
100
AcDbArc
 50
134.9999999999992
 51
180.0000000000004
  0
LINE
  5
7EF
330
A
100
AcDbEntity
  8
0
  6
Continuous
 62
     7
100
AcDbLine
 10
698.1611273355579
 20
936.659865853071
 30
0.0
 11
698.1611273355579
 21
926.8730692886677
 31
0.0
  0
LWPOLYLINE
  5
7F0
330
A
100
AcDbEntity
  8
0
  6
Continuous
 62
     7
100
AcDbPolyline
 90
        4
 70
   128
 43
0.0
 10
686.537976108645
 20
929.56745858302
 10
688.5191391869258
 20
928.8918262575279
 10
690.4299170298695
 20
927.9237890045145
 10
692.1912027129093
 20
926.8730692886521
  0
ARC
  5
7F6
330
A
100
AcDbEntity
  8
0
  6
Continuous
 62
     7
100
AcDbCircle
 10
688.1761650242379
 20
936.3730692886676
 30
0.0
 40
7.00000000000005
100
AcDbArc
 50
94.29774705668409
 51
256.4657260063457
  0
LWPOLYLINE
  5
7F7
330
A
100
AcDbEntity
  8
0
  6
Continuous
 62
     7
100
AcDbPolyline
 90
        6
 70
   128
 43
0.0
 10
695.9295341320674
 20
947.6367678550861
 10
694.5729010086098
 20
946.3150395371869
 10
692.9510461888379
 20
945.197662170139
 10
690.909619168246
 20
944.1563786598109
 10
688.6464747186853
 20
943.4813340057077
 10
687.6515884110213
 20
943.353385855763
  0
ARC
  5
7FF
330
A
100
AcDbEntity
  8
0
  6
Continuous
 62
     7
100
AcDbCircle
 10
710.1761650242378
 20
936.659865853071
 30
0.0
 40
17.98496231131993
100
AcDbArc
 50
135.0000000000002
 51
142.3860692064825
  0
LINE
  5
800
330
A
100
AcDbEntity
  8
0
  6
Continuous
 62
     7
100
AcDbLine
 10
712.972989885095
 20
964.8912683333659
 30
0.0
 11
697.458876214519
 21
949.3771546627897
 31
0.0
  0
LWPOLYLINE
  5
801
330
A
100
AcDbEntity
  8
0
  6
Continuous
 62
     7
100
AcDbPolyline
 90
        4
 70
   128
 43
0.0
 10
713.5489521402724
 20
968.7379861448141
 10
713.7343533477176
 20
967.1356990699695
 10
713.3887929980529
 20
965.5225606164922
 10
712.9729898850948
 20
964.8912683333659
  0
ARC
  5
807
330
A
100
AcDbEntity
  8
0
  6
Continuous
 62
     7
100
AcDbCircle
 10
724.176165024238
 20
971.8730692886678
 30
0.0
 40
11.08000000000012
100
AcDbArc
 50
163.5636662854065
 51
196.4363337145963
  0
LWPOLYLINE
  5
808
330
A
100
AcDbEntity
  8
0
  6
Continuous
 62
     7
100
AcDbPolyline
 90
        5
 70
   128
 43
0.0
 10
712.9729898850945
 20
978.8548702439697
 10
713.4246245549931
 20
978.1397430407036
 10
713.721262946914
 20
976.821208351326
 10
713.6353856006863
 20
975.3520093797426
 10
713.5489521402722
 20
975.0081524325214
  0
LINE
  5
80F
330
A
100
AcDbEntity
  8
0
  6
Continuous
 62
     7
100
AcDbLine
 10
712.9729898850945
 20
978.8548702439697
 30
0.0
 11
693.4276532942621
 21
998.4002068348022
 31
0.0
  0
LINE
  5
810
330
A
100
AcDbEntity
  8
0
  6
Continuous
 62
     7
100
AcDbLine
 10
695.5383403861827
 20
1000.510893926723
 30
0.0
 11
693.4276532942621
 21
998.4002068348022
 31
0.0
  0
ARC
  5
811
330
A
100
AcDbEntity
  8
0
  6
Continuous
 62
     7
100
AcDbCircle
 10
693.2402433473265
 20
1002.808990965579
 30
0.0
 40
3.249999999999902
100
AcDbArc
 50
315.0000000000009
 51
21.70051576762957
  0
LINE
  5
812
330
A
100
AcDbEntity
  8
0
  6
Continuous
 62
     7
100
AcDbLine
 10
688.8314592165494
 20
1002.996400912515
 30
0.0
 11
684.5888185294302
 21
1007.239041599634
 31
0.0
  0
LINE
  5
813
330
A
100
AcDbEntity
  8
0
  6
Continuous
 62
     7
100
AcDbLine
 10
688.8314592165494
 20
1002.996400912515
 30
0.0
 11
690.9421463084702
 21
1005.107088004435
 31
0.0
  0
ARC
  5
814
330
A
100
AcDbEntity
  8
0
  6
Continuous
 62
     7
100
AcDbCircle
 10
693.2402433473265
 20
1002.808990965579
 30
0.0
 40
3.249999999999986
100
AcDbArc
 50
68.29948423237102
 51
135.0000000000014
  0
LINE
  5
815
330
A
100
AcDbEntity
  8
0
  6
Continuous
 62
     7
100
AcDbLine
 10
687.1237696900626
 20
1001.288711386028
 30
0.0
 11
688.8314592165494
 21
1002.996400912515
 31
0.0
  0
LINE
  5
816
330
A
100
AcDbEntity
  8
0
  6
Continuous
 62
     7
100
AcDbLine
 10
693.4276532942621
 20
998.4002068348022
 30
0.0
 11
691.719963767775
 21
996.6925173083152
 31
0.0
  0
LINE
  5
817
330
A
100
AcDbEntity
  8
0
  6
Continuous
 62
     7
100
AcDbLine
 10
662.9446892293337
 20
103.186640283183
 30
0.0
 11
663.0910131973016
 21
103.3329642511508
 31
0.0
  0
ARC
  5
818
330
A
100
AcDbEntity
  8
0
  6
Continuous
 62
     7
100
AcDbCircle
 10
666.9801004938276
 20
99.44387695462488
 30
0.0
 40
5.500000000000004
100
AcDbArc
 50
315.0000000000004
 51
134.9999999999996
  0
LINE
  5
819
330
A
100
AcDbEntity
  8
0
  6
Continuous
 62
     7
100
AcDbLine
 10
670.8691877903536
 20
95.55478965809882
 30
0.0
 11
670.7228638223859
 21
95.40846569013096
 31
0.0
  0
LINE
  5
81A
330
A
100
AcDbEntity
  8
0
  6
Continuous
 62
     7
100
AcDbLine
 10
695.5383403861827
 20
1000.510893926723
 30
0.0
 11
695.3615636908862
 21
1000.687670622019
 31
0.0
  0
LINE
  5
81B
330
A
100
AcDbEntity
  8
0
  6
Continuous
 62
     7
100
AcDbLine
 10
696.9083491255174
 20
1006.47709674377
 30
0.0
 11
697.0586199657336
 21
1006.627367583986
 31
0.0
  0
ARC
  5
81C
330
A
100
AcDbEntity
  8
0
  6
Continuous
 62
     7
100
AcDbCircle
 10
700.9477072622596
 20
1002.73828028746
 30
0.0
 40
5.499999999999964
100
AcDbArc
 50
315.0000000000008
 51
135.0
  0
LINE
  5
81D
330
A
100
AcDbEntity
  8
0
  6
Continuous
 62
     7
100
AcDbLine
 10
704.8367945587856
 20
998.8491929909342
 30
0.0
 11
704.6865237185695
 21
998.6989221507181
 31
0.0
  0
ARC
  5
81E
330
A
100
AcDbEntity
  8
0
  6
Continuous
 62
     7
100
AcDbCircle
 10
724.1761650242379
 20
971.8730692886678
 30
0.0
 40
18.00000000000006
100
AcDbArc
 50
152.4576031237222
 51
180.0000000000004
  0
ARC
  5
81F
330
A
100
AcDbEntity
  8
0
  6
Continuous
 62
     7
100
AcDbCircle
 10
724.1761650242379
 20
971.8730692886678
 30
0.0
 40
18.00000000000006
100
AcDbArc
 50
17.45760312372247
 51
117.5423968762786
  0
ARC
  5
820
330
A
100
AcDbEntity
  8
0
  6
Continuous
 62
     7
100
AcDbCircle
 10
724.1761650242379
 20
971.8730692886678
 30
0.0
 40
18.00000000000004
100
AcDbArc
 50
242.4576031237235
 51
342.5423968762785
  0
ARC
  5
821
330
A
100
AcDbEntity
  8
0
  6
Continuous
 62
     7
100
AcDbCircle
 10
724.1761650242379
 20
971.8730692886678
 30
0.0
 40
18.0
100
AcDbArc
 50
180.0000000000004
 51
207.5423968762798
  0
ARC
  5
822
330
A
100
AcDbEntity
  8
0
  6
Continuous
 62
     7
100
AcDbCircle
 10
695.1761650242379
 20
62.87306928866776
 30
0.0
 40
18.00000000000012
100
AcDbArc
 50
151.6523934336512
 51
180.0000000000004
  0
ARC
  5
823
330
A
100
AcDbEntity
  8
0
  6
Continuous
 62
     7
100
AcDbCircle
 10
695.1761650242379
 20
62.87306928866776
 30
0.0
 40
18.00000000000006
100
AcDbArc
 50
107.4576031237219
 51
115.7924563932205
  0
ARC
  5
824
330
A
100
AcDbEntity
  8
0
  6
Continuous
 62
     7
100
AcDbCircle
 10
695.1761650242379
 20
62.87306928866776
 30
0.0
 40
18.00000000000002
100
AcDbArc
 50
307.992299042672
 51
72.54239687627801
  0
ARC
  5
825
330
A
100
AcDbEntity
  8
0
  6
Continuous
 62
     7
100
AcDbCircle
 10
695.1761650242379
 20
62.87306928866776
 30
0.0
 40
18.00000000000011
100
AcDbArc
 50
180.0000000000004
 51
270.0000000000008
  0
LINE
  5
826
330
A
100
AcDbEntity
  8
0
  6
PHANTOM
 62
     7
100
AcDbLine
 10
865.7161650242379
 20
-687.6269307113322
 30
0.0
 11
535.7161650242379
 21
-687.6269307113322
 31
0.0
  0
LINE
  5
827
330
A
100
AcDbEntity
  8
0
  6
PHANTOM
 62
     7
100
AcDbLine
 10
683.7636433151196
 20
-680.7471043842784
 30
0.0
 11
717.6686867333561
 21
-680.7471043842784
 31
0.0
  0
LINE
  5
828
330
A
100
AcDbEntity
  8
0
  6
PHANTOM
 62
     7
100
AcDbLine
 10
1292.346451725398
 20
1006.426334720174
 30
0.0
 11
1354.585924498278
 21
1034.790496593281
 31
0.0
  0
LINE
  5
829
330
A
100
AcDbEntity
  8
0
  6
PHANTOM
 62
     7
100
AcDbLine
 10
1215.676165024238
 20
976.3730692886676
 30
0.0
 11
1215.676165024238
 21
967.3730692886678
 31
0.0
  0
LINE
  5
82A
330
A
100
AcDbEntity
  8
0
  6
PHANTOM
 62
     7
100
AcDbLine
 10
1219.676165024238
 20
993.1230692886675
 30
0.0
 11
1219.676165024238
 21
976.3730692886676
 31
0.0
  0
LINE
  5
82B
330
A
100
AcDbEntity
  8
0
  6
PHANTOM
 62
     7
100
AcDbLine
 10
1219.676165024238
 20
967.3730692886678
 30
0.0
 11
1219.676165024238
 21
950.6230692886679
 31
0.0
  0
LWPOLYLINE
  5
82C
330
A
100
AcDbEntity
  8
0
  6
PHANTOM
 62
     7
100
AcDbPolyline
 90
       10
 70
   128
 43
0.0
 10
1327.364596718944
 20
846.8717991904643
 10
1327.316044056684
 20
846.7947797892573
 10
1327.13634974245
 20
846.6663526067105
 10
1326.852870606653
 20
846.5060695171715
 10
1326.508763777971
 20
846.3383321680527
 10
1326.156416401736
 20
846.1886770502147
 10
1325.849470171943
 20
846.0798877987212
 10
1325.634654869602
 20
846.0285265909353
 10
1325.544674177191
 20
846.0424127051517
 10
1325.544674177191
 20
846.0424127051517
  0
LINE
  5
838
330
A
100
AcDbEntity
  8
0
  6
PHANTOM
 62
     7
100
AcDbLine
 10
696.5761650242379
 20
926.8730692886677
 30
0.0
 11
696.5761650242378
 21
106.8730692886678
 31
0.0
  0
LINE
  5
839
330
A
100
AcDbEntity
  8
0
  6
PHANTOM
 62
     7
100
AcDbLine
 10
1159.176165024238
 20
970.4730692886677
 30
0.0
 11
769.1761650242378
 21
970.4730692886677
 31
0.0
  0
LINE
  5
83A
330
A
100
AcDbEntity
  8
0
  6
PHANTOM
 62
     7
100
AcDbLine
 10
706.176165024238
 20
926.8730692886677
 30
0.0
 11
706.176165024238
 21
106.8730692886678
 31
0.0
  0
LINE
  5
83B
330
A
100
AcDbEntity
  8
0
  6
PHANTOM
 62
     7
100
AcDbLine
 10
1159.176165024238
 20
960.8730692886679
 30
0.0
 11
769.1761650242378
 21
960.8730692886679
 31
0.0
  0
LINE
  5
83C
330
A
100
AcDbEntity
  8
0
  6
PHANTOM
 62
     7
100
AcDbLine
 10
701.4361775032438
 20
53.73093366493676
 30
0.0
 11
706.2561650242378
 21
53.73093366493676
 31
0.0
  0
LINE
  5
83D
330
A
100
AcDbEntity
  8
0
  6
PHANTOM
 62
     7
100
AcDbLine
 10
656.5502754713259
 20
109.8737019771265
 30
0.0
 11
648.7155323357789
 21
102.0389588415795
 31
0.0
  0
LWPOLYLINE
  5
83E
330
A
100
AcDbEntity
  8
0
  6
PHANTOM
 62
     7
100
AcDbPolyline
 90
        6
 70
   128
 43
0.0
 10
717.1943640689356
 20
983.0762444278111
 10
718.4126928579346
 20
983.3794000830929
 10
719.66535796984
 20
983.5004000740724
 10
720.1300338900247
 20
983.5029827748675
 10
720.1770066966214
 20
983.5020583233982
 10
720.1507829981159
 20
983.50244112842
  0
LINE
  5
846
330
A
100
AcDbEntity
  8
0
  6
PHANTOM
 62
     7
100
AcDbLine
 10
690.5178822397581
 20
1013.168105309962
 30
0.0
 11
688.8101927132715
 21
1011.460415783475
 31
0.0
  0
LINE
  5
847
330
A
100
AcDbEntity
  8
0
  6
PHANTOM
 62
     7
100
AcDbLine
 10
688.8101927132715
 20
1011.460415783475
 30
0.0
 11
684.5888185294302
 21
1007.239041599634
 31
0.0
  0
LINE
  5
848
330
A
100
AcDbEntity
  8
0
  6
PHANTOM
 62
     7
100
AcDbLine
 10
684.5888185294302
 20
1007.239041599634
 30
0.0
 11
682.8811290029435
 21
1005.531352073147
 31
0.0
  0
LWPOLYLINE
  5
849
330
A
100
AcDbEntity
  8
0
  6
PHANTOM
 62
     7
100
AcDbPolyline
 90
        6
 70
   128
 43
0.0
 10
692.6063545780749
 20
946.9629133008655
 10
692.6506827774471
 20
946.9823259879264
 10
692.7325516999352
 20
947.0173010610787
 10
693.4940489131896
 20
947.2971705789479
 10
694.8193927243593
 20
947.5908456003324
 10
695.9295341320674
 20
947.6367678550861
  0
LINE
  5
851
330
A
100
AcDbEntity
  8
0
  6
PHANTOM
 62
     7
100
AcDbLine
 10
695.7511866880322
 20
951.0848441892767
 30
0.0
 11
697.458876214519
 21
949.3771546627897
 31
0.0
  0
LWPOLYLINE
  5
852
330
A
100
AcDbEntity
  8
0
  6
PHANTOM
 62
     7
100
AcDbPolyline
 90
        6
 70
   128
 43
0.0
 10
712.5467931844857
 20
975.8984513147895
 10
712.5449666671526
 20
976.023575169362
 10
712.5447182687898
 20
976.113828603354
 10
712.5802080761485
 20
976.9298154363823
 10
712.7948442496929
 20
978.2412414593261
 10
712.9729898850945
 20
978.8548702439697
  0
LWPOLYLINE
  5
85A
330
A
100
AcDbEntity
  8
0
  6
PHANTOM
 62
     7
100
AcDbPolyline
 90
        6
 70
   128
 43
0.0
 10
712.9729898850945
 20
964.8912683333662
 10
712.8017945801319
 20
965.4769184876112
 10
712.5764857665473
 20
966.8604897622573
 10
712.5448283584141
 20
967.5993996834462
 10
712.5454248219037
 20
967.7705224197474
 10
712.5468238766353
 20
967.8531222963147
  0
LINE
  5
862
330
A
100
AcDbEntity
  8
0
  6
PHANTOM
 62
     7
100
AcDbLine
 10
698.1611273355579
 20
936.659865853071
 30
0.0
 11
700.5761650242379
 21
936.659865853071
 31
0.0
  0
LINE
  5
863
330
A
100
AcDbEntity
  8
0
  6
PHANTOM
 62
     7
100
AcDbLine
 10
701.6802503983604
 20
945.1557804789487
 30
0.0
 11
703.387939924847
 21
943.4480909524618
 31
0.0
  0
LWPOLYLINE
  5
864
330
A
100
AcDbEntity
  8
0
  6
PHANTOM
 62
     7
100
AcDbPolyline
 90
        6
 70
   128
 43
0.0
 10
720.1578648699157
 20
960.2437441275137
 10
720.1770066966215
 20
960.2440802539373
 10
719.836538909619
 20
960.2422783039877
 10
719.7208525893143
 20
960.2442912632826
 10
718.7165920020111
 20
960.3211075066855
 10
717.1943640689358
 20
960.6698941495244
  0
LWPOLYLINE
  5
86C
330
A
100
AcDbEntity
  8
0
  6
PHANTOM
 62
     7
100
AcDbPolyline
 90
        5
 70
   128
 43
0.0
 10
737.0348849363355
 20
968.8881069773477
 10
736.726951848414
 20
968.3282379157642
 10
735.9514043083675
 20
967.2491489881148
 10
735.3995095688203
 20
966.6470640816752
 10
735.2421847983721
 20
966.4929572055601
  0
LWPOLYLINE
  5
873
330
A
100
AcDbEntity
  8
0
  6
PHANTOM
 62
     7
100
AcDbPolyline
 90
        7
 70
   128
 43
0.0
 10
735.2423541277788
 20
977.2530155058042
 10
735.224563631271
 20
977.2704421184952
 10
735.226934001536
 20
977.2681743209735
 10
735.2715776091955
 20
977.2251914871695
 10
735.6955753493026
 20
976.7888690872476
 10
736.5130295329749
 20
975.7529388977971
 10
737.0348849363355
 20
974.8580315999875
  0
ENDSEC
  0
SECTION
  2
OBJECTS
  0
DICTIONARY
  5
19
330
0
100
AcDbDictionary
281
     1
  3
ACAD_COLOR
350
880
  3
ACAD_GROUP
350
1A
  3
ACAD_LAYOUT
350
881
  3
ACAD_MATERIAL
350
87F
  3
ACAD_MLINESTYLE
350
1B
  3
ACAD_PLOTSETTINGS
350
882
  3
ACAD_PLOTSTYLENAME
350
87D
  3
ACDBHEADERROUNDTRIPXREC
350
89A
  3
AcDbVariableDictionary
350
893
  3
ASE_INDEX_DICTIONARY
350
888
  0
DICTIONARY
  5
880
102
{ACAD_REACTORS
330
19
102
}
330
19
100
AcDbDictionary
281
     1
  0
DICTIONARY
  5
1A
102
{ACAD_REACTORS
330
19
102
}
330
19
100
AcDbDictionary
281
     1
  0
DICTIONARY
  5
881
102
{ACAD_REACTORS
330
19
102
}
330
19
100
AcDbDictionary
281
     1
  3
Layout1
350
884
  3
Model
350
883
  0
DICTIONARY
  5
87F
102
{ACAD_REACTORS
330
19
102
}
330
19
100
AcDbDictionary
281
     1
  0
DICTIONARY
  5
1B
102
{ACAD_REACTORS
330
19
102
}
330
19
100
AcDbDictionary
281
     1
  3
STANDARD
350
1C
  0
DICTIONARY
  5
882
102
{ACAD_REACTORS
330
19
102
}
330
19
100
AcDbDictionary
281
     1
  0
ACDBDICTIONARYWDFLT
  5
87D
102
{ACAD_REACTORS
330
19
102
}
330
19
100
AcDbDictionary
281
     1
  3
Normal
350
87E
100
AcDbDictionaryWithDefault
340
87E
  0
DICTIONARY
  5
89A
102
{ACAD_REACTORS
330
19
102
}
330
19
100
AcDbDictionary
281
     1
  3
COLORDICT
350
89C
  3
MATERIALDICT
350
89B
  0
DICTIONARY
  5
893
102
{ACAD_REACTORS
330
19
102
}
330
19
100
AcDbDictionary
281
     1
  3
DIMASSOC
350
894
  3
PROJECTNAME
350
895
  0
DICTIONARY
  5
888
102
{ACAD_REACTORS
330
19
102
}
330
19
100
AcDbDictionary
281
     1
  3
ASEBlockHierarchyIndexRecord
350
88A
1001
DCO15
1040
1552229131.515
  0
LAYOUT
  5
884
102
{ACAD_XDICTIONARY
360
89F
102
}
102
{ACAD_REACTORS
330
881
102
}
330
881
100
AcDbPlotSettings
  1

  2
ProgeSOFT PDF Wizard
  4

  6

 40
0.0
 41
0.0
 42
0.0
 43
0.0
 44
0.0
 45
0.0
 46
0.0
 47
0.0
 48
0.0
 49
0.0
140
0.0
141
0.0
142
1.0
143
1.0
 70
   688
 72
     0
 73
     0
 74
     5
  7

 75
    16
147
1.0
148
0.0
149
0.0
100
AcDbLayout
  1
Layout1
 70
     1
 71
     1
 10
0.0
 20
0.0
 11
12.0
 21
9.0
 12
0.0
 22
0.0
 32
0.0
 14
1.000000000000000E+20
 24
1.000000000000000E+20
 34
1.000000000000000E+20
 15
-1.000000000000000E+20
 25
-1.000000000000000E+20
 35
-1.000000000000000E+20
146
0.0
 13
0.0
 23
0.0
 33
0.0
 16
1.0
 26
0.0
 36
0.0
 17
0.0
 27
1.0
 37
0.0
 76
     0
330
B
  0
LAYOUT
  5
883
102
{ACAD_XDICTIONARY
360
89D
102
}
102
{ACAD_REACTORS
330
881
102
}
330
881
100
AcDbPlotSettings
  1

  2
ProgeSOFT PDF Wizard
  4

  6

 40
0.0
 41
0.0
 42
0.0
 43
0.0
 44
0.0
 45
0.0
 46
0.0
 47
0.0
 48
0.0
 49
0.0
140
0.0
141
0.0
142
1.0
143
1.0
 70
  1712
 72
     0
 73
     0
 74
     0
  7

 75
     0
147
1.0
148
0.0
149
0.0
100
AcDbLayout
  1
Model
 70
     1
 71
     0
 10
0.0
 20
0.0
 11
12.0
 21
9.0
 12
0.0
 22
0.0
 32
0.0
 14
0.0
 24
0.0
 34
0.0
 15
0.0
 25
0.0
 35
0.0
146
0.0
 13
0.0
 23
0.0
 33
0.0
 16
1.0
 26
0.0
 36
0.0
 17
0.0
 27
1.0
 37
0.0
 76
     0
330
A
  0
MLINESTYLE
  5
1C
102
{ACAD_REACTORS
330
1B
102
}
330
1B
100
AcDbMlineStyle
  2
STANDARD
 70
     0
  3

 62
     0
 51
90.0
 52
90.0
 71
     2
 49
0.5
 62
   256
  6
BYLAYER
 49
-0.5
 62
   256
  6
BYLAYER
  0
ACDBPLACEHOLDER
  5
87E
102
{ACAD_REACTORS
330
87D
102
}
330
87D
  0
XRECORD
  5
89C
102
{ACAD_REACTORS
330
89A
102
}
330
89A
100
AcDbXrecord
280
     1
340
880
  0
XRECORD
  5
89B
102
{ACAD_REACTORS
330
89A
102
}
330
89A
100
AcDbXrecord
280
     1
340
87F
  0
DICTIONARYVAR
  5
894
102
{ACAD_REACTORS
330
893
102
}
330
893
100
DictionaryVariables
280
     0
  1
1
  0
DICTIONARYVAR
  5
895
102
{ACAD_REACTORS
330
893
102
}
330
893
100
DictionaryVariables
280
     0
  1

  0
XRECORD
  5
88A
102
{ACAD_REACTORS
330
888
102
}
330
888
100
AcDbXrecord
280
     1
  0
DICTIONARY
  5
89F
330
884
100
AcDbDictionary
280
     1
281
     1
  3
ACAD_XREC_ROUNDTRIP
360
8A0
  0
DICTIONARY
  5
89D
330
883
100
AcDbDictionary
280
     1
281
     1
  3
ACAD_XREC_ROUNDTRIP
360
89E
  0
XRECORD
  5
8A0
102
{ACAD_REACTORS
330
89F
102
}
330
89F
100
AcDbXrecord
280
     1
102
SHADEPLOT
 70
     0
102
SHADEPLOTRESLEVEL
 70
     2
102
SHADEPLOTCUSTOMDPI
 70
   300
  0
XRECORD
  5
89E
102
{ACAD_REACTORS
330
89D
102
}
330
89D
100
AcDbXrecord
280
     1
102
SHADEPLOT
 70
     0
102
SHADEPLOTRESLEVEL
 70
     2
102
SHADEPLOTCUSTOMDPI
 70
   300
  0
ENDSEC
  0
EOF
