  0
SECTION
  2
HEADER
  9
$ACADVER
  1
AC1018
  9
$ACADMAINTVER
 70
     0
  9
$DWGCODEPAGE
  3
ANSI_1252
  9
$INSBASE
 10
0.0
 20
0.0
 30
0.0
  9
$EXTMIN
 10
0.0
 20
-177.0000000000001
 30
0.0
  9
$EXTMAX
 10
785.4101966249684
 20
2229.110196624969
 30
0.0
  9
$LIMMIN
 10
0.0
 20
0.0
  9
$LIMMAX
 10
12.0
 20
9.0
  9
$ORTHOMODE
 70
     0
  9
$REGENMODE
 70
     1
  9
$FILLMODE
 70
     1
  9
$QTEXTMODE
 70
     0
  9
$MIRRTEXT
 70
     1
  9
$LTSCALE
 40
1.0
  9
$ATTMODE
 70
     1
  9
$TEXTSIZE
 40
0.2
  9
$TRACEWID
 40
0.05
  9
$TEXTSTYLE
  7
Standard
  9
$CLAYER
  8
0
  9
$CELTYPE
  6
ByLayer
  9
$CECOLOR
 62
   256
  9
$CELTSCALE
 40
1.0
  9
$DISPSILH
 70
     0
  9
$DIMSCALE
 40
1.0
  9
$DIMASZ
 40
0.18
  9
$DIMEXO
 40
0.0625
  9
$DIMDLI
 40
0.38
  9
$DIMRND
 40
0.0
  9
$DIMDLE
 40
0.0
  9
$DIMEXE
 40
0.18
  9
$DIMTP
 40
0.0
  9
$DIMTM
 40
0.0
  9
$DIMTXT
 40
0.18
  9
$DIMCEN
 40
0.09
  9
$DIMTSZ
 40
0.0
  9
$DIMTOL
 70
     0
  9
$DIMLIM
 70
     0
  9
$DIMTIH
 70
     1
  9
$DIMTOH
 70
     1
  9
$DIMSE1
 70
     0
  9
$DIMSE2
 70
     0
  9
$DIMTAD
 70
     0
  9
$DIMZIN
 70
     0
  9
$DIMBLK
  1

  9
$DIMASO
 70
     1
  9
$DIMSHO
 70
     1
  9
$DIMPOST
  1

  9
$DIMAPOST
  1

  9
$DIMALT
 70
     0
  9
$DIMALTD
 70
     2
  9
$DIMALTF
 40
25.4
  9
$DIMLFAC
 40
1.0
  9
$DIMTOFL
 70
     0
  9
$DIMTVP
 40
0.0
  9
$DIMTIX
 70
     0
  9
$DIMSOXD
 70
     0
  9
$DIMSAH
 70
     0
  9
$DIMBLK1
  1

  9
$DIMBLK2
  1

  9
$DIMSTYLE
  2
Standard
  9
$DIMCLRD
 70
     0
  9
$DIMCLRE
 70
     0
  9
$DIMCLRT
 70
     0
  9
$DIMTFAC
 40
1.0
  9
$DIMGAP
 40
0.09
  9
$DIMJUST
 70
     0
  9
$DIMSD1
 70
     0
  9
$DIMSD2
 70
     0
  9
$DIMTOLJ
 70
     1
  9
$DIMTZIN
 70
     0
  9
$DIMALTZ
 70
     0
  9
$DIMALTTZ
 70
     0
  9
$DIMUPT
 70
     0
  9
$DIMDEC
 70
     4
  9
$DIMTDEC
 70
     4
  9
$DIMALTU
 70
     2
  9
$DIMALTTD
 70
     2
  9
$DIMTXSTY
  7
Standard
  9
$DIMAUNIT
 70
     0
  9
$DIMADEC
 70
     0
  9
$DIMALTRND
 40
0.0
  9
$DIMAZIN
 70
     0
  9
$DIMDSEP
 70
    46
  9
$DIMATFIT
 70
     3
  9
$DIMFRAC
 70
     0
  9
$DIMLDRBLK
  1

  9
$DIMLUNIT
 70
     2
  9
$DIMLWD
 70
    -2
  9
$DIMLWE
 70
    -2
  9
$DIMTMOVE
 70
     2
  9
$LUNITS
 70
     2
  9
$LUPREC
 70
     3
  9
$SKETCHINC
 40
0.1
  9
$FILLETRAD
 40
0.5
  9
$AUNITS
 70
     0
  9
$AUPREC
 70
     0
  9
$MENU
  1
.
  9
$ELEVATION
 40
0.0
  9
$PELEVATION
 40
0.0
  9
$THICKNESS
 40
0.0
  9
$LIMCHECK
 70
     0
  9
$CHAMFERA
 40
0.5
  9
$CHAMFERB
 40
0.5
  9
$CHAMFERC
 40
1.0
  9
$CHAMFERD
 40
0.0
  9
$SKPOLY
 70
     0
  9
$TDCREATE
 40
2456091.480985498
  9
$TDUCREATE
 40
2456091.397652165
  9
$TDUPDATE
 40
2456091.480985509
  9
$TDUUPDATE
 40
2456091.397652176
  9
$TDINDWG
 40
0.0000000116
  9
$TDUSRTIMER
 40
0.0000000116
  9
$USRTIMER
 70
     1
  9
$ANGBASE
 50
0.0
  9
$ANGDIR
 70
     0
  9
$PDMODE
 70
     0
  9
$PDSIZE
 40
0.0
  9
$PLINEWID
 40
0.0
  9
$SPLFRAME
 70
     0
  9
$SPLINETYPE
 70
     6
  9
$SPLINESEGS
 70
     8
  9
$HANDSEED
  5
202
  9
$SURFTAB1
 70
     6
  9
$SURFTAB2
 70
     6
  9
$SURFTYPE
 70
     6
  9
$SURFU
 70
     6
  9
$SURFV
 70
     6
  9
$UCSBASE
  2

  9
$UCSNAME
  2

  9
$UCSORG
 10
0.0
 20
0.0
 30
0.0
  9
$UCSXDIR
 10
1.0
 20
0.0
 30
0.0
  9
$UCSYDIR
 10
0.0
 20
1.0
 30
0.0
  9
$UCSORTHOREF
  2

  9
$UCSORTHOVIEW
 70
     0
  9
$UCSORGTOP
 10
0.0
 20
0.0
 30
0.0
  9
$UCSORGBOTTOM
 10
0.0
 20
0.0
 30
0.0
  9
$UCSORGLEFT
 10
0.0
 20
0.0
 30
0.0
  9
$UCSORGRIGHT
 10
0.0
 20
0.0
 30
0.0
  9
$UCSORGFRONT
 10
0.0
 20
0.0
 30
0.0
  9
$UCSORGBACK
 10
0.0
 20
0.0
 30
0.0
  9
$PUCSBASE
  2

  9
$PUCSNAME
  2

  9
$PUCSORG
 10
0.0
 20
0.0
 30
0.0
  9
$PUCSXDIR
 10
1.0
 20
0.0
 30
0.0
  9
$PUCSYDIR
 10
0.0
 20
1.0
 30
0.0
  9
$PUCSORTHOREF
  2

  9
$PUCSORTHOVIEW
 70
     0
  9
$PUCSORGTOP
 10
0.0
 20
0.0
 30
0.0
  9
$PUCSORGBOTTOM
 10
0.0
 20
0.0
 30
0.0
  9
$PUCSORGLEFT
 10
0.0
 20
0.0
 30
0.0
  9
$PUCSORGRIGHT
 10
0.0
 20
0.0
 30
0.0
  9
$PUCSORGFRONT
 10
0.0
 20
0.0
 30
0.0
  9
$PUCSORGBACK
 10
0.0
 20
0.0
 30
0.0
  9
$USERI1
 70
     0
  9
$USERI2
 70
     0
  9
$USERI3
 70
     0
  9
$USERI4
 70
     0
  9
$USERI5
 70
     0
  9
$USERR1
 40
0.0
  9
$USERR2
 40
0.0
  9
$USERR3
 40
0.0
  9
$USERR4
 40
0.0
  9
$USERR5
 40
0.0
  9
$WORLDVIEW
 70
     1
  9
$SHADEDGE
 70
     3
  9
$SHADEDIF
 70
    70
  9
$TILEMODE
 70
     1
  9
$MAXACTVP
 70
    64
  9
$PINSBASE
 10
0.0
 20
0.0
 30
0.0
  9
$PLIMCHECK
 70
     0
  9
$PEXTMIN
 10
1.000000000000000E+20
 20
1.000000000000000E+20
 30
1.000000000000000E+20
  9
$PEXTMAX
 10
-1.000000000000000E+20
 20
-1.000000000000000E+20
 30
-1.000000000000000E+20
  9
$PLIMMIN
 10
0.0
 20
0.0
  9
$PLIMMAX
 10
12.0
 20
9.0
  9
$UNITMODE
 70
     0
  9
$VISRETAIN
 70
     1
  9
$PLINEGEN
 70
     0
  9
$PSLTSCALE
 70
     1
  9
$TREEDEPTH
 70
  3020
  9
$CMLSTYLE
  2
Standard
  9
$CMLJUST
 70
     0
  9
$CMLSCALE
 40
1.0
  9
$PROXYGRAPHICS
 70
     1
  9
$MEASUREMENT
 70
     0
  9
$CELWEIGHT
370
    -1
  9
$ENDCAPS
280
     0
  9
$JOINSTYLE
280
     0
  9
$LWDISPLAY
290
     0
  9
$INSUNITS
 70
     4
  9
$HYPERLINKBASE
  1

  9
$STYLESHEET
  1

  9
$XEDIT
290
     1
  9
$CEPSNTYPE
380
     0
  9
$PSTYLEMODE
290
     1
  9
$FINGERPRINTGUID
  2
{AAAB3F63-3CF3-4D84-A04D-D41CE49D09B3}
  9
$VERSIONGUID
  2
{FAEB1C32-E019-11D5-929B-00C0DF256EC4}
  9
$EXTNAMES
290
     1
  9
$PSVPSCALE
 40
0.0
  9
$OLESTARTUP
290
     0
  9
$SORTENTS
280
   127
  9
$INDEXCTL
280
     0
  9
$HIDETEXT
280
     1
  9
$XCLIPFRAME
290
     0
  9
$HALOGAP
280
     0
  9
$OBSCOLOR
 70
   257
  9
$OBSLTYPE
280
     0
  9
$INTERSECTIONDISPLAY
280
     0
  9
$INTERSECTIONCOLOR
 70
   257
  9
$DIMASSOC
280
     2
  9
$PROJECTNAME
  1

  0
ENDSEC
  0
SECTION
  2
CLASSES
  0
CLASS
  1
ACDBDICTIONARYWDFLT
  2
AcDbDictionaryWithDefault
  3
ObjectDBX Classes
 90
        0
 91
        4
280
     0
281
     0
  0
CLASS
  1
VISUALSTYLE
  2
AcDbVisualStyle
  3
ObjectDBX Classes
 90
     4095
 91
        4
280
     0
281
     0
  0
ENDSEC
  0
SECTION
  2
TABLES
  0
TABLE
  2
VPORT
  5
8
330
0
100
AcDbSymbolTable
 70
     1
  0
VPORT
  5
29
330
8
100
AcDbSymbolTableRecord
100
AcDbViewportTableRecord
  2
*Active
 70
     0
 10
0.0
 20
0.0
 11
1.0
 21
1.0
 12
392.7050983124842
 22
1026.055098312485
 13
0.0
 23
0.0
 14
0.5
 24
0.5
 15
0.5
 25
0.5
 16
0.0
 26
0.0
 36
1.0
 17
0.0
 27
0.0
 37
0.0
 40
2454.232400557469
 41
0.3264232027804282
 42
50.0
 43
0.0
 44
0.0
 50
0.0
 51
0.0
 71
     0
 72
   100
 73
     1
 74
     3
 75
     0
 76
     0
 77
     0
 78
     0
281
     0
 65
     1
110
0.0
120
0.0
130
0.0
111
1.0
121
0.0
131
0.0
112
0.0
122
1.0
132
0.0
 79
     0
146
0.0
  0
ENDTAB
  0
TABLE
  2
LTYPE
  5
5
330
0
100
AcDbSymbolTable
 70
     1
  0
LTYPE
  5
14
330
5
100
AcDbSymbolTableRecord
100
AcDbLinetypeTableRecord
  2
ByBlock
 70
     0
  3

 72
    65
 73
     0
 40
0.0
  0
LTYPE
  5
15
330
5
100
AcDbSymbolTableRecord
100
AcDbLinetypeTableRecord
  2
ByLayer
 70
     0
  3

 72
    65
 73
     0
 40
0.0
  0
LTYPE
  5
16
330
5
100
AcDbSymbolTableRecord
100
AcDbLinetypeTableRecord
  2
Continuous
 70
     0
  3
Solid line
 72
    65
 73
     0
 40
0.0
  0
ENDTAB
  0
TABLE
  2
LAYER
  5
2
330
0
100
AcDbSymbolTable
 70
     2
  0
LAYER
  5
10
330
2
100
AcDbSymbolTableRecord
100
AcDbLayerTableRecord
  2
0
 70
     0
 62
     7
  6
Continuous
370
    -3
390
F
  0
LAYER
  5
3B
330
2
100
AcDbSymbolTableRecord
100
AcDbLayerTableRecord
  2
Linee visibili 2D
 70
     0
 62
     7
  6
Continuous
370
    -3
390
F
  0
ENDTAB
  0
TABLE
  2
STYLE
  5
3
330
0
100
AcDbSymbolTable
 70
     1
  0
STYLE
  5
11
330
3
100
AcDbSymbolTableRecord
100
AcDbTextStyleTableRecord
  2
Standard
 70
     0
 40
0.0
 41
1.0
 50
0.0
 71
     0
 42
0.2
  3
txt
  4

  0
ENDTAB
  0
TABLE
  2
VIEW
  5
6
330
0
100
AcDbSymbolTable
 70
     0
  0
ENDTAB
  0
TABLE
  2
UCS
  5
7
330
0
100
AcDbSymbolTable
 70
     0
  0
ENDTAB
  0
TABLE
  2
APPID
  5
9
330
0
100
AcDbSymbolTable
 70
     1
  0
APPID
  5
12
330
9
100
AcDbSymbolTableRecord
100
AcDbRegAppTableRecord
  2
ACAD
 70
     0
  0
ENDTAB
  0
TABLE
  2
DIMSTYLE
  5
A
330
0
100
AcDbSymbolTable
 70
     1
100
AcDbDimStyleTable
  0
DIMSTYLE
105
27
330
A
100
AcDbSymbolTableRecord
100
AcDbDimStyleTableRecord
  2
Standard
 70
     0
340
11
  0
ENDTAB
  0
TABLE
  2
BLOCK_RECORD
  5
1
330
0
100
AcDbSymbolTable
 70
     1
  0
BLOCK_RECORD
  5
1F
330
1
100
AcDbSymbolTableRecord
100
AcDbBlockTableRecord
  2
*Model_Space
340
22
  0
BLOCK_RECORD
  5
1B
330
1
100
AcDbSymbolTableRecord
100
AcDbBlockTableRecord
  2
*Paper_Space
340
1E
  0
BLOCK_RECORD
  5
23
330
1
100
AcDbSymbolTableRecord
100
AcDbBlockTableRecord
  2
*Paper_Space0
340
26
  0
ENDTAB
  0
ENDSEC
  0
SECTION
  2
BLOCKS
  0
BLOCK
  5
20
330
1F
100
AcDbEntity
  8
0
100
AcDbBlockBegin
  2
*Model_Space
 70
     0
 10
0.0
 20
0.0
 30
0.0
  3
*Model_Space
  1

  0
ENDBLK
  5
21
330
1F
100
AcDbEntity
  8
0
100
AcDbBlockEnd
  0
BLOCK
  5
1C
330
1B
100
AcDbEntity
 67
     1
  8
0
100
AcDbBlockBegin
  2
*Paper_Space
 70
     0
 10
0.0
 20
0.0
 30
0.0
  3
*Paper_Space
  1

  0
ENDBLK
  5
1D
330
1B
100
AcDbEntity
 67
     1
  8
0
100
AcDbBlockEnd
  0
BLOCK
  5
24
330
23
100
AcDbEntity
  8
0
100
AcDbBlockBegin
  2
*Paper_Space0
 70
     0
 10
0.0
 20
0.0
 30
0.0
  3
*Paper_Space0
  1

  0
ENDBLK
  5
25
330
23
100
AcDbEntity
  8
0
100
AcDbBlockEnd
  0
ENDSEC
  0
SECTION
  2
ENTITIES
  0
LINE
  5
3C
330
1F
100
AcDbEntity
  8
Linee visibili 2D
 62
   255
100
AcDbLine
 10
639.9422621619254
 20
31.00000000000205
 30
0.0
 11
639.9422621619254
 21
-0.8499999999980901
 31
0.0
  0
LINE
  5
3D
330
1F
100
AcDbEntity
  8
Linee visibili 2D
 62
   255
100
AcDbLine
 10
639.9422621619254
 20
-53.14999999999804
 30
0.0
 11
639.9422621619254
 21
-84.99999999999795
 31
0.0
  0
LINE
  5
3E
330
1F
100
AcDbEntity
  8
Linee visibili 2D
 62
   255
100
AcDbLine
 10
639.9422621619254
 20
-0.8499999999980901
 30
0.0
 11
640.878131088011
 21
-0.8499999999980901
 31
0.0
  0
LINE
  5
3F
330
1F
100
AcDbEntity
  8
Linee visibili 2D
 62
   255
100
AcDbLine
 10
681.2712114889405
 20
31.00000000000205
 30
0.0
 11
681.2712114889405
 21
-84.99999999999795
 31
0.0
  0
LINE
  5
40
330
1F
100
AcDbEntity
  8
Linee visibili 2D
 62
   255
100
AcDbLine
 10
681.8377570215864
 20
31.00000000000205
 30
0.0
 11
681.2712114889405
 21
31.00000000000205
 31
0.0
  0
LINE
  5
41
330
1F
100
AcDbEntity
  8
Linee visibili 2D
 62
   255
100
AcDbLine
 10
681.8377570215864
 20
-84.99999999999795
 30
0.0
 11
681.8377570215864
 21
31.00000000000205
 31
0.0
  0
LINE
  5
42
330
1F
100
AcDbEntity
  8
Linee visibili 2D
 62
   255
100
AcDbLine
 10
639.9422621619254
 20
-53.14999999999804
 30
0.0
 11
639.5491817609959
 21
-53.14999999999804
 31
0.0
  0
LINE
  5
43
330
1F
100
AcDbEntity
  8
Linee visibili 2D
 62
   255
100
AcDbLine
 10
688.9826362283467
 20
-84.99999999999795
 30
0.0
 11
681.8377570215864
 21
-84.99999999999795
 31
0.0
  0
LINE
  5
44
330
1F
100
AcDbEntity
  8
Linee visibili 2D
 62
   255
100
AcDbLine
 10
639.5491817609959
 20
31.00000000000205
 30
0.0
 11
639.5491817609959
 21
-0.8499999999980901
 31
0.0
  0
LINE
  5
45
330
1F
100
AcDbEntity
  8
Linee visibili 2D
 62
   255
100
AcDbLine
 10
639.5491817609959
 20
-0.8499999999980901
 30
0.0
 11
639.9422621619254
 21
-0.8499999999980901
 31
0.0
  0
LINE
  5
46
330
1F
100
AcDbEntity
  8
Linee visibili 2D
 62
   255
100
AcDbLine
 10
639.5491817609959
 20
-53.14999999999804
 30
0.0
 11
639.5491817609959
 21
-84.99999999999795
 31
0.0
  0
LINE
  5
47
330
1F
100
AcDbEntity
  8
Linee visibili 2D
 62
   255
100
AcDbLine
 10
689.5491817609959
 20
-84.99999999999795
 30
0.0
 11
688.9826362283467
 21
-84.99999999999795
 31
0.0
  0
LINE
  5
48
330
1F
100
AcDbEntity
  8
Linee visibili 2D
 62
   255
100
AcDbLine
 10
579.9422621619274
 20
31.00000000000205
 30
0.0
 11
580.8781310880127
 21
31.00000000000205
 31
0.0
  0
LINE
  5
49
330
1F
100
AcDbEntity
  8
Linee visibili 2D
 62
   255
100
AcDbLine
 10
581.8377570215883
 20
31.00000000000205
 30
0.0
 11
588.9826362283467
 21
31.00000000000205
 31
0.0
  0
LINE
  5
4A
330
1F
100
AcDbEntity
  8
Linee visibili 2D
 62
   255
100
AcDbLine
 10
599.5491817609959
 20
31.00000000000205
 30
0.0
 11
599.9422621619256
 21
31.00000000000205
 31
0.0
  0
LINE
  5
4B
330
1F
100
AcDbEntity
  8
Linee visibili 2D
 62
   255
100
AcDbLine
 10
598.9826362283467
 20
31.00000000000205
 30
0.0
 11
599.5491817609959
 21
31.00000000000205
 31
0.0
  0
LINE
  5
4C
330
1F
100
AcDbEntity
  8
Linee visibili 2D
 62
   255
100
AcDbLine
 10
591.8377570215864
 20
31.00000000000205
 30
0.0
 11
598.9826362283467
 21
31.00000000000205
 31
0.0
  0
LINE
  5
4D
330
1F
100
AcDbEntity
  8
Linee visibili 2D
 62
   255
100
AcDbLine
 10
591.2712114889405
 20
31.00000000000205
 30
0.0
 11
591.8377570215864
 21
31.00000000000205
 31
0.0
  0
LINE
  5
4E
330
1F
100
AcDbEntity
  8
Linee visibili 2D
 62
   255
100
AcDbLine
 10
590.8781310880108
 20
31.00000000000205
 30
0.0
 11
591.2712114889405
 21
31.00000000000205
 31
0.0
  0
LINE
  5
4F
330
1F
100
AcDbEntity
  8
Linee visibili 2D
 62
   255
100
AcDbLine
 10
589.9422621619256
 20
31.00000000000205
 30
0.0
 11
590.8781310880108
 21
31.00000000000205
 31
0.0
  0
LINE
  5
50
330
1F
100
AcDbEntity
  8
Linee visibili 2D
 62
   255
100
AcDbLine
 10
589.5491817609959
 20
31.00000000000205
 30
0.0
 11
589.9422621619256
 21
31.00000000000205
 31
0.0
  0
LINE
  5
51
330
1F
100
AcDbEntity
  8
Linee visibili 2D
 62
   255
100
AcDbLine
 10
588.9826362283467
 20
31.00000000000205
 30
0.0
 11
589.5491817609959
 21
31.00000000000205
 31
0.0
  0
LINE
  5
52
330
1F
100
AcDbEntity
  8
Linee visibili 2D
 62
   255
100
AcDbLine
 10
679.9422621619254
 20
31.00000000000205
 30
0.0
 11
679.9422621619254
 21
-84.99999999999795
 31
0.0
  0
LINE
  5
53
330
1F
100
AcDbEntity
  8
Linee visibili 2D
 62
   255
100
AcDbLine
 10
680.878131088011
 20
31.00000000000205
 30
0.0
 11
681.2712114889405
 21
31.00000000000205
 31
0.0
  0
LINE
  5
54
330
1F
100
AcDbEntity
  8
Linee visibili 2D
 62
   255
100
AcDbLine
 10
668.9826362283484
 20
-84.99999999999795
 30
0.0
 11
668.9826362283484
 21
31.00000000000205
 31
0.0
  0
LINE
  5
55
330
1F
100
AcDbEntity
  8
Linee visibili 2D
 62
   255
100
AcDbLine
 10
669.5491817609972
 20
-84.99999999999795
 30
0.0
 11
669.5491817609972
 21
31.00000000000205
 31
0.0
  0
LINE
  5
56
330
1F
100
AcDbEntity
  8
Linee visibili 2D
 62
   255
100
AcDbLine
 10
669.9422621619275
 20
31.00000000000205
 30
0.0
 11
669.9422621619275
 21
-84.99999999999795
 31
0.0
  0
LINE
  5
57
330
1F
100
AcDbEntity
  8
Linee visibili 2D
 62
   255
100
AcDbLine
 10
670.8781310880129
 20
-84.99999999999795
 30
0.0
 11
670.8781310880129
 21
31.00000000000205
 31
0.0
  0
LINE
  5
58
330
1F
100
AcDbEntity
  8
Linee visibili 2D
 62
   255
100
AcDbLine
 10
671.2712114889425
 20
31.00000000000205
 30
0.0
 11
671.2712114889425
 21
-84.99999999999795
 31
0.0
  0
LINE
  5
59
330
1F
100
AcDbEntity
  8
Linee visibili 2D
 62
   255
100
AcDbLine
 10
671.8377570215885
 20
31.00000000000205
 30
0.0
 11
671.8377570215885
 21
-84.99999999999795
 31
0.0
  0
LINE
  5
5A
330
1F
100
AcDbEntity
  8
Linee visibili 2D
 62
   255
100
AcDbLine
 10
678.9826362283467
 20
-84.99999999999795
 30
0.0
 11
678.9826362283467
 21
31.00000000000205
 31
0.0
  0
LINE
  5
5B
330
1F
100
AcDbEntity
  8
Linee visibili 2D
 62
   255
100
AcDbLine
 10
679.5491817609959
 20
-84.99999999999795
 30
0.0
 11
679.5491817609959
 21
31.00000000000205
 31
0.0
  0
LINE
  5
5C
330
1F
100
AcDbEntity
  8
Linee visibili 2D
 62
   255
100
AcDbLine
 10
659.5491817609972
 20
31.00000000000205
 30
0.0
 11
659.9422621619275
 21
31.00000000000205
 31
0.0
  0
LINE
  5
5D
330
1F
100
AcDbEntity
  8
Linee visibili 2D
 62
   255
100
AcDbLine
 10
661.2712114889425
 20
31.00000000000205
 30
0.0
 11
661.8377570215885
 21
31.00000000000205
 31
0.0
  0
LINE
  5
5E
330
1F
100
AcDbEntity
  8
Linee visibili 2D
 62
   255
100
AcDbLine
 10
660.8781310880129
 20
31.00000000000205
 30
0.0
 11
661.2712114889425
 21
31.00000000000205
 31
0.0
  0
LINE
  5
5F
330
1F
100
AcDbEntity
  8
Linee visibili 2D
 62
   255
100
AcDbLine
 10
670.8781310880129
 20
31.00000000000205
 30
0.0
 11
671.2712114889425
 21
31.00000000000205
 31
0.0
  0
LINE
  5
60
330
1F
100
AcDbEntity
  8
Linee visibili 2D
 62
   255
100
AcDbLine
 10
680.878131088011
 20
-84.99999999999795
 30
0.0
 11
680.878131088011
 21
31.00000000000205
 31
0.0
  0
LINE
  5
61
330
1F
100
AcDbEntity
  8
Linee visibili 2D
 62
   255
100
AcDbLine
 10
601.8377570215864
 20
31.00000000000205
 30
0.0
 11
608.9826362283467
 21
31.00000000000205
 31
0.0
  0
LINE
  5
62
330
1F
100
AcDbEntity
  8
Linee visibili 2D
 62
   255
100
AcDbLine
 10
599.9422621619256
 20
31.00000000000205
 30
0.0
 11
600.8781310880108
 21
31.00000000000205
 31
0.0
  0
LINE
  5
63
330
1F
100
AcDbEntity
  8
Linee visibili 2D
 62
   255
100
AcDbLine
 10
608.9826362283467
 20
31.00000000000205
 30
0.0
 11
609.5491817609959
 21
31.00000000000205
 31
0.0
  0
LINE
  5
64
330
1F
100
AcDbEntity
  8
Linee visibili 2D
 62
   255
100
AcDbLine
 10
679.9422621619254
 20
31.00000000000205
 30
0.0
 11
680.878131088011
 21
31.00000000000205
 31
0.0
  0
LINE
  5
65
330
1F
100
AcDbEntity
  8
Linee visibili 2D
 62
   255
100
AcDbLine
 10
679.5491817609959
 20
31.00000000000205
 30
0.0
 11
679.9422621619254
 21
31.00000000000205
 31
0.0
  0
LINE
  5
66
330
1F
100
AcDbEntity
  8
Linee visibili 2D
 62
   255
100
AcDbLine
 10
678.9826362283467
 20
31.00000000000205
 30
0.0
 11
679.5491817609959
 21
31.00000000000205
 31
0.0
  0
LINE
  5
67
330
1F
100
AcDbEntity
  8
Linee visibili 2D
 62
   255
100
AcDbLine
 10
651.2712114889425
 20
31.00000000000205
 30
0.0
 11
651.8377570215885
 21
31.00000000000205
 31
0.0
  0
LINE
  5
68
330
1F
100
AcDbEntity
  8
Linee visibili 2D
 62
   255
100
AcDbLine
 10
650.8781310880129
 20
31.00000000000205
 30
0.0
 11
651.2712114889425
 21
31.00000000000205
 31
0.0
  0
LINE
  5
69
330
1F
100
AcDbEntity
  8
Linee visibili 2D
 62
   255
100
AcDbLine
 10
659.9422621619275
 20
31.00000000000205
 30
0.0
 11
660.8781310880129
 21
31.00000000000205
 31
0.0
  0
LINE
  5
6A
330
1F
100
AcDbEntity
  8
Linee visibili 2D
 62
   255
100
AcDbLine
 10
658.9826362283484
 20
31.00000000000205
 30
0.0
 11
659.5491817609972
 21
31.00000000000205
 31
0.0
  0
LINE
  5
6B
330
1F
100
AcDbEntity
  8
Linee visibili 2D
 62
   255
100
AcDbLine
 10
651.8377570215885
 20
31.00000000000205
 30
0.0
 11
658.9826362283484
 21
31.00000000000205
 31
0.0
  0
LINE
  5
6C
330
1F
100
AcDbEntity
  8
Linee visibili 2D
 62
   255
100
AcDbLine
 10
575.0
 20
2099.910196624969
 30
0.0
 11
575.0
 21
439.9101966249686
 31
0.0
  0
LINE
  5
6D
330
1F
100
AcDbEntity
  8
Linee visibili 2D
 62
   255
100
AcDbLine
 10
575.0
 20
439.9101966249686
 30
0.0
 11
577.0
 21
439.9101966249691
 31
0.0
  0
LINE
  5
6E
330
1F
100
AcDbEntity
  8
Linee visibili 2D
 62
   255
100
AcDbLine
 10
725.0
 20
298.4101966249686
 30
0.0
 11
725.0
 21
301.4101966249686
 31
0.0
  0
LINE
  5
6F
330
1F
100
AcDbEntity
  8
Linee visibili 2D
 62
   255
100
AcDbLine
 10
765.0
 20
301.4101966249686
 30
0.0
 11
765.0
 21
298.4101966249686
 31
0.0
  0
LINE
  5
70
330
1F
100
AcDbEntity
  8
Linee visibili 2D
 62
   255
100
AcDbLine
 10
695.0
 20
430.7101966249688
 30
0.0
 11
695.0
 21
310.7101966249688
 31
0.0
  0
LINE
  5
71
330
1F
100
AcDbEntity
  8
Linee visibili 2D
 62
   255
100
AcDbLine
 10
765.0
 20
298.4101966249686
 30
0.0
 11
745.0
 21
298.4101966249686
 31
0.0
  0
LINE
  5
72
330
1F
100
AcDbEntity
  8
Linee visibili 2D
 62
   255
100
AcDbLine
 10
493.0
 20
310.7101966249688
 30
0.0
 11
777.0
 21
310.7101966249688
 31
0.0
  0
LINE
  5
73
330
1F
100
AcDbEntity
  8
Linee visibili 2D
 62
   255
100
AcDbLine
 10
725.0
 20
301.4101966249686
 30
0.0
 11
745.0
 21
301.4101966249686
 31
0.0
  0
LINE
  5
74
330
1F
100
AcDbEntity
  8
Linee visibili 2D
 62
   255
100
AcDbLine
 10
545.0000000000005
 20
298.4101966249686
 30
0.0
 11
545.0000000000005
 21
301.4101966249686
 31
0.0
  0
LINE
  5
75
330
1F
100
AcDbEntity
  8
Linee visibili 2D
 62
   255
100
AcDbLine
 10
505.0000000000005
 20
301.4101966249686
 30
0.0
 11
545.0000000000005
 21
301.4101966249686
 31
0.0
  0
LINE
  5
76
330
1F
100
AcDbEntity
  8
Linee visibili 2D
 62
   255
100
AcDbLine
 10
574.8000000000002
 20
2101.110196624969
 30
0.0
 11
574.8000000000002
 21
2107.910196624969
 31
0.0
  0
LINE
  5
77
330
1F
100
AcDbEntity
  8
Linee visibili 2D
 62
   255
100
AcDbLine
 10
695.2
 20
2107.910196624969
 30
0.0
 11
693.0
 21
2107.910196624969
 31
0.0
  0
LINE
  5
78
330
1F
100
AcDbEntity
  8
Linee visibili 2D
 62
   255
100
AcDbLine
 10
695.2
 20
2101.110196624969
 30
0.0
 11
693.0
 21
2101.110196624969
 31
0.0
  0
ARC
  5
79
330
1F
100
AcDbEntity
  8
Linee visibili 2D
 62
   255
100
AcDbCircle
 10
782.0000000000006
 20
307.7101966249694
 30
0.0
 40
2.999999999999432
100
AcDbArc
 50
359.9999999999891
 51
90.00000000001087
  0
LINE
  5
7A
330
1F
100
AcDbEntity
  8
Linee visibili 2D
 62
   255
100
AcDbLine
 10
785.0
 20
307.7101966249688
 30
0.0
 11
785.0
 21
301.7101966249688
 31
0.0
  0
LINE
  5
7B
330
1F
100
AcDbEntity
  8
Linee visibili 2D
 62
   255
100
AcDbLine
 10
488.0
 20
310.7101966249688
 30
0.0
 11
493.0
 21
310.7101966249688
 31
0.0
  0
LINE
  5
7C
330
1F
100
AcDbEntity
  8
Linee visibili 2D
 62
   255
100
AcDbLine
 10
777.0
 20
301.7101966249688
 30
0.0
 11
493.0
 21
301.7101966249688
 31
0.0
  0
LINE
  5
7D
330
1F
100
AcDbEntity
  8
Linee visibili 2D
 62
   255
100
AcDbLine
 10
681.2712114889405
 20
-84.99999999999795
 30
0.0
 11
680.878131088011
 21
-84.99999999999795
 31
0.0
  0
LINE
  5
7E
330
1F
100
AcDbEntity
  8
Linee visibili 2D
 62
   255
100
AcDbLine
 10
659.5491817609972
 20
-84.99999999999795
 30
0.0
 11
658.9826362283484
 21
-84.99999999999795
 31
0.0
  0
LINE
  5
7F
330
1F
100
AcDbEntity
  8
Linee visibili 2D
 62
   255
100
AcDbLine
 10
669.5491817609972
 20
-84.99999999999795
 30
0.0
 11
668.9826362283484
 21
-84.99999999999795
 31
0.0
  0
LINE
  5
80
330
1F
100
AcDbEntity
  8
Linee visibili 2D
 62
   255
100
AcDbLine
 10
679.5491817609959
 20
-84.99999999999795
 30
0.0
 11
678.9826362283467
 21
-84.99999999999795
 31
0.0
  0
LINE
  5
81
330
1F
100
AcDbEntity
  8
Linee visibili 2D
 62
   255
100
AcDbLine
 10
630.878131088011
 20
31.00000000000205
 30
0.0
 11
631.2712114889405
 21
31.00000000000205
 31
0.0
  0
LINE
  5
82
330
1F
100
AcDbEntity
  8
Linee visibili 2D
 62
   255
100
AcDbLine
 10
589.5491817609959
 20
-84.99999999999795
 30
0.0
 11
589.5491817609959
 21
31.00000000000205
 31
0.0
  0
LINE
  5
83
330
1F
100
AcDbEntity
  8
Linee visibili 2D
 62
   255
100
AcDbLine
 10
651.2712114889425
 20
-59.99999999999795
 30
0.0
 11
658.1101966249705
 21
-59.99999999999795
 31
0.0
  0
LINE
  5
84
330
1F
100
AcDbEntity
  8
Linee visibili 2D
 62
   255
100
AcDbLine
 10
575.2101966249686
 20
-85.00000000000409
 30
0.0
 11
575.2101966249686
 21
30.99999999999591
 31
0.0
  0
ARC
  5
85
330
1F
100
AcDbEntity
  8
Linee visibili 2D
 62
   255
100
AcDbCircle
 10
493.4101966249685
 20
115.0
 30
0.0
 40
8.000000000000057
100
AcDbArc
 50
90.00000000000041
 51
179.9999999999999
  0
LINE
  5
86
330
1F
100
AcDbEntity
  8
Linee visibili 2D
 62
   255
100
AcDbLine
 10
591.2712114889405
 20
31.00000000000205
 30
0.0
 11
591.2712114889405
 21
-84.99999999999795
 31
0.0
  0
LINE
  5
87
330
1F
100
AcDbEntity
  8
Linee visibili 2D
 62
   255
100
AcDbLine
 10
589.9422621619256
 20
31.00000000000205
 30
0.0
 11
589.9422621619256
 21
-84.99999999999795
 31
0.0
  0
LINE
  5
88
330
1F
100
AcDbEntity
  8
Linee visibili 2D
 62
   255
100
AcDbLine
 10
598.9826362283467
 20
-84.99999999999795
 30
0.0
 11
598.9826362283467
 21
31.00000000000205
 31
0.0
  0
LINE
  5
89
330
1F
100
AcDbEntity
  8
Linee visibili 2D
 62
   255
100
AcDbLine
 10
590.8781310880108
 20
-84.99999999999795
 30
0.0
 11
590.8781310880108
 21
31.00000000000205
 31
0.0
  0
LINE
  5
8A
330
1F
100
AcDbEntity
  8
Linee visibili 2D
 62
   255
100
AcDbLine
 10
651.2712114889425
 20
-84.99999999999795
 30
0.0
 11
650.8781310880129
 21
-84.99999999999795
 31
0.0
  0
LINE
  5
8B
330
1F
100
AcDbEntity
  8
Linee visibili 2D
 62
   255
100
AcDbLine
 10
661.2712114889425
 20
-84.99999999999795
 30
0.0
 11
660.8781310880129
 21
-84.99999999999795
 31
0.0
  0
LINE
  5
8C
330
1F
100
AcDbEntity
  8
Linee visibili 2D
 62
   255
100
AcDbLine
 10
671.2712114889425
 20
-84.99999999999795
 30
0.0
 11
670.8781310880129
 21
-84.99999999999795
 31
0.0
  0
LINE
  5
8D
330
1F
100
AcDbEntity
  8
Linee visibili 2D
 62
   255
100
AcDbLine
 10
631.2712114889405
 20
31.00000000000205
 30
0.0
 11
631.8377570215864
 21
31.00000000000205
 31
0.0
  0
LINE
  5
8E
330
1F
100
AcDbEntity
  8
Linee visibili 2D
 62
   255
100
AcDbLine
 10
695.4101966249684
 20
31.0
 30
0.0
 11
695.4101966249684
 21
-85.0
 31
0.0
  0
ARC
  5
8F
330
1F
100
AcDbEntity
  8
Linee visibili 2D
 62
   255
100
AcDbCircle
 10
777.4101966249683
 20
114.9999999999998
 30
0.0
 40
8.00000000000017
100
AcDbArc
 50
0.0000000000012213
 51
89.99999999999919
  0
LINE
  5
90
330
1F
100
AcDbEntity
  8
Linee visibili 2D
 62
   255
100
AcDbLine
 10
641.2712114889405
 20
-59.99999999999795
 30
0.0
 11
649.5491817609972
 21
-59.99999999999795
 31
0.0
  0
ARC
  5
91
330
1F
100
AcDbEntity
  8
Linee visibili 2D
 62
   255
100
AcDbCircle
 10
577.4101966249684
 20
-85.00000000000412
 30
0.0
 40
2.19999999999979
100
AcDbArc
 50
179.9999999999993
 51
270.000000000003
  0
LINE
  5
92
330
1F
100
AcDbEntity
  8
Linee visibili 2D
 62
   255
100
AcDbLine
 10
591.8377570215864
 20
31.00000000000205
 30
0.0
 11
591.8377570215864
 21
-84.99999999999795
 31
0.0
  0
LINE
  5
93
330
1F
100
AcDbEntity
  8
Linee visibili 2D
 62
   255
100
AcDbLine
 10
785.4101966249684
 20
115.0
 30
0.0
 11
785.4101966249684
 21
-169.0
 31
0.0
  0
LINE
  5
94
330
1F
100
AcDbEntity
  8
Linee visibili 2D
 62
   255
100
AcDbLine
 10
598.9826362283467
 20
-84.99999999999795
 30
0.0
 11
591.8377570215864
 21
-84.99999999999795
 31
0.0
  0
LINE
  5
95
330
1F
100
AcDbEntity
  8
Linee visibili 2D
 62
   255
100
AcDbLine
 10
589.5491817609959
 20
-84.99999999999795
 30
0.0
 11
588.9826362283467
 21
-84.99999999999795
 31
0.0
  0
LINE
  5
96
330
1F
100
AcDbEntity
  8
Linee visibili 2D
 62
   255
100
AcDbLine
 10
588.9826362283467
 20
-84.99999999999795
 30
0.0
 11
581.8377570215883
 21
-84.99999999999795
 31
0.0
  0
LINE
  5
97
330
1F
100
AcDbEntity
  8
Linee visibili 2D
 62
   255
100
AcDbLine
 10
689.9422621619254
 20
-84.99999999999795
 30
0.0
 11
689.5491817609959
 21
-84.99999999999795
 31
0.0
  0
LINE
  5
98
330
1F
100
AcDbEntity
  8
Linee visibili 2D
 62
   255
100
AcDbLine
 10
577.2101966249685
 20
30.70000000000005
 30
0.0
 11
577.7101966249685
 21
31.19999999999982
 31
0.0
  0
ARC
  5
99
330
1F
100
AcDbEntity
  8
Linee visibili 2D
 62
   255
100
AcDbCircle
 10
693.4101966249684
 20
30.99999999999608
 30
0.0
 40
2.199999999999871
100
AcDbArc
 50
359.9999999999955
 51
90.0
  0
LINE
  5
9A
330
1F
100
AcDbEntity
  8
Linee visibili 2D
 62
   255
100
AcDbLine
 10
671.8377570215885
 20
31.00000000000205
 30
0.0
 11
678.9826362283467
 21
31.00000000000205
 31
0.0
  0
LINE
  5
9B
330
1F
100
AcDbEntity
  8
Linee visibili 2D
 62
   255
100
AcDbLine
 10
577.4101966249702
 20
31.00000000000205
 30
0.0
 11
577.4101966249702
 21
-84.99999999999795
 31
0.0
  0
LINE
  5
9C
330
1F
100
AcDbEntity
  8
Linee visibili 2D
 62
   255
100
AcDbLine
 10
579.5491817609975
 20
-84.99999999999795
 30
0.0
 11
579.5491817609975
 21
31.00000000000205
 31
0.0
  0
LINE
  5
9D
330
1F
100
AcDbEntity
  8
Linee visibili 2D
 62
   255
100
AcDbLine
 10
691.8377570215864
 20
31.00000000000205
 30
0.0
 11
691.8377570215864
 21
-84.99999999999795
 31
0.0
  0
LINE
  5
9E
330
1F
100
AcDbEntity
  8
Linee visibili 2D
 62
   255
100
AcDbLine
 10
693.4101966249705
 20
31.00000000000205
 30
0.0
 11
693.4101966249705
 21
-84.99999999999795
 31
0.0
  0
LINE
  5
9F
330
1F
100
AcDbEntity
  8
Linee visibili 2D
 62
   255
100
AcDbLine
 10
578.9826362283486
 20
31.00000000000205
 30
0.0
 11
578.9826362283486
 21
-84.99999999999795
 31
0.0
  0
LINE
  5
A0
330
1F
100
AcDbEntity
  8
Linee visibili 2D
 62
   255
100
AcDbLine
 10
579.9422621619274
 20
31.00000000000205
 30
0.0
 11
579.9422621619274
 21
-84.99999999999795
 31
0.0
  0
LINE
  5
A1
330
1F
100
AcDbEntity
  8
Linee visibili 2D
 62
   255
100
AcDbLine
 10
649.9422621619275
 20
-53.14999999999804
 30
0.0
 11
649.549181760997
 21
-53.14999999999804
 31
0.0
  0
LINE
  5
A2
330
1F
100
AcDbEntity
  8
Linee visibili 2D
 62
   255
100
AcDbLine
 10
650.8781310880129
 20
-53.14999999999804
 30
0.0
 11
649.9422621619275
 21
-53.14999999999804
 31
0.0
  0
LINE
  5
A3
330
1F
100
AcDbEntity
  8
Linee visibili 2D
 62
   255
100
AcDbLine
 10
649.9422621619275
 20
-0.8499999999980901
 30
0.0
 11
650.8781310880129
 21
-0.8499999999980901
 31
0.0
  0
LINE
  5
A4
330
1F
100
AcDbEntity
  8
Linee visibili 2D
 62
   255
100
AcDbLine
 10
649.9422621619275
 20
31.00000000000205
 30
0.0
 11
649.9422621619275
 21
-0.8499999999980901
 31
0.0
  0
LINE
  5
A5
330
1F
100
AcDbEntity
  8
Linee visibili 2D
 62
   255
100
AcDbLine
 10
651.2712114889425
 20
-53.14999999999804
 30
0.0
 11
650.8781310880129
 21
-53.14999999999804
 31
0.0
  0
LINE
  5
A6
330
1F
100
AcDbEntity
  8
Linee visibili 2D
 62
   255
100
AcDbLine
 10
649.549181760997
 20
31.00000000000205
 30
0.0
 11
649.549181760997
 21
-0.8499999999980901
 31
0.0
  0
LINE
  5
A7
330
1F
100
AcDbEntity
  8
Linee visibili 2D
 62
   255
100
AcDbLine
 10
649.549181760997
 20
-0.8499999999980901
 30
0.0
 11
649.9422621619275
 21
-0.8499999999980901
 31
0.0
  0
LINE
  5
A8
330
1F
100
AcDbEntity
  8
Linee visibili 2D
 62
   255
100
AcDbLine
 10
693.4101966249684
 20
-87.20000000000391
 30
0.0
 11
577.4101966249685
 21
-87.20000000000391
 31
0.0
  0
LINE
  5
A9
330
1F
100
AcDbEntity
  8
Linee visibili 2D
 62
   255
100
AcDbLine
 10
660.8781310880129
 20
-84.99999999999795
 30
0.0
 11
660.8781310880129
 21
31.00000000000205
 31
0.0
  0
LINE
  5
AA
330
1F
100
AcDbEntity
  8
Linee visibili 2D
 62
   255
100
AcDbLine
 10
661.2712114889425
 20
31.00000000000205
 30
0.0
 11
661.2712114889425
 21
-84.99999999999795
 31
0.0
  0
LINE
  5
AB
330
1F
100
AcDbEntity
  8
Linee visibili 2D
 62
   255
100
AcDbLine
 10
577.7101966249685
 20
31.20000000000005
 30
0.0
 11
693.1101966249685
 21
31.20000000000005
 31
0.0
  0
LINE
  5
AC
330
1F
100
AcDbEntity
  8
Linee visibili 2D
 62
   255
100
AcDbLine
 10
599.5491817609959
 20
-84.99999999999795
 30
0.0
 11
598.9826362283467
 21
-84.99999999999795
 31
0.0
  0
LINE
  5
AD
330
1F
100
AcDbEntity
  8
Linee visibili 2D
 62
   255
100
AcDbLine
 10
589.9422621619256
 20
-84.99999999999795
 30
0.0
 11
589.5491817609959
 21
-84.99999999999795
 31
0.0
  0
LINE
  5
AE
330
1F
100
AcDbEntity
  8
Linee visibili 2D
 62
   255
100
AcDbLine
 10
590.8781310880108
 20
-84.99999999999795
 30
0.0
 11
589.9422621619256
 21
-84.99999999999795
 31
0.0
  0
LINE
  5
AF
330
1F
100
AcDbEntity
  8
Linee visibili 2D
 62
   255
100
AcDbLine
 10
591.8377570215864
 20
-84.99999999999795
 30
0.0
 11
591.2712114889405
 21
-84.99999999999795
 31
0.0
  0
LINE
  5
B0
330
1F
100
AcDbEntity
  8
Linee visibili 2D
 62
   255
100
AcDbLine
 10
591.2712114889405
 20
-84.99999999999795
 30
0.0
 11
590.8781310880108
 21
-84.99999999999795
 31
0.0
  0
LINE
  5
B1
330
1F
100
AcDbEntity
  8
Linee visibili 2D
 62
   255
100
AcDbLine
 10
695.6101966249685
 20
30.99999999999591
 30
0.0
 11
695.6101966249685
 21
-85.00000000000409
 31
0.0
  0
ARC
  5
B2
330
1F
100
AcDbEntity
  8
Linee visibili 2D
 62
   255
100
AcDbCircle
 10
693.4101966249686
 20
-85.00000000000405
 30
0.0
 40
2.199999999999818
100
AcDbArc
 50
269.9999999999941
 51
359.9999999999989
  0
LINE
  5
B3
330
1F
100
AcDbEntity
  8
Linee visibili 2D
 62
   255
100
AcDbLine
 10
619.5491817609959
 20
-53.14999999999804
 30
0.0
 11
619.5491817609959
 21
-84.99999999999795
 31
0.0
  0
LINE
  5
B4
330
1F
100
AcDbEntity
  8
Linee visibili 2D
 62
   255
100
AcDbLine
 10
620.878131088011
 20
-0.8499999999980901
 30
0.0
 11
621.2712114889405
 21
-0.8499999999980901
 31
0.0
  0
LINE
  5
B5
330
1F
100
AcDbEntity
  8
Linee visibili 2D
 62
   255
100
AcDbLine
 10
620.878131088011
 20
31.00000000000205
 30
0.0
 11
620.878131088011
 21
-0.8499999999980901
 31
0.0
  0
LINE
  5
B6
330
1F
100
AcDbEntity
  8
Linee visibili 2D
 62
   255
100
AcDbLine
 10
577.4101966249685
 20
33.19999999999595
 30
0.0
 11
693.4101966249684
 21
33.19999999999595
 31
0.0
  0
LINE
  5
B7
330
1F
100
AcDbEntity
  8
Linee visibili 2D
 62
   255
100
AcDbLine
 10
630.878131088011
 20
-0.8499999999980901
 30
0.0
 11
631.2712114889405
 21
-0.8499999999980901
 31
0.0
  0
LINE
  5
B8
330
1F
100
AcDbEntity
  8
Linee visibili 2D
 62
   255
100
AcDbLine
 10
630.878131088011
 20
-53.14999999999804
 30
0.0
 11
630.878131088011
 21
-84.99999999999795
 31
0.0
  0
LINE
  5
B9
330
1F
100
AcDbEntity
  8
Linee visibili 2D
 62
   255
100
AcDbLine
 10
631.2712114889405
 20
-53.14999999999804
 30
0.0
 11
630.878131088011
 21
-53.14999999999804
 31
0.0
  0
LINE
  5
BA
330
1F
100
AcDbEntity
  8
Linee visibili 2D
 62
   255
100
AcDbLine
 10
628.9826362283467
 20
-59.99999999999795
 30
0.0
 11
628.9826362283467
 21
-84.99999999999795
 31
0.0
  0
LINE
  5
BB
330
1F
100
AcDbEntity
  8
Linee visibili 2D
 62
   255
100
AcDbLine
 10
620.878131088011
 20
-53.14999999999804
 30
0.0
 11
619.9422621619254
 21
-53.14999999999804
 31
0.0
  0
LINE
  5
BC
330
1F
100
AcDbEntity
  8
Linee visibili 2D
 62
   255
100
AcDbLine
 10
621.8377570215864
 20
-59.99999999999795
 30
0.0
 11
621.8377570215864
 21
-84.99999999999795
 31
0.0
  0
LINE
  5
BD
330
1F
100
AcDbEntity
  8
Linee visibili 2D
 62
   255
100
AcDbLine
 10
620.878131088011
 20
-53.14999999999804
 30
0.0
 11
620.878131088011
 21
-84.99999999999795
 31
0.0
  0
LINE
  5
BE
330
1F
100
AcDbEntity
  8
Linee visibili 2D
 62
   255
100
AcDbLine
 10
619.9422621619254
 20
-53.14999999999804
 30
0.0
 11
619.9422621619254
 21
-84.99999999999795
 31
0.0
  0
LINE
  5
BF
330
1F
100
AcDbEntity
  8
Linee visibili 2D
 62
   255
100
AcDbLine
 10
619.9422621619254
 20
-0.8499999999980901
 30
0.0
 11
620.878131088011
 21
-0.8499999999980901
 31
0.0
  0
LINE
  5
C0
330
1F
100
AcDbEntity
  8
Linee visibili 2D
 62
   255
100
AcDbLine
 10
693.1101966249685
 20
31.20000000000005
 30
0.0
 11
693.6101966249685
 21
30.70000000000005
 31
0.0
  0
LINE
  5
C1
330
1F
100
AcDbEntity
  8
Linee visibili 2D
 62
   255
100
AcDbLine
 10
629.9422621619254
 20
-53.14999999999804
 30
0.0
 11
629.9422621619254
 21
-84.99999999999795
 31
0.0
  0
LINE
  5
C2
330
1F
100
AcDbEntity
  8
Linee visibili 2D
 62
   255
100
AcDbLine
 10
638.9826362283467
 20
-59.99999999999795
 30
0.0
 11
638.9826362283467
 21
-84.99999999999795
 31
0.0
  0
LINE
  5
C3
330
1F
100
AcDbEntity
  8
Linee visibili 2D
 62
   255
100
AcDbLine
 10
630.878131088011
 20
-53.14999999999804
 30
0.0
 11
629.9422621619254
 21
-53.14999999999804
 31
0.0
  0
LINE
  5
C4
330
1F
100
AcDbEntity
  8
Linee visibili 2D
 62
   255
100
AcDbLine
 10
693.4101966249684
 20
-87.0
 30
0.0
 11
577.4101966249684
 21
-87.0
 31
0.0
  0
ARC
  5
C5
330
1F
100
AcDbEntity
  8
Linee visibili 2D
 62
   255
100
AcDbCircle
 10
577.4101966249684
 20
-85.00000000000004
 30
0.0
 40
1.999999999999957
100
AcDbArc
 50
179.9999999999988
 51
270.0
  0
LINE
  5
C6
330
1F
100
AcDbEntity
  8
Linee visibili 2D
 62
   255
100
AcDbLine
 10
619.9422621619254
 20
31.00000000000205
 30
0.0
 11
619.9422621619254
 21
-0.8499999999980901
 31
0.0
  0
LINE
  5
C7
330
1F
100
AcDbEntity
  8
Linee visibili 2D
 62
   255
100
AcDbLine
 10
619.9422621619254
 20
-53.14999999999804
 30
0.0
 11
619.5491817609959
 21
-53.14999999999804
 31
0.0
  0
LINE
  5
C8
330
1F
100
AcDbEntity
  8
Linee visibili 2D
 62
   255
100
AcDbLine
 10
693.6101966249685
 20
30.70000000000005
 30
0.0
 11
693.6101966249685
 21
-84.70000000000005
 31
0.0
  0
ARC
  5
C9
330
1F
100
AcDbEntity
  8
Linee visibili 2D
 62
   255
100
AcDbCircle
 10
577.4101966249685
 20
30.99999999999605
 30
0.0
 40
2.199999999999932
100
AcDbArc
 50
90.0
 51
180.0000000000036
  0
LINE
  5
CA
330
1F
100
AcDbEntity
  8
Linee visibili 2D
 62
   255
100
AcDbLine
 10
631.2712114889405
 20
-53.14999999999804
 30
0.0
 11
631.2712114889405
 21
-84.99999999999795
 31
0.0
  0
LINE
  5
CB
330
1F
100
AcDbEntity
  8
Linee visibili 2D
 62
   255
100
AcDbLine
 10
631.8377570215864
 20
31.00000000000205
 30
0.0
 11
631.8377570215864
 21
6.000000000002046
 31
0.0
  0
LINE
  5
CC
330
1F
100
AcDbEntity
  8
Linee visibili 2D
 62
   255
100
AcDbLine
 10
631.8377570215864
 20
-59.99999999999795
 30
0.0
 11
631.8377570215864
 21
-84.99999999999795
 31
0.0
  0
LINE
  5
CD
330
1F
100
AcDbEntity
  8
Linee visibili 2D
 62
   255
100
AcDbLine
 10
630.878131088011
 20
31.00000000000205
 30
0.0
 11
630.878131088011
 21
-0.8499999999980901
 31
0.0
  0
LINE
  5
CE
330
1F
100
AcDbEntity
  8
Linee visibili 2D
 62
   255
100
AcDbLine
 10
631.2712114889405
 20
31.00000000000205
 30
0.0
 11
631.2712114889405
 21
-0.8499999999980901
 31
0.0
  0
LINE
  5
CF
330
1F
100
AcDbEntity
  8
Linee visibili 2D
 62
   255
100
AcDbLine
 10
638.9826362283467
 20
31.00000000000205
 30
0.0
 11
638.9826362283467
 21
6.000000000002046
 31
0.0
  0
LINE
  5
D0
330
1F
100
AcDbEntity
  8
Linee visibili 2D
 62
   255
100
AcDbLine
 10
578.9826362283486
 20
31.00000000000205
 30
0.0
 11
579.5491817609975
 21
31.00000000000205
 31
0.0
  0
LINE
  5
D1
330
1F
100
AcDbEntity
  8
Linee visibili 2D
 62
   255
100
AcDbLine
 10
639.5491817609958
 20
6.000000000002046
 30
0.0
 11
631.2712114889405
 21
6.000000000002046
 31
0.0
  0
ARC
  5
D2
330
1F
100
AcDbEntity
  8
Linee visibili 2D
 62
   255
100
AcDbCircle
 10
658.1101966249712
 20
5.000000000001883
 30
0.0
 40
1.0
100
AcDbArc
 50
0.0000000000093636
 51
89.99999999998697
  0
LINE
  5
D3
330
1F
100
AcDbEntity
  8
Linee visibili 2D
 62
   255
100
AcDbLine
 10
659.1101966249705
 20
-58.99999999999795
 30
0.0
 11
659.1101966249712
 21
5.000000000002046
 31
0.0
  0
ARC
  5
D4
330
1F
100
AcDbEntity
  8
Linee visibili 2D
 62
   255
100
AcDbCircle
 10
658.1101966249707
 20
-58.99999999999809
 30
0.0
 40
0.999999999999865
100
AcDbArc
 50
269.999999999987
 51
0.0000000000077351
  0
LINE
  5
D5
330
1F
100
AcDbEntity
  8
Linee visibili 2D
 62
   255
100
AcDbLine
 10
579.5491817609975
 20
31.00000000000205
 30
0.0
 11
579.9422621619274
 21
31.00000000000205
 31
0.0
  0
LINE
  5
D6
330
1F
100
AcDbEntity
  8
Linee visibili 2D
 62
   255
100
AcDbLine
 10
651.2712114889425
 20
-53.14999999999804
 30
0.0
 11
651.2712114889425
 21
-84.99999999999795
 31
0.0
  0
LINE
  5
D7
330
1F
100
AcDbEntity
  8
Linee visibili 2D
 62
   255
100
AcDbLine
 10
658.9826362283484
 20
5.488721947740032
 30
0.0
 11
658.9826362283484
 21
31.00000000000205
 31
0.0
  0
LINE
  5
D8
330
1F
100
AcDbEntity
  8
Linee visibili 2D
 62
   255
100
AcDbLine
 10
651.8377570215885
 20
31.00000000000205
 30
0.0
 11
651.8377570215885
 21
6.000000000002046
 31
0.0
  0
LINE
  5
D9
330
1F
100
AcDbEntity
  8
Linee visibili 2D
 62
   255
100
AcDbLine
 10
658.9826362283484
 20
-84.99999999999795
 30
0.0
 11
658.9826362283484
 21
-59.4887219477348
 31
0.0
  0
LINE
  5
DA
330
1F
100
AcDbEntity
  8
Linee visibili 2D
 62
   255
100
AcDbLine
 10
688.9826362283467
 20
-84.99999999999795
 30
0.0
 11
688.9826362283467
 21
31.00000000000205
 31
0.0
  0
LINE
  5
DB
330
1F
100
AcDbEntity
  8
Linee visibili 2D
 62
   255
100
AcDbLine
 10
691.2712114889405
 20
31.00000000000205
 30
0.0
 11
691.2712114889405
 21
-84.99999999999795
 31
0.0
  0
LINE
  5
DC
330
1F
100
AcDbEntity
  8
Linee visibili 2D
 62
   255
100
AcDbLine
 10
619.5491817609958
 20
6.000000000002046
 30
0.0
 11
612.6101966249714
 21
6.000000000002046
 31
0.0
  0
LINE
  5
DD
330
1F
100
AcDbEntity
  8
Linee visibili 2D
 62
   255
100
AcDbLine
 10
649.549181760997
 20
6.000000000002046
 30
0.0
 11
641.2712114889405
 21
6.000000000002046
 31
0.0
  0
LINE
  5
DE
330
1F
100
AcDbEntity
  8
Linee visibili 2D
 62
   255
100
AcDbLine
 10
651.8377570215885
 20
-59.99999999999795
 30
0.0
 11
651.8377570215885
 21
-84.99999999999795
 31
0.0
  0
LINE
  5
DF
330
1F
100
AcDbEntity
  8
Linee visibili 2D
 62
   255
100
AcDbLine
 10
629.5491817609959
 20
6.000000000002046
 30
0.0
 11
621.2712114889405
 21
6.000000000002046
 31
0.0
  0
LINE
  5
E0
330
1F
100
AcDbEntity
  8
Linee visibili 2D
 62
   255
100
AcDbLine
 10
658.1101966249714
 20
6.000000000002046
 30
0.0
 11
651.2712114889424
 21
6.000000000002046
 31
0.0
  0
LINE
  5
E1
330
1F
100
AcDbEntity
  8
Linee visibili 2D
 62
   255
100
AcDbLine
 10
689.9422621619254
 20
31.00000000000205
 30
0.0
 11
689.9422621619254
 21
-84.99999999999795
 31
0.0
  0
LINE
  5
E2
330
1F
100
AcDbEntity
  8
Linee visibili 2D
 62
   255
100
AcDbLine
 10
690.8781310880108
 20
-84.99999999999795
 30
0.0
 11
690.8781310880108
 21
31.00000000000205
 31
0.0
  0
LINE
  5
E3
330
1F
100
AcDbEntity
  8
Linee visibili 2D
 62
   255
100
AcDbLine
 10
689.5491817609959
 20
-84.99999999999795
 30
0.0
 11
689.5491817609959
 21
31.00000000000205
 31
0.0
  0
LINE
  5
E4
330
1F
100
AcDbEntity
  8
Linee visibili 2D
 62
   255
100
AcDbLine
 10
650.8781310880129
 20
31.00000000000205
 30
0.0
 11
650.8781310880129
 21
-0.8499999999980901
 31
0.0
  0
LINE
  5
E5
330
1F
100
AcDbEntity
  8
Linee visibili 2D
 62
   255
100
AcDbLine
 10
650.8781310880129
 20
-0.8499999999980901
 30
0.0
 11
651.2712114889425
 21
-0.8499999999980901
 31
0.0
  0
LINE
  5
E6
330
1F
100
AcDbEntity
  8
Linee visibili 2D
 62
   255
100
AcDbLine
 10
651.2712114889425
 20
31.00000000000205
 30
0.0
 11
651.2712114889425
 21
-0.8499999999980901
 31
0.0
  0
LINE
  5
E7
330
1F
100
AcDbEntity
  8
Linee visibili 2D
 62
   255
100
AcDbLine
 10
640.878131088011
 20
-0.8499999999980901
 30
0.0
 11
641.2712114889405
 21
-0.8499999999980901
 31
0.0
  0
LINE
  5
E8
330
1F
100
AcDbEntity
  8
Linee visibili 2D
 62
   255
100
AcDbLine
 10
640.878131088011
 20
-53.14999999999804
 30
0.0
 11
640.878131088011
 21
-84.99999999999795
 31
0.0
  0
LINE
  5
E9
330
1F
100
AcDbEntity
  8
Linee visibili 2D
 62
   255
100
AcDbLine
 10
688.9826362283467
 20
31.00000000000205
 30
0.0
 11
689.5491817609959
 21
31.00000000000205
 31
0.0
  0
LINE
  5
EA
330
1F
100
AcDbEntity
  8
Linee visibili 2D
 62
   255
100
AcDbLine
 10
691.2712114889405
 20
31.00000000000205
 30
0.0
 11
691.8377570215864
 21
31.00000000000205
 31
0.0
  0
LINE
  5
EB
330
1F
100
AcDbEntity
  8
Linee visibili 2D
 62
   255
100
AcDbLine
 10
689.9422621619254
 20
31.00000000000205
 30
0.0
 11
690.8781310880108
 21
31.00000000000205
 31
0.0
  0
LINE
  5
EC
330
1F
100
AcDbEntity
  8
Linee visibili 2D
 62
   255
100
AcDbLine
 10
690.8781310880108
 20
31.00000000000205
 30
0.0
 11
691.2712114889405
 21
31.00000000000205
 31
0.0
  0
LINE
  5
ED
330
1F
100
AcDbEntity
  8
Linee visibili 2D
 62
   255
100
AcDbLine
 10
681.8377570215864
 20
31.00000000000205
 30
0.0
 11
688.9826362283467
 21
31.00000000000205
 31
0.0
  0
LINE
  5
EE
330
1F
100
AcDbEntity
  8
Linee visibili 2D
 62
   255
100
AcDbLine
 10
689.5491817609959
 20
31.00000000000205
 30
0.0
 11
689.9422621619254
 21
31.00000000000205
 31
0.0
  0
LINE
  5
EF
330
1F
100
AcDbEntity
  8
Linee visibili 2D
 62
   255
100
AcDbLine
 10
640.878131088011
 20
-53.14999999999804
 30
0.0
 11
639.9422621619254
 21
-53.14999999999804
 31
0.0
  0
LINE
  5
F0
330
1F
100
AcDbEntity
  8
Linee visibili 2D
 62
   255
100
AcDbLine
 10
640.878131088011
 20
31.00000000000205
 30
0.0
 11
640.878131088011
 21
-0.8499999999980901
 31
0.0
  0
LINE
  5
F1
330
1F
100
AcDbEntity
  8
Linee visibili 2D
 62
   255
100
AcDbLine
 10
92.00000000000018
 20
439.9101966249691
 30
0.0
 11
90.00000000000018
 21
439.9101966249691
 31
0.0
  0
LINE
  5
F2
330
1F
100
AcDbEntity
  8
Linee visibili 2D
 62
   255
100
AcDbLine
 10
90.00000000000018
 20
439.9101966249691
 30
0.0
 11
90.00000000000018
 21
2099.910196624969
 31
0.0
  0
ARC
  5
F3
330
1F
100
AcDbEntity
  8
Linee visibili 2D
 62
   255
100
AcDbCircle
 10
297.0000000000006
 20
307.7101966249693
 30
0.0
 40
2.999999999999545
100
AcDbArc
 50
359.9999999999913
 51
90.00000000001087
  0
ARC
  5
F4
330
1F
100
AcDbEntity
  8
Linee visibili 2D
 62
   255
100
AcDbCircle
 10
2.999999999999875
 20
307.7101966249689
 30
0.0
 40
2.999999999999875
100
AcDbArc
 50
89.99999999999761
 51
180.0000000000011
  0
LINE
  5
F5
330
1F
100
AcDbEntity
  8
Linee visibili 2D
 62
   255
100
AcDbLine
 10
0.0
 20
301.7101966249688
 30
0.0
 11
0.0
 21
307.7101966249688
 31
0.0
  0
LINE
  5
F6
330
1F
100
AcDbEntity
  8
Linee visibili 2D
 62
   255
100
AcDbLine
 10
300.0
 20
307.7101966249688
 30
0.0
 11
300.0
 21
301.7101966249688
 31
0.0
  0
LINE
  5
F7
330
1F
100
AcDbEntity
  8
Linee visibili 2D
 62
   255
100
AcDbLine
 10
292.0
 20
310.7101966249688
 30
0.0
 11
297.0
 21
310.7101966249688
 31
0.0
  0
LINE
  5
F8
330
1F
100
AcDbEntity
  8
Linee visibili 2D
 62
   255
100
AcDbLine
 10
8.0
 20
310.7101966249688
 30
0.0
 11
292.0
 21
310.7101966249688
 31
0.0
  0
LINE
  5
F9
330
1F
100
AcDbEntity
  8
Linee visibili 2D
 62
   255
100
AcDbLine
 10
3.0
 20
310.7101966249688
 30
0.0
 11
8.0
 21
310.7101966249688
 31
0.0
  0
LINE
  5
FA
330
1F
100
AcDbEntity
  8
Linee visibili 2D
 62
   255
100
AcDbLine
 10
8.0
 20
301.7101966249688
 30
0.0
 11
0.0
 21
301.7101966249688
 31
0.0
  0
LINE
  5
FB
330
1F
100
AcDbEntity
  8
Linee visibili 2D
 62
   255
100
AcDbLine
 10
292.0
 20
301.7101966249688
 30
0.0
 11
8.0
 21
301.7101966249688
 31
0.0
  0
LINE
  5
FC
330
1F
100
AcDbEntity
  8
Linee visibili 2D
 62
   255
100
AcDbLine
 10
300.0
 20
301.7101966249688
 30
0.0
 11
292.0
 21
301.7101966249688
 31
0.0
  0
LINE
  5
FD
330
1F
100
AcDbEntity
  8
Linee visibili 2D
 62
   255
100
AcDbLine
 10
209.5999999701202
 20
438.7101983368188
 30
0.0
 11
209.5790539220867
 21
439.9101966249691
 31
0.0
  0
LINE
  5
FE
330
1F
100
AcDbEntity
  8
Linee visibili 2D
 62
   255
100
AcDbLine
 10
90.42094607791432
 20
439.9101966249691
 30
0.0
 11
90.40000000000049
 21
438.7101966249688
 31
0.0
  0
LINE
  5
FF
330
1F
100
AcDbEntity
  8
Linee visibili 2D
 62
   255
100
AcDbLine
 10
210.200000000001
 20
435.3101966249687
 30
0.0
 11
210.2000000000006
 21
438.7101966249688
 31
0.0
  0
LINE
  5
100
330
1F
100
AcDbEntity
  8
Linee visibili 2D
 62
   255
100
AcDbLine
 10
210.2000000000006
 20
438.7101966249688
 30
0.0
 11
208.000000000001
 21
438.7101966249688
 31
0.0
  0
LINE
  5
101
330
1F
100
AcDbEntity
  8
Linee visibili 2D
 62
   255
100
AcDbLine
 10
208.000000000001
 20
438.7101966249688
 30
0.0
 11
92.0000000000005
 21
438.7101966249688
 31
0.0
  0
LINE
  5
102
330
1F
100
AcDbEntity
  8
Linee visibili 2D
 62
   255
100
AcDbLine
 10
92.0000000000005
 20
438.7101966249688
 30
0.0
 11
89.8000000000006
 21
438.7101966249688
 31
0.0
  0
LINE
  5
103
330
1F
100
AcDbEntity
  8
Linee visibili 2D
 62
   255
100
AcDbLine
 10
89.80000000000054
 20
435.3101966249687
 30
0.0
 11
89.80000000000057
 21
438.7101966249688
 31
0.0
  0
LINE
  5
104
330
1F
100
AcDbEntity
  8
Linee visibili 2D
 62
   255
100
AcDbLine
 10
209.5790539220867
 20
430.7101966249688
 30
0.0
 11
209.5999999701202
 21
431.9101949131191
 31
0.0
  0
LINE
  5
105
330
1F
100
AcDbEntity
  8
Linee visibili 2D
 62
   255
100
AcDbLine
 10
90.40000002988094
 20
431.9101949131191
 30
0.0
 11
90.42094607791432
 21
430.7101966249688
 31
0.0
  0
LINE
  5
106
330
1F
100
AcDbEntity
  8
Linee visibili 2D
 62
   255
100
AcDbLine
 10
208.000000000001
 20
431.9101966249691
 30
0.0
 11
210.2000000000006
 21
431.9101966249691
 31
0.0
  0
LINE
  5
107
330
1F
100
AcDbEntity
  8
Linee visibili 2D
 62
   255
100
AcDbLine
 10
210.2000000000006
 20
431.9101966249691
 30
0.0
 11
210.200000000001
 21
435.3101966249687
 31
0.0
  0
LINE
  5
108
330
1F
100
AcDbEntity
  8
Linee visibili 2D
 62
   255
100
AcDbLine
 10
92.0000000000005
 20
431.9101966249691
 30
0.0
 11
208.000000000001
 21
431.9101966249691
 31
0.0
  0
LINE
  5
109
330
1F
100
AcDbEntity
  8
Linee visibili 2D
 62
   255
100
AcDbLine
 10
89.8000000000006
 20
431.9101966249691
 30
0.0
 11
92.0000000000005
 21
431.9101966249691
 31
0.0
  0
LINE
  5
10A
330
1F
100
AcDbEntity
  8
Linee visibili 2D
 62
   255
100
AcDbLine
 10
89.80000000000057
 20
431.9101966249691
 30
0.0
 11
89.80000000000054
 21
435.3101966249687
 31
0.0
  0
LINE
  5
10B
330
1F
100
AcDbEntity
  8
Linee visibili 2D
 62
   255
100
AcDbLine
 10
208.0
 20
2229.110196624969
 30
0.0
 11
92.0
 21
2229.110196624969
 31
0.0
  0
LINE
  5
10C
330
1F
100
AcDbEntity
  8
Linee visibili 2D
 62
   255
100
AcDbLine
 10
92.0
 20
2229.110196624969
 30
0.0
 11
90.0
 21
2229.110196624969
 31
0.0
  0
LINE
  5
10D
330
1F
100
AcDbEntity
  8
Linee visibili 2D
 62
   255
100
AcDbLine
 10
90.0
 20
2109.110196624969
 30
0.0
 11
90.0
 21
2229.110196624969
 31
0.0
  0
LINE
  5
10E
330
1F
100
AcDbEntity
  8
Linee visibili 2D
 62
   255
100
AcDbLine
 10
210.0
 20
2229.110196624969
 30
0.0
 11
208.0
 21
2229.110196624969
 31
0.0
  0
LINE
  5
10F
330
1F
100
AcDbEntity
  8
Linee visibili 2D
 62
   255
100
AcDbLine
 10
210.0
 20
2109.110196624969
 30
0.0
 11
210.0
 21
2229.110196624969
 31
0.0
  0
LINE
  5
110
330
1F
100
AcDbEntity
  8
Linee visibili 2D
 62
   255
100
AcDbLine
 10
210.0
 20
2109.110196624969
 30
0.0
 11
208.0
 21
2109.110196624969
 31
0.0
  0
LINE
  5
111
330
1F
100
AcDbEntity
  8
Linee visibili 2D
 62
   255
100
AcDbLine
 10
92.0
 20
2109.110196624969
 30
0.0
 11
90.0
 21
2109.110196624969
 31
0.0
  0
LINE
  5
112
330
1F
100
AcDbEntity
  8
Linee visibili 2D
 62
   255
100
AcDbLine
 10
208.0
 20
2109.110196624969
 30
0.0
 11
92.0
 21
2109.110196624969
 31
0.0
  0
LINE
  5
113
330
1F
100
AcDbEntity
  8
Linee visibili 2D
 62
   255
100
AcDbLine
 10
208.5
 20
2101.110196624972
 30
0.0
 11
208.5
 21
2099.910196624969
 31
0.0
  0
LINE
  5
114
330
1F
100
AcDbEntity
  8
Linee visibili 2D
 62
   255
100
AcDbLine
 10
207.0
 20
2099.910196624969
 30
0.0
 11
207.0
 21
2101.110196624972
 31
0.0
  0
LINE
  5
115
330
1F
100
AcDbEntity
  8
Linee visibili 2D
 62
   255
100
AcDbLine
 10
208.0
 20
2099.910196624969
 30
0.0
 11
199.0
 21
2099.910196624969
 31
0.0
  0
LINE
  5
116
330
1F
100
AcDbEntity
  8
Linee visibili 2D
 62
   255
100
AcDbLine
 10
199.0
 20
439.9101966249691
 30
0.0
 11
208.0
 21
439.9101966249691
 31
0.0
  0
LINE
  5
117
330
1F
100
AcDbEntity
  8
Linee visibili 2D
 62
   255
100
AcDbLine
 10
210.0
 20
2099.910196624969
 30
0.0
 11
208.0
 21
2099.910196624969
 31
0.0
  0
LINE
  5
118
330
1F
100
AcDbEntity
  8
Linee visibili 2D
 62
   255
100
AcDbLine
 10
208.0
 20
439.9101966249691
 30
0.0
 11
210.0
 21
439.9101966249691
 31
0.0
  0
LINE
  5
119
330
1F
100
AcDbEntity
  8
Linee visibili 2D
 62
   255
100
AcDbLine
 10
210.0
 20
2099.910196624969
 30
0.0
 11
210.0
 21
439.9101966249691
 31
0.0
  0
LINE
  5
11A
330
1F
100
AcDbEntity
  8
Linee visibili 2D
 62
   255
100
AcDbLine
 10
208.0
 20
430.7101966249688
 30
0.0
 11
210.0
 21
430.7101966249688
 31
0.0
  0
LINE
  5
11B
330
1F
100
AcDbEntity
  8
Linee visibili 2D
 62
   255
100
AcDbLine
 10
208.0
 20
430.7101966249688
 30
0.0
 11
90.0
 21
430.7101966249688
 31
0.0
  0
ARC
  5
11C
330
1F
100
AcDbEntity
  8
Linee visibili 2D
 62
   255
100
AcDbCircle
 10
196.9999999999983
 20
2102.910196624966
 30
0.0
 40
2.999999999997272
100
AcDbArc
 50
216.8698976456486
 51
270.0000000000331
  0
LINE
  5
11D
330
1F
100
AcDbEntity
  8
Linee visibili 2D
 62
   255
100
AcDbLine
 10
91.50000000000018
 20
2101.110196624969
 30
0.0
 11
91.50000000000018
 21
2099.910196624969
 31
0.0
  0
LINE
  5
11E
330
1F
100
AcDbEntity
  8
Linee visibili 2D
 62
   255
100
AcDbLine
 10
574.8
 20
431.9101966249691
 30
0.0
 11
574.8
 21
435.3101966249692
 31
0.0
  0
LINE
  5
11F
330
1F
100
AcDbEntity
  8
Linee visibili 2D
 62
   255
100
AcDbLine
 10
695.0
 20
2229.110196624969
 30
0.0
 11
693.0
 21
2229.110196624969
 31
0.0
  0
LINE
  5
120
330
1F
100
AcDbEntity
  8
Linee visibili 2D
 62
   255
100
AcDbLine
 10
695.0
 20
2109.110196624969
 30
0.0
 11
695.0
 21
2229.110196624969
 31
0.0
  0
LINE
  5
121
330
1F
100
AcDbEntity
  8
Linee visibili 2D
 62
   255
100
AcDbLine
 10
693.0
 20
2229.110196624969
 30
0.0
 11
577.0
 21
2229.110196624969
 31
0.0
  0
LINE
  5
122
330
1F
100
AcDbEntity
  8
Linee visibili 2D
 62
   255
100
AcDbLine
 10
575.0
 20
2109.110196624969
 30
0.0
 11
575.0
 21
2229.110196624969
 31
0.0
  0
LINE
  5
123
330
1F
100
AcDbEntity
  8
Linee visibili 2D
 62
   255
100
AcDbLine
 10
693.0
 20
2109.110196624969
 30
0.0
 11
577.0
 21
2109.110196624969
 31
0.0
  0
LINE
  5
124
330
1F
100
AcDbEntity
  8
Linee visibili 2D
 62
   255
100
AcDbLine
 10
576.5
 20
2099.910196624969
 30
0.0
 11
576.5
 21
2101.110196624972
 31
0.0
  0
LINE
  5
125
330
1F
100
AcDbEntity
  8
Linee visibili 2D
 62
   255
100
AcDbLine
 10
575.0
 20
430.7101966249688
 30
0.0
 11
575.0
 21
310.7101966249688
 31
0.0
  0
LINE
  5
126
330
1F
100
AcDbEntity
  8
Linee visibili 2D
 62
   255
100
AcDbLine
 10
695.0
 20
430.7101966249688
 30
0.0
 11
575.0
 21
430.7101966249688
 31
0.0
  0
LINE
  5
127
330
1F
100
AcDbEntity
  8
Linee visibili 2D
 62
   255
100
AcDbLine
 10
693.5
 20
2101.110196624968
 30
0.0
 11
693.5
 21
2099.910196624969
 31
0.0
  0
LINE
  5
128
330
1F
100
AcDbEntity
  8
Linee visibili 2D
 62
   255
100
AcDbLine
 10
586.0
 20
2099.910196624969
 30
0.0
 11
586.0
 21
439.9101966249691
 31
0.0
  0
LINE
  5
129
330
1F
100
AcDbEntity
  8
Linee visibili 2D
 62
   255
100
AcDbLine
 10
695.0
 20
2099.910196624969
 30
0.0
 11
695.0
 21
439.9101966249691
 31
0.0
  0
LINE
  5
12A
330
1F
100
AcDbEntity
  8
Linee visibili 2D
 62
   255
100
AcDbLine
 10
586.0
 20
2099.910196624969
 30
0.0
 11
693.0
 21
2099.910196624969
 31
0.0
  0
LINE
  5
12B
330
1F
100
AcDbEntity
  8
Linee visibili 2D
 62
   255
100
AcDbLine
 10
240.0
 20
298.4101966249691
 30
0.0
 11
240.0
 21
301.4101966249691
 31
0.0
  0
LINE
  5
12C
330
1F
100
AcDbEntity
  8
Linee visibili 2D
 62
   255
100
AcDbLine
 10
280.0
 20
301.4101966249691
 30
0.0
 11
280.0
 21
298.4101966249691
 31
0.0
  0
LINE
  5
12D
330
1F
100
AcDbEntity
  8
Linee visibili 2D
 62
   255
100
AcDbLine
 10
210.0
 20
430.7101966249688
 30
0.0
 11
210.0
 21
310.7101966249688
 31
0.0
  0
LINE
  5
12E
330
1F
100
AcDbEntity
  8
Linee visibili 2D
 62
   255
100
AcDbLine
 10
90.0
 20
310.7101966249688
 30
0.0
 11
90.0
 21
430.7101966249688
 31
0.0
  0
LINE
  5
12F
330
1F
100
AcDbEntity
  8
Linee visibili 2D
 62
   255
100
AcDbLine
 10
280.0
 20
298.4101966249691
 30
0.0
 11
260.0
 21
298.4101966249691
 31
0.0
  0
LINE
  5
130
330
1F
100
AcDbEntity
  8
Linee visibili 2D
 62
   255
100
AcDbLine
 10
260.0
 20
298.4101966249691
 30
0.0
 11
240.0
 21
298.4101966249691
 31
0.0
  0
LINE
  5
131
330
1F
100
AcDbEntity
  8
Linee visibili 2D
 62
   255
100
AcDbLine
 10
260.0
 20
301.4101966249691
 30
0.0
 11
280.0
 21
301.4101966249691
 31
0.0
  0
LINE
  5
132
330
1F
100
AcDbEntity
  8
Linee visibili 2D
 62
   255
100
AcDbLine
 10
240.0
 20
301.4101966249691
 30
0.0
 11
260.0
 21
301.4101966249691
 31
0.0
  0
LINE
  5
133
330
1F
100
AcDbEntity
  8
Linee visibili 2D
 62
   255
100
AcDbLine
 10
20.0
 20
301.4101966249691
 30
0.0
 11
20.0
 21
298.4101966249691
 31
0.0
  0
LINE
  5
134
330
1F
100
AcDbEntity
  8
Linee visibili 2D
 62
   255
100
AcDbLine
 10
60.0
 20
298.4101966249691
 30
0.0
 11
60.0
 21
301.4101966249691
 31
0.0
  0
LINE
  5
135
330
1F
100
AcDbEntity
  8
Linee visibili 2D
 62
   255
100
AcDbLine
 10
60.0
 20
298.4101966249691
 30
0.0
 11
20.0
 21
298.4101966249691
 31
0.0
  0
LINE
  5
136
330
1F
100
AcDbEntity
  8
Linee visibili 2D
 62
   255
100
AcDbLine
 10
20.0
 20
301.4101966249691
 30
0.0
 11
60.0
 21
301.4101966249691
 31
0.0
  0
LINE
  5
137
330
1F
100
AcDbEntity
  8
Linee visibili 2D
 62
   255
100
AcDbLine
 10
210.199999999996
 20
2101.110196624969
 30
0.0
 11
210.199999999996
 21
2107.910196624969
 31
0.0
  0
LINE
  5
138
330
1F
100
AcDbEntity
  8
Linee visibili 2D
 62
   255
100
AcDbLine
 10
89.79999999999602
 20
2107.910196624969
 30
0.0
 11
89.799999999996
 21
2101.110196624969
 31
0.0
  0
LINE
  5
139
330
1F
100
AcDbEntity
  8
Linee visibili 2D
 62
   255
100
AcDbLine
 10
92.00000000000018
 20
439.9101966249691
 30
0.0
 11
199.0
 21
439.9101966249691
 31
0.0
  0
LINE
  5
13A
330
1F
100
AcDbEntity
  8
Linee visibili 2D
 62
   255
100
AcDbLine
 10
91.999999999996
 20
2107.910196624969
 30
0.0
 11
89.79999999999602
 21
2107.910196624969
 31
0.0
  0
LINE
  5
13B
330
1F
100
AcDbEntity
  8
Linee visibili 2D
 62
   255
100
AcDbLine
 10
207.999999999996
 20
2107.910196624969
 30
0.0
 11
91.999999999996
 21
2107.910196624969
 31
0.0
  0
LINE
  5
13C
330
1F
100
AcDbEntity
  8
Linee visibili 2D
 62
   255
100
AcDbLine
 10
210.199999999996
 20
2107.910196624969
 30
0.0
 11
207.999999999996
 21
2107.910196624969
 31
0.0
  0
LINE
  5
13D
330
1F
100
AcDbEntity
  8
Linee visibili 2D
 62
   255
100
AcDbLine
 10
210.199999999996
 20
2101.110196624969
 30
0.0
 11
89.799999999996
 21
2101.110196624969
 31
0.0
  0
LINE
  5
13E
330
1F
100
AcDbEntity
  8
Linee visibili 2D
 62
   255
100
AcDbLine
 10
601.8377570215864
 20
-84.99999999999795
 30
0.0
 11
601.2712114889405
 21
-84.99999999999795
 31
0.0
  0
LINE
  5
13F
330
1F
100
AcDbEntity
  8
Linee visibili 2D
 62
   255
100
AcDbLine
 10
600.8781310880108
 20
-84.99999999999795
 30
0.0
 11
599.9422621619256
 21
-84.99999999999795
 31
0.0
  0
LINE
  5
140
330
1F
100
AcDbEntity
  8
Linee visibili 2D
 62
   255
100
AcDbLine
 10
609.9422621619256
 20
-84.99999999999795
 30
0.0
 11
609.5491817609959
 21
-84.99999999999795
 31
0.0
  0
LINE
  5
141
330
1F
100
AcDbEntity
  8
Linee visibili 2D
 62
   255
100
AcDbLine
 10
608.9826362283467
 20
-84.99999999999795
 30
0.0
 11
601.8377570215864
 21
-84.99999999999795
 31
0.0
  0
LINE
  5
142
330
1F
100
AcDbEntity
  8
Linee visibili 2D
 62
   255
100
AcDbLine
 10
661.8377570215885
 20
31.00000000000205
 30
0.0
 11
661.8377570215885
 21
-84.99999999999795
 31
0.0
  0
LINE
  5
143
330
1F
100
AcDbEntity
  8
Linee visibili 2D
 62
   255
100
AcDbLine
 10
621.8377570215864
 20
31.00000000000205
 30
0.0
 11
621.8377570215864
 21
6.000000000002046
 31
0.0
  0
LINE
  5
144
330
1F
100
AcDbEntity
  8
Linee visibili 2D
 62
   255
100
AcDbLine
 10
628.9826362283467
 20
31.00000000000205
 30
0.0
 11
628.9826362283467
 21
6.000000000002046
 31
0.0
  0
LINE
  5
145
330
1F
100
AcDbEntity
  8
Linee visibili 2D
 62
   255
100
AcDbLine
 10
621.2712114889405
 20
-53.14999999999804
 30
0.0
 11
620.878131088011
 21
-53.14999999999804
 31
0.0
  0
LINE
  5
146
330
1F
100
AcDbEntity
  8
Linee visibili 2D
 62
   255
100
AcDbLine
 10
621.2712114889405
 20
31.00000000000205
 30
0.0
 11
621.2712114889405
 21
-0.8499999999980901
 31
0.0
  0
LINE
  5
147
330
1F
100
AcDbEntity
  8
Linee visibili 2D
 62
   255
100
AcDbLine
 10
621.2712114889405
 20
-53.14999999999804
 30
0.0
 11
621.2712114889405
 21
-84.99999999999795
 31
0.0
  0
LINE
  5
148
330
1F
100
AcDbEntity
  8
Linee visibili 2D
 62
   255
100
AcDbLine
 10
669.9422621619275
 20
31.00000000000205
 30
0.0
 11
670.8781310880129
 21
31.00000000000205
 31
0.0
  0
LINE
  5
149
330
1F
100
AcDbEntity
  8
Linee visibili 2D
 62
   255
100
AcDbLine
 10
671.2712114889425
 20
31.00000000000205
 30
0.0
 11
671.8377570215885
 21
31.00000000000205
 31
0.0
  0
LINE
  5
14A
330
1F
100
AcDbEntity
  8
Linee visibili 2D
 62
   255
100
AcDbLine
 10
690.8781310880108
 20
-84.99999999999795
 30
0.0
 11
689.9422621619254
 21
-84.99999999999795
 31
0.0
  0
LINE
  5
14B
330
1F
100
AcDbEntity
  8
Linee visibili 2D
 62
   255
100
AcDbLine
 10
691.2712114889405
 20
-84.99999999999795
 30
0.0
 11
690.8781310880108
 21
-84.99999999999795
 31
0.0
  0
LINE
  5
14C
330
1F
100
AcDbEntity
  8
Linee visibili 2D
 62
   255
100
AcDbLine
 10
693.4101966249705
 20
-84.99999999999795
 30
0.0
 11
691.8377570215864
 21
-84.99999999999795
 31
0.0
  0
LINE
  5
14D
330
1F
100
AcDbEntity
  8
Linee visibili 2D
 62
   255
100
AcDbLine
 10
579.5491817609975
 20
-84.99999999999795
 30
0.0
 11
578.9826362283486
 21
-84.99999999999795
 31
0.0
  0
LINE
  5
14E
330
1F
100
AcDbEntity
  8
Linee visibili 2D
 62
   255
100
AcDbLine
 10
691.8377570215864
 20
-84.99999999999795
 30
0.0
 11
691.2712114889405
 21
-84.99999999999795
 31
0.0
  0
LINE
  5
14F
330
1F
100
AcDbEntity
  8
Linee visibili 2D
 62
   255
100
AcDbLine
 10
578.9826362283486
 20
-84.99999999999795
 30
0.0
 11
577.4101966249702
 21
-84.99999999999795
 31
0.0
  0
LINE
  5
150
330
1F
100
AcDbEntity
  8
Linee visibili 2D
 62
   255
100
AcDbLine
 10
588.9826362283467
 20
-84.99999999999795
 30
0.0
 11
588.9826362283467
 21
31.00000000000205
 31
0.0
  0
LINE
  5
151
330
1F
100
AcDbEntity
  8
Linee visibili 2D
 62
   255
100
AcDbLine
 10
601.2712114889405
 20
-84.99999999999795
 30
0.0
 11
600.8781310880108
 21
-84.99999999999795
 31
0.0
  0
LINE
  5
152
330
1F
100
AcDbEntity
  8
Linee visibili 2D
 62
   255
100
AcDbLine
 10
599.9422621619256
 20
-84.99999999999795
 30
0.0
 11
599.5491817609959
 21
-84.99999999999795
 31
0.0
  0
LINE
  5
153
330
1F
100
AcDbEntity
  8
Linee visibili 2D
 62
   255
100
AcDbLine
 10
609.5491817609959
 20
-84.99999999999795
 30
0.0
 11
608.9826362283467
 21
-84.99999999999795
 31
0.0
  0
LINE
  5
154
330
1F
100
AcDbEntity
  8
Linee visibili 2D
 62
   255
100
AcDbLine
 10
691.8377570215864
 20
31.00000000000205
 30
0.0
 11
693.4101966249705
 21
31.00000000000205
 31
0.0
  0
LINE
  5
155
330
1F
100
AcDbEntity
  8
Linee visibili 2D
 62
   255
100
AcDbLine
 10
581.2712114889424
 20
31.00000000000205
 30
0.0
 11
581.8377570215883
 21
31.00000000000205
 31
0.0
  0
LINE
  5
156
330
1F
100
AcDbEntity
  8
Linee visibili 2D
 62
   255
100
AcDbLine
 10
609.9422621619256
 20
31.00000000000205
 30
0.0
 11
609.9422621619256
 21
-84.99999999999795
 31
0.0
  0
LINE
  5
157
330
1F
100
AcDbEntity
  8
Linee visibili 2D
 62
   255
100
AcDbLine
 10
485.0
 20
301.7101966249688
 30
0.0
 11
485.0
 21
307.7101966249688
 31
0.0
  0
LINE
  5
158
330
1F
100
AcDbEntity
  8
Linee visibili 2D
 62
   255
100
AcDbLine
 10
493.0
 20
301.7101966249688
 30
0.0
 11
485.0
 21
301.7101966249688
 31
0.0
  0
LINE
  5
159
330
1F
100
AcDbEntity
  8
Linee visibili 2D
 62
   255
100
AcDbLine
 10
777.0
 20
310.7101966249688
 30
0.0
 11
782.0
 21
310.7101966249688
 31
0.0
  0
LINE
  5
15A
330
1F
100
AcDbEntity
  8
Linee visibili 2D
 62
   255
100
AcDbLine
 10
679.9422621619254
 20
-84.99999999999795
 30
0.0
 11
679.5491817609959
 21
-84.99999999999795
 31
0.0
  0
LINE
  5
15B
330
1F
100
AcDbEntity
  8
Linee visibili 2D
 62
   255
100
AcDbLine
 10
680.878131088011
 20
-84.99999999999795
 30
0.0
 11
679.9422621619254
 21
-84.99999999999795
 31
0.0
  0
LINE
  5
15C
330
1F
100
AcDbEntity
  8
Linee visibili 2D
 62
   255
100
AcDbLine
 10
649.549181760997
 20
-84.99999999999795
 30
0.0
 11
648.9826362283484
 21
-84.99999999999795
 31
0.0
  0
LINE
  5
15D
330
1F
100
AcDbEntity
  8
Linee visibili 2D
 62
   255
100
AcDbLine
 10
649.9422621619275
 20
-84.99999999999795
 30
0.0
 11
649.549181760997
 21
-84.99999999999795
 31
0.0
  0
LINE
  5
15E
330
1F
100
AcDbEntity
  8
Linee visibili 2D
 62
   255
100
AcDbLine
 10
650.8781310880129
 20
-84.99999999999795
 30
0.0
 11
649.9422621619275
 21
-84.99999999999795
 31
0.0
  0
LINE
  5
15F
330
1F
100
AcDbEntity
  8
Linee visibili 2D
 62
   255
100
AcDbLine
 10
658.9826362283484
 20
-84.99999999999795
 30
0.0
 11
651.8377570215885
 21
-84.99999999999795
 31
0.0
  0
LINE
  5
160
330
1F
100
AcDbEntity
  8
Linee visibili 2D
 62
   255
100
AcDbLine
 10
660.8781310880129
 20
-84.99999999999795
 30
0.0
 11
659.9422621619275
 21
-84.99999999999795
 31
0.0
  0
LINE
  5
161
330
1F
100
AcDbEntity
  8
Linee visibili 2D
 62
   255
100
AcDbLine
 10
668.9826362283484
 20
-84.99999999999795
 30
0.0
 11
661.8377570215885
 21
-84.99999999999795
 31
0.0
  0
LINE
  5
162
330
1F
100
AcDbEntity
  8
Linee visibili 2D
 62
   255
100
AcDbLine
 10
670.8781310880129
 20
-84.99999999999795
 30
0.0
 11
669.9422621619275
 21
-84.99999999999795
 31
0.0
  0
LINE
  5
163
330
1F
100
AcDbEntity
  8
Linee visibili 2D
 62
   255
100
AcDbLine
 10
678.9826362283467
 20
-84.99999999999795
 30
0.0
 11
671.8377570215885
 21
-84.99999999999795
 31
0.0
  0
LINE
  5
164
330
1F
100
AcDbEntity
  8
Linee visibili 2D
 62
   255
100
AcDbLine
 10
630.878131088011
 20
-84.99999999999795
 30
0.0
 11
629.9422621619254
 21
-84.99999999999795
 31
0.0
  0
LINE
  5
165
330
1F
100
AcDbEntity
  8
Linee visibili 2D
 62
   255
100
AcDbLine
 10
639.5491817609959
 20
-84.99999999999795
 30
0.0
 11
638.9826362283467
 21
-84.99999999999795
 31
0.0
  0
LINE
  5
166
330
1F
100
AcDbEntity
  8
Linee visibili 2D
 62
   255
100
AcDbLine
 10
641.8377570215864
 20
-84.99999999999795
 30
0.0
 11
641.2712114889405
 21
-84.99999999999795
 31
0.0
  0
LINE
  5
167
330
1F
100
AcDbEntity
  8
Linee visibili 2D
 62
   255
100
AcDbLine
 10
629.5491817609959
 20
-84.99999999999795
 30
0.0
 11
628.9826362283467
 21
-84.99999999999795
 31
0.0
  0
LINE
  5
168
330
1F
100
AcDbEntity
  8
Linee visibili 2D
 62
   255
100
AcDbLine
 10
631.2712114889405
 20
-84.99999999999795
 30
0.0
 11
630.878131088011
 21
-84.99999999999795
 31
0.0
  0
LINE
  5
169
330
1F
100
AcDbEntity
  8
Linee visibili 2D
 62
   255
100
AcDbLine
 10
639.9422621619254
 20
-84.99999999999795
 30
0.0
 11
639.5491817609959
 21
-84.99999999999795
 31
0.0
  0
LINE
  5
16A
330
1F
100
AcDbEntity
  8
Linee visibili 2D
 62
   255
100
AcDbLine
 10
631.8377570215864
 20
-84.99999999999795
 30
0.0
 11
631.2712114889405
 21
-84.99999999999795
 31
0.0
  0
LINE
  5
16B
330
1F
100
AcDbEntity
  8
Linee visibili 2D
 62
   255
100
AcDbLine
 10
640.878131088011
 20
-84.99999999999795
 30
0.0
 11
639.9422621619254
 21
-84.99999999999795
 31
0.0
  0
LINE
  5
16C
330
1F
100
AcDbEntity
  8
Linee visibili 2D
 62
   255
100
AcDbLine
 10
631.8377570215864
 20
31.00000000000205
 30
0.0
 11
638.9826362283467
 21
31.00000000000205
 31
0.0
  0
LINE
  5
16D
330
1F
100
AcDbEntity
  8
Linee visibili 2D
 62
   255
100
AcDbLine
 10
639.9422621619254
 20
31.00000000000205
 30
0.0
 11
640.878131088011
 21
31.00000000000205
 31
0.0
  0
LINE
  5
16E
330
1F
100
AcDbEntity
  8
Linee visibili 2D
 62
   255
100
AcDbLine
 10
639.5491817609959
 20
31.00000000000205
 30
0.0
 11
639.9422621619254
 21
31.00000000000205
 31
0.0
  0
LINE
  5
16F
330
1F
100
AcDbEntity
  8
Linee visibili 2D
 62
   255
100
AcDbLine
 10
638.9826362283467
 20
31.00000000000205
 30
0.0
 11
639.5491817609959
 21
31.00000000000205
 31
0.0
  0
LINE
  5
170
330
1F
100
AcDbEntity
  8
Linee visibili 2D
 62
   255
100
AcDbLine
 10
693.1101966249685
 20
-85.20000000000005
 30
0.0
 11
577.7101966249685
 21
-85.20000000000005
 31
0.0
  0
LINE
  5
171
330
1F
100
AcDbEntity
  8
Linee visibili 2D
 62
   255
100
AcDbLine
 10
693.6101966249685
 20
-84.70000000000005
 30
0.0
 11
693.1101966249685
 21
-85.20000000000005
 31
0.0
  0
LINE
  5
172
330
1F
100
AcDbEntity
  8
Linee visibili 2D
 62
   255
100
AcDbLine
 10
577.7101966249685
 20
-85.20000000000005
 30
0.0
 11
577.2101966249685
 21
-84.70000000000005
 31
0.0
  0
LINE
  5
173
330
1F
100
AcDbEntity
  8
Linee visibili 2D
 62
   255
100
AcDbLine
 10
485.4101966249685
 20
-169.0
 30
0.0
 11
485.4101966249685
 21
115.0
 31
0.0
  0
LINE
  5
174
330
1F
100
AcDbEntity
  8
Linee visibili 2D
 62
   255
100
AcDbLine
 10
777.4101966249684
 20
-177.0
 30
0.0
 11
493.4101966249685
 21
-177.0
 31
0.0
  0
LINE
  5
175
330
1F
100
AcDbEntity
  8
Linee visibili 2D
 62
   255
100
AcDbLine
 10
671.8377570215885
 20
-84.99999999999795
 30
0.0
 11
671.2712114889425
 21
-84.99999999999795
 31
0.0
  0
LINE
  5
176
330
1F
100
AcDbEntity
  8
Linee visibili 2D
 62
   255
100
AcDbLine
 10
611.2712114889405
 20
31.00000000000205
 30
0.0
 11
611.2712114889405
 21
-84.99999999999795
 31
0.0
  0
LINE
  5
177
330
1F
100
AcDbEntity
  8
Linee visibili 2D
 62
   255
100
AcDbLine
 10
611.8377570215864
 20
5.635088230997553
 30
0.0
 11
611.8377570215864
 21
31.00000000000205
 31
0.0
  0
LINE
  5
178
330
1F
100
AcDbEntity
  8
Linee visibili 2D
 62
   255
100
AcDbLine
 10
611.8377570215864
 20
-84.99999999999795
 30
0.0
 11
611.8377570215864
 21
-59.6350882309946
 31
0.0
  0
LINE
  5
179
330
1F
100
AcDbEntity
  8
Linee visibili 2D
 62
   255
100
AcDbLine
 10
580.8781310880127
 20
-84.99999999999795
 30
0.0
 11
580.8781310880127
 21
31.00000000000205
 31
0.0
  0
ARC
  5
17A
330
1F
100
AcDbEntity
  8
Linee visibili 2D
 62
   255
100
AcDbCircle
 10
777.4101966249686
 20
-169.0000000000003
 30
0.0
 40
7.999999999999773
100
AcDbArc
 50
269.9999999999984
 51
0.0000000000020356
  0
LINE
  5
17B
330
1F
100
AcDbEntity
  8
Linee visibili 2D
 62
   255
100
AcDbLine
 10
581.8377570215883
 20
-84.99999999999795
 30
0.0
 11
581.2712114889424
 21
-84.99999999999795
 31
0.0
  0
LINE
  5
17C
330
1F
100
AcDbEntity
  8
Linee visibili 2D
 62
   255
100
AcDbLine
 10
579.9422621619274
 20
-84.99999999999795
 30
0.0
 11
579.5491817609975
 21
-84.99999999999795
 31
0.0
  0
LINE
  5
17D
330
1F
100
AcDbEntity
  8
Linee visibili 2D
 62
   255
100
AcDbLine
 10
581.2712114889424
 20
-84.99999999999795
 30
0.0
 11
580.8781310880127
 21
-84.99999999999795
 31
0.0
  0
LINE
  5
17E
330
1F
100
AcDbEntity
  8
Linee visibili 2D
 62
   255
100
AcDbLine
 10
580.8781310880127
 20
-84.99999999999795
 30
0.0
 11
579.9422621619274
 21
-84.99999999999795
 31
0.0
  0
LINE
  5
17F
330
1F
100
AcDbEntity
  8
Linee visibili 2D
 62
   255
100
AcDbLine
 10
581.2712114889424
 20
31.00000000000205
 30
0.0
 11
581.2712114889424
 21
-84.99999999999795
 31
0.0
  0
LINE
  5
180
330
1F
100
AcDbEntity
  8
Linee visibili 2D
 62
   255
100
AcDbLine
 10
649.549181760997
 20
-53.14999999999804
 30
0.0
 11
649.549181760997
 21
-84.99999999999795
 31
0.0
  0
LINE
  5
181
330
1F
100
AcDbEntity
  8
Linee visibili 2D
 62
   255
100
AcDbLine
 10
649.9422621619275
 20
-53.14999999999804
 30
0.0
 11
649.9422621619275
 21
-84.99999999999795
 31
0.0
  0
LINE
  5
182
330
1F
100
AcDbEntity
  8
Linee visibili 2D
 62
   255
100
AcDbLine
 10
650.8781310880129
 20
-53.14999999999804
 30
0.0
 11
650.8781310880129
 21
-84.99999999999795
 31
0.0
  0
LINE
  5
183
330
1F
100
AcDbEntity
  8
Linee visibili 2D
 62
   255
100
AcDbLine
 10
577.0
 20
438.7101966249688
 30
0.0
 11
574.8
 21
438.7101966249688
 31
0.0
  0
LINE
  5
184
330
1F
100
AcDbEntity
  8
Linee visibili 2D
 62
   255
100
AcDbLine
 10
574.8
 20
435.3101966249692
 30
0.0
 11
574.8
 21
438.7101966249688
 31
0.0
  0
LINE
  5
185
330
1F
100
AcDbEntity
  8
Linee visibili 2D
 62
   255
100
AcDbLine
 10
694.5790539220859
 20
430.7101966249688
 30
0.0
 11
694.5999999701196
 21
431.9101949131191
 31
0.0
  0
LINE
  5
186
330
1F
100
AcDbEntity
  8
Linee visibili 2D
 62
   255
100
AcDbLine
 10
575.4000000000001
 20
431.9101966249691
 30
0.0
 11
575.4209460779139
 21
430.7101966249688
 31
0.0
  0
LINE
  5
187
330
1F
100
AcDbEntity
  8
Linee visibili 2D
 62
   255
100
AcDbLine
 10
693.0
 20
431.9101966249691
 30
0.0
 11
695.2
 21
431.9101966249691
 31
0.0
  0
LINE
  5
188
330
1F
100
AcDbEntity
  8
Linee visibili 2D
 62
   255
100
AcDbLine
 10
695.2
 20
431.9101966249691
 30
0.0
 11
695.2
 21
435.3101966249692
 31
0.0
  0
LINE
  5
189
330
1F
100
AcDbEntity
  8
Linee visibili 2D
 62
   255
100
AcDbLine
 10
577.0
 20
431.9101966249691
 30
0.0
 11
693.0
 21
431.9101966249691
 31
0.0
  0
LINE
  5
18A
330
1F
100
AcDbEntity
  8
Linee visibili 2D
 62
   255
100
AcDbLine
 10
574.8
 20
431.9101966249691
 30
0.0
 11
577.0
 21
431.9101966249691
 31
0.0
  0
LINE
  5
18B
330
1F
100
AcDbEntity
  8
Linee visibili 2D
 62
   255
100
AcDbLine
 10
578.0
 20
2101.110196624972
 30
0.0
 11
578.0
 21
2099.910196624969
 31
0.0
  0
ARC
  5
18C
330
1F
100
AcDbEntity
  8
Linee visibili 2D
 62
   255
100
AcDbCircle
 10
587.9999999999999
 20
2102.910196624968
 30
0.0
 40
2.999999999999545
100
AcDbArc
 50
270.0000000000022
 51
323.1301023543406
  0
LINE
  5
18D
330
1F
100
AcDbEntity
  8
Linee visibili 2D
 62
   255
100
AcDbLine
 10
695.0
 20
439.9101966249691
 30
0.0
 11
693.0
 21
439.9101966249691
 31
0.0
  0
LINE
  5
18E
330
1F
100
AcDbEntity
  8
Linee visibili 2D
 62
   255
100
AcDbLine
 10
586.0
 20
439.9101966249691
 30
0.0
 11
693.0
 21
439.9101966249691
 31
0.0
  0
LINE
  5
18F
330
1F
100
AcDbEntity
  8
Linee visibili 2D
 62
   255
100
AcDbLine
 10
693.0
 20
2099.910196624969
 30
0.0
 11
695.0
 21
2099.910196624969
 31
0.0
  0
LINE
  5
190
330
1F
100
AcDbEntity
  8
Linee visibili 2D
 62
   255
100
AcDbLine
 10
619.9422621619254
 20
-84.99999999999795
 30
0.0
 11
619.5491817609959
 21
-84.99999999999795
 31
0.0
  0
LINE
  5
191
330
1F
100
AcDbEntity
  8
Linee visibili 2D
 62
   255
100
AcDbLine
 10
621.2712114889405
 20
-84.99999999999795
 30
0.0
 11
620.878131088011
 21
-84.99999999999795
 31
0.0
  0
LINE
  5
192
330
1F
100
AcDbEntity
  8
Linee visibili 2D
 62
   255
100
AcDbLine
 10
628.9826362283467
 20
-84.99999999999795
 30
0.0
 11
621.8377570215864
 21
-84.99999999999795
 31
0.0
  0
LINE
  5
193
330
1F
100
AcDbEntity
  8
Linee visibili 2D
 62
   255
100
AcDbLine
 10
493.4101966249685
 20
123.0
 30
0.0
 11
777.4101966249684
 21
123.0
 31
0.0
  0
ARC
  5
194
330
1F
100
AcDbEntity
  8
Linee visibili 2D
 62
   255
100
AcDbCircle
 10
493.4101966249688
 20
-168.9999999999997
 30
0.0
 40
8.000000000000284
100
AcDbArc
 50
180.000000000002
 51
269.999999999998
  0
LINE
  5
195
330
1F
100
AcDbEntity
  8
Linee visibili 2D
 62
   255
100
AcDbLine
 10
681.8377570215864
 20
-84.99999999999795
 30
0.0
 11
681.2712114889405
 21
-84.99999999999795
 31
0.0
  0
LINE
  5
196
330
1F
100
AcDbEntity
  8
Linee visibili 2D
 62
   255
100
AcDbLine
 10
651.8377570215885
 20
-84.99999999999795
 30
0.0
 11
651.2712114889425
 21
-84.99999999999795
 31
0.0
  0
LINE
  5
197
330
1F
100
AcDbEntity
  8
Linee visibili 2D
 62
   255
100
AcDbLine
 10
659.9422621619275
 20
-84.99999999999795
 30
0.0
 11
659.5491817609972
 21
-84.99999999999795
 31
0.0
  0
LINE
  5
198
330
1F
100
AcDbEntity
  8
Linee visibili 2D
 62
   255
100
AcDbLine
 10
661.8377570215885
 20
-84.99999999999795
 30
0.0
 11
661.2712114889425
 21
-84.99999999999795
 31
0.0
  0
LINE
  5
199
330
1F
100
AcDbEntity
  8
Linee visibili 2D
 62
   255
100
AcDbLine
 10
669.9422621619275
 20
-84.99999999999795
 30
0.0
 11
669.5491817609972
 21
-84.99999999999795
 31
0.0
  0
LINE
  5
19A
330
1F
100
AcDbEntity
  8
Linee visibili 2D
 62
   255
100
AcDbLine
 10
745.0
 20
301.4101966249686
 30
0.0
 11
765.0
 21
301.4101966249686
 31
0.0
  0
LINE
  5
19B
330
1F
100
AcDbEntity
  8
Linee visibili 2D
 62
   255
100
AcDbLine
 10
745.0
 20
298.4101966249686
 30
0.0
 11
725.0
 21
298.4101966249686
 31
0.0
  0
LINE
  5
19C
330
1F
100
AcDbEntity
  8
Linee visibili 2D
 62
   255
100
AcDbLine
 10
505.0000000000005
 20
301.4101966249686
 30
0.0
 11
505.0000000000005
 21
298.4101966249686
 31
0.0
  0
LINE
  5
19D
330
1F
100
AcDbEntity
  8
Linee visibili 2D
 62
   255
100
AcDbLine
 10
545.0000000000005
 20
298.4101966249686
 30
0.0
 11
505.0000000000005
 21
298.4101966249686
 31
0.0
  0
LINE
  5
19E
330
1F
100
AcDbEntity
  8
Linee visibili 2D
 62
   255
100
AcDbLine
 10
695.2
 20
2101.110196624969
 30
0.0
 11
695.2
 21
2107.910196624969
 31
0.0
  0
LINE
  5
19F
330
1F
100
AcDbEntity
  8
Linee visibili 2D
 62
   255
100
AcDbLine
 10
693.0
 20
2107.910196624969
 30
0.0
 11
577.0
 21
2107.910196624969
 31
0.0
  0
LINE
  5
1A0
330
1F
100
AcDbEntity
  8
Linee visibili 2D
 62
   255
100
AcDbLine
 10
577.0
 20
439.9101966249691
 30
0.0
 11
586.0
 21
439.9101966249691
 31
0.0
  0
LINE
  5
1A1
330
1F
100
AcDbEntity
  8
Linee visibili 2D
 62
   255
100
AcDbLine
 10
199.0
 20
2099.910196624969
 30
0.0
 11
199.0
 21
439.9101966249691
 31
0.0
  0
LINE
  5
1A2
330
1F
100
AcDbEntity
  8
Linee visibili 2D
 62
   255
100
AcDbLine
 10
785.0
 20
301.7101966249688
 30
0.0
 11
777.0
 21
301.7101966249688
 31
0.0
  0
LINE
  5
1A3
330
1F
100
AcDbEntity
  8
Linee visibili 2D
 62
   255
100
AcDbLine
 10
90.00000000000018
 20
2099.910196624969
 30
0.0
 11
92.00000000000018
 21
2099.910196624969
 31
0.0
  0
LINE
  5
1A4
330
1F
100
AcDbEntity
  8
Linee visibili 2D
 62
   255
100
AcDbLine
 10
694.5999999701196
 20
438.7101983368188
 30
0.0
 11
694.5790539220859
 21
439.9101966249691
 31
0.0
  0
LINE
  5
1A5
330
1F
100
AcDbEntity
  8
Linee visibili 2D
 62
   255
100
AcDbLine
 10
575.4209460779139
 20
439.9101966249691
 30
0.0
 11
575.4000000298804
 21
438.7101983368188
 31
0.0
  0
LINE
  5
1A6
330
1F
100
AcDbEntity
  8
Linee visibili 2D
 62
   255
100
AcDbLine
 10
586.0
 20
2099.910196624969
 30
0.0
 11
577.0
 21
2099.910196624969
 31
0.0
  0
LINE
  5
1A7
330
1F
100
AcDbEntity
  8
Linee visibili 2D
 62
   255
100
AcDbLine
 10
577.0
 20
2099.910196624969
 30
0.0
 11
575.0
 21
2099.910196624969
 31
0.0
  0
LINE
  5
1A8
330
1F
100
AcDbEntity
  8
Linee visibili 2D
 62
   255
100
AcDbLine
 10
92.00000000000018
 20
2099.910196624969
 30
0.0
 11
199.0
 21
2099.910196624969
 31
0.0
  0
LINE
  5
1A9
330
1F
100
AcDbEntity
  8
Linee visibili 2D
 62
   255
100
AcDbLine
 10
629.9422621619254
 20
31.00000000000205
 30
0.0
 11
630.878131088011
 21
31.00000000000205
 31
0.0
  0
LINE
  5
1AA
330
1F
100
AcDbEntity
  8
Linee visibili 2D
 62
   255
100
AcDbLine
 10
577.4101966249684
 20
33.0
 30
0.0
 11
693.4101966249684
 21
33.0
 31
0.0
  0
ARC
  5
1AB
330
1F
100
AcDbEntity
  8
Linee visibili 2D
 62
   255
100
AcDbCircle
 10
693.4101966249681
 20
30.99999999999979
 30
0.0
 40
2.000000000000206
100
AcDbArc
 50
0.0000000000059031
 51
89.99999999999022
  0
LINE
  5
1AC
330
1F
100
AcDbEntity
  8
Linee visibili 2D
 62
   255
100
AcDbLine
 10
611.6101966249714
 20
5.000000000002046
 30
0.0
 11
611.6101966249707
 21
-58.99999999999795
 31
0.0
  0
ARC
  5
1AD
330
1F
100
AcDbEntity
  8
Linee visibili 2D
 62
   255
100
AcDbCircle
 10
612.6101966249712
 20
5.000000000002172
 30
0.0
 40
0.9999999999998739
100
AcDbArc
 50
89.99999999998697
 51
180.0000000000072
  0
LINE
  5
1AE
330
1F
100
AcDbEntity
  8
Linee visibili 2D
 62
   255
100
AcDbLine
 10
631.2712114889405
 20
-59.99999999999795
 30
0.0
 11
639.5491817609959
 21
-59.99999999999795
 31
0.0
  0
LINE
  5
1AF
330
1F
100
AcDbEntity
  8
Linee visibili 2D
 62
   255
100
AcDbLine
 10
621.2712114889405
 20
-59.99999999999795
 30
0.0
 11
629.5491817609959
 21
-59.99999999999795
 31
0.0
  0
LINE
  5
1B0
330
1F
100
AcDbEntity
  8
Linee visibili 2D
 62
   255
100
AcDbLine
 10
577.2101966249685
 20
-84.70000000000005
 30
0.0
 11
577.2101966249685
 21
30.70000000000005
 31
0.0
  0
ARC
  5
1B1
330
1F
100
AcDbEntity
  8
Linee visibili 2D
 62
   255
100
AcDbCircle
 10
612.6101966249707
 20
-58.99999999999802
 30
0.0
 40
1.0
100
AcDbArc
 50
179.9999999999963
 51
269.999999999987
  0
LINE
  5
1B2
330
1F
100
AcDbEntity
  8
Linee visibili 2D
 62
   255
100
AcDbLine
 10
629.5491817609959
 20
31.00000000000205
 30
0.0
 11
629.9422621619254
 21
31.00000000000205
 31
0.0
  0
LINE
  5
1B3
330
1F
100
AcDbEntity
  8
Linee visibili 2D
 62
   255
100
AcDbLine
 10
668.9826362283484
 20
31.00000000000205
 30
0.0
 11
669.5491817609972
 21
31.00000000000205
 31
0.0
  0
LINE
  5
1B4
330
1F
100
AcDbEntity
  8
Linee visibili 2D
 62
   255
100
AcDbLine
 10
661.8377570215885
 20
31.00000000000205
 30
0.0
 11
668.9826362283484
 21
31.00000000000205
 31
0.0
  0
LINE
  5
1B5
330
1F
100
AcDbEntity
  8
Linee visibili 2D
 62
   255
100
AcDbLine
 10
599.5491817609959
 20
-84.99999999999795
 30
0.0
 11
599.5491817609959
 21
31.00000000000205
 31
0.0
  0
LINE
  5
1B6
330
1F
100
AcDbEntity
  8
Linee visibili 2D
 62
   255
100
AcDbLine
 10
609.5491817609959
 20
-84.99999999999795
 30
0.0
 11
609.5491817609959
 21
31.00000000000205
 31
0.0
  0
LINE
  5
1B7
330
1F
100
AcDbEntity
  8
Linee visibili 2D
 62
   255
100
AcDbLine
 10
600.8781310880108
 20
-84.99999999999795
 30
0.0
 11
600.8781310880108
 21
31.00000000000205
 31
0.0
  0
LINE
  5
1B8
330
1F
100
AcDbEntity
  8
Linee visibili 2D
 62
   255
100
AcDbLine
 10
608.9826362283467
 20
-84.99999999999795
 30
0.0
 11
608.9826362283467
 21
31.00000000000205
 31
0.0
  0
LINE
  5
1B9
330
1F
100
AcDbEntity
  8
Linee visibili 2D
 62
   255
100
AcDbLine
 10
610.8781310880108
 20
-84.99999999999795
 30
0.0
 11
610.8781310880108
 21
31.00000000000205
 31
0.0
  0
LINE
  5
1BA
330
1F
100
AcDbEntity
  8
Linee visibili 2D
 62
   255
100
AcDbLine
 10
599.9422621619256
 20
31.00000000000205
 30
0.0
 11
599.9422621619256
 21
-84.99999999999795
 31
0.0
  0
LINE
  5
1BB
330
1F
100
AcDbEntity
  8
Linee visibili 2D
 62
   255
100
AcDbLine
 10
601.8377570215864
 20
31.00000000000205
 30
0.0
 11
601.8377570215864
 21
-84.99999999999795
 31
0.0
  0
LINE
  5
1BC
330
1F
100
AcDbEntity
  8
Linee visibili 2D
 62
   255
100
AcDbLine
 10
601.2712114889405
 20
31.00000000000205
 30
0.0
 11
601.2712114889405
 21
-84.99999999999795
 31
0.0
  0
LINE
  5
1BD
330
1F
100
AcDbEntity
  8
Linee visibili 2D
 62
   255
100
AcDbLine
 10
669.5491817609972
 20
31.00000000000205
 30
0.0
 11
669.9422621619275
 21
31.00000000000205
 31
0.0
  0
LINE
  5
1BE
330
1F
100
AcDbEntity
  8
Linee visibili 2D
 62
   255
100
AcDbLine
 10
611.8377570215864
 20
31.00000000000205
 30
0.0
 11
618.9826362283467
 21
31.00000000000205
 31
0.0
  0
LINE
  5
1BF
330
1F
100
AcDbEntity
  8
Linee visibili 2D
 62
   255
100
AcDbLine
 10
609.9422621619256
 20
31.00000000000205
 30
0.0
 11
610.8781310880108
 21
31.00000000000205
 31
0.0
  0
LINE
  5
1C0
330
1F
100
AcDbEntity
  8
Linee visibili 2D
 62
   255
100
AcDbLine
 10
648.9826362283484
 20
31.00000000000205
 30
0.0
 11
649.549181760997
 21
31.00000000000205
 31
0.0
  0
LINE
  5
1C1
330
1F
100
AcDbEntity
  8
Linee visibili 2D
 62
   255
100
AcDbLine
 10
641.2712114889405
 20
31.00000000000205
 30
0.0
 11
641.8377570215864
 21
31.00000000000205
 31
0.0
  0
LINE
  5
1C2
330
1F
100
AcDbEntity
  8
Linee visibili 2D
 62
   255
100
AcDbLine
 10
649.9422621619275
 20
31.00000000000205
 30
0.0
 11
650.8781310880129
 21
31.00000000000205
 31
0.0
  0
LINE
  5
1C3
330
1F
100
AcDbEntity
  8
Linee visibili 2D
 62
   255
100
AcDbLine
 10
649.549181760997
 20
31.00000000000205
 30
0.0
 11
649.9422621619275
 21
31.00000000000205
 31
0.0
  0
LINE
  5
1C4
330
1F
100
AcDbEntity
  8
Linee visibili 2D
 62
   255
100
AcDbLine
 10
641.8377570215864
 20
31.00000000000205
 30
0.0
 11
648.9826362283484
 21
31.00000000000205
 31
0.0
  0
LINE
  5
1C5
330
1F
100
AcDbEntity
  8
Linee visibili 2D
 62
   255
100
AcDbLine
 10
640.878131088011
 20
31.00000000000205
 30
0.0
 11
641.2712114889405
 21
31.00000000000205
 31
0.0
  0
LINE
  5
1C6
330
1F
100
AcDbEntity
  8
Linee visibili 2D
 62
   255
100
AcDbLine
 10
619.5491817609959
 20
-0.8499999999980901
 30
0.0
 11
619.9422621619254
 21
-0.8499999999980901
 31
0.0
  0
LINE
  5
1C7
330
1F
100
AcDbEntity
  8
Linee visibili 2D
 62
   255
100
AcDbLine
 10
610.8781310880108
 20
31.00000000000205
 30
0.0
 11
611.2712114889405
 21
31.00000000000205
 31
0.0
  0
LINE
  5
1C8
330
1F
100
AcDbEntity
  8
Linee visibili 2D
 62
   255
100
AcDbLine
 10
612.6101966249705
 20
-59.99999999999795
 30
0.0
 11
619.5491817609959
 21
-59.99999999999795
 31
0.0
  0
LINE
  5
1C9
330
1F
100
AcDbEntity
  8
Linee visibili 2D
 62
   255
100
AcDbLine
 10
611.2712114889405
 20
31.00000000000205
 30
0.0
 11
611.8377570215864
 21
31.00000000000205
 31
0.0
  0
LINE
  5
1CA
330
1F
100
AcDbEntity
  8
Linee visibili 2D
 62
   255
100
AcDbLine
 10
618.9826362283467
 20
-59.99999999999795
 30
0.0
 11
618.9826362283467
 21
-84.99999999999795
 31
0.0
  0
LINE
  5
1CB
330
1F
100
AcDbEntity
  8
Linee visibili 2D
 62
   255
100
AcDbLine
 10
618.9826362283467
 20
31.00000000000205
 30
0.0
 11
618.9826362283467
 21
6.000000000002046
 31
0.0
  0
LINE
  5
1CC
330
1F
100
AcDbEntity
  8
Linee visibili 2D
 62
   255
100
AcDbLine
 10
619.5491817609959
 20
31.00000000000205
 30
0.0
 11
619.5491817609959
 21
-0.8499999999980901
 31
0.0
  0
ARC
  5
1CD
330
1F
100
AcDbEntity
  8
Linee visibili 2D
 62
   255
100
AcDbCircle
 10
693.4101966249685
 20
-85.00000000000017
 30
0.0
 40
1.999999999999886
100
AcDbArc
 50
269.9999999999968
 51
0.0000000000048853
  0
LINE
  5
1CE
330
1F
100
AcDbEntity
  8
Linee visibili 2D
 62
   255
100
AcDbLine
 10
659.5491817609972
 20
-84.99999999999795
 30
0.0
 11
659.5491817609972
 21
31.00000000000205
 31
0.0
  0
LINE
  5
1CF
330
1F
100
AcDbEntity
  8
Linee visibili 2D
 62
   255
100
AcDbLine
 10
659.9422621619275
 20
31.00000000000205
 30
0.0
 11
659.9422621619275
 21
-84.99999999999795
 31
0.0
  0
LINE
  5
1D0
330
1F
100
AcDbEntity
  8
Linee visibili 2D
 62
   255
100
AcDbLine
 10
609.5491817609959
 20
31.00000000000205
 30
0.0
 11
609.9422621619256
 21
31.00000000000205
 31
0.0
  0
LINE
  5
1D1
330
1F
100
AcDbEntity
  8
Linee visibili 2D
 62
   255
100
AcDbLine
 10
695.0
 20
2109.110196624969
 30
0.0
 11
693.0
 21
2109.110196624969
 31
0.0
  0
LINE
  5
1D2
330
1F
100
AcDbEntity
  8
Linee visibili 2D
 62
   255
100
AcDbLine
 10
577.0
 20
2229.110196624969
 30
0.0
 11
575.0
 21
2229.110196624969
 31
0.0
  0
LINE
  5
1D3
330
1F
100
AcDbEntity
  8
Linee visibili 2D
 62
   255
100
AcDbLine
 10
577.0
 20
2109.110196624969
 30
0.0
 11
575.0
 21
2109.110196624969
 31
0.0
  0
LINE
  5
1D4
330
1F
100
AcDbEntity
  8
Linee visibili 2D
 62
   255
100
AcDbLine
 10
577.0
 20
2107.910196624969
 30
0.0
 11
574.8000000000002
 21
2107.910196624969
 31
0.0
  0
LINE
  5
1D5
330
1F
100
AcDbEntity
  8
Linee visibili 2D
 62
   255
100
AcDbLine
 10
693.0
 20
2101.110196624969
 30
0.0
 11
574.8000000000002
 21
2101.110196624969
 31
0.0
  0
ARC
  5
1D6
330
1F
100
AcDbEntity
  8
Linee visibili 2D
 62
   255
100
AcDbCircle
 10
487.9999999999991
 20
307.7101966249697
 30
0.0
 40
2.999999999999091
100
AcDbArc
 50
89.99999999998263
 51
180.0000000000174
  0
LINE
  5
1D7
330
1F
100
AcDbEntity
  8
Linee visibili 2D
 62
   255
100
AcDbLine
 10
695.2
 20
435.3101966249692
 30
0.0
 11
695.2
 21
438.7101966249688
 31
0.0
  0
LINE
  5
1D8
330
1F
100
AcDbEntity
  8
Linee visibili 2D
 62
   255
100
AcDbLine
 10
695.2
 20
438.7101966249688
 30
0.0
 11
693.0
 21
438.7101966249688
 31
0.0
  0
LINE
  5
1D9
330
1F
100
AcDbEntity
  8
Linee visibili 2D
 62
   255
100
AcDbLine
 10
693.0
 20
438.7101966249688
 30
0.0
 11
577.0
 21
438.7101966249688
 31
0.0
  0
LINE
  5
1DA
330
1F
100
AcDbEntity
  8
Linee visibili 2D
 62
   255
100
AcDbLine
 10
621.8377570215864
 20
31.00000000000205
 30
0.0
 11
628.9826362283467
 21
31.00000000000205
 31
0.0
  0
LINE
  5
1DB
330
1F
100
AcDbEntity
  8
Linee visibili 2D
 62
   255
100
AcDbLine
 10
618.9826362283467
 20
31.00000000000205
 30
0.0
 11
619.5491817609959
 21
31.00000000000205
 31
0.0
  0
LINE
  5
1DC
330
1F
100
AcDbEntity
  8
Linee visibili 2D
 62
   255
100
AcDbLine
 10
619.9422621619254
 20
31.00000000000205
 30
0.0
 11
620.878131088011
 21
31.00000000000205
 31
0.0
  0
LINE
  5
1DD
330
1F
100
AcDbEntity
  8
Linee visibili 2D
 62
   255
100
AcDbLine
 10
619.5491817609959
 20
31.00000000000205
 30
0.0
 11
619.9422621619254
 21
31.00000000000205
 31
0.0
  0
LINE
  5
1DE
330
1F
100
AcDbEntity
  8
Linee visibili 2D
 62
   255
100
AcDbLine
 10
575.4101966249684
 20
-85.0
 30
0.0
 11
575.4101966249684
 21
31.0
 31
0.0
  0
LINE
  5
1DF
330
1F
100
AcDbEntity
  8
Linee visibili 2D
 62
   255
100
AcDbLine
 10
620.878131088011
 20
31.00000000000205
 30
0.0
 11
621.2712114889405
 21
31.00000000000205
 31
0.0
  0
LINE
  5
1E0
330
1F
100
AcDbEntity
  8
Linee visibili 2D
 62
   255
100
AcDbLine
 10
628.9826362283467
 20
31.00000000000205
 30
0.0
 11
629.5491817609959
 21
31.00000000000205
 31
0.0
  0
LINE
  5
1E1
330
1F
100
AcDbEntity
  8
Linee visibili 2D
 62
   255
100
AcDbLine
 10
581.8377570215883
 20
31.00000000000205
 30
0.0
 11
581.8377570215883
 21
-84.99999999999795
 31
0.0
  0
ARC
  5
1E2
330
1F
100
AcDbEntity
  8
Linee visibili 2D
 62
   255
100
AcDbCircle
 10
577.4101966249688
 20
30.99999999999991
 30
0.0
 40
2.000000000000341
100
AcDbArc
 50
90.00000000000978
 51
179.9999999999974
  0
LINE
  5
1E3
330
1F
100
AcDbEntity
  8
Linee visibili 2D
 62
   255
100
AcDbLine
 10
621.2712114889405
 20
31.00000000000205
 30
0.0
 11
621.8377570215864
 21
31.00000000000205
 31
0.0
  0
LINE
  5
1E4
330
1F
100
AcDbEntity
  8
Linee visibili 2D
 62
   255
100
AcDbLine
 10
580.8781310880127
 20
31.00000000000205
 30
0.0
 11
581.2712114889424
 21
31.00000000000205
 31
0.0
  0
LINE
  5
1E5
330
1F
100
AcDbEntity
  8
Linee visibili 2D
 62
   255
100
AcDbLine
 10
601.2712114889405
 20
31.00000000000205
 30
0.0
 11
601.8377570215864
 21
31.00000000000205
 31
0.0
  0
LINE
  5
1E6
330
1F
100
AcDbEntity
  8
Linee visibili 2D
 62
   255
100
AcDbLine
 10
600.8781310880108
 20
31.00000000000205
 30
0.0
 11
601.2712114889405
 21
31.00000000000205
 31
0.0
  0
LINE
  5
1E7
330
1F
100
AcDbEntity
  8
Linee visibili 2D
 62
   255
100
AcDbLine
 10
629.5491817609959
 20
-53.14999999999804
 30
0.0
 11
629.5491817609959
 21
-84.99999999999795
 31
0.0
  0
LINE
  5
1E8
330
1F
100
AcDbEntity
  8
Linee visibili 2D
 62
   255
100
AcDbLine
 10
629.9422621619254
 20
31.00000000000205
 30
0.0
 11
629.9422621619254
 21
-0.8499999999980901
 31
0.0
  0
LINE
  5
1E9
330
1F
100
AcDbEntity
  8
Linee visibili 2D
 62
   255
100
AcDbLine
 10
629.5491817609959
 20
31.00000000000205
 30
0.0
 11
629.5491817609959
 21
-0.8499999999980901
 31
0.0
  0
LINE
  5
1EA
330
1F
100
AcDbEntity
  8
Linee visibili 2D
 62
   255
100
AcDbLine
 10
629.5491817609959
 20
-0.8499999999980901
 30
0.0
 11
629.9422621619254
 21
-0.8499999999980901
 31
0.0
  0
LINE
  5
1EB
330
1F
100
AcDbEntity
  8
Linee visibili 2D
 62
   255
100
AcDbLine
 10
629.9422621619254
 20
-53.14999999999804
 30
0.0
 11
629.5491817609959
 21
-53.14999999999804
 31
0.0
  0
LINE
  5
1EC
330
1F
100
AcDbEntity
  8
Linee visibili 2D
 62
   255
100
AcDbLine
 10
629.9422621619254
 20
-0.8499999999980901
 30
0.0
 11
630.878131088011
 21
-0.8499999999980901
 31
0.0
  0
LINE
  5
1ED
330
1F
100
AcDbEntity
  8
Linee visibili 2D
 62
   255
100
AcDbLine
 10
641.2712114889405
 20
31.00000000000205
 30
0.0
 11
641.2712114889405
 21
-0.8499999999980901
 31
0.0
  0
LINE
  5
1EE
330
1F
100
AcDbEntity
  8
Linee visibili 2D
 62
   255
100
AcDbLine
 10
641.8377570215864
 20
31.00000000000205
 30
0.0
 11
641.8377570215864
 21
6.000000000002046
 31
0.0
  0
LINE
  5
1EF
330
1F
100
AcDbEntity
  8
Linee visibili 2D
 62
   255
100
AcDbLine
 10
648.9826362283484
 20
31.00000000000205
 30
0.0
 11
648.9826362283484
 21
6.000000000002046
 31
0.0
  0
LINE
  5
1F0
330
1F
100
AcDbEntity
  8
Linee visibili 2D
 62
   255
100
AcDbLine
 10
641.2712114889405
 20
-53.14999999999804
 30
0.0
 11
640.878131088011
 21
-53.14999999999804
 31
0.0
  0
LINE
  5
1F1
330
1F
100
AcDbEntity
  8
Linee visibili 2D
 62
   255
100
AcDbLine
 10
641.2712114889405
 20
-53.14999999999804
 30
0.0
 11
641.2712114889405
 21
-84.99999999999795
 31
0.0
  0
LINE
  5
1F2
330
1F
100
AcDbEntity
  8
Linee visibili 2D
 62
   255
100
AcDbLine
 10
641.8377570215864
 20
-59.99999999999795
 30
0.0
 11
641.8377570215864
 21
-84.99999999999795
 31
0.0
  0
LINE
  5
1F3
330
1F
100
AcDbEntity
  8
Linee visibili 2D
 62
   255
100
AcDbLine
 10
648.9826362283484
 20
-59.99999999999795
 30
0.0
 11
648.9826362283484
 21
-84.99999999999795
 31
0.0
  0
LINE
  5
1F4
330
1F
100
AcDbEntity
  8
Linee visibili 2D
 62
   255
100
AcDbLine
 10
648.9826362283484
 20
-84.99999999999795
 30
0.0
 11
641.8377570215864
 21
-84.99999999999795
 31
0.0
  0
LINE
  5
1F5
330
1F
100
AcDbEntity
  8
Linee visibili 2D
 62
   255
100
AcDbLine
 10
611.8377570215864
 20
-84.99999999999795
 30
0.0
 11
611.2712114889405
 21
-84.99999999999795
 31
0.0
  0
LINE
  5
1F6
330
1F
100
AcDbEntity
  8
Linee visibili 2D
 62
   255
100
AcDbLine
 10
619.5491817609959
 20
-84.99999999999795
 30
0.0
 11
618.9826362283467
 21
-84.99999999999795
 31
0.0
  0
LINE
  5
1F7
330
1F
100
AcDbEntity
  8
Linee visibili 2D
 62
   255
100
AcDbLine
 10
620.878131088011
 20
-84.99999999999795
 30
0.0
 11
619.9422621619254
 21
-84.99999999999795
 31
0.0
  0
LINE
  5
1F8
330
1F
100
AcDbEntity
  8
Linee visibili 2D
 62
   255
100
AcDbLine
 10
621.8377570215864
 20
-84.99999999999795
 30
0.0
 11
621.2712114889405
 21
-84.99999999999795
 31
0.0
  0
LINE
  5
1F9
330
1F
100
AcDbEntity
  8
Linee visibili 2D
 62
   255
100
AcDbLine
 10
629.9422621619254
 20
-84.99999999999795
 30
0.0
 11
629.5491817609959
 21
-84.99999999999795
 31
0.0
  0
LINE
  5
1FA
330
1F
100
AcDbEntity
  8
Linee visibili 2D
 62
   255
100
AcDbLine
 10
638.9826362283467
 20
-84.99999999999795
 30
0.0
 11
631.8377570215864
 21
-84.99999999999795
 31
0.0
  0
LINE
  5
1FB
330
1F
100
AcDbEntity
  8
Linee visibili 2D
 62
   255
100
AcDbLine
 10
641.2712114889405
 20
-84.99999999999795
 30
0.0
 11
640.878131088011
 21
-84.99999999999795
 31
0.0
  0
LINE
  5
1FC
330
1F
100
AcDbEntity
  8
Linee visibili 2D
 62
   255
100
AcDbLine
 10
610.8781310880108
 20
-84.99999999999795
 30
0.0
 11
609.9422621619256
 21
-84.99999999999795
 31
0.0
  0
LINE
  5
1FD
330
1F
100
AcDbEntity
  8
Linee visibili 2D
 62
   255
100
AcDbLine
 10
611.2712114889405
 20
-84.99999999999795
 30
0.0
 11
610.8781310880108
 21
-84.99999999999795
 31
0.0
  0
LINE
  5
1FE
330
1F
100
AcDbEntity
  8
Linee visibili 2D
 62
   255
100
AcDbLine
 10
618.9826362283467
 20
-84.99999999999795
 30
0.0
 11
611.8377570215864
 21
-84.99999999999795
 31
0.0
  0
LINE
  5
1FF
330
1F
100
AcDbEntity
  8
Linee visibili 2D
 62
   255
100
AcDbLine
 10
577.4101966249702
 20
31.00000000000205
 30
0.0
 11
578.9826362283486
 21
31.00000000000205
 31
0.0
  0
ENDSEC
  0
SECTION
  2
OBJECTS
  0
DICTIONARY
  5
C
330
0
100
AcDbDictionary
281
     1
  3
ACAD_GROUP
350
D
  3
ACAD_LAYOUT
350
1A
  3
ACAD_MLEADERSTYLE
350
201
  3
ACAD_MLINESTYLE
350
17
  3
ACAD_PLOTSETTINGS
350
19
  3
ACAD_PLOTSTYLENAME
350
E
  3
ACAD_TABLESTYLE
350
200
  3
ACAD_VISUALSTYLE
350
2A
  0
DICTIONARY
  5
D
102
{ACAD_REACTORS
330
C
102
}
330
C
100
AcDbDictionary
281
     1
  0
DICTIONARY
  5
1A
102
{ACAD_REACTORS
330
C
102
}
330
C
100
AcDbDictionary
281
     1
  3
Layout1
350
1E
  3
Layout2
350
26
  3
Model
350
22
  0
DICTIONARY
  5
201
102
{ACAD_REACTORS
330
C
102
}
330
C
100
AcDbDictionary
281
     1
  0
DICTIONARY
  5
17
102
{ACAD_REACTORS
330
C
102
}
330
C
100
AcDbDictionary
281
     1
  3
Standard
350
18
  0
DICTIONARY
  5
19
102
{ACAD_REACTORS
330
C
102
}
330
C
100
AcDbDictionary
281
     1
  0
ACDBDICTIONARYWDFLT
  5
E
102
{ACAD_REACTORS
330
C
102
}
330
C
100
AcDbDictionary
281
     1
  3
Normal
350
F
100
AcDbDictionaryWithDefault
340
F
  0
DICTIONARY
  5
200
102
{ACAD_REACTORS
330
C
102
}
330
C
100
AcDbDictionary
281
     1
  0
DICTIONARY
  5
2A
102
{ACAD_REACTORS
330
C
102
}
330
C
100
AcDbDictionary
281
     1
  3
2dWireframe
350
2F
  3
3D Hidden
350
31
  3
3dWireframe
350
30
  3
Basic
350
32
  3
Brighten
350
36
  3
ColorChange
350
3A
  3
Conceptual
350
34
  3
Dim
350
35
  3
Facepattern
350
39
  3
Flat
350
2B
  3
FlatWithEdges
350
2C
  3
Gouraud
350
2D
  3
GouraudWithEdges
350
2E
  3
Linepattern
350
38
  3
Realistic
350
33
  3
Thicken
350
37
  0
LAYOUT
  5
1E
102
{ACAD_REACTORS
330
1A
102
}
330
1A
100
AcDbPlotSettings
  1

  2
none_device
  4

  6

 40
0.0
 41
0.0
 42
0.0
 43
0.0
 44
0.0
 45
0.0
 46
0.0
 47
0.0
 48
0.0
 49
0.0
140
0.0
141
0.0
142
1.0
143
1.0
 70
   688
 72
     0
 73
     0
 74
     5
  7

 75
    16
 76
     0
 77
     2
 78
   300
147
1.0
148
0.0
149
0.0
100
AcDbLayout
  1
Layout1
 70
     1
 71
     1
 10
0.0
 20
0.0
 11
12.0
 21
9.0
 12
0.0
 22
0.0
 32
0.0
 14
1.000000000000000E+20
 24
1.000000000000000E+20
 34
1.000000000000000E+20
 15
-1.000000000000000E+20
 25
-1.000000000000000E+20
 35
-1.000000000000000E+20
146
0.0
 13
0.0
 23
0.0
 33
0.0
 16
1.0
 26
0.0
 36
0.0
 17
0.0
 27
1.0
 37
0.0
 76
     0
330
1B
  0
LAYOUT
  5
26
102
{ACAD_REACTORS
330
1A
102
}
330
1A
100
AcDbPlotSettings
  1

  2
none_device
  4

  6

 40
0.0
 41
0.0
 42
0.0
 43
0.0
 44
0.0
 45
0.0
 46
0.0
 47
0.0
 48
0.0
 49
0.0
140
0.0
141
0.0
142
1.0
143
1.0
 70
   688
 72
     0
 73
     0
 74
     5
  7

 75
    16
 76
     0
 77
     2
 78
   300
147
1.0
148
0.0
149
0.0
100
AcDbLayout
  1
Layout2
 70
     1
 71
     2
 10
0.0
 20
0.0
 11
0.0
 21
0.0
 12
0.0
 22
0.0
 32
0.0
 14
0.0
 24
0.0
 34
0.0
 15
0.0
 25
0.0
 35
0.0
146
0.0
 13
0.0
 23
0.0
 33
0.0
 16
1.0
 26
0.0
 36
0.0
 17
0.0
 27
1.0
 37
0.0
 76
     0
330
23
  0
LAYOUT
  5
22
102
{ACAD_REACTORS
330
1A
102
}
330
1A
100
AcDbPlotSettings
  1

  2
none_device
  4

  6

 40
0.0
 41
0.0
 42
0.0
 43
0.0
 44
0.0
 45
0.0
 46
0.0
 47
0.0
 48
0.0
 49
0.0
140
0.0
141
0.0
142
1.0
143
1.0
 70
  1712
 72
     0
 73
     0
 74
     0
  7

 75
     0
 76
     0
 77
     2
 78
   300
147
1.0
148
0.0
149
0.0
100
AcDbLayout
  1
Model
 70
     1
 71
     0
 10
0.0
 20
0.0
 11
12.0
 21
9.0
 12
0.0
 22
0.0
 32
0.0
 14
0.0
 24
-177.0000000000001
 34
0.0
 15
785.4101966249684
 25
2229.110196624969
 35
0.0
146
0.0
 13
0.0
 23
0.0
 33
0.0
 16
1.0
 26
0.0
 36
0.0
 17
0.0
 27
1.0
 37
0.0
 76
     0
330
1F
331
29
  0
MLINESTYLE
  5
18
102
{ACAD_REACTORS
330
17
102
}
330
17
100
AcDbMlineStyle
  2
Standard
 70
     0
  3

 62
   256
 51
90.0
 52
90.0
 71
     2
 49
0.5
 62
   256
  6
BYLAYER
 49
-0.5
 62
   256
  6
BYLAYER
  0
ACDBPLACEHOLDER
  5
F
102
{ACAD_REACTORS
330
E
102
}
330
E
  0
VISUALSTYLE
  5
2F
102
{ACAD_REACTORS
330
2A
102
}
330
2A
100
AcDbVisualStyle
  2
2dWireframe
 70
     4
 71
     0
 72
     2
 73
     0
 90
        0
 40
-0.6
 41
-30.0
 62
     5
 63
     7
421
 16777215
 74
     1
 91
        4
 64
     7
 65
   257
 75
     1
175
     1
 42
1.0
 92
        0
 66
   257
 43
1.0
 76
     1
 77
     6
 78
     2
 67
     7
 79
     5
170
     0
171
     0
290
     0
174
     0
 93
        1
 44
0.0
173
     0
291
     0
 45
0.0
1001
ACAD
1000
AcDbSavedByObjectVersion
1070
     0
  0
VISUALSTYLE
  5
31
102
{ACAD_REACTORS
330
2A
102
}
330
2A
100
AcDbVisualStyle
  2
3D Hidden
 70
     6
 71
     1
 72
     2
 73
     2
 90
        0
 40
-0.6
 41
-30.0
 62
     5
 63
     7
421
 16777215
 74
     2
 91
        2
 64
     7
 65
   257
 75
     2
175
     1
 42
40.0
 92
        0
 66
   257
 43
1.0
 76
     1
 77
     6
 78
     2
 67
     7
 79
     3
170
     0
171
     0
290
     0
174
     0
 93
        1
 44
0.0
173
     0
291
     0
 45
0.0
1001
ACAD
1000
AcDbSavedByObjectVersion
1070
     0
  0
VISUALSTYLE
  5
30
102
{ACAD_REACTORS
330
2A
102
}
330
2A
100
AcDbVisualStyle
  2
3dWireframe
 70
     5
 71
     0
 72
     2
 73
     0
 90
        0
 40
-0.6
 41
-30.0
 62
     5
 63
     7
421
 16777215
 74
     1
 91
        4
 64
     7
 65
   257
 75
     1
175
     1
 42
1.0
 92
        0
 66
   257
 43
1.0
 76
     1
 77
     6
 78
     2
 67
     7
 79
     5
170
     0
171
     0
290
     0
174
     0
 93
        1
 44
0.0
173
     0
291
     0
 45
0.0
1001
ACAD
1000
AcDbSavedByObjectVersion
1070
     0
  0
VISUALSTYLE
  5
32
102
{ACAD_REACTORS
330
2A
102
}
330
2A
100
AcDbVisualStyle
  2
Basic
 70
     7
 71
     1
 72
     0
 73
     1
 90
        0
 40
-0.6
 41
-30.0
 62
     5
 63
     7
421
 16777215
 74
     0
 91
        4
 64
     7
 65
   257
 75
     1
175
     1
 42
1.0
 92
        8
 66
     7
 43
1.0
 76
     1
 77
     6
 78
     2
 67
     7
 79
     5
170
     0
171
     0
290
     0
174
     0
 93
        1
 44
0.0
173
     0
291
     1
 45
0.0
1001
ACAD
1000
AcDbSavedByObjectVersion
1070
     0
  0
VISUALSTYLE
  5
36
102
{ACAD_REACTORS
330
2A
102
}
330
2A
100
AcDbVisualStyle
  2
Brighten
 70
    12
 71
     2
 72
     2
 73
     0
 90
        0
 40
-0.6
 41
-30.0
 62
     5
 63
     7
421
 16777215
 74
     1
 91
        4
 64
     7
 65
   257
 75
     1
175
     1
 42
1.0
 92
        8
 66
     7
 43
1.0
 76
     1
 77
     6
 78
     2
 67
     7
 79
     5
170
     0
171
     0
290
     0
174
     0
 93
        1
 44
50.0
173
     0
291
     1
 45
0.0
1001
ACAD
1000
AcDbSavedByObjectVersion
1070
     0
  0
VISUALSTYLE
  5
3A
102
{ACAD_REACTORS
330
2A
102
}
330
2A
100
AcDbVisualStyle
  2
ColorChange
 70
    16
 71
     2
 72
     2
 73
     3
 90
        0
 40
-0.6
 41
-30.0
 62
     5
 63
     8
421
  8421504
 74
     1
 91
        4
 64
     7
 65
   257
 75
     1
175
     1
 42
1.0
 92
        8
 66
     8
424
  8421504
 43
1.0
 76
     1
 77
     6
 78
     2
 67
     7
 79
     5
170
     0
171
     0
290
     0
174
     0
 93
        1
 44
0.0
173
     0
291
     1
 45
0.0
1001
ACAD
1000
AcDbSavedByObjectVersion
1070
     0
  0
VISUALSTYLE
  5
34
102
{ACAD_REACTORS
330
2A
102
}
330
2A
100
AcDbVisualStyle
  2
Conceptual
 70
     9
 71
     3
 72
     2
 73
     0
 90
        0
 40
-0.6
 41
-30.0
 62
     5
 63
     7
421
 16777215
 74
     2
 91
        2
 64
     7
 65
   257
 75
     1
175
     1
 42
40.0
 92
        8
 66
     7
 43
1.0
 76
     1
 77
     6
 78
     2
 67
     7
 79
     3
170
     0
171
     0
290
     0
174
     0
 93
        1
 44
0.0
173
     0
291
     0
 45
0.0
1001
ACAD
1000
AcDbSavedByObjectVersion
1070
     0
  0
VISUALSTYLE
  5
35
102
{ACAD_REACTORS
330
2A
102
}
330
2A
100
AcDbVisualStyle
  2
Dim
 70
    11
 71
     2
 72
     2
 73
     0
 90
        0
 40
-0.6
 41
-30.0
 62
     5
 63
     7
421
 16777215
 74
     1
 91
        4
 64
     7
 65
   257
 75
     1
175
     1
 42
1.0
 92
        8
 66
     7
 43
1.0
 76
     1
 77
     6
 78
     2
 67
     7
 79
     5
170
     0
171
     0
290
     0
174
     0
 93
        1
 44
-50.0
173
     0
291
     1
 45
0.0
1001
ACAD
1000
AcDbSavedByObjectVersion
1070
     0
  0
VISUALSTYLE
  5
39
102
{ACAD_REACTORS
330
2A
102
}
330
2A
100
AcDbVisualStyle
  2
Facepattern
 70
    15
 71
     2
 72
     2
 73
     0
 90
        0
 40
-0.6
 41
-30.0
 62
     5
 63
     7
421
 16777215
 74
     1
 91
        4
 64
     7
 65
   257
 75
     1
175
     1
 42
1.0
 92
        8
 66
     7
 43
1.0
 76
     1
 77
     6
 78
     2
 67
     7
 79
     5
170
     0
171
     0
290
     0
174
     0
 93
        1
 44
0.0
173
     0
291
     1
 45
0.0
1001
ACAD
1000
AcDbSavedByObjectVersion
1070
     0
  0
VISUALSTYLE
  5
2B
102
{ACAD_REACTORS
330
2A
102
}
330
2A
100
AcDbVisualStyle
  2
Flat
 70
     0
 71
     2
 72
     1
 73
     1
 90
        2
 40
-0.6
 41
30.0
 62
     5
 63
     7
421
 16777215
 74
     0
 91
        4
 64
     7
 65
   257
 75
     1
175
     1
 42
1.0
 92
        8
 66
     7
 43
1.0
 76
     1
 77
     6
 78
     2
 67
     7
 79
     5
170
     0
171
     0
290
     0
174
     0
 93
       13
 44
0.0
173
     0
291
     1
 45
0.0
1001
ACAD
1000
AcDbSavedByObjectVersion
1070
     0
  0
VISUALSTYLE
  5
2C
102
{ACAD_REACTORS
330
2A
102
}
330
2A
100
AcDbVisualStyle
  2
FlatWithEdges
 70
     1
 71
     2
 72
     1
 73
     1
 90
        2
 40
-0.6
 41
30.0
 62
     5
 63
     7
421
 16777215
 74
     1
 91
        4
 64
     7
 65
   257
 75
     1
175
     1
 42
1.0
 92
        0
 66
   257
 43
1.0
 76
     1
 77
     6
 78
     2
 67
     7
 79
     5
170
     0
171
     0
290
     0
174
     0
 93
       13
 44
0.0
173
     0
291
     1
 45
0.0
1001
ACAD
1000
AcDbSavedByObjectVersion
1070
     0
  0
VISUALSTYLE
  5
2D
102
{ACAD_REACTORS
330
2A
102
}
330
2A
100
AcDbVisualStyle
  2
Gouraud
 70
     2
 71
     2
 72
     2
 73
     1
 90
        2
 40
-0.6
 41
30.0
 62
     5
 63
     7
421
 16777215
 74
     0
 91
        4
 64
     7
 65
   257
 75
     1
175
     1
 42
1.0
 92
        0
 66
     7
 43
1.0
 76
     1
 77
     6
 78
     2
 67
     7
 79
     5
170
     0
171
     0
290
     0
174
     0
 93
       13
 44
0.0
173
     0
291
     1
 45
0.0
1001
ACAD
1000
AcDbSavedByObjectVersion
1070
     0
  0
VISUALSTYLE
  5
2E
102
{ACAD_REACTORS
330
2A
102
}
330
2A
100
AcDbVisualStyle
  2
GouraudWithEdges
 70
     3
 71
     2
 72
     2
 73
     1
 90
        2
 40
-0.6
 41
30.0
 62
     5
 63
     7
421
 16777215
 74
     1
 91
        4
 64
     7
 65
   257
 75
     1
175
     1
 42
1.0
 92
        0
 66
   257
 43
1.0
 76
     1
 77
     6
 78
     2
 67
     7
 79
     5
170
     0
171
     0
290
     0
174
     0
 93
       13
 44
0.0
173
     0
291
     1
 45
0.0
1001
ACAD
1000
AcDbSavedByObjectVersion
1070
     0
  0
VISUALSTYLE
  5
38
102
{ACAD_REACTORS
330
2A
102
}
330
2A
100
AcDbVisualStyle
  2
Linepattern
 70
    14
 71
     2
 72
     2
 73
     0
 90
        0
 40
-0.6
 41
-30.0
 62
     5
 63
     7
421
 16777215
 74
     1
 91
        4
 64
     7
 65
   257
 75
     7
175
     7
 42
1.0
 92
        8
 66
     7
 43
1.0
 76
     1
 77
     6
 78
     2
 67
     7
 79
     5
170
     0
171
     0
290
     0
174
     0
 93
        1
 44
0.0
173
     0
291
     1
 45
0.0
1001
ACAD
1000
AcDbSavedByObjectVersion
1070
     0
  0
VISUALSTYLE
  5
33
102
{ACAD_REACTORS
330
2A
102
}
330
2A
100
AcDbVisualStyle
  2
Realistic
 70
     8
 71
     2
 72
     2
 73
     0
 90
        0
 40
-0.6
 41
-30.0
 62
     5
 63
     7
421
 16777215
 74
     1
 91
        0
 64
     7
 65
   257
 75
     1
175
     1
 42
1.0
 92
        8
 66
     8
424
  7895160
 43
1.0
 76
     1
 77
     6
 78
     2
 67
     7
 79
     5
170
     0
171
     0
290
     0
174
     0
 93
       13
 44
0.0
173
     0
291
     0
 45
0.0
1001
ACAD
1000
AcDbSavedByObjectVersion
1070
     0
  0
VISUALSTYLE
  5
37
102
{ACAD_REACTORS
330
2A
102
}
330
2A
100
AcDbVisualStyle
  2
Thicken
 70
    13
 71
     2
 72
     2
 73
     0
 90
        0
 40
-0.6
 41
-30.0
 62
     5
 63
     7
421
 16777215
 74
     1
 91
        4
 64
     7
 65
   257
 75
     1
175
     1
 42
1.0
 92
       12
 66
     7
 43
1.0
 76
     1
 77
     6
 78
     2
 67
     7
 79
     5
170
     0
171
     0
290
     0
174
     0
 93
        1
 44
0.0
173
     0
291
     1
 45
0.0
1001
ACAD
1000
AcDbSavedByObjectVersion
1070
     0
  0
ENDSEC
  0
EOF
