  0
SECTION
  2
HEADER
  9
$ACADVER
  1
AC1015
  9
$ACADMAINTVER
 70
    20
  9
$DWGCODEPAGE
  3
ANSI_1252
  9
$INSBASE
 10
0.0
 20
0.0
 30
0.0
  9
$EXTMIN
 10
-136.1776854402803
 20
-1108.98179079402
 30
0.0
  9
$EXTMAX
 10
748.6197623752602
 20
844.6268221891363
 30
0.0
  9
$LIMMIN
 10
0.0
 20
0.0
  9
$LIMMAX
 10
0.0
 20
0.0
  9
$ORTHOMODE
 70
     0
  9
$REGENMODE
 70
     1
  9
$FILLMODE
 70
     1
  9
$QTEXTMODE
 70
     0
  9
$MIRRTEXT
 70
     1
  9
$LTSCALE
 40
1.0
  9
$ATTMODE
 70
     1
  9
$TEXTSIZE
 40
0.0
  9
$TRACEWID
 40
0.05
  9
$TEXTSTYLE
  7
STANDARD
  9
$CLAYER
  8
0
  9
$CELTYPE
  6
CONTINUOUS
  9
$CECOLOR
 62
   256
  9
$CELTSCALE
 40
1.0
  9
$DISPSILH
 70
     0
  9
$DIMSCALE
 40
1.0
  9
$DIMASZ
 40
6.0
  9
$DIMEXO
 40
1.0
  9
$DIMDLI
 40
0.38
  9
$DIMRND
 40
0.0
  9
$DIMDLE
 40
1.0
  9
$DIMEXE
 40
0.18
  9
$DIMTP
 40
0.0
  9
$DIMTM
 40
0.0
  9
$DIMTXT
 40
3.5
  9
$DIMCEN
 40
0.09
  9
$DIMTSZ
 40
0.0
  9
$DIMTOL
 70
     0
  9
$DIMLIM
 70
     0
  9
$DIMTIH
 70
     1
  9
$DIMTOH
 70
     1
  9
$DIMSE1
 70
     0
  9
$DIMSE2
 70
     0
  9
$DIMTAD
 70
     1
  9
$DIMZIN
 70
     0
  9
$DIMBLK
  1

  9
$DIMASO
 70
     1
  9
$DIMSHO
 70
     1
  9
$DIMPOST
  1

  9
$DIMAPOST
  1

  9
$DIMALT
 70
     0
  9
$DIMALTD
 70
     2
  9
$DIMALTF
 40
0.0394
  9
$DIMLFAC
 40
1.0
  9
$DIMTOFL
 70
     0
  9
$DIMTVP
 40
0.0
  9
$DIMTIX
 70
     0
  9
$DIMSOXD
 70
     0
  9
$DIMSAH
 70
     0
  9
$DIMBLK1
  1

  9
$DIMBLK2
  1

  9
$DIMSTYLE
  2
STANDARD
  9
$DIMCLRD
 70
     0
  9
$DIMCLRE
 70
     0
  9
$DIMCLRT
 70
     0
  9
$DIMTFAC
 40
1.0
  9
$DIMGAP
 40
1.0
  9
$DIMJUST
 70
     0
  9
$DIMSD1
 70
     0
  9
$DIMSD2
 70
     0
  9
$DIMTOLJ
 70
     1
  9
$DIMTZIN
 70
     0
  9
$DIMALTZ
 70
     0
  9
$DIMALTTZ
 70
     0
  9
$DIMUPT
 70
     0
  9
$DIMDEC
 70
     4
  9
$DIMTDEC
 70
     4
  9
$DIMALTU
 70
     2
  9
$DIMALTTD
 70
     2
  9
$DIMTXSTY
  7
STANDARD
  9
$DIMAUNIT
 70
     0
  9
$DIMADEC
 70
     0
  9
$DIMALTRND
 40
0.0
  9
$DIMAZIN
 70
     0
  9
$DIMDSEP
 70
    46
  9
$DIMATFIT
 70
     3
  9
$DIMFRAC
 70
     0
  9
$DIMLDRBLK
  1

  9
$DIMLUNIT
 70
     2
  9
$DIMLWD
 70
    -2
  9
$DIMLWE
 70
    -2
  9
$DIMTMOVE
 70
     0
  9
$LUNITS
 70
     2
  9
$LUPREC
 70
     2
  9
$SKETCHINC
 40
0.1
  9
$FILLETRAD
 40
0.0
  9
$AUNITS
 70
     0
  9
$AUPREC
 70
     2
  9
$MENU
  1
acad
  9
$ELEVATION
 40
0.0
  9
$PELEVATION
 40
0.0
  9
$THICKNESS
 40
0.0
  9
$LIMCHECK
 70
     0
  9
$CHAMFERA
 40
0.0
  9
$CHAMFERB
 40
0.0
  9
$CHAMFERC
 40
0.0
  9
$CHAMFERD
 40
0.0
  9
$SKPOLY
 70
     0
  9
$TDCREATE
 40
2444972.041666667
  9
$TDUCREATE
 40
2444972.000000000
  9
$TDUPDATE
 40
2453768.890248113
  9
$TDUUPDATE
 40
2453768.848581447
  9
$TDINDWG
 40
0.0006244676
  9
$TDUSRTIMER
 40
0.0006244676
  9
$USRTIMER
 70
     1
  9
$ANGBASE
 50
0.0
  9
$ANGDIR
 70
     0
  9
$PDMODE
 70
     0
  9
$PDSIZE
 40
-1.0
  9
$PLINEWID
 40
0.0
  9
$SPLFRAME
 70
     0
  9
$SPLINETYPE
 70
     6
  9
$SPLINESEGS
 70
     8
  9
$HANDSEED
  5
27B
  9
$SURFTAB1
 70
     6
  9
$SURFTAB2
 70
     6
  9
$SURFTYPE
 70
     6
  9
$SURFU
 70
     6
  9
$SURFV
 70
     6
  9
$UCSBASE
  2

  9
$UCSNAME
  2

  9
$UCSORG
 10
0.0
 20
0.0
 30
0.0
  9
$UCSXDIR
 10
1.0
 20
0.0
 30
0.0
  9
$UCSYDIR
 10
0.0
 20
1.0
 30
0.0
  9
$UCSORTHOREF
  2

  9
$UCSORTHOVIEW
 70
     1
  9
$UCSORGTOP
 10
0.0
 20
0.0
 30
0.0
  9
$UCSORGBOTTOM
 10
0.0
 20
0.0
 30
0.0
  9
$UCSORGLEFT
 10
0.0
 20
0.0
 30
0.0
  9
$UCSORGRIGHT
 10
0.0
 20
0.0
 30
0.0
  9
$UCSORGFRONT
 10
0.0
 20
0.0
 30
0.0
  9
$UCSORGBACK
 10
0.0
 20
0.0
 30
0.0
  9
$PUCSBASE
  2

  9
$PUCSNAME
  2

  9
$PUCSORG
 10
0.0
 20
0.0
 30
0.0
  9
$PUCSXDIR
 10
1.0
 20
0.0
 30
0.0
  9
$PUCSYDIR
 10
0.0
 20
1.0
 30
0.0
  9
$PUCSORTHOREF
  2

  9
$PUCSORTHOVIEW
 70
     0
  9
$PUCSORGTOP
 10
0.0
 20
0.0
 30
0.0
  9
$PUCSORGBOTTOM
 10
0.0
 20
0.0
 30
0.0
  9
$PUCSORGLEFT
 10
0.0
 20
0.0
 30
0.0
  9
$PUCSORGRIGHT
 10
0.0
 20
0.0
 30
0.0
  9
$PUCSORGFRONT
 10
0.0
 20
0.0
 30
0.0
  9
$PUCSORGBACK
 10
0.0
 20
0.0
 30
0.0
  9
$USERI1
 70
     0
  9
$USERI2
 70
     0
  9
$USERI3
 70
     0
  9
$USERI4
 70
     0
  9
$USERI5
 70
     0
  9
$USERR1
 40
0.0
  9
$USERR2
 40
0.0
  9
$USERR3
 40
0.0
  9
$USERR4
 40
0.0
  9
$USERR5
 40
0.0
  9
$WORLDVIEW
 70
     1
  9
$SHADEDGE
 70
     3
  9
$SHADEDIF
 70
    70
  9
$TILEMODE
 70
     1
  9
$MAXACTVP
 70
    16
  9
$PINSBASE
 10
0.0
 20
0.0
 30
0.0
  9
$PLIMCHECK
 70
     0
  9
$PEXTMIN
 10
1.000000000000000E+20
 20
1.000000000000000E+20
 30
1.000000000000000E+20
  9
$PEXTMAX
 10
-1.000000000000000E+20
 20
-1.000000000000000E+20
 30
-1.000000000000000E+20
  9
$PLIMMIN
 10
0.0
 20
0.0
  9
$PLIMMAX
 10
12.0
 20
9.0
  9
$UNITMODE
 70
     0
  9
$VISRETAIN
 70
     0
  9
$PLINEGEN
 70
     1
  9
$PSLTSCALE
 70
     1
  9
$TREEDEPTH
 70
  3020
  9
$CMLSTYLE
  2
STANDARD
  9
$CMLJUST
 70
     0
  9
$CMLSCALE
 40
1.0
  9
$PROXYGRAPHICS
 70
     0
  9
$MEASUREMENT
 70
     0
  9
$CELWEIGHT
370
    -1
  9
$ENDCAPS
280
     0
  9
$JOINSTYLE
280
     0
  9
$LWDISPLAY
290
     0
  9
$INSUNITS
 70
     0
  9
$HYPERLINKBASE
  1

  9
$STYLESHEET
  1

  9
$XEDIT
290
     1
  9
$CEPSNTYPE
380
     0
  9
$PSTYLEMODE
290
     1
  9
$FINGERPRINTGUID
  2
{6BABAE2F-4670-42CB-9DC2-022969DAA63F}
  9
$VERSIONGUID
  2
{A183F18F-F415-490F-9F5F-CD569B273F32}
  9
$EXTNAMES
290
     1
  9
$PSVPSCALE
 40
0.0
  9
$OLESTARTUP
290
     0
  0
ENDSEC
  0
SECTION
  2
CLASSES
  0
CLASS
  1
IMAGE
  2
AcDbRasterImage
  3
ISM
 90
    32895
280
     0
281
     1
  0
CLASS
  1
DICTIONARYVAR
  2
AcDbDictionaryVar
  3
ObjectDBX Classes
 90
        0
280
     0
281
     0
  0
CLASS
  1
RASTERVARIABLES
  2
AcDbRasterVariables
  3
ISM
 90
    32768
280
     0
281
     0
  0
CLASS
  1
IMAGEDEF
  2
AcDbRasterImageDef
  3
ISM
 90
    32768
280
     0
281
     0
  0
CLASS
  1
IMAGEDEF_REACTOR
  2
AcDbRasterImageDefReactor
  3
ISM
 90
    32769
280
     0
281
     0
  0
CLASS
  1
IDBUFFER
  2
AcDbIdBuffer
  3
ObjectDBX Classes
 90
    32768
280
     0
281
     0
  0
CLASS
  1
SPATIAL_FILTER
  2
AcDbSpatialFilter
  3
ObjectDBX Classes
 90
    32768
280
     0
281
     0
  0
CLASS
  1
SORTENTSTABLE
  2
AcDbSortentsTable
  3
ObjectDBX Classes
 90
    32768
280
     0
281
     0
  0
CLASS
  1
LAYER_INDEX
  2
AcDbLayerIndex
  3
ObjectDBX Classes
 90
    32768
280
     0
281
     0
  0
CLASS
  1
SPATIAL_INDEX
  2
AcDbSpatialIndex
  3
ObjectDBX Classes
 90
    32768
280
     0
281
     0
  0
CLASS
  1
OBJECT_PTR
  2
CAseDLPNTableRecord
  3
ASE-LPNTableRecord
 90
    32769
280
     0
281
     0
  0
CLASS
  1
LAYOUT
  2
AcDbLayout
  3
ObjectDBX Classes
 90
        0
280
     0
281
     0
  0
CLASS
  1
PLOTSETTINGS
  2
AcDbPlotSettings
  3
ObjectDBX Classes
 90
    32768
280
     0
281
     0
  0
CLASS
  1
ACDBDICTIONARYWDFLT
  2
AcDbDictionaryWithDefault
  3
ObjectDBX Classes
 90
        0
280
     0
281
     0
  0
CLASS
  1
ACDBPLACEHOLDER
  2
AcDbPlaceHolder
  3
ObjectDBX Classes
 90
        0
280
     0
281
     0
  0
CLASS
  1
VBA_PROJECT
  2
AcDbVbaProject
  3
acad
 90
    32768
280
     0
281
     0
  0
CLASS
  1
WIPEOUT
  2
AcDbWipeout
  3
"WipeOut|Product Desc: Object Enabler for WipeOut entity^I^I^I^I^I^I|Company: Autodesk, Inc.^I^I^I^I^I^I|WEB Address: www.autodesk.com"
 90
    32895
280
     0
281
     1
  0
CLASS
  1
WIPEOUTVARIABLES
  2
AcDbWipeoutVariables
  3
"WipeOut|Product Desc:     WipeOut Dbx Application|Company:          Autodesk, Inc.|WEB Address:      www.autodesk.com"
 90
    32768
280
     0
281
     0
  0
CLASS
  1
RTEXT
  2
RText
  3
RText|AutoCAD Express Tool|expresstools@autodesk.com
 90
    32768
280
     0
281
     1
  0
CLASS
  1
ARCALIGNEDTEXT
  2
AcDbArcAlignedText
  3
ATEXT|AutoCAD Express Tool|expresstools@autodesk.com
 90
    32768
280
     0
281
     1
  0
ENDSEC
  0
SECTION
  2
TABLES
  0
TABLE
  2
VPORT
  5
7
330
0
100
AcDbSymbolTable
 70
     2
  0
VPORT
  5
273
330
7
100
AcDbSymbolTableRecord
100
AcDbViewportTableRecord
  2
*Active
 70
     0
 10
0.0
 20
0.0
 11
1.0
 21
1.0
 12
425.3891751109899
 22
-115.3933917952732
 13
0.0
 23
0.0
 14
1.0
 24
1.0
 15
0.0
 25
0.0
 16
0.0
 26
0.0
 36
1.0
 17
0.0
 27
0.0
 37
0.0
 40
1934.943246752631
 41
1.569570871261378
 42
50.0
 43
0.0
 44
0.0
 50
0.0
 51
0.0
 71
     0
 72
  2000
 73
     1
 74
     1
 75
     0
 76
     0
 77
     0
 78
     0
281
     0
 65
     1
110
0.0
120
0.0
130
0.0
111
1.0
121
0.0
131
0.0
112
0.0
122
1.0
132
0.0
 79
     1
146
0.0
  0
ENDTAB
  0
TABLE
  2
LTYPE
  5
4
330
0
100
AcDbSymbolTable
 70
     6
  0
LTYPE
  5
11
330
4
100
AcDbSymbolTableRecord
100
AcDbLinetypeTableRecord
  2
BYBLOCK
 70
     0
  3

 72
    65
 73
     0
 40
0.0
  0
LTYPE
  5
12
330
4
100
AcDbSymbolTableRecord
100
AcDbLinetypeTableRecord
  2
BYLAYER
 70
     0
  3

 72
    65
 73
     0
 40
0.0
  0
LTYPE
  5
13
330
4
100
AcDbSymbolTableRecord
100
AcDbLinetypeTableRecord
  2
CONTINUOUS
 70
     0
  3
Solid line
 72
    65
 73
     0
 40
0.0
  0
LTYPE
  5
1E
330
4
100
AcDbSymbolTableRecord
100
AcDbLinetypeTableRecord
  2
HIDDEN
 70
     0
  3
Hidden __ __ __ __ __ __ __ __ __ __ __ __ __ __
 72
    65
 73
     2
 40
1.905
 49
1.27
 74
     0
 49
-0.635
 74
     0
  0
LTYPE
  5
1F
330
4
100
AcDbSymbolTableRecord
100
AcDbLinetypeTableRecord
  2
PHANTOM
 70
     0
  3
Phantom ______  __  __  ______  __  __  ______
 72
    65
 73
     6
 40
12.7
 49
6.349999999999999
 74
     0
 49
-1.27
 74
     0
 49
1.27
 74
     0
 49
-1.27
 74
     0
 49
1.27
 74
     0
 49
-1.27
 74
     0
  0
LTYPE
  5
20
330
4
100
AcDbSymbolTableRecord
100
AcDbLinetypeTableRecord
  2
CENTER
 70
     0
  3
Center ____ _ ____ _ ____ _ ____ _ ____ _ ____
 72
    65
 73
     4
 40
10.16
 49
6.349999999999999
 74
     0
 49
-1.27
 74
     0
 49
1.27
 74
     0
 49
-1.27
 74
     0
  0
LTYPE
  5
21
330
4
100
AcDbSymbolTableRecord
100
AcDbLinetypeTableRecord
  2
CENTERX2
 70
     0
  3
Center (2x) ________  __  ________  __  _____
 72
    65
 73
     4
 40
20.32
 49
12.7
 74
     0
 49
-2.54
 74
     0
 49
2.54
 74
     0
 49
-2.54
 74
     0
  0
LTYPE
  5
22
330
4
100
AcDbSymbolTableRecord
100
AcDbLinetypeTableRecord
  2
DOT2
 70
     0
  3
Dot (.5x) ........................................
 72
    65
 73
     2
 40
0.635
 49
0.0
 74
     0
 49
-0.635
 74
     0
  0
ENDTAB
  0
TABLE
  2
LAYER
  5
2
330
0
100
AcDbSymbolTable
 70
     2
  0
LAYER
  5
14
330
2
100
AcDbSymbolTableRecord
100
AcDbLayerTableRecord
  2
0
 70
     0
 62
     7
  6
CONTINUOUS
370
    -3
390
258
  0
LAYER
  5
26
330
2
100
AcDbSymbolTableRecord
100
AcDbLayerTableRecord
  2
DEFPOINTS
 70
     0
 62
     7
  6
CONTINUOUS
290
     0
370
    -3
390
258
  0
ENDTAB
  0
TABLE
  2
STYLE
  5
3
330
0
100
AcDbSymbolTable
 70
     1
  0
STYLE
  5
17
330
3
100
AcDbSymbolTableRecord
100
AcDbTextStyleTableRecord
  2
STANDARD
 70
     0
 40
0.0
 41
1.0
 50
0.0
 71
     0
 42
0.0
  3
Century Gothic
  4

  0
ENDTAB
  0
TABLE
  2
VIEW
  5
5
330
0
100
AcDbSymbolTable
 70
     0
  0
ENDTAB
  0
TABLE
  2
UCS
  5
6
330
0
100
AcDbSymbolTable
 70
     0
  0
ENDTAB
  0
TABLE
  2
APPID
  5
8
330
0
100
AcDbSymbolTable
 70
     2
  0
APPID
  5
16
330
8
100
AcDbSymbolTableRecord
100
AcDbRegAppTableRecord
  2
ACAD
 70
     0
  0
APPID
  5
263
330
8
100
AcDbSymbolTableRecord
100
AcDbRegAppTableRecord
  2
DCO15
 70
     0
  0
ENDTAB
  0
TABLE
  2
DIMSTYLE
  5
9
330
0
100
AcDbSymbolTable
 70
     1
100
AcDbDimStyleTable
 71
     0
  0
DIMSTYLE
105
18
330
9
100
AcDbSymbolTableRecord
100
AcDbDimStyleTableRecord
  2
STANDARD
 70
     0
289
     0
340
17
  0
ENDTAB
  0
TABLE
  2
BLOCK_RECORD
  5
1
330
0
100
AcDbSymbolTable
 70
     0
  0
BLOCK_RECORD
  5
A
330
1
100
AcDbSymbolTableRecord
100
AcDbBlockTableRecord
  2
*MODEL_SPACE
340
25D
  0
BLOCK_RECORD
  5
B
330
1
100
AcDbSymbolTableRecord
100
AcDbBlockTableRecord
  2
*PAPER_SPACE
340
25E
  0
ENDTAB
  0
ENDSEC
  0
SECTION
  2
BLOCKS
  0
BLOCK
  5
D
330
A
100
AcDbEntity
  8
0
100
AcDbBlockBegin
  2
*MODEL_SPACE
 70
     0
 10
0.0
 20
0.0
 30
0.0
  3
*MODEL_SPACE
  1

  0
ENDBLK
  5
E
330
A
100
AcDbEntity
  8
0
100
AcDbBlockEnd
  0
BLOCK
  5
F
330
B
100
AcDbEntity
 67
     1
  8
0
100
AcDbBlockBegin
  2
*PAPER_SPACE
 70
     0
 10
0.0
 20
0.0
 30
0.0
  3
*PAPER_SPACE
  1

  0
ENDBLK
  5
10
330
B
100
AcDbEntity
 67
     1
  8
0
100
AcDbBlockEnd
  0
ENDSEC
  0
SECTION
  2
ENTITIES
  0
LINE
  5
27
330
A
100
AcDbEntity
  8
0
  6
Continuous
 62
     7
100
AcDbLine
 10
189.5839518340831
 20
-518.4869913732369
 30
0.0
 11
188.4659518340832
 21
-511.1450913732369
 31
0.0
  0
LINE
  5
28
330
A
100
AcDbEntity
  8
0
  6
Continuous
 62
     7
100
AcDbLine
 10
-49.29998248698897
 20
-511.1450913732369
 30
0.0
 11
-50.41798248698857
 21
-518.4869913732369
 31
0.0
  0
ARC
  5
29
330
A
100
AcDbEntity
  8
0
  6
Continuous
 62
     7
100
AcDbCircle
 10
182.5569518340832
 20
-512.1869913732369
 30
0.0
 40
5.999999999999977
100
AcDbArc
 50
9.999999999999646
 51
90.0
  0
ARC
  5
2A
330
A
100
AcDbEntity
  8
0
  6
Continuous
 62
     7
100
AcDbCircle
 10
-43.39098248698897
 20
-512.1869913732369
 30
0.0
 40
5.999999999999963
100
AcDbArc
 50
90.0
 51
170.0000000000003
  0
LINE
  5
2B
330
A
100
AcDbEntity
  8
0
  6
Continuous
 62
     7
100
AcDbLine
 10
27.13620026417792
 20
-518.4869913732368
 30
0.0
 11
27.13620026417792
 21
-520.4869913732368
 31
0.0
  0
LINE
  5
2C
330
A
100
AcDbEntity
  8
0
  6
Continuous
 62
     7
100
AcDbLine
 10
47.13620026417792
 20
-520.4869913732368
 30
0.0
 11
47.13620026417792
 21
-518.4869913732368
 31
0.0
  0
LINE
  5
2D
330
A
100
AcDbEntity
  8
0
  6
Continuous
 62
     7
100
AcDbLine
 10
144.5297690829169
 20
-518.4869913732368
 30
0.0
 11
144.5297690829169
 21
-520.4869913732368
 31
0.0
  0
LINE
  5
2E
330
A
100
AcDbEntity
  8
0
  6
Continuous
 62
     7
100
AcDbLine
 10
164.5297690829169
 20
-520.4869913732368
 30
0.0
 11
164.5297690829169
 21
-518.4869913732368
 31
0.0
  0
ARC
  5
2F
330
A
100
AcDbEntity
  8
0
  6
Continuous
 62
     7
100
AcDbCircle
 10
112.0762554869931
 20
-476.1869923604662
 30
0.0
 40
30.0
100
AcDbArc
 50
178.7021377200075
 51
270.0000000000008
  0
ARC
  5
30
330
A
100
AcDbEntity
  8
0
  6
Continuous
 62
     7
100
AcDbCircle
 10
27.08971386010111
 20
-476.1869923604662
 30
0.0
 40
30.0
100
AcDbArc
 50
270.0000000000008
 51
1.297862279991633
  0
LINE
  5
31
330
A
100
AcDbEntity
  8
0
  6
Continuous
 62
     7
100
AcDbLine
 10
82.08395183408324
 20
-475.5074913732369
 30
0.0
 11
82.08395183408324
 21
-472.4869913732368
 31
0.0
  0
LINE
  5
32
330
A
100
AcDbEntity
  8
0
  6
Continuous
 62
     7
100
AcDbLine
 10
57.08201751301101
 20
-472.4869913732368
 30
0.0
 11
57.08201751301101
 21
-475.5074913732369
 31
0.0
  0
LINE
  5
33
330
A
100
AcDbEntity
  8
0
  6
Continuous
 62
     7
100
AcDbLine
 10
-45.41701532645286
 20
-518.4869913732368
 30
0.0
 11
-45.41701532645286
 21
-520.4869913732368
 31
0.0
  0
LINE
  5
34
330
A
100
AcDbEntity
  8
0
  6
Continuous
 62
     7
100
AcDbLine
 10
-25.41701532645288
 20
-520.4869913732368
 30
0.0
 11
-25.41701532645288
 21
-518.4869913732368
 31
0.0
  0
LINE
  5
35
330
A
100
AcDbEntity
  8
0
  6
Continuous
 62
     7
100
AcDbLine
 10
127.5829846735472
 20
840.4419438649822
 30
0.0
 11
127.5829846735472
 21
842.2126086267633
 31
0.0
  0
ARC
  5
36
330
A
100
AcDbEntity
  8
0
  6
Continuous
 62
     7
100
AcDbCircle
 10
125.5829846735472
 20
842.2126086267633
 30
0.0
 40
2.0
100
AcDbArc
 50
0.0
 51
90.0
  0
LINE
  5
37
330
A
100
AcDbEntity
  8
0
  6
Continuous
 62
     7
100
AcDbLine
 10
82.08395183408324
 20
-472.4869913732368
 30
0.0
 11
82.08395183408324
 21
575.5681014057164
 31
0.0
  0
LINE
  5
38
330
A
100
AcDbEntity
  8
0
  6
Continuous
 62
     7
100
AcDbLine
 10
57.08201751301101
 20
575.5681014057164
 30
0.0
 11
57.08201751301101
 21
-472.4869913732368
 31
0.0
  0
ARC
  5
39
330
A
100
AcDbEntity
  8
0
  6
Continuous
 62
     7
100
AcDbCircle
 10
242.7979572319088
 20
577.5681014057164
 30
0.0
 40
1.999999999999964
100
AcDbArc
 50
315.0182471855135
 51
15.01824718550602
  0
LINE
  5
3A
330
A
100
AcDbEntity
  8
0
  6
Continuous
 62
     7
100
AcDbLine
 10
244.7296439325235
 20
578.0863547131524
 30
0.0
 11
174.7374713218203
 21
838.9683347010837
 31
0.0
  0
ARC
  5
3B
330
A
100
AcDbEntity
  8
0
  6
Continuous
 62
     7
100
AcDbCircle
 10
172.8057846212056
 20
838.4500813936476
 30
0.0
 40
1.999999999999993
100
AcDbArc
 50
15.01824718550915
 51
84.82969382868192
  0
LINE
  5
3C
330
A
100
AcDbEntity
  8
0
  6
Continuous
 62
     7
100
AcDbLine
 10
85.58298467354712
 20
575.5681014057164
 30
0.0
 11
85.58298467354712
 21
576.1543383045498
 31
0.0
  0
LINE
  5
3D
330
A
100
AcDbEntity
  8
0
  6
Continuous
 62
     7
100
AcDbLine
 10
188.4659518340832
 20
-511.1450913732369
 30
0.0
 11
-49.29998248698897
 21
-511.1450913732369
 31
0.0
  0
LINE
  5
3E
330
A
100
AcDbEntity
  8
0
  6
Continuous
 62
     7
100
AcDbLine
 10
189.5839518340831
 20
-518.4869913732369
 30
0.0
 11
-50.41798248698857
 21
-518.4869913732369
 31
0.0
  0
LINE
  5
3F
330
A
100
AcDbEntity
  8
0
  6
Continuous
 62
     7
100
AcDbLine
 10
182.5569518340834
 20
-506.186991373237
 30
0.0
 11
-43.39098248698944
 21
-506.186991373237
 31
0.0
  0
LINE
  5
40
330
A
100
AcDbEntity
  8
0
  6
Continuous
 62
     7
100
AcDbLine
 10
47.13620026417792
 20
-520.4869913732368
 30
0.0
 11
27.13620026417792
 21
-520.4869913732368
 31
0.0
  0
LINE
  5
41
330
A
100
AcDbEntity
  8
0
  6
Continuous
 62
     7
100
AcDbLine
 10
164.5297690829169
 20
-520.4869913732368
 30
0.0
 11
144.5297690829169
 21
-520.4869913732368
 31
0.0
  0
LINE
  5
42
330
A
100
AcDbEntity
  8
0
  6
Continuous
 62
     7
100
AcDbLine
 10
82.08395183408324
 20
-475.5074913732369
 30
0.0
 11
57.08201751301101
 21
-475.5074913732369
 31
0.0
  0
LINE
  5
43
330
A
100
AcDbEntity
  8
0
  6
Continuous
 62
     7
100
AcDbLine
 10
82.08395183408324
 20
-472.4869913732368
 30
0.0
 11
57.08201751301101
 21
-472.4869913732368
 31
0.0
  0
LINE
  5
44
330
A
100
AcDbEntity
  8
0
  6
Continuous
 62
     7
100
AcDbLine
 10
-25.41701532645288
 20
-520.4869913732368
 30
0.0
 11
-45.41701532645286
 21
-520.4869913732368
 31
0.0
  0
LINE
  5
45
330
A
100
AcDbEntity
  8
0
  6
Continuous
 62
     7
100
AcDbLine
 10
13.55620536222127
 20
840.4500813936479
 30
0.0
 11
13.55620536222126
 21
842.2126086267633
 31
0.0
  0
LINE
  5
46
330
A
100
AcDbEntity
  8
0
  6
Continuous
 62
     7
100
AcDbLine
 10
15.62930083268218
 20
844.2126086267633
 30
0.0
 11
125.5829846735471
 21
844.2126086267633
 31
0.0
  0
LWPOLYLINE
  5
47
330
A
100
AcDbEntity
  8
0
  6
Continuous
 62
     7
100
AcDbPolyline
 90
        7
 70
   128
 43
0.0
 10
13.55620536222126
 20
842.2126086267633
 10
13.59447193614296
 20
842.5953475896973
 10
13.70364190667582
 20
842.9537915254805
 10
14.0630195235898
 20
843.5233929195968
 10
14.58902217615382
 20
843.9429549192862
 10
15.23788552946614
 20
844.1767146979184
 10
15.62930083268218
 20
844.2126086267633
  0
LINE
  5
50
330
A
100
AcDbEntity
  8
0
  6
Continuous
 62
     7
100
AcDbLine
 10
84.5829846735471
 20
844.2126086267633
 30
0.0
 11
82.08395183408324
 21
844.2126086267633
 31
0.0
  0
LINE
  5
51
330
A
100
AcDbEntity
  8
0
  6
Continuous
 62
     7
100
AcDbLine
 10
57.08201751301101
 20
844.2126086267633
 30
0.0
 11
15.62930083268218
 21
844.2126086267633
 31
0.0
  0
LINE
  5
52
330
A
100
AcDbEntity
  8
0
  6
Continuous
 62
     7
100
AcDbLine
 10
69.58298467354712
 20
-472.4869913732368
 30
0.0
 11
82.08395183408324
 21
-472.4869913732368
 31
0.0
  0
LINE
  5
53
330
A
100
AcDbEntity
  8
0
  6
Continuous
 62
     7
100
AcDbLine
 10
57.08201751301101
 20
-472.4869913732368
 30
0.0
 11
69.58298467354712
 21
-472.4869913732368
 31
0.0
  0
LINE
  5
54
330
A
100
AcDbEntity
  8
0
  6
Continuous
 62
     7
100
AcDbLine
 10
244.2126211120509
 20
576.1543383045498
 30
0.0
 11
-104.3140655750363
 21
576.1543383045497
 31
0.0
  0
LWPOLYLINE
  5
55
330
A
100
AcDbEntity
  8
0
  6
Continuous
 62
     7
100
AcDbPolyline
 90
        4
 70
   128
 43
0.0
 10
-104.3140655750363
 20
576.1543383045497
 10
-103.7626254174443
 20
575.7650977028474
 10
-103.113554110532
 20
575.5801539164288
 10
-102.8933771747555
 20
575.5681014057164
  0
LINE
  5
5B
330
A
100
AcDbEntity
  8
0
  6
Continuous
 62
     7
100
AcDbLine
 10
-102.8933771747555
 20
575.5681014057164
 30
0.0
 11
-102.983221665396
 21
575.5681014057164
 31
0.0
  0
LWPOLYLINE
  5
5C
330
A
100
AcDbEntity
  8
0
  6
Continuous
 62
     7
100
AcDbPolyline
 90
        5
 70
   128
 43
0.0
 10
-104.3054783368836
 20
576.0819603746433
 10
-104.6890089374532
 20
576.513635722346
 10
-104.9432891416958
 20
577.1361006101888
 10
-104.9764866537685
 20
577.8054861870348
 10
-104.9221114936951
 20
578.0863547131524
  0
LWPOLYLINE
  5
63
330
A
100
AcDbEntity
  8
0
  6
Continuous
 62
     7
100
AcDbPolyline
 90
        3
 70
   128
 43
0.0
 10
-104.922111493695
 20
578.0863547131524
 10
-94.35047195502908
 20
617.3359998035585
 10
-34.49809329465784
 20
838.9683347010837
  0
LINE
  5
68
330
A
100
AcDbEntity
  8
0
  6
Continuous
 62
     7
100
AcDbLine
 10
-32.49705583701503
 20
840.4419438649822
 30
0.0
 11
172.9860175130111
 21
840.4419438649822
 31
0.0
  0
LWPOLYLINE
  5
69
330
A
100
AcDbEntity
  8
0
  6
Continuous
 62
     7
100
AcDbPolyline
 90
        5
 70
   128
 43
0.0
 10
-34.49809329465784
 20
838.9683347010837
 10
-34.21634762800927
 20
839.576204490037
 10
-33.74974538255038
 20
840.0567578145516
 10
-33.14717550275595
 20
840.359599009354
 10
-32.54606920169645
 20
840.4500813936479
  0
LINE
  5
70
330
A
100
AcDbEntity
  8
0
  6
Continuous
 62
     7
100
AcDbLine
 10
-32.54606920169643
 20
840.4500813936479
 30
0.0
 11
-32.31447946312059
 21
840.4500813936479
 31
0.0
  0
LINE
  5
71
330
A
100
AcDbEntity
  8
0
  6
Continuous
 62
     7
100
AcDbLine
 10
-32.31447946312059
 20
840.4500813936479
 30
0.0
 11
-32.49705583701503
 21
840.4419438649822
 31
0.0
  0
LINE
  5
72
330
A
100
AcDbEntity
  8
0
  6
Continuous
 62
     7
100
AcDbLine
 10
13.97947758991065
 20
840.4500813936479
 30
0.0
 11
-32.31447946312059
 21
840.4500813936479
 31
0.0
  0
LINE
  5
73
330
A
100
AcDbEntity
  8
0
  6
Continuous
 62
     7
100
AcDbLine
 10
69.58298467354712
 20
575.5681014057164
 30
0.0
 11
-102.8933771747555
 21
575.5681014057164
 31
0.0
  0
LINE
  5
74
330
A
100
AcDbEntity
  8
0
  6
Continuous
 62
     7
100
AcDbLine
 10
85.58298467354712
 20
575.5681014057164
 30
0.0
 11
69.58298467354712
 21
575.5681014057164
 31
0.0
  0
LINE
  5
75
330
A
100
AcDbEntity
  8
0
  6
PHANTOM
 62
     7
100
AcDbLine
 10
127.5829846735473
 20
842.2126086267633
 30
0.0
 11
13.55620536222126
 21
842.2126086267633
 31
0.0
  0
LINE
  5
76
330
A
100
AcDbEntity
  8
0
  6
PHANTOM
 62
     7
100
AcDbLine
 10
-104.922111493695
 20
578.0863547131524
 30
0.0
 11
244.7296439325234
 21
578.0863547131524
 31
0.0
  0
LINE
  5
77
330
A
100
AcDbEntity
  8
0
  6
PHANTOM
 62
     7
100
AcDbLine
 10
174.7374713218203
 20
838.9683347010837
 30
0.0
 11
-34.49809329465784
 21
838.9683347010837
 31
0.0
  0
LINE
  5
78
330
A
100
AcDbEntity
  8
0
  6
PHANTOM
 62
     7
100
AcDbLine
 10
69.58298467354712
 20
576.1543383045498
 30
0.0
 11
69.58298467354712
 21
575.5681014057164
 31
0.0
  0
LINE
  5
79
330
A
100
AcDbEntity
  8
0
  6
Continuous
 62
     7
100
AcDbLine
 10
49.635922059321
 20
-832.2341265888168
 30
0.0
 11
48.95317457923188
 21
-831.0515732645624
 31
0.0
  0
LINE
  5
7A
330
A
100
AcDbEntity
  8
0
  6
Continuous
 62
     7
100
AcDbLine
 10
20.37433625434412
 20
-847.5515732645604
 30
0.0
 11
21.05708373443324
 21
-848.7341265888145
 31
0.0
  0
ARC
  5
7B
330
A
100
AcDbEntity
  8
0
  6
Continuous
 62
     7
100
AcDbCircle
 10
31.87353934353892
 20
-834.468777261598
 30
0.0
 40
30.00000000000012
100
AcDbArc
 50
144.8998987913943
 51
255.4360082044506
  0
ARC
  5
7C
330
A
100
AcDbEntity
  8
0
  6
Continuous
 62
     7
100
AcDbCircle
 10
31.87353934353892
 20
-834.468777261598
 30
0.0
 40
30.00000000000011
100
AcDbArc
 50
344.5639917955506
 51
95.09882857182205
  0
LINE
  5
7D
330
A
100
AcDbEntity
  8
0
  6
Continuous
 62
     7
100
AcDbLine
 10
21.05708373443607
 20
-950.8327784080094
 30
0.0
 11
20.3743362543468
 21
-952.0153317322634
 31
0.0
  0
LINE
  5
7E
330
A
100
AcDbEntity
  8
0
  6
Continuous
 62
     7
100
AcDbLine
 10
48.95317457923206
 20
-968.5153317322654
 30
0.0
 11
49.63592205932133
 21
-967.3327784080115
 31
0.0
  0
ARC
  5
7F
330
A
100
AcDbEntity
  8
0
  6
Continuous
 62
     7
100
AcDbCircle
 10
31.87353934353972
 20
-965.0981277352276
 30
0.0
 40
30.00000000000001
100
AcDbArc
 50
264.9011714281747
 51
15.43600820444866
  0
ARC
  5
80
330
A
100
AcDbEntity
  8
0
  6
Continuous
 62
     7
100
AcDbCircle
 10
31.87353934353972
 20
-965.0981277352276
 30
0.0
 40
30.00000000000007
100
AcDbArc
 50
104.563991795552
 51
215.1001012086113
  0
LINE
  5
81
330
A
100
AcDbEntity
  8
0
  6
Continuous
 62
     7
100
AcDbLine
 10
138.0559482268844
 20
-916.2834524984127
 30
0.0
 11
139.4214431870628
 21
-916.2834524984129
 31
0.0
  0
LINE
  5
82
330
A
100
AcDbEntity
  8
0
  6
Continuous
 62
     7
100
AcDbLine
 10
139.4214431870655
 20
-883.2834524984129
 30
0.0
 11
138.0559482268871
 21
-883.2834524984129
 31
0.0
  0
ARC
  5
83
330
A
100
AcDbEntity
  8
0
  6
Continuous
 62
     7
100
AcDbCircle
 10
145.001875333563
 20
-899.7834524984131
 30
0.0
 40
30.0
100
AcDbArc
 50
24.90948832411643
 51
135.4360082044486
  0
ARC
  5
84
330
A
100
AcDbEntity
  8
0
  6
Continuous
 62
     7
100
AcDbCircle
 10
145.001875333563
 20
-899.7834524984131
 30
0.0
 40
30.00000000000002
100
AcDbArc
 50
224.5639917955517
 51
335.0905116758838
  0
ARC
  5
85
330
A
100
AcDbEntity
  8
0
  6
Continuous
 62
     7
100
AcDbCircle
 10
69.58201751301102
 20
-899.7834524984119
 30
0.0
 40
175.2159397188978
100
AcDbArc
 50
184.9118886116633
 51
270.0000000000008
  0
ARC
  5
86
330
A
100
AcDbEntity
  8
0
  6
Continuous
 62
     7
100
AcDbCircle
 10
69.58201751301102
 20
-899.7834524984119
 30
0.0
 40
175.2159397188978
100
AcDbArc
 50
270.0000000000008
 51
175.0885706243656
  0
LWPOLYLINE
  5
87
330
A
100
AcDbEntity
  8
0
  6
Continuous
 62
     7
100
AcDbPolyline
 90
       18
 70
   128
 43
0.0
 10
27.22183893452622
 20
-826.4117958116004
 10
25.22786437157973
 20
-827.7629690948323
 10
23.44955102132344
 20
-829.3852717642081
 10
21.92480054539896
 20
-831.2441272548911
 10
20.68611035300474
 20
-833.2999172893499
 10
19.75988097503942
 20
-835.5088262721602
 10
19.165853382621
 20
-837.8237751433513
 10
18.91668824256071
 20
-840.1954247868328
 10
19.01769607723085
 20
-842.5732276079937
 10
19.4667240800002
 20
-844.9065048679241
 10
20.25420199856978
 20
-847.1455268127481
 10
21.36334610828526
 20
-849.2425725769908
 10
22.77051692808883
 20
-851.1529472709733
 10
24.44572305501631
 20
-852.8359345747912
 10
26.35326037888173
 20
-854.2556645359818
 10
28.45247305339826
 20
-855.3818780752875
 10
30.69862000495709
 20
-856.1905719063934
 10
31.18106847324132
 20
-856.3174562237994
  0
LWPOLYLINE
  5
9B
330
A
100
AcDbEntity
  8
0
  6
Continuous
 62
     7
100
AcDbPolyline
 90
       18
 70
   128
 43
0.0
 10
51.14128579908417
 20
-844.7934193776404
 10
51.27262499101085
 20
-844.3121645893862
 10
51.69534906516863
 20
-841.9625973531502
 10
51.76962586730216
 20
-839.5815190794198
 10
51.49387231632964
 20
-837.2196783176899
 10
50.87396562044046
 20
-834.9274136032867
 10
49.92311801460636
 20
-832.7535805788814
 10
48.66159516473141
 20
-830.7445107212886
 10
47.1162842401675
 20
-828.943023866476
 10
45.32012086037986
 20
-827.3875155791021
 10
43.31138712939917
 20
-826.1111388177159
 10
41.13289571923778
 20
-825.1410973370052
 10
38.83107739211496
 20
-824.4980658869931
 10
36.45499140937091
 20
-824.1957495666373
 10
34.05527991848564
 20
-824.2405917234401
 10
31.68308860362772
 20
-824.6316366246817
 10
29.38897660419288
 20
-825.3605498272047
 10
27.22183893452622
 20
-826.4117958116004
  0
LWPOLYLINE
  5
AF
330
A
100
AcDbEntity
  8
0
  6
Continuous
 62
     7
100
AcDbPolyline
 90
       18
 70
   128
 43
0.0
 10
27.22183893452823
 20
-973.1551091852258
 10
29.38897660419513
 20
-974.2063551696215
 10
31.68308860363
 20
-974.9352683721445
 10
34.05527991848793
 20
-975.3263132733861
 10
36.4549914093732
 20
-975.3711554301887
 10
38.83107739211722
 20
-975.068839109833
 10
41.13289571924002
 20
-974.4258076598207
 10
43.31138712940135
 20
-973.4557661791098
 10
45.32012086038198
 20
-972.1793894177237
 10
47.11628424016956
 20
-970.6238811303496
 10
48.66159516473338
 20
-968.8223942755369
 10
49.92311801460823
 20
-966.8133244179442
 10
50.87396562044223
 20
-964.6394913935386
 10
51.49387231633131
 20
-962.3472266791353
 10
51.76962586730374
 20
-959.9853859174055
 10
51.6953490651701
 20
-957.6043076436752
 10
51.27262499101222
 20
-955.2547404074392
 10
51.14128579908577
 20
-954.7734856191858
  0
LWPOLYLINE
  5
C3
330
A
100
AcDbEntity
  8
0
  6
Continuous
 62
     7
100
AcDbPolyline
 90
       18
 70
   128
 43
0.0
 10
31.18106847324193
 20
-943.2494487730266
 10
30.69862000495799
 20
-943.3763330904328
 10
28.45247305339919
 20
-944.1850269215388
 10
26.35326037888273
 20
-945.3112404608445
 10
24.44572305501738
 20
-946.7309704220355
 10
22.77051692808997
 20
-948.4139577258533
 10
21.36334610828648
 20
-950.3243324198358
 10
20.25420199857111
 20
-952.4213781840783
 10
19.46672408000162
 20
-954.6604001289027
 10
19.01769607723238
 20
-956.9936773888331
 10
18.91668824256235
 20
-959.371480209994
 10
19.16585338262273
 20
-961.7431298534755
 10
19.75988097504127
 20
-964.0580787246666
 10
20.68611035300669
 20
-966.2669877074769
 10
21.92480054540098
 20
-968.3227777419356
 10
23.44955102132554
 20
-970.1816332326185
 10
25.2278643715819
 20
-971.8039359019941
 10
27.22183893452823
 20
-973.1551091852258
  0
LWPOLYLINE
  5
D7
330
A
100
AcDbEntity
  8
0
  6
Continuous
 62
     7
100
AcDbPolyline
 90
       18
 70
   128
 43
0.0
 10
154.3052761515872
 20
-899.7834524984128
 10
154.1321130448668
 20
-897.381033230785
 10
153.6163143956883
 20
-895.0298173588864
 10
152.7688735567548
 20
-892.7799169669617
 10
151.6078522582638
 20
-890.6792847757003
 10
150.1579956534851
 20
-888.7726921132458
 10
148.4502049187807
 20
-887.1007746920669
 10
146.5208786486797
 20
-885.6991665292966
 10
144.4111370830289
 20
-884.5977404695217
 10
142.165945700472
 20
-883.8199714969652
 10
139.8331568573385
 20
-883.3824364069537
 10
137.4624898977482
 20
-883.2944605003039
 10
135.1044714721106
 20
-883.5579188307265
 10
132.809358649294
 20
-884.1671962413123
 10
130.6260677744562
 20
-885.1093070418514
 10
128.6011319020733
 20
-886.3641717762762
 10
126.7777090246723
 20
-887.9050451814061
 10
126.426599748315
 20
-888.2594156522538
  0
LWPOLYLINE
  5
EB
330
A
100
AcDbEntity
  8
0
  6
Continuous
 62
     7
100
AcDbPolyline
 90
       18
 70
   128
 43
0.0
 10
126.426599748315
 20
-911.307489344572
 10
126.7777090246726
 20
-911.66185981542
 10
128.6011319020736
 20
-913.2027332205499
 10
130.6260677744566
 20
-914.4575979549745
 10
132.8093586492945
 20
-915.3997087555135
 10
135.104471472111
 20
-916.008986166099
 10
137.4624898977486
 20
-916.2724444965217
 10
139.833156857339
 20
-916.1844685898719
 10
142.1659457004724
 20
-915.7469334998602
 10
144.4111370830293
 20
-914.9691645273039
 10
146.52087864868
 20
-913.8677384675288
 10
148.450204918781
 20
-912.4661303047584
 10
150.1579956534853
 20
-910.7942128835796
 10
151.607852258264
 20
-908.8876202211249
 10
152.768873556755
 20
-906.7869880298633
 10
153.6163143956884
 20
-904.537087637939
 10
154.1321130448669
 20
-902.18587176604
 10
154.3052761515872
 20
-899.7834524984128
  0
ARC
  5
FF
330
A
100
AcDbEntity
  8
0
  6
Continuous
 62
     7
100
AcDbCircle
 10
69.58298467354712
 20
-899.7834524984082
 30
0.0
 40
42.50096716053608
100
AcDbArc
 50
159.3331753338414
 51
200.666824666173
  0
ARC
  5
100
330
A
100
AcDbEntity
  8
0
  6
Continuous
 62
     7
100
AcDbCircle
 10
69.58298467354712
 20
-899.7834524984082
 30
0.0
 40
118.8828136786093
100
AcDbArc
 50
172.7414963703876
 51
187.2555634379547
  0
ARC
  5
101
330
A
100
AcDbEntity
  8
0
  6
Continuous
 62
     7
100
AcDbCircle
 10
69.58298467354712
 20
-899.7834524984082
 30
0.0
 40
118.8829671605361
100
AcDbArc
 50
172.7415061593183
 51
187.2555546678402
  0
ARC
  5
102
330
A
100
AcDbEntity
  8
0
  6
Continuous
 62
     7
100
AcDbCircle
 10
69.58298467354712
 20
-899.7834524984082
 30
0.0
 40
120.0009671605361
100
AcDbArc
 50
172.8133308061994
 51
187.1909449113429
  0
LWPOLYLINE
  5
103
330
A
100
AcDbEntity
  8
0
  6
Continuous
 62
     7
100
AcDbPolyline
 90
        7
 70
   128
 43
0.0
 10
15.62930083268218
 20
-884.7834524984129
 10
15.07948334220405
 20
-884.7834524984129
 10
14.42347624542572
 20
-884.7834524984129
 10
13.91917091131579
 20
-884.7834524984129
 10
13.70364174765542
 20
-884.7834522784536
 10
13.55913237444262
 20
-884.7834524984129
 10
13.55620536222124
 20
-884.7834524984129
  0
ARC
  5
10C
330
A
100
AcDbEntity
  8
0
  6
Continuous
 62
     7
100
AcDbCircle
 10
69.58298467354712
 20
-899.7834524984128
 30
0.0
 40
58.00000000000009
100
AcDbArc
 50
194.9882344823059
 51
165.0117655176949
  0
LINE
  5
10D
330
A
100
AcDbEntity
  8
0
  6
Continuous
 62
     7
100
AcDbLine
 10
13.55620536222126
 20
-914.7834524984128
 30
0.0
 11
15.62930083268218
 21
-914.7834524984128
 31
0.0
  0
ARC
  5
10E
330
A
100
AcDbEntity
  8
0
  6
Continuous
 62
     7
100
AcDbCircle
 10
69.58298467354712
 20
-899.7834524984128
 30
0.0
 40
15.0
100
AcDbArc
 50
270.0000000000008
 51
90.0
  0
LINE
  5
10F
330
A
100
AcDbEntity
  8
0
  6
Continuous
 62
     7
100
AcDbLine
 10
15.62930083268218
 20
-914.7834524984128
 30
0.0
 11
69.58298467354712
 21
-914.7834524984128
 31
0.0
  0
LINE
  5
110
330
A
100
AcDbEntity
  8
0
  6
Continuous
 62
     7
100
AcDbLine
 10
69.58298467354712
 20
-884.7834524984129
 30
0.0
 11
15.62930083268218
 21
-884.7834524984129
 31
0.0
  0
CIRCLE
  5
111
330
A
100
AcDbEntity
  8
0
  6
Continuous
 62
     7
100
AcDbCircle
 10
69.58298467354712
 20
-899.7834524984128
 30
0.0
 40
12.5009671605361
  0
ARC
  5
112
330
A
100
AcDbEntity
  8
0
  6
Continuous
 62
     7
100
AcDbCircle
 10
69.58201751301102
 20
-899.7834524984128
 30
0.0
 40
103.404
100
AcDbArc
 50
189.1818394296074
 51
170.8181605703933
  0
LINE
  5
113
330
A
100
AcDbEntity
  8
0
  6
Continuous
 62
     7
100
AcDbLine
 10
-32.49705583701503
 20
-883.2834524984129
 30
0.0
 11
-32.31447946312062
 21
-883.2834524984129
 31
0.0
  0
LINE
  5
114
330
A
100
AcDbEntity
  8
0
  6
Continuous
 62
     7
100
AcDbLine
 10
-32.54606920169643
 20
-884.7834524984129
 30
0.0
 11
-34.49809329465784
 21
-884.7834524984129
 31
0.0
  0
LINE
  5
115
330
A
100
AcDbEntity
  8
0
  6
Continuous
 62
     7
100
AcDbLine
 10
-34.49809329465784
 20
-914.7834524984128
 30
0.0
 11
-32.54606920169643
 21
-914.7834524984128
 31
0.0
  0
LINE
  5
116
330
A
100
AcDbEntity
  8
0
  6
Continuous
 62
     7
100
AcDbLine
 10
-32.31447946312059
 20
-916.2834524984129
 30
0.0
 11
-32.49705583701503
 21
-916.2834524984129
 31
0.0
  0
LINE
  5
117
330
A
100
AcDbEntity
  8
0
  6
Continuous
 62
     7
100
AcDbLine
 10
13.97947758991066
 20
-916.2834524984129
 30
0.0
 11
-32.31447946312059
 21
-916.2834524984129
 31
0.0
  0
LINE
  5
118
330
A
100
AcDbEntity
  8
0
  6
Continuous
 62
     7
100
AcDbLine
 10
-32.31447946312062
 20
-883.2834524984129
 30
0.0
 11
13.97947758991065
 21
-883.2834524984129
 31
0.0
  0
LINE
  5
119
330
A
100
AcDbEntity
  8
0
  6
Continuous
 62
     7
100
AcDbLine
 10
-32.54606920169643
 20
-914.7834524984128
 30
0.0
 11
13.431129744779
 21
-914.7834524984128
 31
0.0
  0
LINE
  5
11A
330
A
100
AcDbEntity
  8
0
  6
Continuous
 62
     7
100
AcDbLine
 10
13.43141935115032
 20
-884.7834524984129
 30
0.0
 11
-32.54606920169643
 21
-884.7834524984129
 31
0.0
  0
LINE
  5
11B
330
A
100
AcDbEntity
  8
0
  6
Continuous
 62
     7
100
AcDbLine
 10
-104.922111493695
 20
-914.7834524984119
 30
0.0
 11
-34.49809329465784
 21
-914.7834524984128
 31
0.0
  0
LINE
  5
11C
330
A
100
AcDbEntity
  8
0
  6
Continuous
 62
     7
100
AcDbLine
 10
-34.49809329465784
 20
-884.7834524984129
 30
0.0
 11
-104.922111493695
 21
-884.783452498412
 31
0.0
  0
LINE
  5
11D
330
A
100
AcDbEntity
  8
0
  6
Continuous
 62
     7
100
AcDbLine
 10
-104.922111493695
 20
-914.7834524984119
 30
0.0
 11
-104.9764866537685
 21
-914.7834524984119
 31
0.0
  0
LINE
  5
11E
330
A
100
AcDbEntity
  8
0
  6
Continuous
 62
     7
100
AcDbLine
 10
-104.922111493695
 20
-884.783452498412
 30
0.0
 11
-104.9701929436617
 21
-884.783452498412
 31
0.0
  0
LWPOLYLINE
  5
11F
330
A
100
AcDbEntity
  8
0
  6
PHANTOM
 62
     7
100
AcDbPolyline
 90
       12
 70
   128
 43
0.0
 10
26.5390914544371
 20
-825.2292424873463
 10
24.54511689149061
 20
-826.5804157705781
 10
22.76680354123433
 20
-828.202718439954
 10
21.24205306530986
 20
-830.0615739306369
 10
20.00336287291564
 20
-832.1173639650957
 10
19.07713349495033
 20
-834.3262729479061
 10
18.48310590253189
 20
-836.6412218190969
 10
18.23394076247161
 20
-839.0128714625785
 10
18.33494859714176
 20
-841.3906742837394
 10
18.7839765999111
 20
-843.7239515436697
 10
19.57145451848069
 20
-845.962973488494
 10
20.37433625434412
 20
-847.5515732645604
  0
LWPOLYLINE
  5
12D
330
A
100
AcDbEntity
  8
0
  6
PHANTOM
 62
     7
100
AcDbPolyline
 90
       12
 70
   128
 43
0.0
 10
48.95317457923188
 20
-831.0515732645624
 10
47.97884768464226
 20
-829.5619573970345
 10
46.43353676007836
 20
-827.7604705422218
 10
44.63737338029071
 20
-826.2049622548479
 10
42.62863964931002
 20
-824.9285854934619
 10
40.45014823914864
 20
-823.9585440127511
 10
38.14832991202582
 20
-823.3155125627387
 10
35.77224392928178
 20
-823.0131962423831
 10
33.37253243839651
 20
-823.0580383991858
 10
31.00034112353859
 20
-823.4490833004276
 10
28.70622912410376
 20
-824.1779965029506
 10
26.5390914544371
 20
-825.2292424873463
  0
LWPOLYLINE
  5
13B
330
A
100
AcDbEntity
  8
0
  6
PHANTOM
 62
     7
100
AcDbPolyline
 90
       20
 70
   128
 43
0.0
 10
23.3932019857433
 20
-819.7804020925726
 10
21.10784727288042
 20
-821.3041516898192
 10
19.03852411656514
 20
-823.1082786668661
 10
17.22063920972678
 20
-825.1619139109374
 10
15.68529706713427
 20
-827.4299191536318
 10
14.45876781852462
 20
-829.8734881964367
 10
13.5620377193997
 20
-832.4508108955448
 10
13.01045007037608
 20
-835.1177885450052
 10
12.81344268905757
 20
-837.8287884178101
 10
12.97438642635926
 20
-840.5374245545042
 10
13.49052749031389
 20
-843.197351439813
 10
14.35303456421587
 20
-845.7630569872579
 10
15.5471499128986
 20
-848.1906412635739
 10
17.0524418916748
 20
-850.4385676287403
 10
18.84315453744181
 20
-852.4683734394054
 10
20.88864826035122
 20
-854.2453281553809
 10
23.15392409568606
 20
-855.7390275888112
 10
25.60022254585064
 20
-856.9239141282587
 10
28.18568676612054
 20
-857.7797140365206
 10
29.31543450891314
 20
-858.0398972624402
  0
LWPOLYLINE
  5
151
330
A
100
AcDbEntity
  8
0
  6
PHANTOM
 62
     7
100
AcDbPolyline
 90
       20
 70
   128
 43
0.0
 10
53.56578047723241
 20
-844.0389534896894
 10
53.90532906534377
 20
-842.9304716316025
 10
54.45691671436737
 20
-840.2634939821421
 10
54.65392409568588
 20
-837.5524941093374
 10
54.49298035838417
 20
-834.8438579726431
 10
53.97683929442951
 20
-832.1839310873345
 10
53.11433222052752
 20
-829.6182255398894
 10
51.92021687184475
 20
-827.1906412635733
 10
50.41492489306855
 20
-824.9427148984072
 10
48.62421224730153
 20
-822.9129090877417
 10
46.57871852439209
 20
-821.1359543717664
 10
44.31344268905724
 20
-819.6422549383362
 10
41.86714423889266
 20
-818.4573683988888
 10
39.28168001862275
 20
-817.6015684906269
 10
36.60128803788241
 20
-817.0894981872532
 10
33.87183054660717
 20
-816.9299191536314
 10
31.14000931922134
 20
-817.1255618312704
 10
28.45256657432941
 20
-817.6730787197131
 10
25.85548520239639
 20
-818.5631016531981
 10
23.3932019857433
 20
-819.7804020925726
  0
LWPOLYLINE
  5
167
330
A
100
AcDbEntity
  8
0
  6
PHANTOM
 62
     7
100
AcDbPolyline
 90
       12
 70
   128
 43
0.0
 10
26.53909145443895
 20
-974.33766250948
 10
28.70622912410584
 20
-975.3889084938757
 10
31.00034112354071
 20
-976.1178216963987
 10
33.37253243839864
 20
-976.5088665976403
 10
35.7722439292839
 20
-976.5537087544428
 10
38.14832991202793
 20
-976.251392434087
 10
40.45014823915073
 20
-975.6083609840748
 10
42.62863964931205
 20
-974.6383195033637
 10
44.63737338029268
 20
-973.3619427419776
 10
46.43353676008026
 20
-971.8064344546037
 10
47.97884768464408
 20
-970.0049475997909
 10
48.95317457923206
 20
-968.5153317322654
  0
LWPOLYLINE
  5
175
330
A
100
AcDbEntity
  8
0
  6
PHANTOM
 62
     7
100
AcDbPolyline
 90
       12
 70
   128
 43
0.0
 10
20.3743362543468
 20
-952.0153317322634
 10
19.57145451848185
 20
-953.6039315083327
 10
18.78397659991236
 20
-955.8429534531567
 10
18.33494859714312
 20
-958.1762307130871
 10
18.23394076247309
 20
-960.5540335342482
 10
18.48310590253347
 20
-962.9256831777295
 10
19.077133494952
 20
-965.2406320489205
 10
20.00336287291741
 20
-967.4495410317309
 10
21.24205306531171
 20
-969.5053310661897
 10
22.76680354123626
 20
-971.3641865568725
 10
24.54511689149261
 20
-972.9864892262483
 10
26.53909145443895
 20
-974.33766250948
  0
LWPOLYLINE
  5
183
330
A
100
AcDbEntity
  8
0
  6
PHANTOM
 62
     7
100
AcDbPolyline
 90
       20
 70
   128
 43
0.0
 10
23.39320198574505
 20
-979.7865029042535
 10
25.85548520239844
 20
-981.003803343628
 10
28.45256657433149
 20
-981.8938262771128
 10
31.14000931922343
 20
-982.4413431655555
 10
33.87183054660926
 20
-982.6369858431943
 10
36.60128803788449
 20
-982.4774068095724
 10
39.2816800186248
 20
-981.9653365061986
 10
41.86714423889467
 20
-981.1095365979367
 10
44.31344268905919
 20
-979.9246500584892
 10
46.57871852439398
 20
-978.4309506250588
 10
48.62421224730333
 20
-976.6539959090833
 10
50.41492489307025
 20
-974.6241900984179
 10
51.92021687184636
 20
-972.3762637332516
 10
53.11433222052901
 20
-969.9486794569354
 10
53.9768392944309
 20
-967.3829739094905
 10
54.49298035838545
 20
-964.7230470241817
 10
54.65392409568703
 20
-962.0144108874875
 10
54.45691671436842
 20
-959.3034110146829
 10
53.90532906534471
 20
-956.6364333652224
 10
53.56578047723369
 20
-955.5279515071367
  0
LWPOLYLINE
  5
199
330
A
100
AcDbEntity
  8
0
  6
PHANTOM
 62
     7
100
AcDbPolyline
 90
       20
 70
   128
 43
0.0
 10
29.31543450891333
 20
-941.5270077343857
 10
28.18568676612092
 20
-941.7871909603054
 10
25.60022254585105
 20
-942.6429908685674
 10
23.15392409568653
 20
-943.8278774080149
 10
20.88864826035177
 20
-945.3215768414453
 10
18.84315453744243
 20
-947.0985315574209
 10
17.05244189167551
 20
-949.1283373680863
 10
15.54714991289941
 20
-951.3762637332524
 10
14.35303456421679
 20
-953.8038480095687
 10
13.49052749031491
 20
-956.3695535570136
 10
12.9743864263604
 20
-959.0294804423225
 10
12.81344268905882
 20
-961.7381165790165
 10
13.01045007037746
 20
-964.4491164518214
 10
13.56203771940118
 20
-967.1160941012818
 10
14.45876781852621
 20
-969.6934168003897
 10
15.68529706713596
 20
-972.1369858431948
 10
17.22063920972856
 20
-974.404991085889
 10
19.03852411656701
 20
-976.4586263299602
 10
21.10784727288236
 20
-978.2627533070071
 10
23.39320198574505
 20
-979.7865029042535
  0
LWPOLYLINE
  5
1AF
330
A
100
AcDbEntity
  8
0
  6
PHANTOM
 62
     7
100
AcDbPolyline
 90
       12
 70
   128
 43
0.0
 10
155.6707711117656
 20
-899.7834524984128
 10
155.4976080050452
 20
-897.3810332307852
 10
154.9818093558667
 20
-895.0298173588864
 10
154.1343685169332
 20
-892.7799169669619
 10
152.9733472184422
 20
-890.6792847757005
 10
151.5234906136635
 20
-888.7726921132458
 10
149.8156998789591
 20
-887.1007746920669
 10
147.8863736088581
 20
-885.6991665292966
 10
145.7766320432073
 20
-884.5977404695217
 10
143.5314406606504
 20
-883.8199714969652
 10
141.1986518175169
 20
-883.3824364069538
 10
139.4214431870655
 20
-883.2834524984129
  0
LWPOLYLINE
  5
1BD
330
A
100
AcDbEntity
  8
0
  6
PHANTOM
 62
     7
100
AcDbPolyline
 90
       12
 70
   128
 43
0.0
 10
139.4214431870628
 20
-916.2834524984129
 10
141.1986518175174
 20
-916.1844685898721
 10
143.5314406606508
 20
-915.7469334998603
 10
145.7766320432076
 20
-914.9691645273039
 10
147.8863736088584
 20
-913.867738467529
 10
149.8156998789594
 20
-912.4661303047584
 10
151.5234906136637
 20
-910.7942128835796
 10
152.9733472184424
 20
-908.8876202211249
 10
154.1343685169334
 20
-906.7869880298635
 10
154.9818093558668
 20
-904.537087637939
 10
155.4976080050453
 20
-902.1858717660402
 10
155.6707711117656
 20
-899.7834524984128
  0
LWPOLYLINE
  5
1CB
330
A
100
AcDbEntity
  8
0
  6
PHANTOM
 62
     7
100
AcDbPolyline
 90
       20
 70
   128
 43
0.0
 10
161.9625500491534
 20
-899.7834524984128
 10
161.7856215453628
 20
-897.0424024617917
 10
161.2578633297451
 20
-894.34825255126
 10
160.3883054916915
 20
-891.747100418746
 10
159.1918264068982
 20
-889.2834524984129
 10
157.6888981642326
 20
-886.9994624892298
 10
155.9052362826172
 20
-884.9342100934954
 10
153.871359711371
 20
-883.1230323522969
 10
151.622068642525
 20
-881.5969190189395
 10
149.1958490698885
 20
-880.3819823156757
 10
146.6342142830245
 20
-879.4990101463424
 10
143.9809945633556
 20
-878.9631104095629
 10
141.2815872358968
 20
-878.783452498413
 10
138.5821799084379
 20
-878.9631104095629
 10
135.928960188769
 20
-879.4990101463426
 10
133.367325401905
 20
-880.3819823156761
 10
130.9411058292686
 20
-881.5969190189399
 10
128.6918147604226
 20
-883.1230323522971
 10
126.6579381891764
 20
-884.9342100934958
 10
125.8677390344953
 20
-885.7825087256619
  0
LWPOLYLINE
  5
1E1
330
A
100
AcDbEntity
  8
0
  6
PHANTOM
 62
     7
100
AcDbPolyline
 90
       20
 70
   128
 43
0.0
 10
125.8677390344953
 20
-913.784396271164
 10
126.6579381891767
 20
-914.6326949033307
 10
128.691814760423
 20
-916.4438726445292
 10
130.941105829269
 20
-917.9699859778864
 10
133.3673254019055
 20
-919.1849226811502
 10
135.9289601887695
 20
-920.0678948504835
 10
138.5821799084384
 20
-920.6037945872632
 10
141.2815872358973
 20
-920.783452498413
 10
143.9809945633562
 20
-920.603794587263
 10
146.6342142830251
 20
-920.0678948504833
 10
149.195849069889
 20
-919.1849226811498
 10
151.6220686425255
 20
-917.969985977886
 10
153.8713597113714
 20
-916.4438726445286
 10
155.9052362826176
 20
-914.6326949033303
 10
157.688898164233
 20
-912.567442507596
 10
159.1918264068985
 20
-910.2834524984126
 10
160.3883054916917
 20
-907.8198045780796
 10
161.2578633297452
 20
-905.2186524455656
 10
161.7856215453629
 20
-902.5245025350336
 10
161.9625500491534
 20
-899.7834524984128
  0
ARC
  5
1F7
330
A
100
AcDbEntity
  8
0
  6
PHANTOM
 62
     7
100
AcDbCircle
 10
69.58298467354712
 20
-899.7834524984082
 30
0.0
 40
112.9739671605361
100
AcDbArc
 50
172.3583616316344
 51
187.6341802988886
  0
ARC
  5
1F8
330
A
100
AcDbEntity
  8
0
  6
PHANTOM
 62
     7
100
AcDbCircle
 10
69.58298467354712
 20
-899.7834524984128
 30
0.0
 40
56.00000000000009
100
AcDbArc
 50
195.5367940681519
 51
164.4632059318489
  0
ARC
  5
1F9
330
A
100
AcDbEntity
  8
0
  6
PHANTOM
 62
     7
100
AcDbCircle
 10
69.58201751301102
 20
-899.7834524984128
 30
0.0
 40
103.2237671081946
100
AcDbArc
 50
170.801989673189
 51
171.6444579607737
  0
ARC
  5
1FA
330
A
100
AcDbEntity
  8
0
  6
PHANTOM
 62
     7
100
AcDbCircle
 10
69.58201751301102
 20
-899.7834524984128
 30
0.0
 40
105.1554538088093
100
AcDbArc
 50
188.2009852505884
 51
171.7990147494124
  0
ARC
  5
1FB
330
A
100
AcDbEntity
  8
0
  6
PHANTOM
 62
     7
100
AcDbCircle
 10
69.58201751301102
 20
-899.7834524984128
 30
0.0
 40
103.2237671081946
100
AcDbArc
 50
188.355542039227
 51
189.1980103268118
  0
ARC
  5
1FC
330
A
100
AcDbEntity
  8
0
  6
PHANTOM
 62
     7
100
AcDbCircle
 10
69.58201751301102
 20
-899.7834524984119
 30
0.0
 40
175.1476264195124
100
AcDbArc
 50
184.9129456746961
 51
175.0870543253047
  0
LINE
  5
1FD
330
A
100
AcDbEntity
  8
0
  6
Continuous
 62
     7
100
AcDbLine
 10
693.2142619980594
 20
-518.4869913732369
 30
0.0
 11
692.0962619980595
 21
-511.1450913732369
 31
0.0
  0
LINE
  5
1FE
330
A
100
AcDbEntity
  8
0
  6
Continuous
 62
     7
100
AcDbLine
 10
454.3303276769872
 20
-511.1450913732369
 30
0.0
 11
453.2123276769873
 21
-518.4869913732369
 31
0.0
  0
ARC
  5
1FF
330
A
100
AcDbEntity
  8
0
  6
Continuous
 62
     7
100
AcDbCircle
 10
686.1872619980594
 20
-512.1869913732369
 30
0.0
 40
5.999999999999886
100
AcDbArc
 50
10.00000000000096
 51
90.0
  0
ARC
  5
200
330
A
100
AcDbEntity
  8
0
  6
Continuous
 62
     7
100
AcDbCircle
 10
460.2393276769872
 20
-512.1869913732369
 30
0.0
 40
5.999999999999977
100
AcDbArc
 50
90.0
 51
170.0000000000003
  0
LINE
  5
201
330
A
100
AcDbEntity
  8
0
  6
Continuous
 62
     7
100
AcDbLine
 10
563.2132948375236
 20
-518.4869913732368
 30
0.0
 11
563.2132948375236
 21
-520.4869913732368
 31
0.0
  0
LINE
  5
202
330
A
100
AcDbEntity
  8
0
  6
Continuous
 62
     7
100
AcDbLine
 10
583.2132948375236
 20
-520.4869913732368
 30
0.0
 11
583.2132948375236
 21
-518.4869913732368
 31
0.0
  0
ARC
  5
203
330
A
100
AcDbEntity
  8
0
  6
Continuous
 62
     7
100
AcDbCircle
 10
615.7065656509693
 20
-476.1869923604662
 30
0.0
 40
30.0
100
AcDbArc
 50
178.702137720005
 51
270.0000000000008
  0
ARC
  5
204
330
A
100
AcDbEntity
  8
0
  6
Continuous
 62
     7
100
AcDbCircle
 10
530.7200240240773
 20
-476.1869923604662
 30
0.0
 40
30.0
100
AcDbArc
 50
270.0000000000008
 51
1.297862279995003
  0
LINE
  5
205
330
A
100
AcDbEntity
  8
0
  6
Continuous
 62
     7
100
AcDbLine
 10
463.3523606265327
 20
-518.4869913732368
 30
0.0
 11
463.3523606265327
 21
-520.4869913732368
 31
0.0
  0
LINE
  5
206
330
A
100
AcDbEntity
  8
0
  6
Continuous
 62
     7
100
AcDbLine
 10
483.3523606265327
 20
-520.4869913732368
 30
0.0
 11
483.3523606265327
 21
-518.4869913732368
 31
0.0
  0
LINE
  5
207
330
A
100
AcDbEntity
  8
0
  6
Continuous
 62
     7
100
AcDbLine
 10
663.0742290485147
 20
-518.4869913732368
 30
0.0
 11
663.0742290485147
 21
-520.4869913732368
 31
0.0
  0
LINE
  5
208
330
A
100
AcDbEntity
  8
0
  6
Continuous
 62
     7
100
AcDbLine
 10
683.0742290485146
 20
-520.4869913732368
 30
0.0
 11
683.0742290485146
 21
-518.4869913732368
 31
0.0
  0
LINE
  5
209
330
A
100
AcDbEntity
  8
0
  6
Continuous
 62
     7
100
AcDbLine
 10
585.7142619980595
 20
-475.5074913732369
 30
0.0
 11
585.7142619980595
 21
-472.4869913732368
 31
0.0
  0
LINE
  5
20A
330
A
100
AcDbEntity
  8
0
  6
Continuous
 62
     7
100
AcDbLine
 10
560.7123276769872
 20
-472.4869913732368
 30
0.0
 11
560.7123276769872
 21
-475.5074913732369
 31
0.0
  0
LINE
  5
20B
330
A
100
AcDbEntity
  8
0
  6
Continuous
 62
     7
100
AcDbLine
 10
501.4958433468126
 20
-518.4869913732368
 30
0.0
 11
501.4958433468126
 21
-520.4869913732368
 31
0.0
  0
LINE
  5
20C
330
A
100
AcDbEntity
  8
0
  6
Continuous
 62
     7
100
AcDbLine
 10
521.4958433468126
 20
-520.4869913732368
 30
0.0
 11
521.4958433468126
 21
-518.4869913732368
 31
0.0
  0
LINE
  5
20D
330
A
100
AcDbEntity
  8
0
  6
Continuous
 62
     7
100
AcDbLine
 10
624.9307463282323
 20
-518.4869913732368
 30
0.0
 11
624.9307463282323
 21
-520.4869913732368
 31
0.0
  0
LINE
  5
20E
330
A
100
AcDbEntity
  8
0
  6
Continuous
 62
     7
100
AcDbLine
 10
644.9307463282323
 20
-520.4869913732368
 30
0.0
 11
644.9307463282323
 21
-518.4869913732368
 31
0.0
  0
ARC
  5
20F
330
A
100
AcDbEntity
  8
0
  6
Continuous
 62
     7
100
AcDbCircle
 10
517.2132948375233
 20
842.2126086267633
 30
0.0
 40
2.0
100
AcDbArc
 50
90.0
 51
180.0000000000004
  0
ARC
  5
210
330
A
100
AcDbEntity
  8
0
  6
Continuous
 62
     7
100
AcDbCircle
 10
629.2132948375234
 20
842.2126086267633
 30
0.0
 40
2.0
100
AcDbArc
 50
0.0
 51
90.0
  0
LINE
  5
211
330
A
100
AcDbEntity
  8
0
  6
Continuous
 62
     7
100
AcDbLine
 10
515.2132948375233
 20
842.2126086267633
 30
0.0
 11
515.2132948375233
 21
840.4419438649822
 31
0.0
  0
LINE
  5
212
330
A
100
AcDbEntity
  8
0
  6
Continuous
 62
     7
100
AcDbLine
 10
631.2132948375234
 20
840.4419438649822
 30
0.0
 11
631.2132948375234
 21
842.2126086267633
 31
0.0
  0
LINE
  5
213
330
A
100
AcDbEntity
  8
0
  6
Continuous
 62
     7
100
AcDbLine
 10
585.7142619980595
 20
-472.4869913732368
 30
0.0
 11
585.7142619980595
 21
844.2126086267633
 31
0.0
  0
LINE
  5
214
330
A
100
AcDbEntity
  8
0
  6
Continuous
 62
     7
100
AcDbLine
 10
560.7123276769872
 20
844.2126086267633
 30
0.0
 11
560.7123276769872
 21
-472.4869913732368
 31
0.0
  0
ARC
  5
215
330
A
100
AcDbEntity
  8
0
  6
Continuous
 62
     7
100
AcDbCircle
 10
399.9973551186256
 20
577.5681014057164
 30
0.0
 40
1.999999999999964
100
AcDbArc
 50
164.981752814494
 51
224.9817528144881
  0
ARC
  5
216
330
A
100
AcDbEntity
  8
0
  6
Continuous
 62
     7
100
AcDbCircle
 10
746.4292345564212
 20
577.5681014057164
 30
0.0
 40
2.000000000000018
100
AcDbArc
 50
315.0182471855166
 51
15.01824718550555
  0
LINE
  5
217
330
A
100
AcDbEntity
  8
0
  6
Continuous
 62
     7
100
AcDbLine
 10
748.3609212570359
 20
578.0863547131524
 30
0.0
 11
678.3687486463326
 21
838.9683347010837
 31
0.0
  0
LINE
  5
218
330
A
100
AcDbEntity
  8
0
  6
Continuous
 62
     7
100
AcDbLine
 10
468.057841028714
 20
838.9683347010837
 30
0.0
 11
398.0656684180109
 21
578.0863547131524
 31
0.0
  0
ARC
  5
219
330
A
100
AcDbEntity
  8
0
  6
Continuous
 62
     7
100
AcDbCircle
 10
676.437061945718
 20
838.4500813936476
 30
0.0
 40
1.999999999999938
100
AcDbArc
 50
15.01824718550955
 51
84.82969382868096
  0
ARC
  5
21A
330
A
100
AcDbEntity
  8
0
  6
Continuous
 62
     7
100
AcDbCircle
 10
469.9895277293286
 20
838.4500813936476
 30
0.0
 40
1.999999999999993
100
AcDbArc
 50
95.17030617131725
 51
164.9817528144908
  0
LINE
  5
21B
330
A
100
AcDbEntity
  8
0
  6
Continuous
 62
     7
100
AcDbLine
 10
692.0962619980595
 20
-511.1450913732369
 30
0.0
 11
454.3303276769872
 21
-511.1450913732369
 31
0.0
  0
LINE
  5
21C
330
A
100
AcDbEntity
  8
0
  6
Continuous
 62
     7
100
AcDbLine
 10
693.2142619980594
 20
-518.4869913732369
 30
0.0
 11
453.2123276769873
 21
-518.4869913732369
 31
0.0
  0
LINE
  5
21D
330
A
100
AcDbEntity
  8
0
  6
Continuous
 62
     7
100
AcDbLine
 10
460.2393276769872
 20
-506.186991373237
 30
0.0
 11
686.1872619980594
 21
-506.186991373237
 31
0.0
  0
LINE
  5
21E
330
A
100
AcDbEntity
  8
0
  6
Continuous
 62
     7
100
AcDbLine
 10
583.2132948375236
 20
-520.4869913732368
 30
0.0
 11
563.2132948375236
 21
-520.4869913732368
 31
0.0
  0
LINE
  5
21F
330
A
100
AcDbEntity
  8
0
  6
Continuous
 62
     7
100
AcDbLine
 10
585.7142619980595
 20
-475.5074913732369
 30
0.0
 11
560.7123276769872
 21
-475.5074913732369
 31
0.0
  0
LINE
  5
220
330
A
100
AcDbEntity
  8
0
  6
Continuous
 62
     7
100
AcDbLine
 10
483.3523606265327
 20
-520.4869913732368
 30
0.0
 11
463.3523606265327
 21
-520.4869913732368
 31
0.0
  0
LINE
  5
221
330
A
100
AcDbEntity
  8
0
  6
Continuous
 62
     7
100
AcDbLine
 10
683.0742290485146
 20
-520.4869913732368
 30
0.0
 11
663.0742290485147
 21
-520.4869913732368
 31
0.0
  0
LINE
  5
222
330
A
100
AcDbEntity
  8
0
  6
Continuous
 62
     7
100
AcDbLine
 10
585.7142619980595
 20
-472.4869913732368
 30
0.0
 11
560.7123276769873
 21
-472.4869913732368
 31
0.0
  0
LINE
  5
223
330
A
100
AcDbEntity
  8
0
  6
Continuous
 62
     7
100
AcDbLine
 10
521.4958433468126
 20
-520.4869913732368
 30
0.0
 11
501.4958433468126
 21
-520.4869913732368
 31
0.0
  0
LINE
  5
224
330
A
100
AcDbEntity
  8
0
  6
Continuous
 62
     7
100
AcDbLine
 10
644.9307463282323
 20
-520.4869913732368
 30
0.0
 11
624.9307463282323
 21
-520.4869913732368
 31
0.0
  0
LINE
  5
225
330
A
100
AcDbEntity
  8
0
  6
Continuous
 62
     7
100
AcDbLine
 10
588.2132948375235
 20
844.2126086267633
 30
0.0
 11
629.2132948375234
 21
844.2126086267633
 31
0.0
  0
LINE
  5
226
330
A
100
AcDbEntity
  8
0
  6
Continuous
 62
     7
100
AcDbLine
 10
517.2132948375233
 20
844.2126086267633
 30
0.0
 11
558.2132948375235
 21
844.2126086267633
 31
0.0
  0
LWPOLYLINE
  5
227
330
A
100
AcDbEntity
  8
0
  6
Continuous
 62
     7
100
AcDbPolyline
 90
        7
 70
   128
 43
0.0
 10
558.2132948375235
 20
844.2126086267633
 10
558.2132948375235
 20
844.1411279157755
 10
558.2132948375235
 20
843.8399339542559
 10
558.2132948375235
 20
843.3436629470007
 10
558.2132946175643
 20
842.9537915911762
 10
558.2132948375235
 20
842.3189181498836
 10
558.2132948375235
 20
842.2126086267633
  0
LINE
  5
230
330
A
100
AcDbEntity
  8
0
  6
Continuous
 62
     7
100
AcDbLine
 10
588.2132948375235
 20
842.2126086267633
 30
0.0
 11
588.2132948375235
 21
844.2126086267633
 31
0.0
  0
LINE
  5
231
330
A
100
AcDbEntity
  8
0
  6
Continuous
 62
     7
100
AcDbLine
 10
588.2132948375235
 20
840.562992177276
 30
0.0
 11
588.2132948375235
 21
842.2126086267633
 31
0.0
  0
LINE
  5
232
330
A
100
AcDbEntity
  8
0
  6
Continuous
 62
     7
100
AcDbLine
 10
558.2132948375235
 20
842.2126086267633
 30
0.0
 11
558.2132948375235
 21
840.5657544464471
 31
0.0
  0
LINE
  5
233
330
A
100
AcDbEntity
  8
0
  6
Continuous
 62
     7
100
AcDbLine
 10
558.2132948375233
 20
662.513008626763
 30
0.0
 11
560.7123276769873
 21
662.513008626763
 31
0.0
  0
LINE
  5
234
330
A
100
AcDbEntity
  8
0
  6
Continuous
 62
     7
100
AcDbLine
 10
585.7142619980595
 20
662.513008626763
 30
0.0
 11
588.2132948375233
 21
662.513008626763
 31
0.0
  0
LINE
  5
235
330
A
100
AcDbEntity
  8
0
  6
Continuous
 62
     7
100
AcDbLine
 10
588.2132948375233
 20
844.2126086267633
 30
0.0
 11
585.7142619980595
 21
844.2126086267633
 31
0.0
  0
LINE
  5
236
330
A
100
AcDbEntity
  8
0
  6
Continuous
 62
     7
100
AcDbLine
 10
560.7123276769872
 20
844.2126086267633
 30
0.0
 11
558.2132948375233
 21
844.2126086267633
 31
0.0
  0
LINE
  5
237
330
A
100
AcDbEntity
  8
0
  6
Continuous
 62
     7
100
AcDbLine
 10
573.2132948375233
 20
844.2126086267633
 30
0.0
 11
585.7142619980595
 21
844.2126086267633
 31
0.0
  0
LINE
  5
238
330
A
100
AcDbEntity
  8
0
  6
Continuous
 62
     7
100
AcDbLine
 10
560.7123276769872
 20
844.2126086267633
 30
0.0
 11
573.2132948375233
 21
844.2126086267633
 31
0.0
  0
LINE
  5
239
330
A
100
AcDbEntity
  8
0
  6
Continuous
 62
     7
100
AcDbLine
 10
560.7123276769872
 20
-472.4869913732368
 30
0.0
 11
585.7142619980595
 21
-472.4869913732368
 31
0.0
  0
LINE
  5
23A
330
A
100
AcDbEntity
  8
0
  6
Continuous
 62
     7
100
AcDbLine
 10
558.213294837524
 20
575.5681014057164
 30
0.0
 11
557.213294837524
 21
575.5681014057164
 31
0.0
  0
LINE
  5
23B
330
A
100
AcDbEntity
  8
0
  6
Continuous
 62
     7
100
AcDbLine
 10
557.213294837524
 20
575.5681014057164
 30
0.0
 11
557.213294837524
 21
576.1543383045498
 31
0.0
  0
LINE
  5
23C
330
A
100
AcDbEntity
  8
0
  6
Continuous
 62
     7
100
AcDbLine
 10
557.213294837524
 20
576.1543383045498
 30
0.0
 11
398.5826912384831
 21
576.1543383045498
 31
0.0
  0
LINE
  5
23D
330
A
100
AcDbEntity
  8
0
  6
Continuous
 62
     7
100
AcDbLine
 10
747.8438984365636
 20
576.1543383045498
 30
0.0
 11
589.2132948375238
 21
576.1543383045497
 31
0.0
  0
LINE
  5
23E
330
A
100
AcDbEntity
  8
0
  6
Continuous
 62
     7
100
AcDbLine
 10
589.2132948375238
 20
576.1543383045497
 30
0.0
 11
589.2132948375238
 21
575.5681014057164
 31
0.0
  0
LINE
  5
23F
330
A
100
AcDbEntity
  8
0
  6
Continuous
 62
     7
100
AcDbLine
 10
589.2132948375238
 20
575.5681014057164
 30
0.0
 11
588.2132948375239
 21
575.5681014057164
 31
0.0
  0
LINE
  5
240
330
A
100
AcDbEntity
  8
0
  6
Continuous
 62
     7
100
AcDbLine
 10
588.2132948375239
 20
575.5681014057164
 30
0.0
 11
588.2132948375239
 21
578.0863547131524
 31
0.0
  0
LINE
  5
241
330
A
100
AcDbEntity
  8
0
  6
Continuous
 62
     7
100
AcDbLine
 10
558.213294837524
 20
578.0863547131524
 30
0.0
 11
558.213294837524
 21
575.5681014057164
 31
0.0
  0
LINE
  5
242
330
A
100
AcDbEntity
  8
0
  6
Continuous
 62
     7
100
AcDbLine
 10
588.2132948375239
 20
578.0863547131524
 30
0.0
 11
588.2132948375236
 21
838.9683347010837
 31
0.0
  0
LINE
  5
243
330
A
100
AcDbEntity
  8
0
  6
Continuous
 62
     7
100
AcDbLine
 10
558.2132948375238
 20
838.9683347010837
 30
0.0
 11
558.213294837524
 21
578.0863547131524
 31
0.0
  0
LINE
  5
244
330
A
100
AcDbEntity
  8
0
  6
Continuous
 62
     7
100
AcDbLine
 10
589.7132948375237
 20
840.4419438649822
 30
0.0
 11
676.6172948375235
 21
840.4419438649822
 31
0.0
  0
LINE
  5
245
330
A
100
AcDbEntity
  8
0
  6
Continuous
 62
     7
100
AcDbLine
 10
469.8092948375232
 20
840.4419438649822
 30
0.0
 11
556.7132948375237
 21
840.4419438649822
 31
0.0
  0
LINE
  5
246
330
A
100
AcDbEntity
  8
0
  6
Continuous
 62
     7
100
AcDbLine
 10
556.7132948375237
 20
840.4419438649822
 30
0.0
 11
556.7132948375237
 21
840.4500813936479
 31
0.0
  0
LINE
  5
247
330
A
100
AcDbEntity
  8
0
  6
Continuous
 62
     7
100
AcDbLine
 10
556.7132948375237
 20
840.4500813936479
 30
0.0
 11
558.2132948375236
 21
840.4500813936479
 31
0.0
  0
LINE
  5
248
330
A
100
AcDbEntity
  8
0
  6
Continuous
 62
     7
100
AcDbLine
 10
588.2132948375236
 20
840.4500813936479
 30
0.0
 11
589.7132948375237
 21
840.4500813936479
 31
0.0
  0
LINE
  5
249
330
A
100
AcDbEntity
  8
0
  6
Continuous
 62
     7
100
AcDbLine
 10
589.7132948375237
 20
840.4500813936479
 30
0.0
 11
589.7132948375237
 21
840.4419438649822
 31
0.0
  0
LINE
  5
24A
330
A
100
AcDbEntity
  8
0
  6
Continuous
 62
     7
100
AcDbLine
 10
588.2132948375236
 20
838.9683347010837
 30
0.0
 11
588.2132948375236
 21
840.4500813936479
 31
0.0
  0
LINE
  5
24B
330
A
100
AcDbEntity
  8
0
  6
Continuous
 62
     7
100
AcDbLine
 10
558.2132948375236
 20
840.4500813936479
 30
0.0
 11
558.2132948375238
 21
838.9683347010837
 31
0.0
  0
LINE
  5
24C
330
A
100
AcDbEntity
  8
0
  6
Continuous
 62
     7
100
AcDbLine
 10
588.2132948375233
 20
840.4500813936479
 30
0.0
 11
585.7142619980595
 21
840.4500813936479
 31
0.0
  0
LINE
  5
24D
330
A
100
AcDbEntity
  8
0
  6
Continuous
 62
     7
100
AcDbLine
 10
560.7123276769873
 20
840.4500813936479
 30
0.0
 11
558.2132948375233
 21
840.4500813936479
 31
0.0
  0
LINE
  5
24E
330
A
100
AcDbEntity
  8
0
  6
Continuous
 62
     7
100
AcDbLine
 10
558.2132948375233
 20
575.5681014057164
 30
0.0
 11
560.7123276769873
 21
575.5681014057164
 31
0.0
  0
LINE
  5
24F
330
A
100
AcDbEntity
  8
0
  6
Continuous
 62
     7
100
AcDbLine
 10
585.7142619980595
 20
575.5681014057164
 30
0.0
 11
588.2132948375233
 21
575.5681014057164
 31
0.0
  0
LINE
  5
250
330
A
100
AcDbEntity
  8
0
  6
PHANTOM
 62
     7
100
AcDbLine
 10
558.2132948375235
 20
842.2126086267633
 30
0.0
 11
515.2132948375233
 21
842.2126086267633
 31
0.0
  0
LINE
  5
251
330
A
100
AcDbEntity
  8
0
  6
PHANTOM
 62
     7
100
AcDbLine
 10
631.2132948375234
 20
842.2126086267633
 30
0.0
 11
588.2132948375235
 21
842.2126086267633
 31
0.0
  0
LINE
  5
252
330
A
100
AcDbEntity
  8
0
  6
PHANTOM
 62
     7
100
AcDbLine
 10
588.2132948375239
 20
578.0863547131524
 30
0.0
 11
748.3609212570359
 21
578.0863547131524
 31
0.0
  0
LINE
  5
253
330
A
100
AcDbEntity
  8
0
  6
PHANTOM
 62
     7
100
AcDbLine
 10
398.0656684180109
 20
578.0863547131524
 30
0.0
 11
558.213294837524
 21
578.0863547131524
 31
0.0
  0
LINE
  5
254
330
A
100
AcDbEntity
  8
0
  6
PHANTOM
 62
     7
100
AcDbLine
 10
558.2132948375238
 20
838.9683347010837
 30
0.0
 11
468.057841028714
 21
838.9683347010837
 31
0.0
  0
LINE
  5
255
330
A
100
AcDbEntity
  8
0
  6
PHANTOM
 62
     7
100
AcDbLine
 10
678.3687486463326
 20
838.9683347010837
 30
0.0
 11
588.2132948375236
 21
838.9683347010837
 31
0.0
  0
ENDSEC
  0
SECTION
  2
OBJECTS
  0
DICTIONARY
  5
19
330
0
100
AcDbDictionary
281
     1
  3
ACAD_COLOR
350
25A
  3
ACAD_GROUP
350
1A
  3
ACAD_LAYOUT
350
25B
  3
ACAD_MATERIAL
350
259
  3
ACAD_MLINESTYLE
350
1B
  3
ACAD_PLOTSETTINGS
350
25C
  3
ACAD_PLOTSTYLENAME
350
257
  3
ACDBHEADERROUNDTRIPXREC
350
274
  3
AcDbVariableDictionary
350
26D
  3
ASE_INDEX_DICTIONARY
350
262
  0
DICTIONARY
  5
25A
102
{ACAD_REACTORS
330
19
102
}
330
19
100
AcDbDictionary
281
     1
  0
DICTIONARY
  5
1A
102
{ACAD_REACTORS
330
19
102
}
330
19
100
AcDbDictionary
281
     1
  0
DICTIONARY
  5
25B
102
{ACAD_REACTORS
330
19
102
}
330
19
100
AcDbDictionary
281
     1
  3
Layout1
350
25E
  3
Model
350
25D
  0
DICTIONARY
  5
259
102
{ACAD_REACTORS
330
19
102
}
330
19
100
AcDbDictionary
281
     1
  0
DICTIONARY
  5
1B
102
{ACAD_REACTORS
330
19
102
}
330
19
100
AcDbDictionary
281
     1
  3
STANDARD
350
1C
  0
DICTIONARY
  5
25C
102
{ACAD_REACTORS
330
19
102
}
330
19
100
AcDbDictionary
281
     1
  0
ACDBDICTIONARYWDFLT
  5
257
102
{ACAD_REACTORS
330
19
102
}
330
19
100
AcDbDictionary
281
     1
  3
Normal
350
258
100
AcDbDictionaryWithDefault
340
258
  0
DICTIONARY
  5
274
102
{ACAD_REACTORS
330
19
102
}
330
19
100
AcDbDictionary
281
     1
  3
COLORDICT
350
276
  3
MATERIALDICT
350
275
  0
DICTIONARY
  5
26D
102
{ACAD_REACTORS
330
19
102
}
330
19
100
AcDbDictionary
281
     1
  3
DIMASSOC
350
26E
  3
PROJECTNAME
350
26F
  0
DICTIONARY
  5
262
102
{ACAD_REACTORS
330
19
102
}
330
19
100
AcDbDictionary
281
     1
  3
ASEBlockHierarchyIndexRecord
350
264
1001
DCO15
1040
1522042155.64
  0
LAYOUT
  5
25E
102
{ACAD_XDICTIONARY
360
279
102
}
102
{ACAD_REACTORS
330
25B
102
}
330
25B
100
AcDbPlotSettings
  1

  2
ProgeSOFT PDF Wizard
  4

  6

 40
0.0
 41
0.0
 42
0.0
 43
0.0
 44
0.0
 45
0.0
 46
0.0
 47
0.0
 48
0.0
 49
0.0
140
0.0
141
0.0
142
1.0
143
1.0
 70
   688
 72
     0
 73
     0
 74
     5
  7

 75
    16
147
1.0
148
0.0
149
0.0
100
AcDbLayout
  1
Layout1
 70
     1
 71
     1
 10
0.0
 20
0.0
 11
12.0
 21
9.0
 12
0.0
 22
0.0
 32
0.0
 14
1.000000000000000E+20
 24
1.000000000000000E+20
 34
1.000000000000000E+20
 15
-1.000000000000000E+20
 25
-1.000000000000000E+20
 35
-1.000000000000000E+20
146
0.0
 13
0.0
 23
0.0
 33
0.0
 16
1.0
 26
0.0
 36
0.0
 17
0.0
 27
1.0
 37
0.0
 76
     0
330
B
  0
LAYOUT
  5
25D
102
{ACAD_XDICTIONARY
360
277
102
}
102
{ACAD_REACTORS
330
25B
102
}
330
25B
100
AcDbPlotSettings
  1

  2
ProgeSOFT PDF Wizard
  4

  6

 40
0.0
 41
0.0
 42
0.0
 43
0.0
 44
0.0
 45
0.0
 46
0.0
 47
0.0
 48
0.0
 49
0.0
140
0.0
141
0.0
142
1.0
143
1.0
 70
  1712
 72
     0
 73
     0
 74
     0
  7

 75
     0
147
1.0
148
0.0
149
0.0
100
AcDbLayout
  1
Model
 70
     1
 71
     0
 10
0.0
 20
0.0
 11
12.0
 21
9.0
 12
0.0
 22
0.0
 32
0.0
 14
0.0
 24
0.0
 34
0.0
 15
0.0
 25
0.0
 35
0.0
146
0.0
 13
0.0
 23
0.0
 33
0.0
 16
1.0
 26
0.0
 36
0.0
 17
0.0
 27
1.0
 37
0.0
 76
     0
330
A
  0
MLINESTYLE
  5
1C
102
{ACAD_REACTORS
330
1B
102
}
330
1B
100
AcDbMlineStyle
  2
STANDARD
 70
     0
  3

 62
     0
 51
90.0
 52
90.0
 71
     2
 49
0.5
 62
   256
  6
BYLAYER
 49
-0.5
 62
   256
  6
BYLAYER
  0
ACDBPLACEHOLDER
  5
258
102
{ACAD_REACTORS
330
257
102
}
330
257
  0
XRECORD
  5
276
102
{ACAD_REACTORS
330
274
102
}
330
274
100
AcDbXrecord
280
     1
340
25A
  0
XRECORD
  5
275
102
{ACAD_REACTORS
330
274
102
}
330
274
100
AcDbXrecord
280
     1
340
259
  0
DICTIONARYVAR
  5
26E
102
{ACAD_REACTORS
330
26D
102
}
330
26D
100
DictionaryVariables
280
     0
  1
1
  0
DICTIONARYVAR
  5
26F
102
{ACAD_REACTORS
330
26D
102
}
330
26D
100
DictionaryVariables
280
     0
  1

  0
XRECORD
  5
264
102
{ACAD_REACTORS
330
262
102
}
330
262
100
AcDbXrecord
280
     1
  0
DICTIONARY
  5
279
330
25E
100
AcDbDictionary
280
     1
281
     1
  3
ACAD_XREC_ROUNDTRIP
360
27A
  0
DICTIONARY
  5
277
330
25D
100
AcDbDictionary
280
     1
281
     1
  3
ACAD_XREC_ROUNDTRIP
360
278
  0
XRECORD
  5
27A
102
{ACAD_REACTORS
330
279
102
}
330
279
100
AcDbXrecord
280
     1
102
SHADEPLOT
 70
     0
102
SHADEPLOTRESLEVEL
 70
     2
102
SHADEPLOTCUSTOMDPI
 70
   300
  0
XRECORD
  5
278
102
{ACAD_REACTORS
330
277
102
}
330
277
100
AcDbXrecord
280
     1
102
SHADEPLOT
 70
     0
102
SHADEPLOTRESLEVEL
 70
     2
102
SHADEPLOTCUSTOMDPI
 70
   300
  0
ENDSEC
  0
EOF
