  0
SECTION
  2
HEADER
  9
$ACADVER
  1
AC1018
  9
$ACADMAINTVER
 70
    39
  9
$DWGCODEPAGE
  3
ANSI_1252
  9
$INSBASE
 10
0.0
 20
0.0
 30
0.0
  9
$EXTMIN
 10
-568.0662920396851
 20
0.0035142054499197
 30
0.0
  9
$EXTMAX
 10
-461.1209506290168
 20
392.2990426271959
 30
0.0
  9
$LIMMIN
 10
0.0
 20
0.0
  9
$LIMMAX
 10
12.0
 20
9.0
  9
$ORTHOMODE
 70
     0
  9
$REGENMODE
 70
     1
  9
$FILLMODE
 70
     1
  9
$QTEXTMODE
 70
     0
  9
$MIRRTEXT
 70
     1
  9
$LTSCALE
 40
1.0
  9
$ATTMODE
 70
     1
  9
$TEXTSIZE
 40
0.2
  9
$TRACEWID
 40
0.05
  9
$TEXTSTYLE
  7
Standard
  9
$CLAYER
  8
0
  9
$CELTYPE
  6
ByLayer
  9
$CECOLOR
 62
   256
  9
$CELTSCALE
 40
1.0
  9
$DISPSILH
 70
     0
  9
$DIMSCALE
 40
1.0
  9
$DIMASZ
 40
0.18
  9
$DIMEXO
 40
0.0625
  9
$DIMDLI
 40
0.38
  9
$DIMRND
 40
0.0
  9
$DIMDLE
 40
0.0
  9
$DIMEXE
 40
0.18
  9
$DIMTP
 40
0.0
  9
$DIMTM
 40
0.0
  9
$DIMTXT
 40
0.18
  9
$DIMCEN
 40
0.09
  9
$DIMTSZ
 40
0.0
  9
$DIMTOL
 70
     0
  9
$DIMLIM
 70
     0
  9
$DIMTIH
 70
     1
  9
$DIMTOH
 70
     1
  9
$DIMSE1
 70
     0
  9
$DIMSE2
 70
     0
  9
$DIMTAD
 70
     0
  9
$DIMZIN
 70
     0
  9
$DIMBLK
  1

  9
$DIMASO
 70
     1
  9
$DIMSHO
 70
     1
  9
$DIMPOST
  1

  9
$DIMAPOST
  1

  9
$DIMALT
 70
     0
  9
$DIMALTD
 70
     2
  9
$DIMALTF
 40
25.4
  9
$DIMLFAC
 40
1.0
  9
$DIMTOFL
 70
     0
  9
$DIMTVP
 40
0.0
  9
$DIMTIX
 70
     0
  9
$DIMSOXD
 70
     0
  9
$DIMSAH
 70
     0
  9
$DIMBLK1
  1

  9
$DIMBLK2
  1

  9
$DIMSTYLE
  2
Standard
  9
$DIMCLRD
 70
     0
  9
$DIMCLRE
 70
     0
  9
$DIMCLRT
 70
     0
  9
$DIMTFAC
 40
1.0
  9
$DIMGAP
 40
0.09
  9
$DIMJUST
 70
     0
  9
$DIMSD1
 70
     0
  9
$DIMSD2
 70
     0
  9
$DIMTOLJ
 70
     1
  9
$DIMTZIN
 70
     0
  9
$DIMALTZ
 70
     0
  9
$DIMALTTZ
 70
     0
  9
$DIMUPT
 70
     0
  9
$DIMDEC
 70
     4
  9
$DIMTDEC
 70
     4
  9
$DIMALTU
 70
     2
  9
$DIMALTTD
 70
     2
  9
$DIMTXSTY
  7
Standard
  9
$DIMAUNIT
 70
     0
  9
$DIMADEC
 70
     0
  9
$DIMALTRND
 40
0.0
  9
$DIMAZIN
 70
     0
  9
$DIMDSEP
 70
    46
  9
$DIMATFIT
 70
     3
  9
$DIMFRAC
 70
     0
  9
$DIMLDRBLK
  1

  9
$DIMLUNIT
 70
     2
  9
$DIMLWD
 70
    -2
  9
$DIMLWE
 70
    -2
  9
$DIMTMOVE
 70
     0
  9
$LUNITS
 70
     2
  9
$LUPREC
 70
     3
  9
$SKETCHINC
 40
0.1
  9
$FILLETRAD
 40
0.5
  9
$AUNITS
 70
     0
  9
$AUPREC
 70
     0
  9
$MENU
  1
.
  9
$ELEVATION
 40
0.0
  9
$PELEVATION
 40
0.0
  9
$THICKNESS
 40
0.0
  9
$LIMCHECK
 70
     0
  9
$CHAMFERA
 40
0.5
  9
$CHAMFERB
 40
0.5
  9
$CHAMFERC
 40
1.0
  9
$CHAMFERD
 40
0.0
  9
$SKPOLY
 70
     0
  9
$TDCREATE
 40
2455009.739195475
  9
$TDUCREATE
 40
2455009.655862141
  9
$TDUPDATE
 40
2455014.609726759
  9
$TDUUPDATE
 40
2455014.526393426
  9
$TDINDWG
 40
0.0452009954
  9
$TDUSRTIMER
 40
0.0452009954
  9
$USRTIMER
 70
     1
  9
$ANGBASE
 50
0.0
  9
$ANGDIR
 70
     0
  9
$PDMODE
 70
     0
  9
$PDSIZE
 40
0.0
  9
$PLINEWID
 40
0.0
  9
$SPLFRAME
 70
     0
  9
$SPLINETYPE
 70
     6
  9
$SPLINESEGS
 70
     8
  9
$HANDSEED
  5
346
  9
$SURFTAB1
 70
     6
  9
$SURFTAB2
 70
     6
  9
$SURFTYPE
 70
     6
  9
$SURFU
 70
     6
  9
$SURFV
 70
     6
  9
$UCSBASE
  2

  9
$UCSNAME
  2

  9
$UCSORG
 10
0.0
 20
0.0
 30
0.0
  9
$UCSXDIR
 10
1.0
 20
0.0
 30
0.0
  9
$UCSYDIR
 10
0.0
 20
1.0
 30
0.0
  9
$UCSORTHOREF
  2

  9
$UCSORTHOVIEW
 70
     0
  9
$UCSORGTOP
 10
0.0
 20
0.0
 30
0.0
  9
$UCSORGBOTTOM
 10
0.0
 20
0.0
 30
0.0
  9
$UCSORGLEFT
 10
0.0
 20
0.0
 30
0.0
  9
$UCSORGRIGHT
 10
0.0
 20
0.0
 30
0.0
  9
$UCSORGFRONT
 10
0.0
 20
0.0
 30
0.0
  9
$UCSORGBACK
 10
0.0
 20
0.0
 30
0.0
  9
$PUCSBASE
  2

  9
$PUCSNAME
  2

  9
$PUCSORG
 10
0.0
 20
0.0
 30
0.0
  9
$PUCSXDIR
 10
1.0
 20
0.0
 30
0.0
  9
$PUCSYDIR
 10
0.0
 20
1.0
 30
0.0
  9
$PUCSORTHOREF
  2

  9
$PUCSORTHOVIEW
 70
     0
  9
$PUCSORGTOP
 10
0.0
 20
0.0
 30
0.0
  9
$PUCSORGBOTTOM
 10
0.0
 20
0.0
 30
0.0
  9
$PUCSORGLEFT
 10
0.0
 20
0.0
 30
0.0
  9
$PUCSORGRIGHT
 10
0.0
 20
0.0
 30
0.0
  9
$PUCSORGFRONT
 10
0.0
 20
0.0
 30
0.0
  9
$PUCSORGBACK
 10
0.0
 20
0.0
 30
0.0
  9
$USERI1
 70
     0
  9
$USERI2
 70
     0
  9
$USERI3
 70
     0
  9
$USERI4
 70
     0
  9
$USERI5
 70
     0
  9
$USERR1
 40
0.0
  9
$USERR2
 40
0.0
  9
$USERR3
 40
0.0
  9
$USERR4
 40
0.0
  9
$USERR5
 40
0.0
  9
$WORLDVIEW
 70
     1
  9
$SHADEDGE
 70
     3
  9
$SHADEDIF
 70
    70
  9
$TILEMODE
 70
     1
  9
$MAXACTVP
 70
    64
  9
$PINSBASE
 10
0.0
 20
0.0
 30
0.0
  9
$PLIMCHECK
 70
     0
  9
$PEXTMIN
 10
1.000000000000000E+20
 20
1.000000000000000E+20
 30
1.000000000000000E+20
  9
$PEXTMAX
 10
-1.000000000000000E+20
 20
-1.000000000000000E+20
 30
-1.000000000000000E+20
  9
$PLIMMIN
 10
0.0
 20
0.0
  9
$PLIMMAX
 10
12.0
 20
9.0
  9
$UNITMODE
 70
     0
  9
$VISRETAIN
 70
     1
  9
$PLINEGEN
 70
     0
  9
$PSLTSCALE
 70
     1
  9
$TREEDEPTH
 70
  3020
  9
$CMLSTYLE
  2
Standard
  9
$CMLJUST
 70
     0
  9
$CMLSCALE
 40
1.0
  9
$PROXYGRAPHICS
 70
     1
  9
$MEASUREMENT
 70
     0
  9
$CELWEIGHT
370
    -1
  9
$ENDCAPS
280
     0
  9
$JOINSTYLE
280
     0
  9
$LWDISPLAY
290
     0
  9
$INSUNITS
 70
     4
  9
$HYPERLINKBASE
  1

  9
$STYLESHEET
  1

  9
$XEDIT
290
     1
  9
$CEPSNTYPE
380
     0
  9
$PSTYLEMODE
290
     1
  9
$FINGERPRINTGUID
  2
{10F6AD45-DF1B-402E-8CDB-9312FE6C18F9}
  9
$VERSIONGUID
  2
{E40B1FEB-1BDB-47CD-8A07-B8BF1BD19EF7}
  9
$EXTNAMES
290
     1
  9
$PSVPSCALE
 40
0.0
  9
$OLESTARTUP
290
     0
  9
$SORTENTS
280
   127
  9
$INDEXCTL
280
     0
  9
$HIDETEXT
280
     1
  9
$XCLIPFRAME
290
     0
  9
$HALOGAP
280
     0
  9
$OBSCOLOR
 70
   257
  9
$OBSLTYPE
280
     0
  9
$INTERSECTIONDISPLAY
280
     0
  9
$INTERSECTIONCOLOR
 70
   257
  9
$DIMASSOC
280
     2
  9
$PROJECTNAME
  1

  0
ENDSEC
  0
SECTION
  2
CLASSES
  0
CLASS
  1
ACDBDICTIONARYWDFLT
  2
AcDbDictionaryWithDefault
  3
ObjectDBX Classes
 90
        0
 91
        1
280
     0
281
     0
  0
CLASS
  1
TABLESTYLE
  2
AcDbTableStyle
  3
ObjectDBX Classes
 90
     2047
 91
        1
280
     0
281
     0
  0
CLASS
  1
DICTIONARYVAR
  2
AcDbDictionaryVar
  3
ObjectDBX Classes
 90
        0
 91
        1
280
     0
281
     0
  0
ENDSEC
  0
SECTION
  2
TABLES
  0
TABLE
  2
VPORT
  5
8
330
0
100
AcDbSymbolTable
 70
     3
  0
VPORT
  5
345
330
8
100
AcDbSymbolTableRecord
100
AcDbViewportTableRecord
  2
*Active
 70
     0
 10
0.0
 20
0.0
 11
1.0
 21
1.0
 12
181.308998134144
 22
236.2115577817107
 13
0.0
 23
0.0
 14
0.5
 24
0.5
 15
0.5
 25
0.5
 16
0.0
 26
0.0
 36
1.0
 17
-514.592937260031
 27
196.1581005411372
 37
0.0
 40
1471.177830419978
 41
1.728782287822878
 42
50.0
 43
0.0
 44
0.0
 50
0.0
 51
0.0
 71
     0
 72
   100
 73
     1
 74
     3
 75
     0
 76
     0
 77
     0
 78
     0
281
     0
 65
     1
110
0.0
120
0.0
130
0.0
111
1.0
121
0.0
131
0.0
112
0.0
122
1.0
132
0.0
 79
     0
146
0.0
  0
ENDTAB
  0
TABLE
  2
LTYPE
  5
5
330
0
100
AcDbSymbolTable
 70
     1
  0
LTYPE
  5
14
330
5
100
AcDbSymbolTableRecord
100
AcDbLinetypeTableRecord
  2
ByBlock
 70
     0
  3

 72
    65
 73
     0
 40
0.0
  0
LTYPE
  5
15
330
5
100
AcDbSymbolTableRecord
100
AcDbLinetypeTableRecord
  2
ByLayer
 70
     0
  3

 72
    65
 73
     0
 40
0.0
  0
LTYPE
  5
16
330
5
100
AcDbSymbolTableRecord
100
AcDbLinetypeTableRecord
  2
Continuous
 70
     0
  3
Solid line
 72
    65
 73
     0
 40
0.0
  0
ENDTAB
  0
TABLE
  2
LAYER
  5
2
330
0
100
AcDbSymbolTable
 70
     2
  0
LAYER
  5
10
330
2
100
AcDbSymbolTableRecord
100
AcDbLayerTableRecord
  2
0
 70
     0
 62
     7
  6
Continuous
370
    -3
390
F
  0
LAYER
  5
2A
330
2
100
AcDbSymbolTableRecord
100
AcDbLayerTableRecord
  2
LINEE VISIBILI 2D
 70
     0
 62
     7
  6
Continuous
370
    -3
390
F
  0
ENDTAB
  0
TABLE
  2
STYLE
  5
3
330
0
100
AcDbSymbolTable
 70
     1
  0
STYLE
  5
11
330
3
100
AcDbSymbolTableRecord
100
AcDbTextStyleTableRecord
  2
Standard
 70
     0
 40
0.0
 41
1.0
 50
0.0
 71
     0
 42
0.2
  3
txt
  4

  0
ENDTAB
  0
TABLE
  2
VIEW
  5
6
330
0
100
AcDbSymbolTable
 70
     0
  0
ENDTAB
  0
TABLE
  2
UCS
  5
7
330
0
100
AcDbSymbolTable
 70
     0
  0
ENDTAB
  0
TABLE
  2
APPID
  5
9
330
0
100
AcDbSymbolTable
 70
     1
  0
APPID
  5
12
330
9
100
AcDbSymbolTableRecord
100
AcDbRegAppTableRecord
  2
ACAD
 70
     0
  0
ENDTAB
  0
TABLE
  2
DIMSTYLE
  5
A
330
0
100
AcDbSymbolTable
 70
     1
100
AcDbDimStyleTable
 71
     0
  0
DIMSTYLE
105
27
330
A
100
AcDbSymbolTableRecord
100
AcDbDimStyleTableRecord
  2
Standard
 70
     0
340
11
  0
ENDTAB
  0
TABLE
  2
BLOCK_RECORD
  5
1
330
0
100
AcDbSymbolTable
 70
     1
  0
BLOCK_RECORD
  5
1F
330
1
100
AcDbSymbolTableRecord
100
AcDbBlockTableRecord
  2
*Model_Space
340
22
  0
BLOCK_RECORD
  5
1B
330
1
100
AcDbSymbolTableRecord
100
AcDbBlockTableRecord
  2
*Paper_Space
340
1E
  0
BLOCK_RECORD
  5
23
330
1
100
AcDbSymbolTableRecord
100
AcDbBlockTableRecord
  2
*Paper_Space0
340
26
  0
ENDTAB
  0
ENDSEC
  0
SECTION
  2
BLOCKS
  0
BLOCK
  5
20
330
1F
100
AcDbEntity
  8
0
100
AcDbBlockBegin
  2
*Model_Space
 70
     0
 10
0.0
 20
0.0
 30
0.0
  3
*Model_Space
  1

  0
ENDBLK
  5
21
330
1F
100
AcDbEntity
  8
0
100
AcDbBlockEnd
  0
BLOCK
  5
1C
330
1B
100
AcDbEntity
 67
     1
  8
0
100
AcDbBlockBegin
  2
*Paper_Space
 70
     0
 10
0.0
 20
0.0
 30
0.0
  3
*Paper_Space
  1

  0
ENDBLK
  5
1D
330
1B
100
AcDbEntity
 67
     1
  8
0
100
AcDbBlockEnd
  0
BLOCK
  5
24
330
23
100
AcDbEntity
  8
0
100
AcDbBlockBegin
  2
*Paper_Space0
 70
     0
 10
0.0
 20
0.0
 30
0.0
  3
*Paper_Space0
  1

  0
ENDBLK
  5
25
330
23
100
AcDbEntity
  8
0
100
AcDbBlockEnd
  0
ENDSEC
  0
SECTION
  2
ENTITIES
  0
SPLINE
  5
2B
330
1F
100
AcDbEntity
  8
LINEE VISIBILI 2D
100
AcDbSpline
210
0.0
220
0.0
230
1.0
 70
     8
 71
     3
 72
    12
 73
     8
 74
     0
 42
0.0000000001
 43
0.0000000001
 40
0.0
 40
0.0
 40
0.0
 40
0.0
 40
1.022190403543209
 40
1.959460228314924
 40
3.614484157696219
 40
5.011564463080013
 40
6.425441184652425
 40
6.425441184652425
 40
6.425441184652425
 40
6.425441184652425
 10
-555.9646477047264
 20
170.6218631373116
 30
0.0
 10
-556.2071749021257
 20
170.8598761739741
 30
0.0
 10
-556.6610263526371
 20
171.334032948948
 30
0.0
 10
-557.3984524692118
 20
172.283961538885
 30
0.0
 10
-558.0541720845507
 20
173.4574014718152
 30
0.0
 10
-558.3183673548091
 20
174.9473784977793
 30
0.0
 10
-558.0973558150874
 20
175.881167731104
 30
0.0
 10
-557.9165908344146
 20
176.313809627328
 30
0.0
  0
SPLINE
  5
2C
330
1F
100
AcDbEntity
  8
LINEE VISIBILI 2D
100
AcDbSpline
210
0.0
220
0.0
230
1.0
 70
    12
 71
     3
 72
    12
 73
     8
 74
     0
 42
0.0000000001
 43
0.0000000001
 40
-0.7812796318961581
 40
-0.7812796318961581
 40
-0.7812796318961581
 40
-0.7812796318961581
 40
-0.7500663311061641
 40
-0.7500663311061641
 40
-0.6875101013588695
 40
-0.6875101013588695
 40
-0.6405643637329536
 40
-0.6405643637329536
 40
-0.6405643637329536
 40
-0.6405643637329536
 10
-557.1629372025376
 20
171.6084858624254
 30
0.0
 41
652.9036574282535
 10
-557.3348998287379
 20
171.7731839571871
 30
0.0
 41
652.8966278389673
 10
-557.5001225624093
 20
171.9453840340088
 30
0.0
 41
652.8821344938653
 10
-557.9707993487469
 20
172.4879596480841
 30
0.0
 41
652.8121470962729
 10
-558.2468687232087
 20
172.8881631421113
 30
0.0
 41
652.725898112421
 10
-558.5832406992149
 20
173.633114416481
 30
0.0
 41
652.4799036388444
 10
-558.6736020850879
 20
173.9670834158368
 30
0.0
 41
652.3407190863358
 10
-558.7056502364231
 20
174.2941440609503
 30
0.0
 41
652.177217198065
  0
SPLINE
  5
2E
330
1F
100
AcDbEntity
  8
LINEE VISIBILI 2D
100
AcDbSpline
210
0.0
220
0.0
230
1.0
 70
    12
 71
     2
 72
     6
 73
     3
 74
     0
 42
0.0000000001
 43
0.0000000001
 40
0.0
 40
0.0
 40
0.0
 40
1.905663735190231
 40
1.905663735190231
 40
1.905663735190231
 10
-566.0320488685845
 20
169.8440456695544
 30
0.0
 41
1.0
 10
-566.650035002018
 20
170.572752653172
 30
0.0
 41
0.9958653073062519
 10
-567.1259743791039
 20
171.4012467318642
 30
0.0
 41
1.0
  0
SPLINE
  5
2F
330
1F
100
AcDbEntity
  8
LINEE VISIBILI 2D
100
AcDbSpline
210
0.0
220
0.0
230
1.0
 70
    12
 71
     2
 72
     6
 73
     3
 74
     0
 42
0.0000000001
 43
0.0000000001
 40
0.0
 40
0.0
 40
0.0
 40
2.124729326585247
 40
2.124729326585247
 40
2.124729326585247
 10
-556.3990321798936
 20
170.9321961098322
 30
0.0
 41
1.0
 10
-555.6661425253365
 20
170.160521942824
 30
0.0
 41
0.9973579070465154
 10
-554.8291687333398
 20
169.5031916321758
 30
0.0
 41
1.0
  0
SPLINE
  5
30
330
1F
100
AcDbEntity
  8
LINEE VISIBILI 2D
100
AcDbSpline
210
0.0
220
0.0
230
1.0
 70
    12
 71
     2
 72
     6
 73
     3
 74
     0
 42
0.0000000001
 43
0.0000000001
 40
0.0
 40
0.0
 40
0.0
 40
0.0326212911661178
 40
0.0326212911661178
 40
0.0326212911661178
 10
-480.452105834706
 20
14.59168710556024
 30
0.0
 41
1.0
 10
-480.4569328286058
 20
14.57610578701921
 30
0.0
 41
0.9998866915951206
 10
-480.4612885852973
 20
14.56038622146447
 30
0.0
 41
1.0
  0
SPLINE
  5
31
330
1F
100
AcDbEntity
  8
LINEE VISIBILI 2D
100
AcDbSpline
210
0.0
220
0.0
230
1.0
 70
    12
 71
     2
 72
     6
 73
     3
 74
     0
 42
0.0000000001
 43
0.0000000001
 40
0.0
 40
0.0
 40
0.0
 40
0.0326212911660972
 40
0.0326212911660972
 40
0.0326212911660972
 10
-482.6383814619074
 20
15.40157626869965
 30
0.0
 41
1.0
 10
-482.6335544680074
 20
15.41715758724066
 30
0.0
 41
0.999886691595123
 10
-482.6291987113161
 20
15.4328771527954
 30
0.0
 41
1.0
  0
SPLINE
  5
35
330
1F
100
AcDbEntity
  8
LINEE VISIBILI 2D
100
AcDbSpline
210
0.0
220
0.0
230
1.0
 70
    12
 71
     2
 72
     6
 73
     3
 74
     0
 42
0.0000000001
 43
0.0000000001
 40
0.0
 40
0.0
 40
0.0
 40
2.328373208611417
 40
2.328373208611417
 40
2.328373208611417
 10
-480.0346509970033
 20
10.28657156435497
 30
0.0
 41
1.0
 10
-481.1984071215828
 20
10.25193042702615
 30
0.0
 41
0.9998905166906375
 10
-482.3626786921662
 20
10.25174115668834
 30
0.0
 41
1.0
  0
SPLINE
  5
36
330
1F
100
AcDbEntity
  8
LINEE VISIBILI 2D
100
AcDbSpline
210
0.0
220
0.0
230
1.0
 70
    12
 71
     2
 72
     6
 73
     3
 74
     0
 42
0.0000000001
 43
0.0000000001
 40
0.0
 40
0.0
 40
0.0
 40
0.5927718293514946
 40
0.5927718293514946
 40
0.5927718293514946
 10
-480.0413142516021
 20
14.61570736755561
 30
0.0
 41
1.0
 10
-480.3372019701436
 20
14.59852922192836
 30
0.0
 41
0.9999998270865056
 10
-480.633069280114
 20
14.58100308254233
 30
0.0
 41
1.0
  0
SPLINE
  5
37
330
1F
100
AcDbEntity
  8
LINEE VISIBILI 2D
100
AcDbSpline
210
0.0
220
0.0
230
1.0
 70
    12
 71
     2
 72
     6
 73
     3
 74
     0
 42
0.0000000001
 43
0.0000000001
 40
0.0
 40
0.0
 40
0.0
 40
1.592077182514592
 40
1.592077182514592
 40
1.592077182514592
 10
-481.4532958628916
 20
14.53976759082837
 30
0.0
 41
1.0
 10
-482.2475155765442
 20
14.48449802217661
 30
0.0
 41
0.9999991867002721
 10
-483.0422430959992
 20
14.43882203557382
 30
0.0
 41
1.0
  0
SPLINE
  5
3A
330
1F
100
AcDbEntity
  8
LINEE VISIBILI 2D
100
AcDbSpline
210
0.0
220
0.0
230
1.0
 70
    12
 71
     2
 72
    18
 73
    15
 74
     0
 42
0.0000000001
 43
0.0000000001
 40
0.0
 40
0.0
 40
0.0
 40
0.1127452151378966
 40
0.1127452151378966
 40
0.5568635345144847
 40
0.5568635345144847
 40
2.014869882907649
 40
2.014869882907649
 40
3.010247454231877
 40
3.010247454231877
 40
4.214981670999403
 40
4.214981670999403
 40
5.658349927183706
 40
5.658349927183706
 40
7.170997241425355
 40
7.170997241425355
 40
7.170997241425355
 10
-552.9474503969923
 20
373.0352412526239
 30
0.0
 41
1.0
 10
-552.9060242482358
 20
373.0735690466183
 30
0.0
 41
0.9982869402248148
 10
-552.8693589996372
 20
373.1164736517145
 30
0.0
 41
1.0
 10
-552.7300802194766
 20
373.2902541552656
 30
0.0
 41
0.9956447967812076
 10
-552.6254837641083
 20
373.4868700842795
 30
0.0
 41
1.0
 10
-552.2733454205485
 20
374.1268400744834
 30
0.0
 41
0.997023427755052
 10
-552.0237820937332
 20
374.8133392713335
 30
0.0
 41
1.0
 10
-551.8526824887376
 20
375.2809238246888
 30
0.0
 41
0.9993457311813815
 10
-551.715831395261
 20
375.7596535684695
 30
0.0
 41
1.0
 10
-551.5590219468684
 20
376.3412881604594
 30
0.0
 41
0.999913468007074
 10
-551.3869651809966
 20
376.9185961120955
 30
0.0
 41
1.0
 10
-551.1744303534081
 20
377.610057446226
 30
0.0
 41
0.996471160568077
 10
-550.8492230706109
 20
378.2562231004905
 30
0.0
 41
1.0
 10
-550.4705005475648
 20
379.2379834596279
 30
0.0
 41
0.9941088699451659
 10
-549.8462975001687
 20
379.5715724024613
 30
0.0
 41
1.0
  0
SPLINE
  5
3B
330
1F
100
AcDbEntity
  8
LINEE VISIBILI 2D
100
AcDbSpline
210
0.0
220
0.0
230
1.0
 70
     8
 71
     3
 72
    17
 73
    13
 74
     0
 42
0.0000000001
 43
0.0000000001
 40
0.0
 40
0.0
 40
0.0
 40
0.0
 40
4.159981170419144
 40
8.21587515035212
 40
12.0120529184002
 40
15.42369329272444
 40
18.25404062812635
 40
20.52319598396289
 40
21.53731151283269
 40
22.54273945240831
 40
23.66687612685698
 40
24.69064474931193
 40
24.69064474931193
 40
24.69064474931193
 40
24.69064474931193
 10
-548.7548507349382
 20
181.4498168160965
 30
0.0
 10
-550.1313115612612
 20
181.6181167648842
 30
0.0
 10
-552.870064445208
 20
181.7820969882088
 30
0.0
 10
-556.8740652990388
 20
181.5351736023104
 30
0.0
 10
-560.5693453639308
 20
180.8212592844929
 30
0.0
 10
-563.7279799118443
 20
179.6786327463671
 30
0.0
 10
-566.1603391492331
 20
178.178982149361
 30
0.0
 10
-567.5088932807367
 20
176.602744287152
 30
0.0
 10
-568.0084911134373
 20
175.2462346517637
 30
0.0
 10
-568.1077514431838
 20
174.1961372323371
 30
0.0
 10
-567.9431141832114
 20
173.1496138227542
 30
0.0
 10
-567.7000727770318
 20
172.4740359628871
 30
0.0
 10
-567.5283071416164
 20
172.1770891749369
 30
0.0
  0
SPLINE
  5
3D
330
1F
100
AcDbEntity
  8
LINEE VISIBILI 2D
100
AcDbSpline
210
0.0
220
0.0
230
1.0
 70
    12
 71
     2
 72
     6
 73
     3
 74
     0
 42
0.0000000001
 43
0.0000000001
 40
0.0
 40
0.0
 40
0.0
 40
0.8220190867922086
 40
0.8220190867922086
 40
0.8220190867922086
 10
-541.4449707317979
 20
165.8386483881969
 30
0.0
 41
1.0
 10
-541.8512426291625
 20
165.7759771202859
 30
0.0
 41
0.9997527964437027
 10
-542.2598990123743
 20
165.7314293608566
 30
0.0
 41
1.0
  0
SPLINE
  5
3E
330
1F
100
AcDbEntity
  8
LINEE VISIBILI 2D
100
AcDbSpline
210
0.0
220
0.0
230
1.0
 70
    12
 71
     2
 72
     6
 73
     3
 74
     0
 42
0.0000000001
 43
0.0000000001
 40
0.0
 40
0.0
 40
0.0
 40
0.0917833327681413
 40
0.0917833327681413
 40
0.0917833327681413
 10
-548.8562389136434
 20
181.0177393474442
 30
0.0
 41
1.0
 10
-548.8498681710861
 20
181.0631928705837
 30
0.0
 41
0.9997991724749082
 10
-548.8416811046041
 20
181.1083545918634
 30
0.0
 41
1.0
  0
SPLINE
  5
3F
330
1F
100
AcDbEntity
  8
LINEE VISIBILI 2D
100
AcDbSpline
210
0.0
220
0.0
230
1.0
 70
    12
 71
     2
 72
     6
 73
     3
 74
     0
 42
0.0000000001
 43
0.0000000001
 40
0.0
 40
0.0
 40
0.0
 40
0.043431071397314
 40
0.043431071397314
 40
0.043431071397314
 10
-548.7675720271767
 20
181.4082907714805
 30
0.0
 41
1.0
 10
-548.7613104184904
 20
181.4290841334016
 30
0.0
 41
0.9999886242457392
 10
-548.7548507349382
 20
181.4498168160965
 30
0.0
 41
1.0
  0
SPLINE
  5
40
330
1F
100
AcDbEntity
  8
LINEE VISIBILI 2D
100
AcDbSpline
210
0.0
220
0.0
230
1.0
 70
    12
 71
     2
 72
     6
 73
     3
 74
     0
 42
0.0000000001
 43
0.0000000001
 40
0.0
 40
0.0
 40
0.0
 40
0.0858623675950421
 40
0.0858623675950421
 40
0.0858623675950421
 10
-553.1538508033727
 20
168.3143002641716
 30
0.0
 41
1.0
 10
-553.1176600771441
 20
168.2912064931614
 30
0.0
 41
0.9999982167854216
 10
-553.0813823841176
 20
168.2682495788847
 30
0.0
 41
1.0
  0
SPLINE
  5
41
330
1F
100
AcDbEntity
  8
LINEE VISIBILI 2D
100
AcDbSpline
210
0.0
220
0.0
230
1.0
 70
    12
 71
     2
 72
     6
 73
     3
 74
     0
 42
0.0000000001
 43
0.0000000001
 40
0.0
 40
0.0
 40
0.0
 40
0.3806021149548552
 40
0.3806021149548552
 40
0.3806021149548552
 10
-556.8509100829414
 20
171.323760006165
 30
0.0
 41
1.0
 10
-556.9944934830133
 20
171.4486967282912
 30
0.0
 41
0.9997746417570382
 10
-557.1326441268346
 20
171.5796156991219
 30
0.0
 41
1.0
  0
SPLINE
  5
42
330
1F
100
AcDbEntity
  8
LINEE VISIBILI 2D
100
AcDbSpline
210
0.0
220
0.0
230
1.0
 70
    12
 71
     2
 72
     6
 73
     3
 74
     0
 42
0.0000000001
 43
0.0000000001
 40
0.0
 40
0.0
 40
0.0
 40
0.272949823101855
 40
0.272949823101855
 40
0.272949823101855
 10
-542.3990747752618
 20
165.710319143606
 30
0.0
 41
1.0
 10
-542.3864080577238
 20
165.5744329670494
 30
0.0
 41
0.9999960848217943
 10
-542.3729810478437
 20
165.438619808195
 30
0.0
 41
1.0
  0
SPLINE
  5
43
330
1F
100
AcDbEntity
  8
LINEE VISIBILI 2D
100
AcDbSpline
210
0.0
220
0.0
230
1.0
 70
    12
 71
     2
 72
     6
 73
     3
 74
     0
 42
0.0000000001
 43
0.0000000001
 40
0.0
 40
0.0
 40
0.0
 40
0.9345054716875702
 40
0.9345054716875702
 40
0.9345054716875702
 10
-542.3729810478437
 20
165.438619808195
 30
0.0
 41
1.0
 10
-541.9085817872216
 20
165.4909694068913
 30
0.0
 41
0.99971829436702
 10
-541.4471900434554
 20
165.5652984895862
 30
0.0
 41
1.0
  0
SPLINE
  5
44
330
1F
100
AcDbEntity
  8
LINEE VISIBILI 2D
100
AcDbSpline
210
0.0
220
0.0
230
1.0
 70
    12
 71
     2
 72
    12
 73
     9
 74
     0
 42
0.0000000001
 43
0.0000000001
 40
0.0
 40
0.0
 40
0.0
 40
0.5709416991519199
 40
0.5709416991519199
 40
1.926510300219524
 40
1.926510300219524
 40
3.258016103121684
 40
3.258016103121684
 40
5.767505838829437
 40
5.767505838829437
 40
5.767505838829437
 10
-537.4223861116406
 20
168.4348453668252
 30
0.0
 41
1.0
 10
-537.5919668898988
 20
168.2046712892088
 30
0.0
 41
0.997759675735949
 10
-537.7907580692191
 20
167.9991966840001
 30
0.0
 41
1.0
 10
-538.2677663751405
 20
167.5134863263846
 30
0.0
 41
0.9934284026254871
 10
-538.8427306174231
 20
167.1489762503792
 30
0.0
 41
1.0
 10
-539.4044279669691
 20
166.7893113670175
 30
0.0
 41
0.9972419023716126
 10
-540.0131783041067
 20
166.5167572112148
 30
0.0
 41
1.0
 10
-541.1632239640529
 20
166.0062811969388
 30
0.0
 41
0.9958277284660058
 10
-542.3868928190509
 20
165.7133216188064
 30
0.0
 41
1.0
  0
SPLINE
  5
45
330
1F
100
AcDbEntity
  8
LINEE VISIBILI 2D
100
AcDbSpline
210
0.0
220
0.0
230
1.0
 70
    12
 71
     2
 72
     6
 73
     3
 74
     0
 42
0.0000000001
 43
0.0000000001
 40
0.0
 40
0.0
 40
0.0
 40
0.0334803607642349
 40
0.0334803607642349
 40
0.0334803607642349
 10
-548.0551869096253
 20
181.0635121536506
 30
0.0
 41
1.0
 10
-548.0645264230455
 20
181.0491913197988
 30
0.0
 41
0.9689732708686779
 10
-548.0658652321696
 20
181.0321466613022
 30
0.0
 41
1.0
  0
SPLINE
  5
46
330
1F
100
AcDbEntity
  8
LINEE VISIBILI 2D
100
AcDbSpline
210
0.0
220
0.0
230
1.0
 70
    12
 71
     2
 72
     6
 73
     3
 74
     0
 42
0.0000000001
 43
0.0000000001
 40
0.0
 40
0.0
 40
0.0
 40
0.1755889410507107
 40
0.1755889410507107
 40
0.1755889410507107
 10
-548.0658652321696
 20
181.0321466613022
 30
0.0
 41
1.0
 10
-548.0122923544406
 20
180.962566322725
 30
0.0
 41
0.9996491205037429
 10
-547.962479505728
 20
180.8902464993856
 30
0.0
 41
1.0
  0
SPLINE
  5
47
330
1F
100
AcDbEntity
  8
LINEE VISIBILI 2D
100
AcDbSpline
210
0.0
220
0.0
230
1.0
 70
    12
 71
     2
 72
     6
 73
     3
 74
     0
 42
0.0000000001
 43
0.0000000001
 40
0.0
 40
0.0
 40
0.0
 40
0.0632864186926623
 40
0.0632864186926623
 40
0.0632864186926623
 10
-547.95640999685
 20
180.8892412548706
 30
0.0
 41
1.0
 10
-547.9297280533936
 20
180.9062532024435
 30
0.0
 41
0.999970212827857
 10
-547.9033118906853
 20
180.923674993816
 30
0.0
 41
1.0
  0
SPLINE
  5
48
330
1F
100
AcDbEntity
  8
LINEE VISIBILI 2D
100
AcDbSpline
210
0.0
220
0.0
230
1.0
 70
    12
 71
     2
 72
     6
 73
     3
 74
     0
 42
0.0000000001
 43
0.0000000001
 40
0.0
 40
0.0
 40
0.0
 40
0.0604952808565979
 40
0.0604952808565979
 40
0.0604952808565979
 10
-547.9033118906853
 20
180.923674993816
 30
0.0
 41
1.0
 10
-547.874150289047
 20
180.9057501444994
 30
0.0
 41
0.8342821604688412
 10
-547.8792072122555
 20
180.8718956505468
 30
0.0
 41
1.0
  0
SPLINE
  5
49
330
1F
100
AcDbEntity
  8
LINEE VISIBILI 2D
100
AcDbSpline
210
0.0
220
0.0
230
1.0
 70
    12
 71
     2
 72
     6
 73
     3
 74
     0
 42
0.0000000001
 43
0.0000000001
 40
0.0
 40
0.0
 40
0.0
 40
0.0574859002345806
 40
0.0574859002345806
 40
0.0574859002345806
 10
-547.8781903891073
 20
180.8867805355782
 30
0.0
 41
1.0
 10
-547.8761685580675
 20
180.9154745474991
 30
0.0
 41
0.9988425161462458
 10
-547.8769132621163
 20
180.9442300606533
 30
0.0
 41
1.0
  0
SPLINE
  5
4A
330
1F
100
AcDbEntity
  8
LINEE VISIBILI 2D
100
AcDbSpline
210
0.0
220
0.0
230
1.0
 70
    12
 71
     2
 72
     6
 73
     3
 74
     0
 42
0.0000000001
 43
0.0000000001
 40
0.0
 40
0.0
 40
0.0
 40
0.3264827688358309
 40
0.3264827688358309
 40
0.3264827688358309
 10
-547.8170715813713
 20
181.2868670800521
 30
0.0
 41
1.0
 10
-547.9348494376558
 20
181.173825232956
 30
0.0
 41
0.9999343422971067
 10
-548.0551869096253
 20
181.0635121536506
 30
0.0
 41
1.0
  0
SPLINE
  5
4B
330
1F
100
AcDbEntity
  8
LINEE VISIBILI 2D
100
AcDbSpline
210
0.0
220
0.0
230
1.0
 70
    12
 71
     2
 72
     6
 73
     3
 74
     0
 42
0.0000000001
 43
0.0000000001
 40
0.0
 40
0.0
 40
0.0
 40
0.0665187688802581
 40
0.0665187688802581
 40
0.0665187688802581
 10
-553.0765105676927
 20
168.9647943591926
 30
0.0
 41
1.0
 10
-553.1065537868889
 20
168.9790629658399
 30
0.0
 41
0.9999989816442369
 10
-553.1365561573302
 20
168.9934172656567
 30
0.0
 41
1.0
  0
SPLINE
  5
4C
330
1F
100
AcDbEntity
  8
LINEE VISIBILI 2D
100
AcDbSpline
210
0.0
220
0.0
230
1.0
 70
    12
 71
     2
 72
     6
 73
     3
 74
     0
 42
0.0000000001
 43
0.0000000001
 40
0.0
 40
0.0
 40
0.0
 40
1.325631939455916
 40
1.325631939455916
 40
1.325631939455916
 10
-546.7460747329592
 20
180.9092074668299
 30
0.0
 41
1.0
 10
-547.4044908106066
 20
180.9865564352093
 30
0.0
 41
0.9997106003241444
 10
-548.0658652321696
 20
181.0321466613022
 30
0.0
 41
1.0
  0
SPLINE
  5
4D
330
1F
100
AcDbEntity
  8
LINEE VISIBILI 2D
100
AcDbSpline
210
0.0
220
0.0
230
1.0
 70
    12
 71
     2
 72
     6
 73
     3
 74
     0
 42
0.0000000001
 43
0.0000000001
 40
0.0
 40
0.0
 40
0.0
 40
0.0527850245901881
 40
0.0527850245901881
 40
0.0527850245901881
 10
-546.6936657553494
 20
180.9029255727026
 30
0.0
 41
1.0
 10
-546.7198383604617
 20
180.9063325210231
 30
0.0
 41
0.9999484827779955
 10
-546.7460747329592
 20
180.9092074668299
 30
0.0
 41
1.0
  0
SPLINE
  5
4E
330
1F
100
AcDbEntity
  8
LINEE VISIBILI 2D
100
AcDbSpline
210
0.0
220
0.0
230
1.0
 70
    12
 71
     2
 72
     6
 73
     3
 74
     0
 42
0.0000000001
 43
0.0000000001
 40
0.0
 40
0.0
 40
0.0
 40
0.2743162327312774
 40
0.2743162327312774
 40
0.2743162327312774
 10
-546.3562904124485
 20
180.4682480167058
 30
0.0
 41
1.0
 10
-546.3208389152419
 20
180.6007480834549
 30
0.0
 41
0.9999709992231215
 10
-546.2874096652202
 20
180.7337727487832
 30
0.0
 41
1.0
  0
SPLINE
  5
4F
330
1F
100
AcDbEntity
  8
LINEE VISIBILI 2D
100
AcDbSpline
210
0.0
220
0.0
230
1.0
 70
    12
 71
     2
 72
     6
 73
     3
 74
     0
 42
0.0000000001
 43
0.0000000001
 40
0.0
 40
0.0
 40
0.0
 40
1.586212335380866
 40
1.586212335380866
 40
1.586212335380866
 10
-546.2447045943751
 20
181.0300179960962
 30
0.0
 41
1.0
 10
-547.0238829342009
 20
181.1787319845207
 30
0.0
 41
0.9997409421587587
 10
-547.8090218789588
 20
181.2918318210873
 30
0.0
 41
1.0
  0
SPLINE
  5
50
330
1F
100
AcDbEntity
  8
LINEE VISIBILI 2D
100
AcDbSpline
210
0.0
220
0.0
230
1.0
 70
    12
 71
     2
 72
     6
 73
     3
 74
     0
 42
0.0000000001
 43
0.0000000001
 40
0.0
 40
0.0
 40
0.0
 40
0.0906906148460148
 40
0.0906906148460148
 40
0.0906906148460148
 10
-549.2157693209126
 20
181.1477958085513
 30
0.0
 41
1.0
 10
-549.2199554727326
 20
181.1026427392363
 30
0.0
 41
0.9999538142260282
 10
-549.2232729679503
 20
181.0574175497829
 30
0.0
 41
1.0
  0
SPLINE
  5
51
330
1F
100
AcDbEntity
  8
LINEE VISIBILI 2D
100
AcDbSpline
210
0.0
220
0.0
230
1.0
 70
    12
 71
     2
 72
     6
 73
     3
 74
     0
 42
0.0000000001
 43
0.0000000001
 40
0.0
 40
0.0
 40
0.0
 40
0.1212433756785146
 40
0.1212433756785146
 40
0.1212433756785146
 10
-546.2494246390213
 20
180.8491650886873
 30
0.0
 41
1.0
 10
-546.2643417480546
 20
180.7904071645065
 30
0.0
 41
0.9999949470642929
 10
-546.2796321329757
 20
180.7317452695071
 30
0.0
 41
1.0
  0
SPLINE
  5
52
330
1F
100
AcDbEntity
  8
LINEE VISIBILI 2D
100
AcDbSpline
210
0.0
220
0.0
230
1.0
 70
    12
 71
     2
 72
     8
 73
     5
 74
     0
 42
0.0000000001
 43
0.0000000001
 40
0.0
 40
0.0
 40
0.0
 40
0.2545108818642614
 40
0.2545108818642614
 40
0.9585440655676221
 40
0.9585440655676221
 40
0.9585440655676221
 10
-554.0418760818958
 20
166.3910411099313
 30
0.0
 41
1.0
 10
-554.1728390985582
 20
166.4063762171224
 30
0.0
 41
0.9484571469856863
 10
-554.2867157182948
 20
166.3399037211319
 30
0.0
 41
1.0
 10
-554.5656227056689
 20
166.1883181403107
 30
0.0
 41
0.8785897681222175
 10
-554.7719621544463
 20
165.707293739454
 30
0.0
 41
0.8762053234569481
  0
SPLINE
  5
53
330
1F
100
AcDbEntity
  8
LINEE VISIBILI 2D
100
AcDbSpline
210
0.0
220
0.0
230
1.0
 70
     8
 71
     3
 72
    12
 73
     8
 74
     0
 42
0.0000000001
 43
0.0000000001
 40
0.0
 40
0.0
 40
0.0
 40
0.0
 40
1.253574305388709
 40
2.62146964333705
 40
5.68847934832098
 40
9.100261341756334
 40
12.72261189605054
 40
12.72261189605054
 40
12.72261189605054
 40
12.72261189605054
 10
-559.2322658498344
 20
10.94337652969332
 30
0.0
 10
-558.9225151925944
 20
11.2241031477813
 30
0.0
 10
-558.2328705517503
 20
11.76303831289751
 30
0.0
 10
-556.6050353286803
 20
12.74285630538411
 30
0.0
 10
-554.1741450988468
 20
13.7352924145193
 30
0.0
 10
-550.8933335705226
 20
14.52395168039095
 30
0.0
 10
-548.5567598495904
 20
14.77312990441587
 30
0.0
 10
-547.3508371625626
 20
14.8292534328396
 30
0.0
  0
SPLINE
  5
55
330
1F
100
AcDbEntity
  8
LINEE VISIBILI 2D
100
AcDbSpline
210
0.0
220
0.0
230
1.0
 70
    12
 71
     2
 72
     6
 73
     3
 74
     0
 42
0.0000000001
 43
0.0000000001
 40
0.0
 40
0.0
 40
0.0
 40
0.4248448965072119
 40
0.4248448965072119
 40
0.4248448965072119
 10
-472.8527542158667
 20
12.40316644206186
 30
0.0
 41
1.0
 10
-473.0640717932726
 20
12.38152395333034
 30
0.0
 41
0.9999963547198353
 10
-473.2755031628349
 20
12.36102293374196
 30
0.0
 41
1.0
  0
SPLINE
  5
5E
330
1F
100
AcDbEntity
  8
LINEE VISIBILI 2D
100
AcDbSpline
210
0.0
220
0.0
230
1.0
 70
     8
 71
     3
 72
    11
 73
     7
 74
     0
 42
0.0000000001
 43
0.0000000001
 40
0.0
 40
0.0
 40
0.0
 40
0.0
 40
1.789378516519372
 40
3.479201558324581
 40
8.69393006192611
 40
10.17985275387938
 40
10.17985275387938
 40
10.17985275387938
 40
10.17985275387938
 10
-550.3651490214252
 20
381.2175379638385
 30
0.0
 10
-550.5312858739045
 20
381.7904693268073
 30
0.0
 10
-550.8425768538587
 20
382.9074840985909
 30
0.0
 10
-551.5803657986371
 20
385.7104635515197
 30
0.0
 10
-552.1739528385905
 20
388.4442487637494
 30
0.0
 10
-552.7101175319834
 20
390.6125075464194
 30
0.0
 10
-552.8490883730361
 20
391.0881202225502
 30
0.0
  0
SPLINE
  5
5F
330
1F
100
AcDbEntity
  8
LINEE VISIBILI 2D
100
AcDbSpline
210
0.0
220
0.0
230
1.0
 70
    12
 71
     2
 72
     6
 73
     3
 74
     0
 42
0.0000000001
 43
0.0000000001
 40
0.0
 40
0.0
 40
0.0
 40
0.6155377998800241
 40
0.6155377998800241
 40
0.6155377998800241
 10
-552.8490883730361
 20
391.0881202225502
 30
0.0
 41
1.0
 10
-552.934523322679
 20
391.3839129443606
 30
0.0
 41
0.9994400626997787
 10
-553.0395502452985
 20
391.6733292715121
 30
0.0
 41
1.0
  0
SPLINE
  5
62
330
1F
100
AcDbEntity
  8
LINEE VISIBILI 2D
100
AcDbSpline
210
0.0
220
0.0
230
1.0
 70
    12
 71
     2
 72
     6
 73
     3
 74
     0
 42
0.0000000001
 43
0.0000000001
 40
0.0
 40
0.0
 40
0.0
 40
0.0650539119130006
 40
0.0650539119130006
 40
0.0650539119130006
 10
-557.7875428536335
 20
374.9596398938655
 30
0.0
 41
1.0
 10
-557.8104078811896
 20
374.9809078383834
 30
0.0
 41
0.9587523756320109
 10
-557.8103420442743
 20
375.0080015646067
 30
0.0
 41
1.0
  0
SPLINE
  5
64
330
1F
100
AcDbEntity
  8
LINEE VISIBILI 2D
100
AcDbSpline
210
0.0
220
0.0
230
1.0
 70
    24
 71
     2
 72
     6
 73
     3
 74
     0
 42
0.0000000001
 43
0.0000000001
 40
0.0
 40
0.0
 40
0.0
 40
14.89999994921587
 40
14.89999994921587
 40
14.89999994921587
 10
-538.1655438375064
 20
210.3486874802077
 30
0.0
 10
-545.6155438121144
 20
210.3486874802076
 30
0.0
 10
-553.0655437867223
 20
210.3486874802075
 30
0.0
  0
SPLINE
  5
66
330
1F
100
AcDbEntity
  8
LINEE VISIBILI 2D
100
AcDbSpline
210
0.0
220
0.0
230
1.0
 70
    24
 71
     2
 72
     6
 73
     3
 74
     0
 42
0.0000000001
 43
0.0000000001
 40
0.0
 40
0.0
 40
0.0
 40
0.4045482458213172
 40
0.4045482458213172
 40
0.4045482458213172
 10
-552.4773860893934
 20
210.8086874802074
 30
0.0
 10
-552.2751119664828
 20
210.8086874802074
 30
0.0
 10
-552.0728378435721
 20
210.8086874802074
 30
0.0
  0
SPLINE
  5
67
330
1F
100
AcDbEntity
  8
LINEE VISIBILI 2D
100
AcDbSpline
210
0.0
220
0.0
230
1.0
 70
    24
 71
     2
 72
     6
 73
     3
 74
     0
 42
0.0000000001
 43
0.0000000001
 40
0.0
 40
0.0
 40
0.0
 40
0.6656876064308613
 40
0.6656876064308613
 40
0.6656876064308613
 10
-550.6037728837799
 20
210.8086874802075
 30
0.0
 10
-550.2709290805644
 20
210.8086874802075
 30
0.0
 10
-549.938085277349
 20
210.8086874802075
 30
0.0
  0
SPLINE
  5
68
330
1F
100
AcDbEntity
  8
LINEE VISIBILI 2D
100
AcDbSpline
210
0.0
220
0.0
230
1.0
 70
    24
 71
     2
 72
     6
 73
     3
 74
     0
 42
0.0000000001
 43
0.0000000001
 40
0.0
 40
0.0
 40
0.0
 40
1.419649113346739
 40
1.419649113346739
 40
1.419649113346739
 10
-547.0874811976233
 20
210.8086874802075
 30
0.0
 10
-546.3776566409499
 20
210.8086874802075
 30
0.0
 10
-545.6678320842765
 20
210.8086874802075
 30
0.0
  0
SPLINE
  5
69
330
1F
100
AcDbEntity
  8
LINEE VISIBILI 2D
100
AcDbSpline
210
0.0
220
0.0
230
1.0
 70
    24
 71
     2
 72
     6
 73
     3
 74
     0
 42
0.0000000001
 43
0.0000000001
 40
0.0
 40
0.0
 40
0.0
 40
0.3503237570645439
 40
0.3503237570645439
 40
0.3503237570645439
 10
-545.6333408006011
 20
210.8086874802075
 30
0.0
 10
-545.4581789220688
 20
210.8086874802075
 30
0.0
 10
-545.2830170435365
 20
210.8086874802075
 30
0.0
  0
SPLINE
  5
6A
330
1F
100
AcDbEntity
  8
LINEE VISIBILI 2D
100
AcDbSpline
210
0.0
220
0.0
230
1.0
 70
    24
 71
     2
 72
     6
 73
     3
 74
     0
 42
0.0000000001
 43
0.0000000001
 40
0.0
 40
0.0
 40
0.0
 40
0.9684909050083412
 40
0.9684909050083412
 40
0.9684909050083412
 10
-545.2364825333378
 20
210.8086874802075
 30
0.0
 10
-544.7522370808336
 20
210.8086874802075
 30
0.0
 10
-544.2679916283294
 20
210.8086874802075
 30
0.0
  0
SPLINE
  5
6C
330
1F
100
AcDbEntity
  8
LINEE VISIBILI 2D
100
AcDbSpline
210
0.0
220
0.0
230
1.0
 70
    24
 71
     2
 72
     6
 73
     3
 74
     0
 42
0.0000000001
 43
0.0000000001
 40
0.0
 40
0.0
 40
0.0
 40
14.89999999605444
 40
14.89999999605444
 40
14.89999999605444
 10
-553.0655437867223
 20
210.3486874802075
 30
0.0
 10
-560.5155437847496
 20
210.3486874802076
 30
0.0
 10
-567.9655437827769
 20
210.3486874802078
 30
0.0
  0
SPLINE
  5
6D
330
1F
100
AcDbEntity
  8
LINEE VISIBILI 2D
100
AcDbSpline
210
0.0
220
0.0
230
1.0
 70
    12
 71
     2
 72
     6
 73
     3
 74
     0
 42
0.0000000001
 43
0.0000000001
 40
0.0
 40
0.0
 40
0.0
 40
1.289437359386334
 40
1.289437359386334
 40
1.289437359386334
 10
-556.7945463660625
 20
374.1402494101286
 30
0.0
 41
1.0
 10
-557.3309017956994
 20
374.501642839442
 30
0.0
 41
0.9953011456958405
 10
-557.7875428536335
 20
374.9596398938655
 30
0.0
 41
1.0
  0
SPLINE
  5
6E
330
1F
100
AcDbEntity
  8
LINEE VISIBILI 2D
100
AcDbSpline
210
0.0
220
0.0
230
1.0
 70
     8
 71
     3
 72
    15
 73
    11
 74
     0
 42
0.0000000001
 43
0.0000000001
 40
0.0
 40
0.0
 40
0.0
 40
0.0
 40
3.311961150929077
 40
7.204196147865283
 40
12.35108620490255
 40
14.09349771256048
 40
15.41594236878643
 40
16.35654026333635
 40
16.67182557585846
 40
16.89137936420307
 40
16.89137936420307
 40
16.89137936420307
 40
16.89137936420307
 10
-483.0505174302238
 20
14.43841298884122
 30
0.0
 10
-484.1527219265018
 20
14.37576745135363
 30
0.0
 10
-486.5497206149107
 20
14.23006175109452
 30
0.0
 10
-490.6580190014
 20
13.96255742985907
 30
0.0
 10
-494.2428984206054
 20
13.70721111794388
 30
0.0
 10
-496.9687361621693
 20
13.45531341283156
 30
0.0
 10
-498.2948886214909
 20
13.30058367982827
 30
0.0
 10
-499.1447832843359
 20
13.17004400883938
 30
0.0
 10
-499.6241646466741
 20
13.05854603851963
 30
0.0
 10
-499.7933225537859
 20
13.00104292017048
 30
0.0
 10
-499.8592260461008
 20
12.96902046772724
 30
0.0
  0
SPLINE
  5
73
330
1F
100
AcDbEntity
  8
LINEE VISIBILI 2D
100
AcDbSpline
210
0.0
220
0.0
230
1.0
 70
     8
 71
     3
 72
    12
 73
     8
 74
     0
 42
0.0000000001
 43
0.0000000001
 40
0.0
 40
0.0
 40
0.0
 40
0.0
 40
1.035666355115526
 40
2.123296554556333
 40
4.888784351549888
 40
8.241447782437367
 40
12.20279081868532
 40
12.20279081868532
 40
12.20279081868532
 40
12.20279081868532
 10
-461.198987624123
 20
384.4255830379751
 30
0.0
 10
-461.2315950845506
 20
384.769571983823
 30
0.0
 10
-461.4212535486961
 20
385.4593473467534
 30
0.0
 10
-462.2848868056776
 20
386.8604457415437
 30
0.0
 10
-464.1396307581299
 20
388.4332646612762
 30
0.0
 10
-467.1334239936276
 20
389.9760506623472
 30
0.0
 10
-469.4553894305021
 20
390.7487125137341
 30
0.0
 10
-470.73029910469
 20
391.0881202225502
 30
0.0
  0
SPLINE
  5
74
330
1F
100
AcDbEntity
  8
LINEE VISIBILI 2D
100
AcDbSpline
210
0.0
220
0.0
230
1.0
 70
    12
 71
     2
 72
     6
 73
     3
 74
     0
 42
0.0000000001
 43
0.0000000001
 40
0.0
 40
0.0
 40
0.0
 40
12.4028498221534
 40
12.4028498221534
 40
12.4028498221534
 10
-474.4590117167292
 20
28.22064660285873
 30
0.0
 41
1.0
 10
-468.6589646763123
 20
25.11179943222975
 30
0.0
 41
0.9157507457000653
 10
-467.0186693462901
 20
18.73881679992295
 30
0.0
 41
1.0
  0
SPLINE
  5
75
330
1F
100
AcDbEntity
  8
LINEE VISIBILI 2D
100
AcDbSpline
210
0.0
220
0.0
230
1.0
 70
     8
 71
     3
 72
    12
 73
     8
 74
     0
 42
0.0000000001
 43
0.0000000001
 40
0.0
 40
0.0
 40
0.0
 40
0.0
 40
1.136298158826856
 40
2.267124718145431
 40
4.643891272866977
 40
7.025892990428723
 40
10.3496026099006
 40
10.3496026099006
 40
10.3496026099006
 40
10.3496026099006
 10
-501.8433071668076
 20
13.30397234870694
 30
0.0
 10
-501.5989222705171
 20
13.64729776848557
 30
0.0
 10
-501.1254052083301
 20
14.24002155344856
 30
0.0
 10
-500.0239975073196
 20
15.32673072639801
 30
0.0
 10
-498.4359203150428
 20
16.50299939938978
 30
0.0
 10
-495.9816114313346
 20
17.63463854723595
 30
0.0
 10
-494.160553665891
 20
18.19250825051249
 30
0.0
 10
-493.1006679718302
 20
18.51355286880886
 30
0.0
  0
SPLINE
  5
77
330
1F
100
AcDbEntity
  8
LINEE VISIBILI 2D
100
AcDbSpline
210
0.0
220
0.0
230
1.0
 70
    12
 71
     2
 72
     6
 73
     3
 74
     0
 42
0.0000000001
 43
0.0000000001
 40
0.0
 40
0.0
 40
0.0
 40
0.7021194111021729
 40
0.7021194111021729
 40
0.7021194111021729
 10
-483.047302519716
 20
15.37766449477965
 30
0.0
 41
1.0
 10
-482.6968334924911
 20
15.39802163526372
 30
0.0
 41
0.9999997848702799
 10
-482.3463914730369
 20
15.41883853256626
 30
0.0
 41
1.0
  0
SPLINE
  5
78
330
1F
100
AcDbEntity
  8
LINEE VISIBILI 2D
100
AcDbSpline
210
0.0
220
0.0
230
1.0
 70
    12
 71
     2
 72
     6
 73
     3
 74
     0
 42
0.0000000001
 43
0.0000000001
 40
0.0
 40
0.0
 40
0.0
 40
1.592077182515046
 40
1.592077182515046
 40
1.592077182515046
 10
-481.6375801455676
 20
15.46106235365744
 30
0.0
 41
1.0
 10
-480.8429717200694
 20
15.50876535208329
 30
0.0
 41
0.9999991867002721
 10
-480.0398914042086
 20
15.55485484494826
 30
0.0
 41
1.0
  0
SPLINE
  5
79
330
1F
100
AcDbEntity
  8
LINEE VISIBILI 2D
100
AcDbSpline
210
0.0
220
0.0
230
1.0
 70
    12
 71
     2
 72
     8
 73
     5
 74
     0
 42
0.0000000001
 43
0.0000000001
 40
0.0
 40
0.0
 40
0.0
 40
12.92587138886809
 40
12.92587138886809
 40
25.85174277773619
 40
25.85174277773619
 40
25.85174277773619
 10
-496.3483031130315
 20
17.42270873248363
 30
0.0
 41
1.0
 10
-495.2346647383538
 20
24.22715746454676
 30
0.0
 41
0.9086060416545155
 10
-489.3451940731166
 20
27.81252331200767
 30
0.0
 41
1.0
 10
-483.4557234078792
 20
31.39788915946857
 30
0.0
 41
0.9086060416545155
 10
-476.8997411526991
 20
29.26251808010231
 30
0.0
 41
1.0
  0
SPLINE
  5
7A
330
1F
100
AcDbEntity
  8
LINEE VISIBILI 2D
100
AcDbSpline
210
0.0
220
0.0
230
1.0
 70
    12
 71
     2
 72
     6
 73
     3
 74
     0
 42
0.0000000001
 43
0.0000000001
 40
0.0
 40
0.0
 40
0.0
 40
0.0747533096716779
 40
0.0747533096716779
 40
0.0747533096716779
 10
-483.0511997118057
 20
391.7251815404044
 30
0.0
 41
1.0
 10
-483.0537134052788
 20
391.7626572473731
 30
0.0
 41
0.9926973022767533
 10
-483.0471784326686
 20
391.7996442910596
 30
0.0
 41
1.0
  0
SPLINE
  5
7B
330
1F
100
AcDbEntity
  8
LINEE VISIBILI 2D
100
AcDbSpline
210
0.0
220
0.0
230
1.0
 70
    12
 71
     2
 72
     6
 73
     3
 74
     0
 42
0.0000000001
 43
0.0000000001
 40
0.0
 40
0.0
 40
0.0
 40
1.58945476379874
 40
1.58945476379874
 40
1.58945476379874
 10
-483.0471784326686
 20
391.7996442910596
 30
0.0
 41
1.0
 10
-482.2545716452538
 20
391.859150479423
 30
0.0
 41
0.9997923731572029
 10
-481.4601984773291
 20
391.8863125115771
 30
0.0
 41
1.0
  0
SPLINE
  5
7C
330
1F
100
AcDbEntity
  8
LINEE VISIBILI 2D
100
AcDbSpline
210
0.0
220
0.0
230
1.0
 70
    24
 71
     2
 72
     6
 73
     3
 74
     0
 42
0.0000000001
 43
0.0000000001
 40
0.0
 40
0.0
 40
0.0
 40
0.0101120244267686
 40
0.0101120244267686
 40
0.0101120244267686
 10
-483.0419436224489
 20
391.2757648813761
 30
0.0
 10
-483.0419383816597
 20
391.2808208908733
 30
0.0
 10
-483.0419331408705
 20
391.2858769003705
 30
0.0
  0
SPLINE
  5
7E
330
1F
100
AcDbEntity
  8
LINEE VISIBILI 2D
100
AcDbSpline
210
0.0
220
0.0
230
1.0
 70
    12
 71
     2
 72
     6
 73
     3
 74
     0
 42
0.0000000001
 43
0.0000000001
 40
0.0
 40
0.0
 40
0.0
 40
0.4381101615437484
 40
0.4381101615437484
 40
0.4381101615437484
 10
-483.0513157588256
 20
391.723912927736
 30
0.0
 41
1.0
 10
-483.0498330534997
 20
391.5048625988296
 30
0.0
 41
0.9999981776102469
 10
-483.0475139695319
 20
391.2858195280454
 30
0.0
 41
1.0
  0
SPLINE
  5
7F
330
1F
100
AcDbEntity
  8
LINEE VISIBILI 2D
100
AcDbSpline
210
0.0
220
0.0
230
1.0
 70
    12
 71
     2
 72
     6
 73
     3
 74
     0
 42
0.0000000001
 43
0.0000000001
 40
0.0
 40
0.0
 40
0.0
 40
0.4525178016033956
 40
0.4525178016033956
 40
0.4525178016033956
 10
-483.0474101028106
 20
391.2757394958883
 30
0.0
 41
1.0
 10
-483.0450194904654
 20
391.0494932160663
 30
0.0
 41
0.9999999418561737
 10
-483.0424745743105
 20
390.8232486193075
 30
0.0
 41
1.0
  0
SPLINE
  5
80
330
1F
100
AcDbEntity
  8
LINEE VISIBILI 2D
100
AcDbSpline
210
0.0
220
0.0
230
1.0
 70
    12
 71
     2
 72
     6
 73
     3
 74
     0
 42
0.0000000001
 43
0.0000000001
 40
0.0
 40
0.0
 40
0.0
 40
0.3406618379373953
 40
0.3406618379373953
 40
0.3406618379373953
 10
-483.0424745743106
 20
390.8232486193075
 30
0.0
 41
1.0
 10
-483.2121971872393
 20
390.8087837789783
 30
0.0
 41
0.9999386095087478
 10
-483.3815575887293
 20
390.7905615027155
 30
0.0
 41
1.0
  0
SPLINE
  5
81
330
1F
100
AcDbEntity
  8
LINEE VISIBILI 2D
100
AcDbSpline
210
0.0
220
0.0
230
1.0
 70
    12
 71
     2
 72
     6
 73
     3
 74
     0
 42
0.0000000001
 43
0.0000000001
 40
0.0
 40
0.0
 40
0.0
 40
0.0630753856907243
 40
0.0630753856907243
 40
0.0630753856907243
 10
-483.3815575887293
 20
390.7905615027155
 30
0.0
 41
1.0
 10
-483.4127665405194
 20
390.7860194858163
 30
0.0
 41
0.9999981002925256
 10
-483.4439575485215
 20
390.7813558381927
 30
0.0
 41
1.0
  0
SPLINE
  5
82
330
1F
100
AcDbEntity
  8
LINEE VISIBILI 2D
100
AcDbSpline
210
0.0
220
0.0
230
1.0
 70
    12
 71
     2
 72
     6
 73
     3
 74
     0
 42
0.0000000001
 43
0.0000000001
 40
0.0
 40
0.0
 40
0.0
 40
0.048576620288419
 40
0.048576620288419
 40
0.048576620288419
 10
-483.4439575485215
 20
390.7813558381927
 30
0.0
 41
1.0
 10
-483.4679781598897
 20
390.7777595701242
 30
0.0
 41
0.9999988496008926
 10
-483.4919877508268
 20
390.7740904479462
 30
0.0
 41
1.0
  0
SPLINE
  5
84
330
1F
100
AcDbEntity
  8
LINEE VISIBILI 2D
100
AcDbSpline
210
0.0
220
0.0
230
1.0
 70
    12
 71
     2
 72
    14
 73
    11
 74
     0
 42
0.0000000001
 43
0.0000000001
 40
0.0
 40
0.0
 40
0.0
 40
0.1044729399412855
 40
0.1044729399412855
 40
0.189596955749391
 40
0.189596955749391
 40
0.230961267921327
 40
0.230961267921327
 40
0.2891091751784071
 40
0.2891091751784071
 40
0.4102502998991107
 40
0.4102502998991107
 40
0.4102502998991107
 10
-473.342438964245
 20
391.6733292715116
 30
0.0
 41
1.0
 10
-473.3938785463267
 20
391.6824187264152
 30
0.0
 41
0.9999999999574813
 10
-473.4453179607608
 20
391.6915091300259
 30
0.0
 41
1.0
 10
-473.4872305750994
 20
391.6989159296428
 30
0.0
 41
1.0
 10
-473.5291431694653
 20
391.7063226124593
 30
0.0
 41
1.0
 10
-473.549509917113
 20
391.7099215608732
 30
0.0
 41
1.0
 10
-473.5698765036846
 20
391.713520690182
 30
0.0
 41
1.0
 10
-473.5985068903241
 20
391.7185804819613
 30
0.0
 41
1.0
 10
-473.627137231914
 20
391.7236399601994
 30
0.0
 41
1.0
 10
-473.6867771763343
 20
391.734217365135
 30
0.0
 41
0.9999982185590889
 10
-473.7464565692163
 20
391.744569746708
 30
0.0
 41
1.0
  0
SPLINE
  5
85
330
1F
100
AcDbEntity
  8
LINEE VISIBILI 2D
100
AcDbSpline
210
0.0
220
0.0
230
1.0
 70
    12
 71
     2
 72
     8
 73
     5
 74
     0
 42
0.0000000001
 43
0.0000000001
 40
0.0
 40
0.0
 40
0.0
 40
3.149093785623211
 40
3.149093785623211
 40
6.329839541701892
 40
6.329839541701892
 40
6.329839541701892
 10
-473.7464565692163
 20
391.744569746708
 30
0.0
 41
1.0
 10
-475.2996283295873
 20
392.0088178669121
 30
0.0
 41
0.999102068483087
 10
-476.8695953080098
 20
392.1406255787799
 30
0.0
 41
1.0
 10
-478.4550755489997
 20
392.2759482734954
 30
0.0
 41
0.9991783336296913
 10
-480.046307154488
 20
392.282413872457
 30
0.0
 41
1.0
  0
SPLINE
  5
86
330
1F
100
AcDbEntity
  8
LINEE VISIBILI 2D
100
AcDbSpline
210
0.0
220
0.0
230
1.0
 70
    24
 71
     2
 72
     6
 73
     3
 74
     0
 42
0.0000000001
 43
0.0000000001
 40
0.0
 40
0.0
 40
0.0
 40
0.3032336966638809
 40
0.3032336966638809
 40
0.3032336966638809
 10
-488.5601033825833
 20
378.6868615854025
 30
0.0
 10
-488.5601033825833
 20
378.8384784337344
 30
0.0
 10
-488.5601033825833
 20
378.9900952820663
 30
0.0
  0
SPLINE
  5
87
330
1F
100
AcDbEntity
  8
LINEE VISIBILI 2D
100
AcDbSpline
210
0.0
220
0.0
230
1.0
 70
    12
 71
     2
 72
     6
 73
     3
 74
     0
 42
0.0000000001
 43
0.0000000001
 40
0.0
 40
0.0
 40
0.0
 40
0.9178983705915293
 40
0.9178983705915293
 40
0.9178983705915293
 10
-488.5601033825833
 20
378.9900952820663
 30
0.0
 41
1.0
 10
-488.125474458087
 20
378.8424493217187
 30
0.0
 41
0.9997605234382668
 10
-487.6848012889312
 20
378.7139627870066
 30
0.0
 41
1.0
  0
SPLINE
  5
88
330
1F
100
AcDbEntity
  8
LINEE VISIBILI 2D
100
AcDbSpline
210
0.0
220
0.0
230
1.0
 70
    12
 71
     2
 72
     6
 73
     3
 74
     0
 42
0.0000000001
 43
0.0000000001
 40
0.0
 40
0.0
 40
0.0
 40
4.731918910076221
 40
4.731918910076221
 40
4.731918910076221
 10
-487.6848012889312
 20
378.7139627870066
 30
0.0
 41
1.0
 10
-485.409304307381
 20
378.0448092907405
 30
0.0
 41
0.9962814633380308
 10
-483.0527130408796
 20
377.776238039006
 30
0.0
 41
1.0
  0
SPLINE
  5
89
330
1F
100
AcDbEntity
  8
LINEE VISIBILI 2D
100
AcDbSpline
210
0.0
220
0.0
230
1.0
 70
    12
 71
     2
 72
     6
 73
     3
 74
     0
 42
0.0000000001
 43
0.0000000001
 40
0.0
 40
0.0
 40
0.0
 40
2.995865562072869
 40
2.995865562072869
 40
2.995865562072869
 10
-483.0527130408796
 20
377.776238039006
 30
0.0
 41
1.0
 10
-481.5616568550035
 20
377.6220436967989
 30
0.0
 41
0.9989245965056252
 10
-480.0627283121007
 20
377.6066272160936
 30
0.0
 41
1.0
  0
SPLINE
  5
8A
330
1F
100
AcDbEntity
  8
LINEE VISIBILI 2D
100
AcDbSpline
210
0.0
220
0.0
230
1.0
 70
    12
 71
     2
 72
     6
 73
     3
 74
     0
 42
0.0000000001
 43
0.0000000001
 40
0.0
 40
0.0
 40
0.0
 40
1.739727286642476
 40
1.739727286642476
 40
1.739727286642476
 10
-480.0527969773678
 20
377.6064486226596
 30
0.0
 41
1.0
 10
-479.1828137987979
 20
377.5943262398869
 30
0.0
 41
0.9996483609051484
 10
-478.3134114116056
 20
377.6283434752683
 30
0.0
 41
1.0
  0
SPLINE
  5
8E
330
1F
100
AcDbEntity
  8
LINEE VISIBILI 2D
100
AcDbSpline
210
0.0
220
0.0
230
1.0
 70
    12
 71
     2
 72
     6
 73
     3
 74
     0
 42
0.0000000001
 43
0.0000000001
 40
0.0
 40
0.0
 40
0.0
 40
0.829511075802684
 40
0.829511075802684
 40
0.829511075802684
 10
-500.6127049066226
 20
381.2138263400133
 30
0.0
 41
1.0
 10
-500.895861903455
 20
381.5178587441072
 30
0.0
 41
0.9974300297497892
 10
-501.1326575818666
 20
381.8592403403897
 30
0.0
 41
1.0
  0
SPLINE
  5
90
330
1F
100
AcDbEntity
  8
LINEE VISIBILI 2D
100
AcDbSpline
210
0.0
220
0.0
230
1.0
 70
    12
 71
     2
 72
     6
 73
     3
 74
     0
 42
0.0000000001
 43
0.0000000001
 40
0.0
 40
0.0
 40
0.0
 40
1.501318648510594
 40
1.501318648510594
 40
1.501318648510594
 10
-481.5419559836443
 20
372.9844618293803
 30
0.0
 41
1.0
 10
-482.2928736603402
 20
372.985697521376
 30
0.0
 41
0.9994819768531796
 10
-483.0421562725045
 20
373.0352399397431
 30
0.0
 41
1.0
  0
SPLINE
  5
92
330
1F
100
AcDbEntity
  8
LINEE VISIBILI 2D
100
AcDbSpline
210
0.0
220
0.0
230
1.0
 70
    12
 71
     2
 72
     6
 73
     3
 74
     0
 42
0.0000000001
 43
0.0000000001
 40
0.0
 40
0.0
 40
0.0
 40
1.500501416571029
 40
1.500501416571029
 40
1.500501416571029
 10
-480.0425675771339
 20
373.0352412526239
 30
0.0
 41
1.0
 10
-480.7914533045874
 20
372.9859792878955
 30
0.0
 41
0.9994934079071905
 10
-481.5419559836443
 20
372.9844618293803
 30
0.0
 41
1.0
  0
SPLINE
  5
93
330
1F
100
AcDbEntity
  8
LINEE VISIBILI 2D
100
AcDbSpline
210
0.0
220
0.0
230
1.0
 70
    12
 71
     2
 72
    30
 73
    27
 74
     0
 42
0.0000000001
 43
0.0000000001
 40
0.0
 40
0.0
 40
0.0
 40
2.557335337807172
 40
2.557335337807172
 40
3.907953436068902
 40
3.907953436068902
 40
5.248546028472252
 40
5.248546028472252
 40
7.926614910450618
 40
7.926614910450618
 40
9.280023510837185
 40
9.280023510837185
 40
10.63241579452377
 40
10.63241579452377
 40
11.97403930203352
 40
11.97403930203352
 40
12.64627867696028
 40
12.64627867696028
 40
13.31367033857473
 40
13.31367033857473
 40
13.97724509013283
 40
13.97724509013283
 40
14.6411808148158
 40
14.6411808148158
 40
15.97761070118927
 40
15.97761070118927
 40
16.45663716229546
 40
16.45663716229546
 40
16.45663716229546
 10
-483.4866990103785
 20
390.7589904708585
 30
0.0
 41
1.0
 10
-484.7534447612783
 20
390.5677649287708
 30
0.0
 41
0.9971568609976511
 10
-485.9770676503644
 20
390.1883455952165
 30
0.0
 41
1.0
 10
-486.6226944231626
 20
389.9892511321078
 30
0.0
 41
0.999293111941523
 10
-487.2515375365619
 20
389.7422109051727
 30
0.0
 41
1.0
 10
-487.8757344822277
 20
389.4970543766939
 30
0.0
 41
0.9992888366757847
 10
-488.4796813292986
 20
389.2055552234399
 30
0.0
 41
1.0
 10
-489.6902551812556
 20
388.6258922979187
 30
0.0
 41
0.9964671352171933
 10
-490.7867316704058
 20
387.8517879980942
 30
0.0
 41
1.0
 10
-491.3398010311827
 20
387.460695760287
 30
0.0
 41
0.9985122363190022
 10
-491.8469939139951
 20
387.0117032927245
 30
0.0
 41
1.0
 10
-492.3550678437424
 20
386.5637754114764
 30
0.0
 41
0.9974866756029886
 10
-492.7947246737317
 20
386.0485275325558
 30
0.0
 41
1.0
 10
-493.2339474853892
 20
385.538164414489
 30
0.0
 41
0.9943766143189698
 10
-493.555829725498
 20
384.9467432328714
 30
0.0
 41
1.0
 10
-493.7154828524637
 20
384.6502261883671
 30
0.0
 41
0.9971228020369819
 10
-493.8284766968315
 20
384.3329820083314
 30
0.0
 41
1.0
 10
-493.9408878519992
 20
384.0176206645812
 30
0.0
 41
0.9950736050028783
 10
-493.9888682290608
 20
383.686279558838
 30
0.0
 41
1.0
 10
-494.0362594831846
 20
383.3562075763086
 30
0.0
 41
0.9925072153441545
 10
-494.0021796850002
 20
383.0244968409166
 30
0.0
 41
1.0
 10
-493.9659747609709
 20
382.6927704105448
 30
0.0
 41
0.9922485662394645
 10
-493.8490805066327
 20
382.3802180878307
 30
0.0
 41
1.0
 10
-493.6039923562192
 20
381.7504344750176
 30
0.0
 41
0.9832651299386093
 10
-493.1495447135798
 20
381.2502615643751
 30
0.0
 41
1.0
 10
-492.9905972653009
 20
381.0708695717064
 30
0.0
 41
0.9989660666504358
 10
-492.8160126517393
 20
380.906656322985
 30
0.0
 41
1.0
  0
SPLINE
  5
94
330
1F
100
AcDbEntity
  8
LINEE VISIBILI 2D
100
AcDbSpline
210
0.0
220
0.0
230
1.0
 70
    12
 71
     2
 72
     6
 73
     3
 74
     0
 42
0.0000000001
 43
0.0000000001
 40
0.0
 40
0.0
 40
0.0
 40
0.0135415555682462
 40
0.0135415555682462
 40
0.0135415555682462
 10
-481.4398249286933
 20
391.8632338067106
 30
0.0
 41
1.0
 10
-481.4465938544344
 20
391.8630669719851
 30
0.0
 41
0.9999548863392451
 10
-481.4533583894366
 20
391.8627715811878
 30
0.0
 41
1.0
  0
SPLINE
  5
95
330
1F
100
AcDbEntity
  8
LINEE VISIBILI 2D
100
AcDbSpline
210
0.0
220
0.0
230
1.0
 70
    12
 71
     2
 72
     6
 73
     3
 74
     0
 42
0.0000000001
 43
0.0000000001
 40
0.0
 40
0.0
 40
0.0
 40
0.0251541742110623
 40
0.0251541742110623
 40
0.0251541742110623
 10
-481.4533583894366
 20
391.8627715811878
 30
0.0
 41
1.0
 10
-481.4519110513618
 20
391.875956320172
 30
0.0
 41
0.9241043289871248
 10
-481.4601984773291
 20
391.8863125115771
 30
0.0
 41
1.0
  0
SPLINE
  5
96
330
1F
100
AcDbEntity
  8
LINEE VISIBILI 2D
100
AcDbSpline
210
0.0
220
0.0
230
1.0
 70
    12
 71
     2
 72
     6
 73
     3
 74
     0
 42
0.0000000001
 43
0.0000000001
 40
0.0
 40
0.0
 40
0.0
 40
0.4047798170163039
 40
0.4047798170163039
 40
0.4047798170163039
 10
-482.6418408754263
 20
390.8809822604299
 30
0.0
 41
1.0
 10
-482.8424644655874
 20
390.8542440197804
 30
0.0
 41
0.9999435481492991
 10
-483.0424745743106
 20
390.8232486193075
 30
0.0
 41
1.0
  0
SPLINE
  5
9C
330
1F
100
AcDbEntity
  8
LINEE VISIBILI 2D
100
AcDbSpline
210
0.0
220
0.0
230
1.0
 70
    12
 71
     2
 72
     6
 73
     3
 74
     0
 42
0.0000000001
 43
0.0000000001
 40
0.0
 40
0.0
 40
0.0
 40
0.9243084052423704
 40
0.9243084052423704
 40
0.9243084052423704
 10
-499.2441978490838
 20
379.9511352434735
 30
0.0
 41
1.0
 10
-499.6207292353706
 20
380.2440661948746
 30
0.0
 41
0.9991468022873105
 10
-499.9624555708361
 20
380.5555992810637
 30
0.0
 41
1.0
  0
SPLINE
  5
9D
330
1F
100
AcDbEntity
  8
LINEE VISIBILI 2D
100
AcDbSpline
210
0.0
220
0.0
230
1.0
 70
    12
 71
     2
 72
     6
 73
     3
 74
     0
 42
0.0000000001
 43
0.0000000001
 40
0.0
 40
0.0
 40
0.0
 40
0.7523637577504834
 40
0.7523637577504834
 40
0.7523637577504834
 10
-500.0893409403282
 20
380.6736669022927
 30
0.0
 41
1.0
 10
-500.3629786193794
 20
380.9321626702093
 30
0.0
 41
0.9990216413902263
 10
-500.6127049066226
 20
381.2138263400133
 30
0.0
 41
1.0
  0
SPLINE
  5
9E
330
1F
100
AcDbEntity
  8
LINEE VISIBILI 2D
100
AcDbSpline
210
0.0
220
0.0
230
1.0
 70
    12
 71
     2
 72
     6
 73
     3
 74
     0
 42
0.0000000001
 43
0.0000000001
 40
0.0
 40
0.0
 40
0.0
 40
0.1188055794755539
 40
0.1188055794755539
 40
0.1188055794755539
 10
-462.4734922453357
 20
380.8160214209264
 30
0.0
 41
1.0
 10
-462.5126822779662
 20
380.7713788496005
 30
0.0
 41
0.9999731347039016
 10
-462.5525225476694
 20
380.7273155911857
 30
0.0
 41
1.0
  0
SPLINE
  5
9F
330
1F
100
AcDbEntity
  8
LINEE VISIBILI 2D
100
AcDbSpline
210
0.0
220
0.0
230
1.0
 70
    24
 71
     2
 72
     6
 73
     3
 74
     0
 42
0.0000000001
 43
0.0000000001
 40
0.0
 40
0.0
 40
0.0
 40
11.83431456936967
 40
11.83431456936967
 40
11.83431456936967
 10
-541.2312292173526
 20
209.2289101368687
 30
0.0
 10
-547.1483865020375
 20
209.2289101368686
 30
0.0
 10
-553.0655437867223
 20
209.2289101368685
 30
0.0
  0
SPLINE
  5
A0
330
1F
100
AcDbEntity
  8
LINEE VISIBILI 2D
100
AcDbSpline
210
0.0
220
0.0
230
1.0
 70
    24
 71
     2
 72
     6
 73
     3
 74
     0
 42
0.0000000001
 43
0.0000000001
 40
0.0
 40
0.0
 40
0.0
 40
0.4502226566612251
 40
0.4502226566612251
 40
0.4502226566612251
 10
-562.5655437867224
 20
209.2289101368687
 30
0.0
 10
-562.5655437867224
 20
209.0037988085381
 30
0.0
 10
-562.5655437867224
 20
208.7786874802075
 30
0.0
  0
SPLINE
  5
A1
330
1F
100
AcDbEntity
  8
LINEE VISIBILI 2D
100
AcDbSpline
210
0.0
220
0.0
230
1.0
 70
    24
 71
     2
 72
     6
 73
     3
 74
     0
 42
0.0000000001
 43
0.0000000001
 40
0.0
 40
0.0
 40
0.0
 40
0.4502226566609693
 40
0.4502226566609693
 40
0.4502226566609693
 10
-557.3155437867224
 20
209.2289101368685
 30
0.0
 10
-557.3155437867224
 20
209.003798808538
 30
0.0
 10
-557.3155437867224
 20
208.7786874802076
 30
0.0
  0
SPLINE
  5
A2
330
1F
100
AcDbEntity
  8
LINEE VISIBILI 2D
100
AcDbSpline
210
0.0
220
0.0
230
1.0
 70
     8
 71
     3
 72
    18
 73
    14
 74
     0
 42
0.0000000001
 43
0.0000000001
 40
0.0
 40
0.0
 40
0.0
 40
0.0
 40
1.669734369098679
 40
3.535270140442604
 40
7.82069789953366
 40
12.59865743712887
 40
17.4943515734205
 40
22.06852868332634
 40
26.08381554639695
 40
27.77587893441902
 40
29.2732483433592
 40
30.60755195843915
 40
31.8424185324216
 40
31.8424185324216
 40
31.8424185324216
 40
31.8424185324216
 10
-533.1228635081812
 20
4.155475204106964
 30
0.0
 10
-533.5193698268937
 20
3.764341271856979
 30
0.0
 10
-534.4422079088178
 20
3.025350629759647
 30
0.0
 10
-536.7201105888765
 20
1.740380038532459
 30
0.0
 10
-540.1965009391965
 20
0.5827291575806413
 30
0.0
 10
-544.8167930709429
 20
-0.0741375115578636
 30
0.0
 10
-549.5821342904625
 20
0.0164224206551489
 30
0.0
 10
-554.0163124994531
 20
0.8417049066864134
 30
0.0
 10
-557.2200325011167
 20
2.132134392935628
 30
0.0
 10
-559.1894928437616
 20
3.525820279579134
 30
0.0
 10
-560.2309537212309
 20
4.627944293633365
 30
0.0
 10
-560.8956644598305
 20
5.825101868162116
 30
0.0
 10
-561.0601260745238
 20
6.678123058293627
 30
0.0
 10
-561.0670027853477
 20
7.089510786671873
 30
0.0
  0
SPLINE
  5
A3
330
1F
100
AcDbEntity
  8
LINEE VISIBILI 2D
100
AcDbSpline
210
0.0
220
0.0
230
1.0
 70
     8
 71
     3
 72
    11
 73
     7
 74
     0
 42
0.0000000001
 43
0.0000000001
 40
0.0
 40
0.0
 40
0.0
 40
0.0
 40
0.4743263003248512
 40
0.9499157289448897
 40
1.943218537313082
 40
4.194588872897853
 40
4.194588872897853
 40
4.194588872897853
 40
4.194588872897853
 10
-561.0710250661425
 20
7.316099072020437
 30
0.0
 10
-561.0741148810323
 20
7.474104453456147
 30
0.0
 10
-561.0582893765124
 20
7.791259609868281
 30
0.0
 10
-560.9460210350922
 20
8.430016872634249
 30
0.0
 10
-560.498691639084
 20
9.598007699163751
 30
0.0
 10
-559.7857242424819
 20
10.44017418357566
 30
0.0
 10
-559.2322658498345
 20
10.9433765296933
 30
0.0
  0
SPLINE
  5
A4
330
1F
100
AcDbEntity
  8
LINEE VISIBILI 2D
100
AcDbSpline
210
0.0
220
0.0
230
1.0
 70
    24
 71
     2
 72
     6
 73
     3
 74
     0
 42
0.0000000001
 43
0.0000000001
 40
0.0
 40
0.0
 40
0.0
 40
152.6539912023443
 40
152.6539912023443
 40
152.6539912023443
 10
-546.6733388956795
 20
160.4387219966517
 30
0.0
 10
-545.9921435395374
 20
84.11476618729833
 30
0.0
 10
-545.3109481833954
 20
7.790810377944962
 30
0.0
  0
SPLINE
  5
A5
330
1F
100
AcDbEntity
  8
LINEE VISIBILI 2D
100
AcDbSpline
210
0.0
220
0.0
230
1.0
 70
    24
 71
     2
 72
     6
 73
     3
 74
     0
 42
0.0000000001
 43
0.0000000001
 40
0.0
 40
0.0
 40
0.0
 40
152.6786628045279
 40
152.6786628045279
 40
152.6786628045279
 10
-547.2799917307339
 20
7.764053433934316
 30
0.0
 10
-548.0454365904247
 20
84.09954723014589
 30
0.0
 10
-548.8108814501154
 20
160.4350410263574
 30
0.0
  0
SPLINE
  5
A7
330
1F
100
AcDbEntity
  8
LINEE VISIBILI 2D
100
AcDbSpline
210
0.0
220
0.0
230
1.0
 70
    12
 71
     2
 72
     6
 73
     3
 74
     0
 42
0.0000000001
 43
0.0000000001
 40
0.0
 40
0.0
 40
0.0
 40
1.240621966842824
 40
1.240621966842824
 40
1.240621966842824
 10
-488.4962095460671
 20
13.28541790640592
 30
0.0
 41
1.0
 10
-488.4962108837941
 20
12.66510692298296
 30
0.0
 41
0.9999999999927641
 10
-488.4962075019843
 20
12.04479593956778
 30
0.0
 41
1.0
  0
SPLINE
  5
A8
330
1F
100
AcDbEntity
  8
LINEE VISIBILI 2D
100
AcDbSpline
210
0.0
220
0.0
230
1.0
 70
    12
 71
     2
 72
     8
 73
     5
 74
     0
 42
0.0000000001
 43
0.0000000001
 40
0.0
 40
0.0
 40
0.0
 40
0.078572405051196
 40
0.078572405051196
 40
0.157144810102392
 40
0.157144810102392
 40
0.157144810102392
 10
-474.6962095459394
 20
16.08726832254275
 30
0.0
 41
1.0
 10
-474.6547621795572
 20
16.08720546108397
 30
0.0
 41
0.9235890672696696
 10
-474.6254544320188
 20
16.11651320862266
 30
0.0
 41
1.0
 10
-474.5961466844803
 20
16.14582095616134
 30
0.0
 41
0.9235890672696696
 10
-474.5962095459394
 20
16.1872683225434
 30
0.0
 41
1.0
  0
SPLINE
  5
A9
330
1F
100
AcDbEntity
  8
LINEE VISIBILI 2D
100
AcDbSpline
210
0.0
220
0.0
230
1.0
 70
    24
 71
     2
 72
     6
 73
     3
 74
     0
 42
0.0000000001
 43
0.0000000001
 40
0.0
 40
0.0
 40
0.0
 40
0.168686816814116
 40
0.168686816814116
 40
0.168686816814116
 10
-474.5962095459394
 20
16.1872683225434
 30
0.0
 10
-474.5962095459394
 20
16.27161173095046
 30
0.0
 10
-474.5962095459394
 20
16.35595513935752
 30
0.0
  0
SPLINE
  5
AA
330
1F
100
AcDbEntity
  8
LINEE VISIBILI 2D
100
AcDbSpline
210
0.0
220
0.0
230
1.0
 70
    24
 71
     2
 72
     6
 73
     3
 74
     0
 42
0.0000000001
 43
0.0000000001
 40
0.0
 40
0.0
 40
0.0
 40
0.168686816814116
 40
0.168686816814116
 40
0.168686816814116
 10
-488.4962095459394
 20
16.35595513935752
 30
0.0
 10
-488.4962095459394
 20
16.27161173095046
 30
0.0
 10
-488.4962095459394
 20
16.1872683225434
 30
0.0
  0
SPLINE
  5
AD
330
1F
100
AcDbEntity
  8
LINEE VISIBILI 2D
100
AcDbSpline
210
0.0
220
0.0
230
1.0
 70
    12
 71
     2
 72
     6
 73
     3
 74
     0
 42
0.0000000001
 43
0.0000000001
 40
0.0
 40
0.0
 40
0.0
 40
0.1556159729328794
 40
0.1556159729328794
 40
0.1556159729328794
 10
-473.6842089230739
 20
374.2286930378063
 30
0.0
 41
1.0
 10
-473.6097415324417
 20
374.2512477750601
 30
0.0
 41
0.9999968184196223
 10
-473.5353888790826
 20
374.2741779163284
 30
0.0
 41
1.0
  0
SPLINE
  5
AE
330
1F
100
AcDbEntity
  8
LINEE VISIBILI 2D
100
AcDbSpline
210
0.0
220
0.0
230
1.0
 70
    12
 71
     2
 72
     6
 73
     3
 74
     0
 42
0.0000000001
 43
0.0000000001
 40
0.0
 40
0.0
 40
0.0
 40
0.0613978418302145
 40
0.0613978418302145
 40
0.0613978418302145
 10
-488.435597878485
 20
17.63247592484731
 30
0.0
 41
1.0
 10
-488.4665559163301
 20
17.63258715035306
 30
0.0
 41
0.9874827195484892
 10
-488.496008260954
 20
17.62304923263072
 30
0.0
 41
1.0
  0
SPLINE
  5
AF
330
1F
100
AcDbEntity
  8
LINEE VISIBILI 2D
100
AcDbSpline
210
0.0
220
0.0
230
1.0
 70
    12
 71
     2
 72
     6
 73
     3
 74
     0
 42
0.0000000001
 43
0.0000000001
 40
0.0
 40
0.0
 40
0.0
 40
0.0589874058893149
 40
0.0589874058893149
 40
0.0589874058893149
 10
-488.5008159841969
 20
17.61887747596034
 30
0.0
 41
1.0
 10
-488.4985141070338
 20
17.58947373681406
 30
0.0
 41
0.9999999992516514
 10
-488.4962099547831
 20
17.56007017586203
 30
0.0
 41
1.0
  0
SPLINE
  5
B1
330
1F
100
AcDbEntity
  8
LINEE VISIBILI 2D
100
AcDbSpline
210
0.0
220
0.0
230
1.0
 70
    12
 71
     2
 72
     6
 73
     3
 74
     0
 42
0.0000000001
 43
0.0000000001
 40
0.0
 40
0.0
 40
0.0
 40
0.0527345397942731
 40
0.0527345397942731
 40
0.0527345397942731
 10
-488.4962075019873
 20
12.04479593956778
 30
0.0
 41
1.0
 10
-488.497568883067
 20
12.01846383778884
 30
0.0
 41
0.9999999776572627
 10
-488.498919131371
 20
11.99213116280022
 30
0.0
 41
1.0
  0
SPLINE
  5
B2
330
1F
100
AcDbEntity
  8
LINEE VISIBILI 2D
100
AcDbSpline
210
0.0
220
0.0
230
1.0
 70
     8
 71
     3
 72
    15
 73
    11
 74
     0
 42
0.0000000001
 43
0.0000000001
 40
0.0
 40
0.0
 40
0.0
 40
0.0
 40
4.728489661777179
 40
8.648589990933471
 40
14.3404998934245
 40
16.41864674892228
 40
17.93599907887684
 40
18.94292638734538
 40
19.28757868065852
 40
19.51929128007421
 40
19.51929128007421
 40
19.51929128007421
 40
19.51929128007421
 10
-482.6291987113161
 20
15.4328771527954
 30
0.0
 10
-484.2024657020544
 20
15.33807542328444
 30
0.0
 10
-487.0801029476296
 20
15.16219716293013
 30
0.0
 10
-491.848394926211
 20
14.82759210230718
 30
0.0
 10
-495.7318296533935
 20
14.49914480789613
 30
0.0
 10
-498.8039176394592
 20
14.11024790009543
 30
0.0
 10
-500.3145982469765
 20
13.8411652414154
 30
0.0
 10
-501.2414179883649
 20
13.59760219248016
 30
0.0
 10
-501.724037197406
 20
13.37882572644763
 30
0.0
 10
-501.8760220326067
 20
13.25744487574399
 30
0.0
 10
-501.9221192999792
 20
13.19508690059205
 30
0.0
  0
SPLINE
  5
B3
330
1F
100
AcDbEntity
  8
LINEE VISIBILI 2D
100
AcDbSpline
210
0.0
220
0.0
230
1.0
 70
    12
 71
     3
 72
    13
 73
     9
 74
     0
 42
0.0000000001
 43
0.0000000001
 40
228.910982971281
 40
228.910982971281
 40
228.910982971281
 40
228.910982971281
 40
233.489202630706
 40
234.404846562591
 40
238.067422290132
 40
242.645641949558
 40
247.223861608983
 40
255.8797480504091
 40
255.8797480504091
 40
255.8797480504091
 40
255.8797480504091
 10
-501.92328496867
 20
13.19343656923232
 30
0.0
 41
1.0
 10
-501.9560746717494
 20
13.14372790780155
 30
0.0
 41
1.0
 10
-501.9726759052947
 20
13.09182598018755
 30
0.0
 41
1.0
 10
-501.9671840886668
 20
13.0041751185059
 30
0.0
 41
1.0
 10
-501.934300023677
 20
12.91580781298384
 30
0.0
 41
1.0
 10
-501.8216730540404
 20
12.79270407979376
 30
0.0
 41
1.0
 10
-501.5830119737342
 20
12.62536282875048
 30
0.0
 41
1.0
 10
-501.3350842064727
 20
12.50743902698303
 30
0.0
 41
1.0
 10
-501.1326575818666
 20
12.46613014696983
 30
0.0
 41
1.0
  0
SPLINE
  5
B4
330
1F
100
AcDbEntity
  8
LINEE VISIBILI 2D
100
AcDbSpline
210
0.0
220
0.0
230
1.0
 70
    12
 71
     2
 72
     6
 73
     3
 74
     0
 42
0.0000000001
 43
0.0000000001
 40
0.0
 40
0.0
 40
0.0
 40
0.0348429626850164
 40
0.0348429626850164
 40
0.0348429626850164
 10
-482.3585478039589
 20
10.21714394019412
 30
0.0
 41
1.0
 10
-482.360630916035
 20
10.23444043889522
 30
0.0
 41
0.9999994784201959
 10
-482.3626786921662
 20
10.2517411566883
 30
0.0
 41
1.0
  0
SPLINE
  5
B5
330
1F
100
AcDbEntity
  8
LINEE VISIBILI 2D
100
AcDbSpline
210
0.0
220
0.0
230
1.0
 70
     8
 71
     3
 72
    18
 73
    14
 74
     0
 42
0.0000000001
 43
0.0000000001
 40
0.0
 40
0.0
 40
0.0
 40
0.0
 40
2.720506637317153
 40
5.477799895669042
 40
7.668649031532869
 40
9.21449556044446
 40
10.20344744531651
 40
10.51870390286983
 40
10.73401706830749
 40
10.90751732294885
 40
11.14154953258633
 40
11.47429625774751
 40
11.93145001219619
 40
11.93145001219619
 40
11.93145001219619
 40
11.93145001219619
 10
-483.7947372662835
 20
15.36245117841946
 30
0.0
 10
-484.6948683861226
 20
15.47163857029896
 30
0.0
 10
-486.5040183220788
 20
15.72292511437813
 30
0.0
 10
-489.0252520807099
 20
16.14169509747162
 30
0.0
 10
-491.1492192311101
 20
16.56704061380394
 30
0.0
 10
-492.6735148798219
 20
16.96070319249188
 30
0.0
 10
-493.5713958642761
 20
17.28675557587429
 30
0.0
 10
-493.9994750843087
 20
17.55703497085473
 30
0.0
 10
-494.1569355937578
 20
17.74752415738925
 30
0.0
 10
-494.1324980133738
 20
17.96814813332751
 30
0.0
 10
-493.9423095172007
 20
18.14182222092967
 30
0.0
 10
-493.6515729624446
 20
18.31081080152751
 30
0.0
 10
-493.4009495496415
 20
18.40724962705004
 30
0.0
 10
-493.2590626563638
 20
18.4580701272671
 30
0.0
  0
SPLINE
  5
B8
330
1F
100
AcDbEntity
  8
LINEE VISIBILI 2D
100
AcDbSpline
210
0.0
220
0.0
230
1.0
 70
    12
 71
     2
 72
     6
 73
     3
 74
     0
 42
0.0000000001
 43
0.0000000001
 40
0.0
 40
0.0
 40
0.0
 40
0.0135590980268476
 40
0.0135590980268476
 40
0.0135590980268476
 10
-481.6506623679202
 20
15.45266926158233
 30
0.0
 41
1.0
 10
-481.6438997855719
 20
15.45315178411829
 30
0.0
 41
0.9999500189780263
 10
-481.6371289071768
 20
15.45349899266068
 30
0.0
 41
1.0
  0
SPLINE
  5
B9
330
1F
100
AcDbEntity
  8
LINEE VISIBILI 2D
100
AcDbSpline
210
0.0
220
0.0
230
1.0
 70
    12
 71
     2
 72
     6
 73
     3
 74
     0
 42
0.0000000001
 43
0.0000000001
 40
0.0
 40
0.0
 40
0.0
 40
0.0403201057221676
 40
0.0403201057221676
 40
0.0403201057221676
 10
-481.4457735678121
 20
14.58073141279851
 30
0.0
 41
1.0
 10
-481.4414717835806
 20
14.56103293897117
 30
0.0
 41
0.999801699744583
 10
-481.4363890220911
 20
14.54152138459068
 30
0.0
 41
1.0
  0
SPLINE
  5
BA
330
1F
100
AcDbEntity
  8
LINEE VISIBILI 2D
100
AcDbSpline
210
0.0
220
0.0
230
1.0
 70
    12
 71
     2
 72
     6
 73
     3
 74
     0
 42
0.0000000001
 43
0.0000000001
 40
0.0
 40
0.0
 40
0.0
 40
0.0407536195141808
 40
0.0407536195141808
 40
0.0407536195141808
 10
-481.6371289071768
 20
15.45349899266068
 30
0.0
 41
1.0
 10
-481.6351693962
 20
15.43318101889029
 30
0.0
 41
0.9973980716328496
 10
-481.6303083961293
 20
15.41335602406778
 30
0.0
 41
1.0
  0
SPLINE
  5
BB
330
1F
100
AcDbEntity
  8
LINEE VISIBILI 2D
100
AcDbSpline
210
0.0
220
0.0
230
1.0
 70
    12
 71
     2
 72
     6
 73
     3
 74
     0
 42
0.0000000001
 43
0.0000000001
 40
0.0
 40
0.0
 40
0.0
 40
0.852741195649313
 40
0.852741195649313
 40
0.852741195649313
 10
-481.6302888192844
 20
15.41327346999463
 30
0.0
 41
1.0
 10
-481.5382217027771
 20
14.99696161806988
 30
0.0
 41
0.999999895599284
 10
-481.4457741590698
 20
14.58073407974807
 30
0.0
 41
1.0
  0
SPLINE
  5
BC
330
1F
100
AcDbEntity
  8
LINEE VISIBILI 2D
100
AcDbSpline
210
0.0
220
0.0
230
1.0
 70
    12
 71
     2
 72
     6
 73
     3
 74
     0
 42
0.0000000001
 43
0.0000000001
 40
0.0
 40
0.0
 40
0.0
 40
0.0617979441636713
 40
0.0617979441636713
 40
0.0617979441636713
 10
-488.5601033825833
 20
17.68079547560734
 30
0.0
 41
1.0
 10
-488.5909417505317
 20
17.67886115078112
 30
0.0
 41
0.9999999414564641
 10
-488.6217787874842
 20
17.67690572187121
 30
0.0
 41
1.0
  0
SPLINE
  5
BD
330
1F
100
AcDbEntity
  8
LINEE VISIBILI 2D
100
AcDbSpline
210
0.0
220
0.0
230
1.0
 70
    12
 71
     2
 72
     6
 73
     3
 74
     0
 42
0.0000000001
 43
0.0000000001
 40
0.0
 40
0.0
 40
0.0
 40
0.0183641653292828
 40
0.0183641653292828
 40
0.0183641653292828
 10
-488.6217787874842
 20
17.6769057218712
 30
0.0
 41
1.0
 10
-488.6223719259304
 20
17.68606868172515
 30
0.0
 41
0.9999910649254733
 10
-488.6228875747009
 20
17.69523632879767
 30
0.0
 41
1.0
  0
SPLINE
  5
BE
330
1F
100
AcDbEntity
  8
LINEE VISIBILI 2D
100
AcDbSpline
210
0.0
220
0.0
230
1.0
 70
    12
 71
     2
 72
     6
 73
     3
 74
     0
 42
0.0000000001
 43
0.0000000001
 40
0.0
 40
0.0
 40
0.0
 40
1.339418021698436
 40
1.339418021698436
 40
1.339418021698436
 10
-480.0994267791941
 20
14.62316176294931
 30
0.0
 41
1.0
 10
-480.7680276285673
 20
14.58460321140268
 30
0.0
 41
0.9999938154620892
 10
-481.4363407216245
 20
14.54134275222895
 30
0.0
 41
1.0
  0
SPLINE
  5
BF
330
1F
100
AcDbEntity
  8
LINEE VISIBILI 2D
100
AcDbSpline
210
0.0
220
0.0
230
1.0
 70
    12
 71
     2
 72
     6
 73
     3
 74
     0
 42
0.0000000001
 43
0.0000000001
 40
0.0
 40
0.0
 40
0.0
 40
0.0532079009435479
 40
0.0532079009435479
 40
0.0532079009435479
 10
-480.046307154488
 20
14.62624499758603
 30
0.0
 41
1.0
 10
-480.0728714195443
 20
14.62479066124619
 30
0.0
 41
0.9999946047776319
 10
-480.099425556742
 20
14.62316183655744
 30
0.0
 41
1.0
  0
SPLINE
  5
C4
330
1F
100
AcDbEntity
  8
LINEE VISIBILI 2D
100
AcDbSpline
210
0.0
220
0.0
230
1.0
 70
    24
 71
     2
 72
     6
 73
     3
 74
     0
 42
0.0000000001
 43
0.0000000001
 40
0.0
 40
0.0
 40
0.0
 40
0.4921396252474697
 40
0.4921396252474697
 40
0.4921396252474697
 10
-474.7862053609641
 20
13.44212560327202
 30
0.0
 10
-474.7862053609641
 20
13.68819541589575
 30
0.0
 10
-474.7862053609641
 20
13.93426522851949
 30
0.0
  0
SPLINE
  5
C5
330
1F
100
AcDbEntity
  8
LINEE VISIBILI 2D
100
AcDbSpline
210
0.0
220
0.0
230
1.0
 70
    24
 71
     2
 72
     6
 73
     3
 74
     0
 42
0.0000000001
 43
0.0000000001
 40
0.0
 40
0.0
 40
0.0
 40
0.5351798592518194
 40
0.5351798592518194
 40
0.5351798592518194
 10
-474.7862053609641
 20
15.87825253035391
 30
0.0
 10
-474.7862053609641
 20
16.14584245997982
 30
0.0
 10
-474.7862053609641
 20
16.41343238960573
 30
0.0
  0
SPLINE
  5
C6
330
1F
100
AcDbEntity
  8
LINEE VISIBILI 2D
100
AcDbSpline
210
0.0
220
0.0
230
1.0
 70
    24
 71
     2
 72
     6
 73
     3
 74
     0
 42
0.0000000001
 43
0.0000000001
 40
0.0
 40
0.0
 40
0.0
 40
13.60000000000002
 40
13.60000000000002
 40
13.60000000000002
 10
-474.7862053609641
 20
16.41343238960573
 30
0.0
 10
-481.5862053609641
 20
16.41343238960573
 30
0.0
 10
-488.3862053609641
 20
16.41343238960573
 30
0.0
  0
SPLINE
  5
C7
330
1F
100
AcDbEntity
  8
LINEE VISIBILI 2D
100
AcDbSpline
210
0.0
220
0.0
230
1.0
 70
    24
 71
     2
 72
     6
 73
     3
 74
     0
 42
0.0000000001
 43
0.0000000001
 40
0.0
 40
0.0
 40
0.0
 40
0.3405259909797209
 40
0.3405259909797209
 40
0.3405259909797209
 10
-488.3862053609641
 20
16.41343238960573
 30
0.0
 10
-488.3862053609641
 20
16.24316939411587
 30
0.0
 10
-488.3862053609641
 20
16.07290639862601
 30
0.0
  0
SPLINE
  5
C9
330
1F
100
AcDbEntity
  8
LINEE VISIBILI 2D
100
AcDbSpline
210
0.0
220
0.0
230
1.0
 70
     8
 71
     3
 72
    11
 73
     7
 74
     0
 42
0.0000000001
 43
0.0000000001
 40
0.0
 40
0.0
 40
0.0
 40
0.0
 40
0.9386086728246972
 40
3.055349876171378
 40
7.67187989793404
 40
17.00571793324152
 40
17.00571793324152
 40
17.00571793324152
 40
17.00571793324152
 10
-499.2413005438013
 20
11.90955788286715
 30
0.0
 10
-498.9486880465751
 20
11.79521515778373
 30
0.0
 10
-497.9544894726886
 20
11.57224522778001
 30
0.0
 10
-495.4353308054884
 20
11.1272381637164
 30
0.0
 10
-490.119015048524
 20
10.46643318446457
 30
0.0
 10
-485.4699640348434
 20
10.21918494153391
 30
0.0
 10
-482.3585478039589
 20
10.21714394019411
 30
0.0
  0
SPLINE
  5
CA
330
1F
100
AcDbEntity
  8
LINEE VISIBILI 2D
100
AcDbSpline
210
0.0
220
0.0
230
1.0
 70
    12
 71
     2
 72
     6
 73
     3
 74
     0
 42
0.0000000001
 43
0.0000000001
 40
0.0
 40
0.0
 40
0.0
 40
0.2215227628409736
 40
0.2215227628409736
 40
0.2215227628409736
 10
-483.0490330734733
 20
17.96059563739915
 30
0.0
 41
1.0
 10
-483.0486866251081
 20
17.84983479377264
 30
0.0
 41
0.9999999453979388
 10
-483.0484133809748
 20
17.73907374536226
 30
0.0
 41
1.0
  0
SPLINE
  5
CC
330
1F
100
AcDbEntity
  8
LINEE VISIBILI 2D
100
AcDbSpline
210
0.0
220
0.0
230
1.0
 70
    12
 71
     2
 72
     6
 73
     3
 74
     0
 42
0.0000000001
 43
0.0000000001
 40
0.0
 40
0.0
 40
0.0
 40
0.2264554803112269
 40
0.2264554803112269
 40
0.2264554803112269
 10
-482.5114484258434
 20
17.74959698095924
 30
0.0
 41
1.0
 10
-482.5058331791156
 20
17.86268567614902
 30
0.0
 41
0.9999963241845396
 10
-482.4996047628542
 20
17.97574225847139
 30
0.0
 41
1.0
  0
SPLINE
  5
D0
330
1F
100
AcDbEntity
  8
LINEE VISIBILI 2D
100
AcDbSpline
210
0.0
220
0.0
230
1.0
 70
    12
 71
     2
 72
     6
 73
     3
 74
     0
 42
0.0000000001
 43
0.0000000001
 40
0.0
 40
0.0
 40
0.0
 40
0.0121344973528138
 40
0.0121344973528138
 40
0.0121344973528138
 10
-481.5629370010688
 20
15.10886492245488
 30
0.0
 41
1.0
 10
-481.5690007196924
 20
15.10865662530152
 30
0.0
 41
0.9999884939645124
 10
-481.5750661576515
 20
15.10850651330413
 30
0.0
 41
1.0
  0
SPLINE
  5
D8
330
1F
100
AcDbEntity
  8
LINEE VISIBILI 2D
100
AcDbSpline
210
0.0
220
0.0
230
1.0
 70
    12
 71
     2
 72
     6
 73
     3
 74
     0
 42
0.0000000001
 43
0.0000000001
 40
0.0
 40
0.0
 40
0.0
 40
0.0053272837393318
 40
0.0053272837393318
 40
0.0053272837393318
 10
-499.2441978490838
 20
11.91067101190181
 30
0.0
 41
1.0
 10
-499.2468089012984
 20
11.91122240154807
 30
0.0
 41
0.9971945962993022
 10
-499.2493083798809
 20
11.91215740476937
 30
0.0
 41
1.0
  0
SPLINE
  5
D9
330
1F
100
AcDbEntity
  8
LINEE VISIBILI 2D
100
AcDbSpline
210
0.0
220
0.0
230
1.0
 70
    12
 71
     2
 72
     6
 73
     3
 74
     0
 42
0.0000000001
 43
0.0000000001
 40
0.0
 40
0.0
 40
0.0
 40
1.40843174718588
 40
1.40843174718588
 40
1.40843174718588
 10
-499.2544581347389
 20
11.91628146057221
 30
0.0
 41
1.0
 10
-499.9419791205172
 20
12.07091988288691
 30
0.0
 41
0.998975770239663
 10
-500.6127049066226
 20
12.28707970198908
 30
0.0
 41
1.0
  0
SPLINE
  5
DB
330
1F
100
AcDbEntity
  8
LINEE VISIBILI 2D
100
AcDbSpline
210
0.0
220
0.0
230
1.0
 70
    12
 71
     2
 72
     6
 73
     3
 74
     0
 42
0.0000000001
 43
0.0000000001
 40
0.0
 40
0.0
 40
0.0
 40
2.097476550497531
 40
2.097476550497531
 40
2.097476550497531
 10
-474.5502267584181
 20
17.99317023887397
 30
0.0
 41
1.0
 10
-474.5318684098089
 20
16.94459265870315
 30
0.0
 41
0.9999999995713221
 10
-474.5134486551973
 20
15.89601615541858
 30
0.0
 41
1.0
  0
SPLINE
  5
DC
330
1F
100
AcDbEntity
  8
LINEE VISIBILI 2D
100
AcDbSpline
210
0.0
220
0.0
230
1.0
 70
    12
 71
     2
 72
     6
 73
     3
 74
     0
 42
0.0000000001
 43
0.0000000001
 40
0.0
 40
0.0
 40
0.0
 40
1.583303624403023
 40
1.583303624403023
 40
1.583303624403023
 10
-474.4781822931111
 20
13.881541550299
 30
0.0
 41
1.0
 10
-474.464377579634
 20
13.09001010532886
 30
0.0
 41
0.9999999919475675
 10
-474.4507737651083
 20
12.29847518208098
 30
0.0
 41
1.0
  0
SPLINE
  5
DD
330
1F
100
AcDbEntity
  8
LINEE VISIBILI 2D
100
AcDbSpline
210
0.0
220
0.0
230
1.0
 70
    12
 71
     2
 72
     6
 73
     3
 74
     0
 42
0.0000000001
 43
0.0000000001
 40
0.0
 40
0.0
 40
0.0
 40
0.0246675853153377
 40
0.0246675853153377
 40
0.0246675853153377
 10
-474.4507571520657
 20
12.29750780522751
 30
0.0
 41
1.0
 10
-474.4496842892254
 20
12.28521587775545
 30
0.0
 41
0.9994084600785619
 10
-474.4494589235152
 20
12.27287927668593
 30
0.0
 41
1.0
  0
SPLINE
  5
DE
330
1F
100
AcDbEntity
  8
LINEE VISIBILI 2D
100
AcDbSpline
210
0.0
220
0.0
230
1.0
 70
    12
 71
     2
 72
    10
 73
     7
 74
     0
 42
0.0000000001
 43
0.0000000001
 40
0.0
 40
0.0
 40
0.0
 40
0.9796725905509866
 40
0.9796725905509866
 40
2.129427697878918
 40
2.129427697878918
 40
4.508838957462062
 40
4.508838957462062
 40
4.508838957462062
 10
-469.9781538223367
 20
12.83298505205453
 30
0.0
 41
1.0
 10
-470.4575281508384
 20
12.73152586400062
 30
0.0
 41
0.9995185630689279
 10
-470.942272358181
 20
12.65999428275905
 30
0.0
 41
1.0
 10
-471.510707087481
 20
12.573824998801
 30
0.0
 41
0.9998661622792248
 10
-472.0816566484893
 20
12.50629881308633
 30
0.0
 41
1.0
 10
-473.2634324814552
 20
12.36803000565918
 30
0.0
 41
0.9998342361068226
 10
-474.4494589235152
 20
12.27287927668592
 30
0.0
 41
1.0
  0
SPLINE
  5
DF
330
1F
100
AcDbEntity
  8
LINEE VISIBILI 2D
100
AcDbSpline
210
0.0
220
0.0
230
1.0
 70
     8
 71
     3
 72
    15
 73
    11
 74
     0
 42
0.0000000001
 43
0.0000000001
 40
0.0
 40
0.0
 40
0.0
 40
0.0
 40
1.3910114539906
 40
2.613532688282635
 40
3.880481684732968
 40
5.319570611066443
 40
7.055291613917179
 40
9.047014158582372
 40
11.37834166959102
 40
13.96888910465802
 40
13.96888910465802
 40
13.96888910465802
 40
13.96888910465802
 10
-501.1794256869858
 20
381.9275537447788
 30
0.0
 10
-501.4353709709165
 20
382.3127429081917
 30
0.0
 10
-501.851139225352
 20
383.091339517753
 30
0.0
 10
-502.0160358190279
 20
384.4011080048313
 30
0.0
 10
-501.6194299501802
 20
385.6773122521455
 30
0.0
 10
-500.7446573558588
 20
386.8856042176995
 30
0.0
 10
-499.4406547868016
 20
388.023720413408
 30
0.0
 10
-497.7232782472907
 20
389.0943012009379
 30
0.0
 10
-495.6248163876786
 20
390.0567595463505
 30
0.0
 10
-494.0746616391118
 20
390.5970759127364
 30
0.0
 10
-493.2466961523899
 20
390.843274809467
 30
0.0
  0
SPLINE
  5
E5
330
1F
100
AcDbEntity
  8
LINEE VISIBILI 2D
100
AcDbSpline
210
0.0
220
0.0
230
1.0
 70
    12
 71
     2
 72
     6
 73
     3
 74
     0
 42
0.0000000001
 43
0.0000000001
 40
0.0
 40
0.0
 40
0.0
 40
0.0251541742154861
 40
0.0251541742154861
 40
0.0251541742154861
 10
-481.6371289071768
 20
392.2568106712581
 30
0.0
 41
1.0
 10
-481.6385762452545
 20
392.2699954102449
 30
0.0
 41
0.924104328929928
 10
-481.6302888192844
 20
392.2803516016514
 30
0.0
 41
1.0
  0
SPLINE
  5
E6
330
1F
100
AcDbEntity
  8
LINEE VISIBILI 2D
100
AcDbSpline
210
0.0
220
0.0
230
1.0
 70
    12
 71
     2
 72
     6
 73
     3
 74
     0
 42
0.0000000001
 43
0.0000000001
 40
0.0
 40
0.0
 40
0.0
 40
0.1845444865061702
 40
0.1845444865061702
 40
0.1845444865061702
 10
-481.6302888192844
 20
392.2803516016514
 30
0.0
 41
1.0
 10
-481.538016782872
 20
392.2781252559404
 30
0.0
 41
0.9995669856380262
 10
-481.4457735678121
 20
392.2813306567549
 30
0.0
 41
1.0
  0
SPLINE
  5
E7
330
1F
100
AcDbEntity
  8
LINEE VISIBILI 2D
100
AcDbSpline
210
0.0
220
0.0
230
1.0
 70
    12
 71
     2
 72
     6
 73
     3
 74
     0
 42
0.0000000001
 43
0.0000000001
 40
0.0
 40
0.0
 40
0.0
 40
0.0651866949344579
 40
0.0651866949344579
 40
0.0651866949344579
 10
-488.5601033825833
 20
378.9900952820663
 30
0.0
 41
1.0
 10
-488.5909584664456
 20
379.0005972828421
 30
0.0
 41
0.9999986435482098
 10
-488.6217787874842
 20
379.0112008686289
 30
0.0
 41
1.0
  0
SPLINE
  5
E8
330
1F
100
AcDbEntity
  8
LINEE VISIBILI 2D
100
AcDbSpline
210
0.0
220
0.0
230
1.0
 70
    12
 71
     2
 72
     6
 73
     3
 74
     0
 42
0.0000000001
 43
0.0000000001
 40
0.0
 40
0.0
 40
0.0
 40
1.337184961141681
 40
1.337184961141681
 40
1.337184961141681
 10
-480.0994267791941
 20
392.2828676951226
 30
0.0
 41
1.0
 10
-480.7681129998433
 20
392.2869847165608
 30
0.0
 41
0.9997613133252954
 10
-481.4363407216245
 20
392.2618864418229
 30
0.0
 41
1.0
  0
SPLINE
  5
E9
330
1F
100
AcDbEntity
  8
LINEE VISIBILI 2D
100
AcDbSpline
210
0.0
220
0.0
230
1.0
 70
    12
 71
     2
 72
     6
 73
     3
 74
     0
 42
0.0000000001
 43
0.0000000001
 40
0.0
 40
0.0
 40
0.0
 40
0.0531222356274299
 40
0.0531222356274299
 40
0.0531222356274299
 10
-480.046307154488
 20
392.282413872457
 30
0.0
 41
1.0
 10
-480.0728649893864
 20
392.2828722434738
 30
0.0
 41
0.9999620295298671
 10
-480.0994267791941
 20
392.2828676951226
 30
0.0
 41
1.0
  0
SPLINE
  5
ED
330
1F
100
AcDbEntity
  8
LINEE VISIBILI 2D
100
AcDbSpline
210
0.0
220
0.0
230
1.0
 70
    12
 71
     2
 72
     6
 73
     3
 74
     0
 42
0.0000000001
 43
0.0000000001
 40
0.0
 40
0.0
 40
0.0
 40
0.0326651925236854
 40
0.0326651925236854
 40
0.0326651925236854
 10
-463.8376003716825
 20
379.5409275465196
 30
0.0
 41
1.0
 10
-463.8504298876561
 20
379.530820246739
 30
0.0
 41
0.9999991893713302
 10
-463.8632851009711
 20
379.5207456509857
 30
0.0
 41
1.0
  0
SPLINE
  5
EE
330
1F
100
AcDbEntity
  8
LINEE VISIBILI 2D
100
AcDbSpline
210
0.0
220
0.0
230
1.0
 70
    12
 71
     2
 72
     6
 73
     3
 74
     0
 42
0.0000000001
 43
0.0000000001
 40
0.0
 40
0.0
 40
0.0
 40
0.0678999917868535
 40
0.0678999917868535
 40
0.0678999917868535
 10
-500.5379573026906
 20
381.1213614133857
 30
0.0
 41
1.0
 10
-500.5607257340778
 20
381.146545019749
 30
0.0
 41
0.9999913612947183
 10
-500.5832840240866
 20
381.1719170328576
 30
0.0
 41
1.0
  0
SPLINE
  5
F3
330
1F
100
AcDbEntity
  8
LINEE VISIBILI 2D
100
AcDbSpline
210
0.0
220
0.0
230
1.0
 70
    12
 71
     2
 72
     6
 73
     3
 74
     0
 42
0.0000000001
 43
0.0000000001
 40
0.0
 40
0.0
 40
0.0
 40
2.926463245252121
 40
2.926463245252121
 40
2.926463245252121
 10
-492.6033178460906
 20
391.0275247282601
 30
0.0
 41
1.0
 10
-491.191314155972
 20
391.4150196588612
 30
0.0
 41
0.9989994703574332
 10
-489.750334217774
 20
391.6747956390078
 30
0.0
 41
1.0
  0
SPLINE
  5
F5
330
1F
100
AcDbEntity
  8
LINEE VISIBILI 2D
100
AcDbSpline
210
0.0
220
0.0
230
1.0
 70
    12
 71
     2
 72
     6
 73
     3
 74
     0
 42
0.0000000001
 43
0.0000000001
 40
0.0
 40
0.0
 40
0.0
 40
1.398880630375934
 40
1.398880630375934
 40
1.398880630375934
 10
-483.0492478137366
 20
392.2804359196827
 30
0.0
 41
1.0
 10
-482.349711167238
 20
392.2835825369747
 30
0.0
 41
0.9997782811207926
 10
-481.6506623679202
 20
392.2572728967848
 30
0.0
 41
1.0
  0
SPLINE
  5
FC
330
1F
100
AcDbEntity
  8
LINEE VISIBILI 2D
100
AcDbSpline
210
0.0
220
0.0
230
1.0
 70
    12
 71
     3
 72
    10
 73
     6
 74
     0
 42
0.0000000001
 43
0.0000000001
 40
-1.0
 40
-1.0
 40
-1.0
 40
-1.0
 40
-0.4999336540010386
 40
-0.4999336540010386
 40
-0.0000197194228849
 40
-0.0000197194228849
 40
-0.0000197194228849
 40
-0.0000197194228849
 10
-489.3514649163289
 20
391.7437347049999
 30
0.0
 41
1.0
 10
-488.0002502125318
 20
391.9749157619584
 30
0.0
 41
1.0
 10
-487.1026843778497
 20
392.0658094444631
 30
0.0
 41
1.0
 10
-485.3151977287086
 20
392.2137880406686
 30
0.0
 41
1.0
 10
-484.4058398863116
 20
392.2736883235598
 30
0.0
 41
1.0
 10
-483.0492478137366
 20
392.2804359196827
 30
0.0
 41
1.0
  0
SPLINE
  5
FF
330
1F
100
AcDbEntity
  8
LINEE VISIBILI 2D
100
AcDbSpline
210
0.0
220
0.0
230
1.0
 70
    12
 71
     2
 72
     8
 73
     5
 74
     0
 42
0.0000000001
 43
0.0000000001
 40
0.0
 40
0.0
 40
0.0
 40
0.3032227136749157
 40
0.3032227136749157
 40
0.8291190671102077
 40
0.8291190671102077
 40
0.8291190671102077
 10
-501.1326575818666
 20
381.8592403403897
 30
0.0
 41
1.0
 10
-501.0274626457276
 20
381.7496974492192
 30
0.0
 41
0.9974109846623802
 10
-500.9390697994077
 20
381.6261971483499
 30
0.0
 41
1.0
 10
-500.7771111672711
 20
381.4190431741461
 30
0.0
 41
0.999982385362572
 10
-500.6127049066226
 20
381.2138263400132
 30
0.0
 41
1.0
  0
SPLINE
  5
102
330
1F
100
AcDbEntity
  8
LINEE VISIBILI 2D
100
AcDbSpline
210
0.0
220
0.0
230
1.0
 70
    12
 71
     2
 72
     6
 73
     3
 74
     0
 42
0.0000000001
 43
0.0000000001
 40
0.0
 40
0.0
 40
0.0
 40
0.0222424026077945
 40
0.0222424026077945
 40
0.0222424026077945
 10
-481.4457735678121
 20
392.2813306567549
 30
0.0
 41
1.0
 10
-481.436781574868
 20
392.2736827288279
 30
0.0
 41
0.9153898985624243
 10
-481.4363407216245
 20
392.2618864418229
 30
0.0
 41
1.0
  0
SPLINE
  5
108
330
1F
100
AcDbEntity
  8
LINEE VISIBILI 2D
100
AcDbSpline
210
0.0
220
0.0
230
1.0
 70
    12
 71
     2
 72
     6
 73
     3
 74
     0
 42
0.0000000001
 43
0.0000000001
 40
0.0
 40
0.0
 40
0.0
 40
0.0135415555682597
 40
0.0135415555682597
 40
0.0135415555682597
 10
-481.6506623679202
 20
392.2572728967848
 30
0.0
 41
1.0
 10
-481.6438934421794
 20
392.2571060620434
 30
0.0
 41
0.9999548863591877
 10
-481.6371289071768
 20
392.2568106712581
 30
0.0
 41
1.0
  0
SPLINE
  5
10E
330
1F
100
AcDbEntity
  8
LINEE VISIBILI 2D
100
AcDbSpline
210
0.0
220
0.0
230
1.0
 70
     8
 71
     3
 72
    13
 73
     9
 74
     0
 42
0.0000000001
 43
0.0000000001
 40
0.0
 40
0.0
 40
0.0
 40
0.0
 40
0.7440324394900229
 40
2.024742685176005
 40
3.400741062429305
 40
7.701014743180709
 40
10.37698779684464
 40
13.61692150699149
 40
13.61692150699149
 40
13.61692150699149
 40
13.61692150699149
 10
-548.283742044252
 20
375.6716168222325
 30
0.0
 10
-548.3239995847879
 20
375.9164127383923
 30
0.0
 10
-548.4694498147588
 20
376.5756239540032
 30
0.0
 10
-548.7408990162333
 20
377.6762438368666
 30
0.0
 10
-549.314190590179
 20
379.9232198867107
 30
0.0
 10
-550.0157129932023
 20
382.6175639268326
 30
0.0
 10
-550.848262115242
 20
385.9195181257597
 30
0.0
 10
-551.3462178656891
 20
387.8278670294416
 30
0.0
 10
-551.6635373090196
 20
388.8604118133521
 30
0.0
  0
SPLINE
  5
111
330
1F
100
AcDbEntity
  8
LINEE VISIBILI 2D
100
AcDbSpline
210
0.0
220
0.0
230
1.0
 70
    24
 71
     2
 72
     6
 73
     3
 74
     0
 42
0.0000000001
 43
0.0000000001
 40
0.0
 40
0.0
 40
0.0
 40
1.0
 40
1.0
 40
1.0
 10
-562.5655437867224
 20
208.7786874802076
 30
0.0
 10
-563.0655437867224
 20
208.7786874802076
 30
0.0
 10
-563.5655437867224
 20
208.7786874802076
 30
0.0
  0
SPLINE
  5
112
330
1F
100
AcDbEntity
  8
LINEE VISIBILI 2D
100
AcDbSpline
210
0.0
220
0.0
230
1.0
 70
    24
 71
     2
 72
     6
 73
     3
 74
     0
 42
0.0000000001
 43
0.0000000001
 40
0.0
 40
0.0
 40
0.0
 40
0.4529788301062468
 40
0.4529788301062468
 40
0.4529788301062468
 10
-553.0655437867223
 20
210.8086874802074
 30
0.0
 10
-553.0655437867223
 20
210.5821980651543
 30
0.0
 10
-553.0655437867223
 20
210.3557086501012
 30
0.0
  0
SPLINE
  5
113
330
1F
100
AcDbEntity
  8
LINEE VISIBILI 2D
100
AcDbSpline
210
0.0
220
0.0
230
1.0
 70
    24
 71
     2
 72
     6
 73
     3
 74
     0
 42
0.0000000001
 43
0.0000000001
 40
0.0
 40
0.0
 40
0.0
 40
0.0039999999999907
 40
0.0039999999999907
 40
0.0039999999999907
 10
-553.0655437867223
 20
210.3486874802075
 30
0.0
 10
-553.0655437867223
 20
210.3466874802075
 30
0.0
 10
-553.0655437867223
 20
210.3446874802075
 30
0.0
  0
SPLINE
  5
114
330
1F
100
AcDbEntity
  8
LINEE VISIBILI 2D
100
AcDbSpline
210
0.0
220
0.0
230
1.0
 70
    24
 71
     2
 72
     6
 73
     3
 74
     0
 42
0.0000000001
 43
0.0000000001
 40
0.0
 40
0.0
 40
0.0
 40
1.0
 40
1.0
 40
1.0
 10
-563.5655437867224
 20
208.7786874802076
 30
0.0
 10
-564.0655437867224
 20
208.7786874802076
 30
0.0
 10
-564.5655437867223
 20
208.7786874802076
 30
0.0
  0
SPLINE
  5
115
330
1F
100
AcDbEntity
  8
LINEE VISIBILI 2D
100
AcDbSpline
210
0.0
220
0.0
230
1.0
 70
    28
 71
     2
 72
     6
 73
     3
 74
     0
 42
0.0000000001
 43
0.0000000001
 40
-38.05449780265262
 40
-38.05449780265262
 40
-38.05449780265262
 40
-31.4159265358979
 40
-31.4159265358979
 40
-31.4159265358979
 10
-557.3244782903428
 20
208.7786874802076
 30
0.0
 41
0.8570604686447033
 10
-557.2789892796434
 20
208.7786874802076
 30
0.0
 41
0.876216128502816
 10
-557.4495183829379
 20
208.7786874802076
 30
0.0
 41
1.0
  0
SPLINE
  5
116
330
1F
100
AcDbEntity
  8
LINEE VISIBILI 2D
100
AcDbSpline
210
0.0
220
0.0
230
1.0
 70
    24
 71
     2
 72
     6
 73
     3
 74
     0
 42
0.0000000001
 43
0.0000000001
 40
0.0
 40
0.0
 40
0.0
 40
0.8660254037844481
 40
0.8660254037844481
 40
0.8660254037844481
 10
-557.4495183829379
 20
208.7786874802076
 30
0.0
 10
-557.8825310848301
 20
208.7786874802076
 30
0.0
 10
-558.3155437867223
 20
208.7786874802076
 30
0.0
  0
SPLINE
  5
117
330
1F
100
AcDbEntity
  8
LINEE VISIBILI 2D
100
AcDbSpline
210
0.0
220
0.0
230
1.0
 70
    24
 71
     2
 72
     6
 73
     3
 74
     0
 42
0.0000000001
 43
0.0000000001
 40
0.0
 40
0.0
 40
0.0
 40
0.9999999999999875
 40
0.9999999999999875
 40
0.9999999999999875
 10
-558.3155437867223
 20
208.7786874802076
 30
0.0
 10
-558.8155437867223
 20
208.7786874802076
 30
0.0
 10
-559.3155437867222
 20
208.7786874802076
 30
0.0
  0
SPLINE
  5
118
330
1F
100
AcDbEntity
  8
LINEE VISIBILI 2D
100
AcDbSpline
210
0.0
220
0.0
230
1.0
 70
    24
 71
     2
 72
     6
 73
     3
 74
     0
 42
0.0000000001
 43
0.0000000001
 40
0.0
 40
0.0
 40
0.0
 40
1.0
 40
1.0
 40
1.0
 10
-542.5655437867224
 20
208.7786874802076
 30
0.0
 10
-543.0655437867224
 20
208.7786874802076
 30
0.0
 10
-543.5655437867223
 20
208.7786874802076
 30
0.0
  0
SPLINE
  5
119
330
1F
100
AcDbEntity
  8
LINEE VISIBILI 2D
100
AcDbSpline
210
0.0
220
0.0
230
1.0
 70
    24
 71
     2
 72
     6
 73
     3
 74
     0
 42
0.0000000001
 43
0.0000000001
 40
0.0
 40
0.0
 40
0.0
 40
1.0
 40
1.0
 40
1.0
 10
-541.5655437867224
 20
208.7786874802076
 30
0.0
 10
-542.0655437867224
 20
208.7786874802076
 30
0.0
 10
-542.5655437867224
 20
208.7786874802076
 30
0.0
  0
SPLINE
  5
11A
330
1F
100
AcDbEntity
  8
LINEE VISIBILI 2D
100
AcDbSpline
210
0.0
220
0.0
230
1.0
 70
    24
 71
     2
 72
     6
 73
     3
 74
     0
 42
0.0000000001
 43
0.0000000001
 40
0.0
 40
0.0
 40
0.0
 40
0.1232422398581399
 40
0.1232422398581399
 40
0.1232422398581399
 10
-548.6815691905068
 20
208.7786874802076
 30
0.0
 10
-548.7431903104359
 20
208.7786874802076
 30
0.0
 10
-548.8048114303649
 20
208.7786874802076
 30
0.0
  0
SPLINE
  5
11B
330
1F
100
AcDbEntity
  8
LINEE VISIBILI 2D
100
AcDbSpline
210
0.0
220
0.0
230
1.0
 70
    28
 71
     2
 72
     8
 73
     5
 74
     0
 42
0.0000000001
 43
0.0000000001
 40
-27.48893571891065
 40
-27.48893571891065
 40
-27.48893571891065
 40
-20.9439510239319
 40
-20.9439510239319
 40
-10.471975511966
 40
-10.471975511966
 40
-10.471975511966
 10
-546.8244782911531
 20
208.7786874802076
 30
0.0
 41
0.9371994080239558
 10
-546.7789892779478
 20
208.7786874802076
 30
0.0
 41
0.9162658773652744
 10
-546.9495183829378
 20
208.7786874802076
 30
0.0
 41
1.0
 10
-547.2381935175327
 20
208.7786874802076
 30
0.0
 41
0.866025403784439
 10
-547.8155437867224
 20
208.7786874802076
 30
0.0
 41
1.0
  0
SPLINE
  5
11C
330
1F
100
AcDbEntity
  8
LINEE VISIBILI 2D
100
AcDbSpline
210
0.0
220
0.0
230
1.0
 70
    24
 71
     2
 72
     6
 73
     3
 74
     0
 42
0.0000000001
 43
0.0000000001
 40
0.0
 40
0.0
 40
0.0
 40
0.8660254037844481
 40
0.8660254037844481
 40
0.8660254037844481
 10
-547.8155437867224
 20
208.7786874802076
 30
0.0
 10
-548.2485564886146
 20
208.7786874802076
 30
0.0
 10
-548.6815691905068
 20
208.7786874802076
 30
0.0
  0
SPLINE
  5
11D
330
1F
100
AcDbEntity
  8
LINEE VISIBILI 2D
100
AcDbSpline
210
0.0
220
0.0
230
1.0
 70
     8
 71
     3
 72
    10
 73
     6
 74
     0
 42
0.0000000001
 43
0.0000000001
 40
0.0
 40
0.0
 40
0.0
 40
0.0
 40
6.939925790046425
 40
8.388727421685116
 40
9.207004699887722
 40
9.207004699887722
 40
9.207004699887722
 40
9.207004699887722
 10
-555.6093884510089
 20
384.2580208846337
 30
0.0
 10
-556.159710968797
 20
382.0111278600281
 30
0.0
 10
-556.847827862991
 20
379.3007899551136
 30
0.0
 10
-557.5606952562123
 20
376.3156833350854
 30
0.0
 10
-557.7197863899514
 20
375.5768160578864
 30
0.0
 10
-557.7675146043285
 20
375.3082382591195
 30
0.0
  0
SPLINE
  5
11F
330
1F
100
AcDbEntity
  8
LINEE VISIBILI 2D
100
AcDbSpline
210
0.0
220
0.0
230
1.0
 70
    12
 71
     2
 72
     6
 73
     3
 74
     0
 42
0.0000000001
 43
0.0000000001
 40
0.0
 40
0.0
 40
0.0
 40
0.1372693513881258
 40
0.1372693513881258
 40
0.1372693513881258
 10
-552.9474503969923
 20
373.0352412526239
 30
0.0
 41
1.0
 10
-553.0020807632272
 20
372.9901345960296
 30
0.0
 41
0.9538408802717198
 10
-553.0726987998939
 20
372.9844618293803
 30
0.0
 41
1.0
  0
SPLINE
  5
127
330
1F
100
AcDbEntity
  8
LINEE VISIBILI 2D
100
AcDbSpline
210
0.0
220
0.0
230
1.0
 70
    12
 71
     2
 72
    14
 73
    11
 74
     0
 42
0.0000000001
 43
0.0000000001
 40
0.0
 40
0.0
 40
0.0
 40
0.0196146406536996
 40
0.0196146406536996
 40
0.0355970301037728
 40
0.0355970301037728
 40
0.0433633514052331
 40
0.0433633514052331
 40
0.0542808957701623
 40
0.0542808957701623
 40
0.0772221933724376
 40
0.0772221933724376
 40
0.0772221933724376
 10
-553.0395502452985
 20
391.6733292715121
 30
0.0
 41
1.0
 10
-553.0432323073863
 20
391.6824191532928
 30
0.0
 41
0.999999999916868
 10
-553.046914135057
 20
391.6915091300258
 30
0.0
 41
1.0
 10
-553.0499143932127
 20
391.6989158037192
 30
0.0
 41
1.0
 10
-553.0529144502536
 20
391.7063224798215
 30
0.0
 41
1.0
 10
-553.0543721062183
 20
391.7099216539823
 30
0.0
 41
1.0
 10
-553.0558299237103
 20
391.7135207795427
 30
0.0
 41
1.0
 10
-553.0578790946275
 20
391.718580253762
 30
0.0
 41
1.0
 10
-553.0599284287363
 20
391.7236397422193
 30
0.0
 41
1.0
 10
-553.0640555185208
 20
391.7343538732083
 30
0.0
 41
0.9985884083761627
 10
-553.0692957293459
 20
391.744569746708
 30
0.0
 41
1.0
  0
SPLINE
  5
128
330
1F
100
AcDbEntity
  8
LINEE VISIBILI 2D
100
AcDbSpline
210
0.0
220
0.0
230
1.0
 70
    12
 71
     2
 72
     8
 73
     5
 74
     0
 42
0.0000000001
 43
0.0000000001
 40
0.0
 40
0.0
 40
0.0
 40
0.4407280118873175
 40
0.4407280118873175
 40
0.6771657692467297
 40
0.6771657692467297
 40
0.6771657692467297
 10
-553.0692957293459
 20
391.744569746708
 30
0.0
 41
1.0
 10
-553.1457563458684
 20
391.9519938334356
 30
0.0
 41
0.9952313336008472
 10
-553.261034454294
 20
392.1406255787799
 30
0.0
 41
1.0
 10
-553.3140430121433
 20
392.257482655806
 30
0.0
 41
0.8909829794871175
 10
-553.4655710831247
 20
392.2572654604459
 30
0.0
 41
1.0
  0
SPLINE
  5
12A
330
1F
100
AcDbEntity
  8
LINEE VISIBILI 2D
100
AcDbSpline
210
0.0
220
0.0
230
1.0
 70
    12
 71
     2
 72
     6
 73
     3
 74
     0
 42
0.0000000001
 43
0.0000000001
 40
0.0
 40
0.0
 40
0.0
 40
1.314837516370778
 40
1.314837516370778
 40
1.314837516370778
 10
-548.3554557514946
 20
374.9078926830454
 30
0.0
 41
1.0
 10
-550.0475426752998
 20
380.1946926479221
 30
0.0
 41
0.9999789638132934
 10
-550.3651490214252
 20
381.2175379638385
 30
0.0
 41
1.0
  0
SPLINE
  5
12B
330
1F
100
AcDbEntity
  8
LINEE VISIBILI 2D
100
AcDbSpline
210
0.0
220
0.0
230
1.0
 70
    28
 71
     2
 72
     6
 73
     3
 74
     0
 42
0.0000000001
 43
0.0000000001
 40
0.0
 40
0.0
 40
0.0
 40
0.0859247631866277
 40
0.0859247631866277
 40
0.0859247631866277
 10
-553.4585326284346
 20
392.2574826558059
 30
0.0
 41
1.0
 10
-553.5173459908894
 20
392.2574826558059
 30
0.0
 41
0.9492541969842935
 10
-553.5173459908893
 20
392.2574826558059
 30
0.0
 41
1.0
  0
SPLINE
  5
12F
330
1F
100
AcDbEntity
  8
LINEE VISIBILI 2D
100
AcDbSpline
210
0.0
220
0.0
230
1.0
 70
    12
 71
     2
 72
     6
 73
     3
 74
     0
 42
0.0000000001
 43
0.0000000001
 40
0.0
 40
0.0
 40
0.0
 40
0.3764364698259056
 40
0.3764364698259056
 40
0.3764364698259056
 10
-553.5114201790581
 20
392.2574826558059
 30
0.0
 41
1.0
 10
-553.8392804371476
 20
392.1901117757668
 30
0.0
 41
0.9999983082059847
 10
-554.5860927100098
 20
388.0975505829026
 30
0.0
 41
1.0
  0
SPLINE
  5
131
330
1F
100
AcDbEntity
  8
LINEE VISIBILI 2D
100
AcDbSpline
210
0.0
220
0.0
230
1.0
 70
    12
 71
     2
 72
     6
 73
     3
 74
     0
 42
0.0000000001
 43
0.0000000001
 40
0.0
 40
0.0
 40
0.0
 40
1.240621966842383
 40
1.240621966842383
 40
1.240621966842383
 10
-474.596209545811
 20
16.59586893869252
 30
0.0
 41
1.0
 10
-474.5962082080843
 20
17.21617992211526
 30
0.0
 41
0.9999999999927641
 10
-474.5962115898938
 20
17.83649090553022
 30
0.0
 41
1.0
  0
SPLINE
  5
132
330
1F
100
AcDbEntity
  8
LINEE VISIBILI 2D
100
AcDbSpline
210
0.0
220
0.0
230
1.0
 70
    12
 71
     2
 72
     6
 73
     3
 74
     0
 42
0.0000000001
 43
0.0000000001
 40
0.0
 40
0.0
 40
0.0
 40
0.2400344477490418
 40
0.2400344477490418
 40
0.2400344477490418
 10
-496.5994023149173
 20
389.5942651891084
 30
0.0
 41
1.0
 10
-496.4902979444754
 20
389.6442718758772
 30
0.0
 41
0.9999844659950083
 10
-496.3806429027253
 20
389.6930592122449
 30
0.0
 41
1.0
  0
SPLINE
  5
133
330
1F
100
AcDbEntity
  8
LINEE VISIBILI 2D
100
AcDbSpline
210
0.0
220
0.0
230
1.0
 70
     8
 71
     3
 72
    11
 73
     7
 74
     0
 42
0.0000000001
 43
0.0000000001
 40
0.0
 40
0.0
 40
0.0
 40
0.0
 40
1.376455108213856
 40
2.232602500856445
 40
3.055011687956228
 40
3.958586295213665
 40
3.958586295213665
 40
3.958586295213665
 40
3.958586295213665
 10
-555.6093917148269
 20
384.2580221875886
 30
0.0
 10
-555.4992307840185
 20
384.7034161771471
 30
0.0
 10
-555.3256497610937
 20
385.4271150180666
 30
0.0
 10
-555.0722111538818
 20
386.4134383303589
 30
0.0
 10
-554.8434600293185
 20
387.2432437011937
 30
0.0
 10
-554.6781572822733
 20
387.7943455834182
 30
0.0
 10
-554.5906157898561
 20
388.0825302602029
 30
0.0
  0
SPLINE
  5
135
330
1F
100
AcDbEntity
  8
LINEE VISIBILI 2D
100
AcDbSpline
210
0.0
220
0.0
230
1.0
 70
    12
 71
     2
 72
     6
 73
     3
 74
     0
 42
0.0000000001
 43
0.0000000001
 40
0.0
 40
0.0
 40
0.0
 40
0.1382370335171909
 40
0.1382370335171909
 40
0.1382370335171909
 10
-465.0961612185254
 20
378.5730093963376
 30
0.0
 41
1.0
 10
-465.0407679215477
 20
378.6143489558865
 30
0.0
 41
0.9999988736222308
 10
-464.9854989685678
 20
378.6558546105645
 30
0.0
 41
1.0
  0
SPLINE
  5
136
330
1F
100
AcDbEntity
  8
LINEE VISIBILI 2D
100
AcDbSpline
210
0.0
220
0.0
230
1.0
 70
    12
 71
     2
 72
     6
 73
     3
 74
     0
 42
0.0000000001
 43
0.0000000001
 40
0.0
 40
0.0
 40
0.0
 40
0.7107090193609837
 40
0.7107090193609837
 40
0.7107090193609837
 10
-472.2145800578134
 20
379.561373445334
 30
0.0
 41
1.0
 10
-472.529544926292
 20
379.3966539613236
 30
0.0
 41
0.9996524137671395
 10
-472.8527542158667
 20
379.248765043819
 30
0.0
 41
1.0
  0
SPLINE
  5
139
330
1F
100
AcDbEntity
  8
LINEE VISIBILI 2D
100
AcDbSpline
210
0.0
220
0.0
230
1.0
 70
    12
 71
     3
 72
    13
 73
     9
 74
     0
 42
0.0000000001
 43
0.0000000001
 40
228.9109829712813
 40
228.9109829712813
 40
228.9109829712813
 40
228.9109829712813
 40
233.489202630706
 40
234.404846562591
 40
238.067422290132
 40
242.645641949558
 40
247.223861608983
 40
255.8797480504132
 40
255.8797480504132
 40
255.8797480504132
 40
255.8797480504132
 10
-461.1621472127966
 20
16.80730351562262
 30
0.0
 41
1.0
 10
-461.134412624864
 20
16.84953546645832
 30
0.0
 41
1.0
 10
-461.1178113913187
 20
16.90143739407232
 30
0.0
 41
1.0
 10
-461.1233032079466
 20
16.98908825575397
 30
0.0
 41
1.0
 10
-461.1561872729364
 20
17.07745556127602
 30
0.0
 41
1.0
 10
-461.2688142425731
 20
17.2005592944661
 30
0.0
 41
1.0
 10
-461.5074753228793
 20
17.36790054550943
 30
0.0
 41
1.0
 10
-461.7554030901409
 20
17.4858243472769
 30
0.0
 41
1.0
 10
-461.9578297147469
 20
17.52713322729003
 30
0.0
 41
1.0
  0
SPLINE
  5
13A
330
1F
100
AcDbEntity
  8
LINEE VISIBILI 2D
100
AcDbSpline
210
0.0
220
0.0
230
1.0
 70
    24
 71
     2
 72
     6
 73
     3
 74
     0
 42
0.0000000001
 43
0.0000000001
 40
0.0
 40
0.0
 40
0.0
 40
0.0100041849752586
 40
0.0100041849752586
 40
0.0100041849752586
 10
-488.3962095459394
 20
16.08726832254274
 30
0.0
 10
-488.3912074534517
 20
16.08726832254274
 30
0.0
 10
-488.3862053609641
 20
16.08726832254274
 30
0.0
  0
SPLINE
  5
13B
330
1F
100
AcDbEntity
  8
LINEE VISIBILI 2D
100
AcDbSpline
210
0.0
220
0.0
230
1.0
 70
    12
 71
     2
 72
     6
 73
     3
 74
     0
 42
0.0000000001
 43
0.0000000001
 40
0.0
 40
0.0
 40
0.0
 40
0.0336237179834859
 40
0.0336237179834859
 40
0.0336237179834859
 10
-474.494599814326
 20
378.6007470207207
 30
0.0
 41
1.0
 10
-474.5102635525388
 20
378.594550605219
 30
0.0
 41
0.9970666786433062
 10
-474.5266895111837
 20
378.5908174909074
 30
0.0
 41
1.0
  0
SPLINE
  5
13D
330
1F
100
AcDbEntity
  8
LINEE VISIBILI 2D
100
AcDbSpline
210
0.0
220
0.0
230
1.0
 70
    12
 71
     2
 72
     6
 73
     3
 74
     0
 42
0.0000000001
 43
0.0000000001
 40
0.0
 40
0.0
 40
0.0
 40
0.2722132979134741
 40
0.2722132979134741
 40
0.2722132979134741
 10
-555.6592519729081
 20
165.9457069960483
 30
0.0
 41
1.0
 10
-555.7894344087555
 20
165.985426011236
 30
0.0
 41
0.999998102013431
 10
-555.9194610854749
 20
166.0256519992537
 30
0.0
 41
1.0
  0
SPLINE
  5
13E
330
1F
100
AcDbEntity
  8
LINEE VISIBILI 2D
100
AcDbSpline
210
0.0
220
0.0
230
1.0
 70
    12
 71
     2
 72
     6
 73
     3
 74
     0
 42
0.0000000001
 43
0.0000000001
 40
0.0
 40
0.0
 40
0.0
 40
4.535167366412244
 40
4.535167366412244
 40
4.535167366412244
 10
-543.3385393829886
 20
165.0998737973741
 30
0.0
 41
1.0
 10
-545.5731420963619
 20
164.6742090669304
 30
0.0
 41
0.9952592031411306
 10
-547.8478761350777
 20
164.6892024810429
 30
0.0
 41
1.0
  0
SPLINE
  5
13F
330
1F
100
AcDbEntity
  8
LINEE VISIBILI 2D
100
AcDbSpline
210
0.0
220
0.0
230
1.0
 70
    12
 71
     2
 72
     6
 73
     3
 74
     0
 42
0.0000000001
 43
0.0000000001
 40
0.0
 40
0.0
 40
0.0
 40
2.875192271776036
 40
2.875192271776036
 40
2.875192271776036
 10
-547.8478761350777
 20
164.6892024810429
 30
0.0
 41
1.0
 10
-549.2865144846316
 20
164.7182676423321
 30
0.0
 41
0.9986081018383083
 10
-550.7140869369783
 20
164.8987170194734
 30
0.0
 41
1.0
  0
SPLINE
  5
140
330
1F
100
AcDbEntity
  8
LINEE VISIBILI 2D
100
AcDbSpline
210
0.0
220
0.0
230
1.0
 70
    12
 71
     2
 72
     6
 73
     3
 74
     0
 42
0.0000000001
 43
0.0000000001
 40
0.0
 40
0.0
 40
0.0
 40
5.051573053018822
 40
5.051573053018822
 40
5.051573053018822
 10
-550.7235734210125
 20
164.8998198632246
 30
0.0
 41
1.0
 10
-553.2368827307776
 20
165.208090918923
 30
0.0
 41
0.996238015998874
 10
-555.6592150205012
 20
165.9456958324763
 30
0.0
 41
1.0
  0
SPLINE
  5
141
330
1F
100
AcDbEntity
  8
LINEE VISIBILI 2D
100
AcDbSpline
210
0.0
220
0.0
230
1.0
 70
    12
 71
     2
 72
     8
 73
     5
 74
     0
 42
0.0000000001
 43
0.0000000001
 40
0.0
 40
0.0
 40
0.0
 40
1.725148631951691
 40
1.725148631951691
 40
4.120075260536541
 40
4.120075260536541
 40
4.120075260536541
 10
-532.8619988256384
 20
164.1677580041734
 30
0.0
 41
1.0
 10
-532.1098542798337
 20
164.5904340287442
 30
0.0
 41
0.9996554234562481
 10
-531.3809286328138
 20
165.0520007526828
 30
0.0
 41
1.0
 10
-530.370226435519
 20
165.694339108672
 30
0.0
 41
0.9998958731726647
 10
-529.3784819330714
 20
166.3655770225715
 30
0.0
 41
1.0
  0
SPLINE
  5
142
330
1F
100
AcDbEntity
  8
LINEE VISIBILI 2D
100
AcDbSpline
210
0.0
220
0.0
230
1.0
 70
    12
 71
     2
 72
     6
 73
     3
 74
     0
 42
0.0000000001
 43
0.0000000001
 40
0.0
 40
0.0
 40
0.0
 40
0.9559622249593109
 40
0.9559622249593109
 40
0.9559622249593109
 10
-547.1131122739298
 20
180.5331742219881
 30
0.0
 41
1.0
 10
-547.5887107896725
 20
180.5812316709446
 30
0.0
 41
0.9998768415501363
 10
-548.0655832656644
 20
180.6143391960426
 30
0.0
 41
1.0
  0
SPLINE
  5
143
330
1F
100
AcDbEntity
  8
LINEE VISIBILI 2D
100
AcDbSpline
210
0.0
220
0.0
230
1.0
 70
    12
 71
     3
 72
    12
 73
     8
 74
     0
 42
0.0000000001
 43
0.0000000001
 40
1.825506756729519
 40
1.825506756729519
 40
1.825506756729519
 40
1.825506756729519
 40
13.0749462616146
 40
13.0749462616146
 40
26.1498925232292
 40
26.1498925232292
 40
34.25176331445547
 40
34.25176331445547
 40
34.25176331445547
 40
34.25176331445547
 10
-529.3399888427528
 20
166.3936472611199
 30
0.0
 41
642.0551543733846
 10
-529.0943444003231
 20
166.5739045067513
 30
0.0
 41
641.796584423766
 10
-528.8610591848102
 20
166.7668531459186
 30
0.0
 41
641.5370521690825
 10
-528.3896896831103
 20
167.2172038939793
 30
0.0
 41
640.9741750949359
 10
-528.1567998534589
 20
167.4799330043632
 30
0.0
 41
640.6704479501073
 10
-527.828776982175
 20
167.9544585854933
 30
0.0
 41
640.1756782828788
 10
-527.7147117758329
 20
168.1483761450138
 30
0.0
 41
639.9851604523355
 10
-527.6186589267135
 20
168.3539965261508
 30
0.0
 41
639.7975410101243
  0
SPLINE
  5
144
330
1F
100
AcDbEntity
  8
LINEE VISIBILI 2D
100
AcDbSpline
210
0.0
220
0.0
230
1.0
 70
    12
 71
     2
 72
     6
 73
     3
 74
     0
 42
0.0000000001
 43
0.0000000001
 40
0.0
 40
0.0
 40
0.0
 40
0.2004327118222085
 40
0.2004327118222085
 40
0.2004327118222085
 10
-547.2836163705628
 20
160.8248205147866
 30
0.0
 41
1.0
 10
-547.3837086001708
 20
160.8298200406306
 30
0.0
 41
0.9999901656382721
 10
-547.4837525477421
 20
160.8357071656506
 30
0.0
 41
1.0
  0
SPLINE
  5
145
330
1F
100
AcDbEntity
  8
LINEE VISIBILI 2D
100
AcDbSpline
210
0.0
220
0.0
230
1.0
 70
    12
 71
     2
 72
     6
 73
     3
 74
     0
 42
0.0000000001
 43
0.0000000001
 40
0.0
 40
0.0
 40
0.0
 40
2.502949403509978
 40
2.502949403509978
 40
2.502949403509978
 10
-547.8231875261408
 20
160.8582262731959
 30
0.0
 41
1.0
 10
-549.0723274879628
 20
160.9514286558774
 30
0.0
 41
0.9986384028704204
 10
-550.3049579420934
 20
161.1742727536402
 30
0.0
 41
1.0
  0
SPLINE
  5
146
330
1F
100
AcDbEntity
  8
LINEE VISIBILI 2D
100
AcDbSpline
210
0.0
220
0.0
230
1.0
 70
    12
 71
     2
 72
     6
 73
     3
 74
     0
 42
0.0000000001
 43
0.0000000001
 40
0.0
 40
0.0
 40
0.0
 40
0.0953800269981723
 40
0.0953800269981723
 40
0.0953800269981723
 10
-555.4186186351556
 20
170.2642354431028
 30
0.0
 41
1.0
 10
-555.3785167976374
 20
170.2384247052898
 30
0.0
 41
0.9999953268271545
 10
-555.3382578945403
 20
170.2128596455359
 30
0.0
 41
1.0
  0
SPLINE
  5
147
330
1F
100
AcDbEntity
  8
LINEE VISIBILI 2D
100
AcDbSpline
210
0.0
220
0.0
230
1.0
 70
    12
 71
     2
 72
     6
 73
     3
 74
     0
 42
0.0000000001
 43
0.0000000001
 40
0.0
 40
0.0
 40
0.0
 40
0.009872454759191
 40
0.009872454759191
 40
0.009872454759191
 10
-553.1240286150667
 20
169.0119464235882
 30
0.0
 41
1.0
 10
-553.1195556213467
 20
169.0098586811187
 30
0.0
 41
0.9999999785982522
 10
-553.1150817641433
 20
169.0077727896638
 30
0.0
 41
1.0
  0
SPLINE
  5
148
330
1F
100
AcDbEntity
  8
LINEE VISIBILI 2D
100
AcDbSpline
210
0.0
220
0.0
230
1.0
 70
    12
 71
     2
 72
     6
 73
     3
 74
     0
 42
0.0000000001
 43
0.0000000001
 40
0.0
 40
0.0
 40
0.0
 40
0.5502667636943456
 40
0.5502667636943456
 40
0.5502667636943456
 10
-462.4777823899908
 20
17.70618367227065
 30
0.0
 41
1.0
 10
-462.212278028011
 20
17.63271152942496
 30
0.0
 41
0.9980990122231265
 10
-461.9578297147469
 20
17.52713322729003
 30
0.0
 41
1.0
  0
SPLINE
  5
149
330
1F
100
AcDbEntity
  8
LINEE VISIBILI 2D
100
AcDbSpline
210
0.0
220
0.0
230
1.0
 70
    12
 71
     2
 72
     6
 73
     3
 74
     0
 42
0.0000000001
 43
0.0000000001
 40
0.0
 40
0.0
 40
0.0
 40
0.4540145147178678
 40
0.4540145147178678
 40
0.4540145147178678
 10
-472.2145800578135
 20
12.47240808512892
 30
0.0
 41
1.0
 10
-472.4401035184246
 20
12.44648154600064
 30
0.0
 41
0.9999894947376573
 10
-472.6658551794255
 20
12.42262354372548
 30
0.0
 41
1.0
  0
SPLINE
  5
14A
330
1F
100
AcDbEntity
  8
LINEE VISIBILI 2D
100
AcDbSpline
210
0.0
220
0.0
230
1.0
 70
    12
 71
     2
 72
     6
 73
     3
 74
     0
 42
0.0000000001
 43
0.0000000001
 40
0.0
 40
0.0
 40
0.0
 40
0.0844277027940189
 40
0.0844277027940189
 40
0.0844277027940189
 10
-464.676245680731
 20
378.8899983682299
 30
0.0
 41
1.0
 10
-464.6426859143426
 20
378.9156060237078
 30
0.0
 41
0.999999709871167
 10
-464.6091651999682
 20
378.9412647775153
 30
0.0
 41
1.0
  0
SPLINE
  5
14C
330
1F
100
AcDbEntity
  8
LINEE VISIBILI 2D
100
AcDbSpline
210
0.0
220
0.0
230
1.0
 70
    12
 71
     2
 72
     6
 73
     3
 74
     0
 42
0.0000000001
 43
0.0000000001
 40
0.0
 40
0.0
 40
0.0
 40
0.3171251754573409
 40
0.3171251754573409
 40
0.3171251754573409
 10
-479.3019838156888
 20
14.66995567021939
 30
0.0
 41
1.0
 10
-479.4602873137424
 20
14.66089478953235
 30
0.0
 41
0.9999999156516954
 10
-479.6185833152907
 20
14.65170387289747
 30
0.0
 41
1.0
  0
SPLINE
  5
14D
330
1F
100
AcDbEntity
  8
LINEE VISIBILI 2D
100
AcDbSpline
210
0.0
220
0.0
230
1.0
 70
     8
 71
     3
 72
    10
 73
     6
 74
     0
 42
0.0000000001
 43
0.0000000001
 40
0.0
 40
0.0
 40
0.0
 40
0.0
 40
1.408097737563768
 40
1.79028960730344
 40
2.137497570080621
 40
2.137497570080621
 40
2.137497570080621
 40
2.137497570080621
 10
-553.0711256910371
 20
168.4102971954034
 30
0.0
 10
-553.1074448247602
 20
167.9423547322681
 30
0.0
 10
-553.1402708949419
 20
167.3463239161529
 30
0.0
 10
-553.2109782570667
 20
166.6372455570934
 30
0.0
 10
-553.2463639025859
 20
166.3965944792088
 30
0.0
 10
-553.2653586256862
 20
166.2824485864906
 30
0.0
  0
SPLINE
  5
14E
330
1F
100
AcDbEntity
  8
LINEE VISIBILI 2D
100
AcDbSpline
210
0.0
220
0.0
230
1.0
 70
     8
 71
     3
 72
    12
 73
     8
 74
     0
 42
0.0000000001
 43
0.0000000001
 40
0.0
 40
0.0
 40
0.0
 40
0.0
 40
1.639516547567052
 40
3.802941689553461
 40
8.379769474897226
 40
12.93101808305841
 40
17.17912477188765
 40
17.17912477188765
 40
17.17912477188765
 40
17.17912477188765
 10
-566.0208809907284
 20
169.82395140884
 30
0.0
 10
-565.7066304112162
 20
169.3753864482455
 30
0.0
 10
-564.8311761499249
 20
168.4542475497827
 30
0.0
 10
-562.6952142867009
 20
166.6476780517303
 30
0.0
 10
-559.4585910156913
 20
164.691090501072
 30
0.0
 10
-555.2705166853146
 20
163.1098385702556
 30
0.0
 10
-552.3644939543108
 20
162.6122423179417
 30
0.0
 10
-550.9511673256898
 20
162.524809710025
 30
0.0
  0
SPLINE
  5
14F
330
1F
100
AcDbEntity
  8
LINEE VISIBILI 2D
100
AcDbSpline
210
0.0
220
0.0
230
1.0
 70
     8
 71
     3
 72
    12
 73
     8
 74
     0
 42
0.0000000001
 43
0.0000000001
 40
0.0
 40
0.0
 40
0.0
 40
0.0
 40
1.363620803446375
 40
2.757926159420655
 40
5.539812499386734
 40
8.3581803747691
 40
11.20224596529329
 40
11.20224596529329
 40
11.20224596529329
 40
11.20224596529329
 10
-553.0034991234053
 20
168.4523473173856
 30
0.0
 10
-552.5964069872974
 20
168.2504230574745
 30
0.0
 10
-551.7588878950919
 20
167.8695428533919
 30
0.0
 10
-550.0408217462181
 20
167.19293961441
 30
0.0
 10
-547.8091415584068
 20
166.5025773821173
 30
0.0
 10
-545.0362607873285
 20
165.9980467620671
 30
0.0
 10
-543.1576887332429
 20
165.8055481749992
 30
0.0
 10
-542.2105415419797
 20
165.7578254687592
 30
0.0
  0
SPLINE
  5
151
330
1F
100
AcDbEntity
  8
LINEE VISIBILI 2D
100
AcDbSpline
210
0.0
220
0.0
230
1.0
 70
    12
 71
     2
 72
     6
 73
     3
 74
     0
 42
0.0000000001
 43
0.0000000001
 40
0.0
 40
0.0
 40
0.0
 40
0.832729908898665
 40
0.832729908898665
 40
0.832729908898665
 10
-552.2266284642015
 20
168.0989913691472
 30
0.0
 41
1.0
 10
-552.6058981608619
 20
168.2709125310807
 30
0.0
 41
0.9998156872548097
 10
-552.9782881445499
 20
168.4572672701516
 30
0.0
 41
1.0
  0
SPLINE
  5
152
330
1F
100
AcDbEntity
  8
LINEE VISIBILI 2D
100
AcDbSpline
210
0.0
220
0.0
230
1.0
 70
    12
 71
     2
 72
     6
 73
     3
 74
     0
 42
0.0000000001
 43
0.0000000001
 40
0.0
 40
0.0
 40
0.0
 40
0.0040245696460575
 40
0.0040245696460575
 40
0.0040245696460575
 10
-501.9244261879079
 20
13.19177918910354
 30
0.0
 41
1.0
 10
-501.9232851385097
 20
13.19343668619049
 30
0.0
 41
0.999999978996443
 10
-501.9221434097783
 20
13.19509371540752
 30
0.0
 41
1.0
  0
SPLINE
  5
153
330
1F
100
AcDbEntity
  8
LINEE VISIBILI 2D
100
AcDbSpline
210
0.0
220
0.0
230
1.0
 70
    12
 71
     2
 72
     6
 73
     3
 74
     0
 42
0.0000000001
 43
0.0000000001
 40
0.0
 40
0.0
 40
0.0
 40
3.088716600434385
 40
3.088716600434385
 40
3.088716600434385
 10
-486.1337236692431
 20
15.21487641513715
 30
0.0
 41
1.0
 10
-484.5912276179219
 20
15.29081762111102
 30
0.0
 41
0.9999941587471179
 10
-483.0492867323782
 20
15.3773013802518
 30
0.0
 41
1.0
  0
SPLINE
  5
154
330
1F
100
AcDbEntity
  8
LINEE VISIBILI 2D
100
AcDbSpline
210
0.0
220
0.0
230
1.0
 70
    12
 71
     2
 72
     6
 73
     3
 74
     0
 42
0.0000000001
 43
0.0000000001
 40
0.0
 40
0.0
 40
0.0
 40
0.836620580323251
 40
0.836620580323251
 40
0.836620580323251
 10
-475.4583590886849
 20
373.7484554828283
 30
0.0
 41
1.0
 10
-475.0514870153335
 20
373.8457175638037
 30
0.0
 41
0.9999087267363671
 10
-474.6473913931971
 20
373.9539373616183
 30
0.0
 41
1.0
  0
SPLINE
  5
155
330
1F
100
AcDbEntity
  8
LINEE VISIBILI 2D
100
AcDbSpline
210
0.0
220
0.0
230
1.0
 70
     8
 71
     3
 72
    15
 73
    11
 74
     0
 42
0.0000000001
 43
0.0000000001
 40
0.0
 40
0.0
 40
0.0
 40
0.0
 40
3.001603731328732
 40
6.025431932156605
 40
11.96859737525134
 40
14.63443046062571
 40
16.79508106167167
 40
18.33758524198444
 40
18.83422002658739
 40
19.15696755929765
 40
19.15696755929765
 40
19.15696755929765
 40
19.15696755929765
 10
-480.0566239081843
 20
19.73883525687996
 30
0.0
 10
-479.0561764206481
 20
19.7300305839348
 30
0.0
 10
-477.0479326156107
 20
19.67927109555734
 30
0.0
 10
-473.0648513536722
 20
19.44680557312697
 30
0.0
 10
-469.2056982197954
 20
19.04908255237459
 30
0.0
 10
-465.6594351167462
 20
18.48364323698401
 30
0.0
 10
-463.5828116012243
 20
18.04033785863921
 30
0.0
 10
-462.2367880799872
 20
17.64689797215076
 30
0.0
 10
-461.5206241883449
 20
17.31398236951827
 30
0.0
 10
-461.303258443539
 20
17.14345506137713
 30
0.0
 10
-461.2383409076482
 20
17.05710194106666
 30
0.0
  0
SPLINE
  5
159
330
1F
100
AcDbEntity
  8
LINEE VISIBILI 2D
100
AcDbSpline
210
0.0
220
0.0
230
1.0
 70
     8
 71
     3
 72
    15
 73
    11
 74
     0
 42
0.0000000001
 43
0.0000000001
 40
0.0
 40
0.0
 40
0.0
 40
0.0
 40
3.311961150920525
 40
7.204196147856711
 40
12.35108620489421
 40
14.09349771255186
 40
15.41594236877797
 40
16.35654026332806
 40
16.67182557585003
 40
16.8913793641948
 40
16.8913793641948
 40
16.8913793641948
 40
16.8913793641948
 10
-480.0399698663813
 20
15.55485038541911
 30
0.0
 10
-478.9377653701061
 20
15.61749592290658
 30
0.0
 10
-476.5407666817002
 20
15.76320162316555
 30
0.0
 10
-472.4324682952133
 20
16.03070594440083
 30
0.0
 10
-468.8475888760081
 20
16.286052256316
 30
0.0
 10
-466.1217511344442
 20
16.53794996142831
 30
0.0
 10
-464.7955986751227
 20
16.69267969443158
 30
0.0
 10
-463.9457040122777
 20
16.82321936542047
 30
0.0
 10
-463.4663226499394
 20
16.93471733574023
 30
0.0
 10
-463.2971647428278
 20
16.99222045408931
 30
0.0
 10
-463.2312612505126
 20
17.02424290653259
 30
0.0
  0
SPLINE
  5
15A
330
1F
100
AcDbEntity
  8
LINEE VISIBILI 2D
100
AcDbSpline
210
0.0
220
0.0
230
1.0
 70
    12
 71
     2
 72
     6
 73
     3
 74
     0
 42
0.0000000001
 43
0.0000000001
 40
0.0
 40
0.0
 40
0.0
 40
0.0726824431279146
 40
0.0726824431279146
 40
0.0726824431279146
 10
-486.1414786137124
 20
15.21447884038729
 30
0.0
 41
1.0
 10
-486.1777718463816
 20
15.21261121617793
 30
0.0
 41
0.9999986523889926
 10
-486.2140587512187
 20
15.21062443608312
 30
0.0
 41
1.0
  0
SPLINE
  5
15B
330
1F
100
AcDbEntity
  8
LINEE VISIBILI 2D
100
AcDbSpline
210
0.0
220
0.0
230
1.0
 70
    12
 71
     2
 72
     6
 73
     3
 74
     0
 42
0.0000000001
 43
0.0000000001
 40
0.0
 40
0.0
 40
0.0
 40
0.0615958476276493
 40
0.0615958476276493
 40
0.0615958476276493
 10
-501.9232849686686
 20
13.19343656923443
 30
0.0
 41
1.0
 10
-501.8852507990959
 20
13.24820747467972
 30
0.0
 41
0.9999950903687997
 10
-501.8675959764847
 20
13.27344258468847
 30
0.0
 41
1.0
  0
SPLINE
  5
15C
330
1F
100
AcDbEntity
  8
LINEE VISIBILI 2D
100
AcDbSpline
210
0.0
220
0.0
230
1.0
 70
    12
 71
     2
 72
     8
 73
     5
 74
     0
 42
0.0000000001
 43
0.0000000001
 40
0.0
 40
0.0
 40
0.0
 40
20.44864620507907
 40
20.44864620507907
 40
40.89729241015813
 40
40.89729241015813
 40
40.89729241015813
 10
-466.7433760457415
 20
12.5700799038874
 30
0.0
 41
1.0
 10
-468.7148876695724
 20
0.5606259570771947
 30
0.0
 41
0.7765520141291739
 10
-480.8728573384824
 20
0.0150842874258839
 30
0.0
 41
1.0
 10
-493.030827007392
 20
-0.5304573822254249
 30
0.0
 41
0.7765520141291739
 10
-496.0700052296217
 20
11.25416131830883
 30
0.0
 41
1.0
  0
SPLINE
  5
15D
330
1F
100
AcDbEntity
  8
LINEE VISIBILI 2D
100
AcDbSpline
210
0.0
220
0.0
230
1.0
 70
     8
 71
     3
 72
    12
 73
     8
 74
     0
 42
0.0000000001
 43
0.0000000001
 40
0.0
 40
0.0
 40
0.0
 40
0.0
 40
0.9852397962391082
 40
2.170436867358994
 40
4.936554638175604
 40
8.288177989561093
 40
12.44764765910149
 40
12.44764765910149
 40
12.44764765910149
 40
12.44764765910149
 10
-501.9040525275817
 20
383.7870724070286
 30
0.0
 10
-501.9006652762008
 20
384.1156718772164
 30
0.0
 10
-501.7694853800586
 20
384.8359037480599
 30
0.0
 10
-500.9678741865745
 20
386.2980871985761
 30
0.0
 10
-499.1182402670477
 20
387.9320362417595
 30
0.0
 10
-496.0824831224285
 20
389.5377318560846
 30
0.0
 10
-493.6985511181973
 20
390.3373690278727
 30
0.0
 10
-492.3601881919235
 20
390.6940811324756
 30
0.0
  0
SPLINE
  5
15E
330
1F
100
AcDbEntity
  8
LINEE VISIBILI 2D
100
AcDbSpline
210
0.0
220
0.0
230
1.0
 70
    12
 71
     2
 72
     6
 73
     3
 74
     0
 42
0.0000000001
 43
0.0000000001
 40
0.0
 40
0.0
 40
0.0
 40
2.657263642443731
 40
2.657263642443731
 40
2.657263642443731
 10
-476.8997403243528
 20
29.26252055111968
 30
0.0
 41
1.0
 10
-475.6331661849427
 20
28.8498362787487
 30
0.0
 41
0.9960875035503217
 10
-474.4590295782987
 20
28.22061327517744
 30
0.0
 41
1.0
  0
SPLINE
  5
15F
330
1F
100
AcDbEntity
  8
LINEE VISIBILI 2D
100
AcDbSpline
210
0.0
220
0.0
230
1.0
 70
     8
 71
     3
 72
    13
 73
     9
 74
     0
 42
0.0000000001
 43
0.0000000001
 40
0.0
 40
0.0
 40
0.0
 40
0.0
 40
0.0457233439062281
 40
0.0903813289539795
 40
0.1804492101891844
 40
0.4170473727978207
 40
0.4458867533237542
 40
0.5739432319010486
 40
0.5739432319010486
 40
0.5739432319010486
 40
0.5739432319010486
 10
-567.9655658999364
 20
210.3481082383295
 30
0.0
 10
-567.9823739727017
 20
210.348974611196
 30
0.0
 10
-568.0076806215613
 20
210.3551193081841
 30
0.0
 10
-568.0642038300011
 20
210.3956403132879
 30
0.0
 10
-568.0662231505075
 20
210.5223508975145
 30
0.0
 10
-568.0671794018535
 20
210.6386196690438
 30
0.0
 10
-568.0617303404349
 20
210.7711570261256
 30
0.0
 10
-568.0070105504204
 20
210.8095477083506
 30
0.0
 10
-567.9655437631743
 20
210.8086866807016
 30
0.0
  0
SPLINE
  5
160
330
1F
100
AcDbEntity
  8
LINEE VISIBILI 2D
100
AcDbSpline
210
0.0
220
0.0
230
1.0
 70
    12
 71
     2
 72
     6
 73
     3
 74
     0
 42
0.0000000001
 43
0.0000000001
 40
0.0
 40
0.0
 40
0.0
 40
0.2684831728205955
 40
0.2684831728205955
 40
0.2684831728205955
 10
-477.8665709627833
 20
373.2744953406226
 30
0.0
 41
1.0
 10
-477.7338749266296
 20
373.2948140404781
 30
0.0
 41
0.9999881783139301
 10
-477.6013827594069
 20
373.3164222148407
 30
0.0
 41
1.0
  0
SPLINE
  5
161
330
1F
100
AcDbEntity
  8
LINEE VISIBILI 2D
100
AcDbSpline
210
0.0
220
0.0
230
1.0
 70
    12
 71
     2
 72
     6
 73
     3
 74
     0
 42
0.0000000001
 43
0.0000000001
 40
0.0
 40
0.0
 40
0.0
 40
1.044914106141035
 40
1.044914106141035
 40
1.044914106141035
 10
-546.9762807718271
 20
179.5250164705953
 30
0.0
 41
1.0
 10
-546.9374015037845
 20
180.0540868973828
 30
0.0
 41
0.9774209004927593
 10
-547.1205325360858
 20
180.5519725659783
 30
0.0
 41
1.0
  0
SPLINE
  5
162
330
1F
100
AcDbEntity
  8
LINEE VISIBILI 2D
100
AcDbSpline
210
0.0
220
0.0
230
1.0
 70
    12
 71
     2
 72
     6
 73
     3
 74
     0
 42
0.0000000001
 43
0.0000000001
 40
0.0
 40
0.0
 40
0.0
 40
0.246696160826672
 40
0.246696160826672
 40
0.246696160826672
 10
-529.34981717264
 20
166.4061707941836
 30
0.0
 41
1.0
 10
-529.4456763619518
 20
166.3284835863963
 30
0.0
 41
0.9995301436354571
 10
-529.5461155976439
 20
166.2568159761194
 30
0.0
 41
1.0
  0
SPLINE
  5
163
330
1F
100
AcDbEntity
  8
LINEE VISIBILI 2D
100
AcDbSpline
210
0.0
220
0.0
230
1.0
 70
     8
 71
     3
 72
    14
 73
    10
 74
     0
 42
0.0000000001
 43
0.0000000001
 40
0.0
 40
0.0
 40
0.0
 40
0.0
 40
1.774200104222725
 40
3.341423435373467
 40
4.989513298504601
 40
6.858321872877729
 40
9.122385493767902
 40
11.68197094126632
 40
17.62060875303957
 40
17.62060875303957
 40
17.62060875303957
 40
17.62060875303957
 10
-567.5283071416164
 20
172.1770891749369
 30
0.0
 10
-567.758401458049
 20
172.7194870526814
 30
0.0
 10
-568.0972958018883
 20
173.7987517668436
 30
0.0
 10
-567.9700987706346
 20
175.4905485385559
 30
0.0
 10
-567.1672399442837
 20
177.0183699013108
 30
0.0
 10
-565.7771305845351
 20
178.3734032404018
 30
0.0
 10
-563.8641187355346
 20
179.5431349073699
 30
0.0
 10
-560.5186676698956
 20
180.8638708799517
 30
0.0
 10
-557.7114583493778
 20
181.3789758830688
 30
0.0
 10
-555.7407826759408
 20
181.5473669870798
 30
0.0
  0
SPLINE
  5
164
330
1F
100
AcDbEntity
  8
LINEE VISIBILI 2D
100
AcDbSpline
210
0.0
220
0.0
230
1.0
 70
    12
 71
     2
 72
     6
 73
     3
 74
     0
 42
0.0000000001
 43
0.0000000001
 40
0.0
 40
0.0
 40
0.0
 40
0.1898527381372651
 40
0.1898527381372651
 40
0.1898527381372651
 10
-555.7407826759408
 20
181.5473669870798
 30
0.0
 41
1.0
 10
-555.7601279961484
 20
181.4543499310155
 30
0.0
 41
0.9987204846532202
 10
-555.7699785353857
 20
181.3598545289604
 30
0.0
 41
1.0
  0
SPLINE
  5
165
330
1F
100
AcDbEntity
  8
LINEE VISIBILI 2D
100
AcDbSpline
210
0.0
220
0.0
230
1.0
 70
    12
 71
     2
 72
     6
 73
     3
 74
     0
 42
0.0000000001
 43
0.0000000001
 40
0.0
 40
0.0
 40
0.0
 40
1.388896884130067
 40
1.388896884130067
 40
1.388896884130067
 10
-549.1885441790693
 20
181.4554301619055
 30
0.0
 41
1.0
 10
-548.497811431051
 20
181.3826649147975
 30
0.0
 41
0.9997701013317856
 10
-547.8108335011504
 20
181.280352480551
 30
0.0
 41
1.0
  0
SPLINE
  5
166
330
1F
100
AcDbEntity
  8
LINEE VISIBILI 2D
100
AcDbSpline
210
0.0
220
0.0
230
1.0
 70
    12
 71
     2
 72
     6
 73
     3
 74
     0
 42
0.0000000001
 43
0.0000000001
 40
0.0
 40
0.0
 40
0.0
 40
1.089856162964253
 40
1.089856162964253
 40
1.089856162964253
 10
-548.021528337195
 20
180.9732437408673
 30
0.0
 41
1.0
 10
-548.5557163622771
 20
181.0833911523152
 30
0.0
 41
0.9986317762252641
 10
-549.0984869849341
 20
181.1371438226774
 30
0.0
 41
1.0
  0
SPLINE
  5
167
330
1F
100
AcDbEntity
  8
LINEE VISIBILI 2D
100
AcDbSpline
210
0.0
220
0.0
230
1.0
 70
    12
 71
     2
 72
     6
 73
     3
 74
     0
 42
0.0000000001
 43
0.0000000001
 40
0.0
 40
0.0
 40
0.0
 40
0.2325486979575537
 40
0.2325486979575537
 40
0.2325486979575537
 10
-549.0984869849341
 20
181.1371438226774
 30
0.0
 41
1.0
 10
-549.2142598122991
 20
181.1479411521833
 30
0.0
 41
0.9999885918271608
 10
-549.3301305052368
 20
181.1576319931597
 30
0.0
 41
1.0
  0
SPLINE
  5
168
330
1F
100
AcDbEntity
  8
LINEE VISIBILI 2D
100
AcDbSpline
210
0.0
220
0.0
230
1.0
 70
    12
 71
     2
 72
     6
 73
     3
 74
     0
 42
0.0000000001
 43
0.0000000001
 40
0.0
 40
0.0
 40
0.0
 40
2.707211774927476
 40
2.707211774927476
 40
2.707211774927476
 10
-549.3301305052368
 20
181.1576319931597
 30
0.0
 41
1.0
 10
-550.6814806138208
 20
181.2366371836406
 30
0.0
 41
0.9999426822898646
 10
-552.0342125693681
 20
181.2866890820428
 30
0.0
 41
1.0
  0
SPLINE
  5
169
330
1F
100
AcDbEntity
  8
LINEE VISIBILI 2D
100
AcDbSpline
210
0.0
220
0.0
230
1.0
 70
    12
 71
     2
 72
     6
 73
     3
 74
     0
 42
0.0000000001
 43
0.0000000001
 40
0.0
 40
0.0
 40
0.0
 40
3.351785078418056
 40
3.351785078418056
 40
3.351785078418056
 10
-552.0342125693681
 20
181.2866890820428
 30
0.0
 41
1.0
 10
-553.7106647744521
 20
181.3446015476674
 30
0.0
 41
0.9986059229529889
 10
-555.3838803275048
 20
181.2254564150316
 30
0.0
 41
1.0
  0
SPLINE
  5
16A
330
1F
100
AcDbEntity
  8
LINEE VISIBILI 2D
100
AcDbSpline
210
0.0
220
0.0
230
1.0
 70
    12
 71
     2
 72
     6
 73
     3
 74
     0
 42
0.0000000001
 43
0.0000000001
 40
0.0
 40
0.0
 40
0.0
 40
0.0911751746798004
 40
0.0911751746798004
 40
0.0911751746798004
 10
-555.3838803275048
 20
181.2254564150316
 30
0.0
 41
1.0
 10
-555.3784967293714
 20
181.2707251218535
 30
0.0
 41
0.999996092825093
 10
-555.3728601268907
 20
181.3159630225418
 30
0.0
 41
1.0
  0
SPLINE
  5
16B
330
1F
100
AcDbEntity
  8
LINEE VISIBILI 2D
100
AcDbSpline
210
0.0
220
0.0
230
1.0
 70
    12
 71
     2
 72
     6
 73
     3
 74
     0
 42
0.0000000001
 43
0.0000000001
 40
0.0
 40
0.0
 40
0.0
 40
0.2620258939367144
 40
0.2620258939367144
 40
0.2620258939367144
 10
-555.3728601268907
 20
181.3159630225418
 30
0.0
 41
1.0
 10
-555.3560889696014
 20
181.4459881691514
 30
0.0
 41
0.9989780987120807
 10
-555.3511277831264
 20
181.5769965547475
 30
0.0
 41
1.0
  0
SPLINE
  5
16C
330
1F
100
AcDbEntity
  8
LINEE VISIBILI 2D
100
AcDbSpline
210
0.0
220
0.0
230
1.0
 70
    12
 71
     3
 72
    10
 73
     6
 74
     0
 42
0.0000000001
 43
0.0000000001
 40
-1.0
 40
-1.0
 40
-1.0
 40
-1.0
 40
-0.4999336540010386
 40
-0.4999336540010386
 40
-0.0000197194228849
 40
-0.0000197194228849
 40
-0.0000197194228849
 40
-0.0000197194228849
 10
-555.3511277831265
 20
181.5769965547475
 30
0.0
 41
645.9685920137527
 10
-554.0298196924551
 20
181.6749129489656
 30
0.0
 41
645.4007811671613
 10
-553.1541542686287
 20
181.6725956077062
 30
0.0
 41
645.0383456914182
 10
-551.4083279512497
 20
181.6327647985295
 30
0.0
 41
644.3256458465688
 10
-550.5207336296216
 20
181.5952885090803
 30
0.0
 41
643.9646605240879
 10
-549.1885441790693
 20
181.4554301619055
 30
0.0
 41
643.4634149811674
  0
SPLINE
  5
16D
330
1F
100
AcDbEntity
  8
LINEE VISIBILI 2D
100
AcDbSpline
210
0.0
220
0.0
230
1.0
 70
    12
 71
     2
 72
     6
 73
     3
 74
     0
 42
0.0000000001
 43
0.0000000001
 40
0.0
 40
0.0
 40
0.0
 40
0.0422846478187094
 40
0.0422846478187094
 40
0.0422846478187094
 10
-529.3399145280793
 20
166.3935394959699
 30
0.0
 41
1.0
 10
-529.3569685251822
 20
166.3810430535699
 30
0.0
 41
0.9999965946953356
 10
-529.3740875140039
 20
166.3686357931317
 30
0.0
 41
1.0
  0
SPLINE
  5
16E
330
1F
100
AcDbEntity
  8
LINEE VISIBILI 2D
100
AcDbSpline
210
0.0
220
0.0
230
1.0
 70
    12
 71
     2
 72
     6
 73
     3
 74
     0
 42
0.0000000001
 43
0.0000000001
 40
0.0
 40
0.0
 40
0.0
 40
1.45910561196101
 40
1.45910561196101
 40
1.45910561196101
 10
-542.4013228301511
 20
165.3026863720278
 30
0.0
 41
1.0
 10
-541.6916206487448
 20
165.4740753089293
 30
0.0
 41
0.9988686535412874
 10
-541.0014104525268
 20
165.7121115226044
 30
0.0
 41
1.0
  0
SPLINE
  5
16F
330
1F
100
AcDbEntity
  8
LINEE VISIBILI 2D
100
AcDbSpline
210
0.0
220
0.0
230
1.0
 70
    12
 71
     2
 72
     6
 73
     3
 74
     0
 42
0.0000000001
 43
0.0000000001
 40
0.0
 40
0.0
 40
0.0
 40
4.735086658980306
 40
4.735086658980306
 40
4.735086658980306
 10
-552.1895061218065
 20
168.5980477582833
 30
0.0
 41
1.0
 10
-550.0022649674313
 20
167.6799860591302
 30
0.0
 41
0.9971207096777209
 10
-547.7013447875247
 20
167.1032474038086
 30
0.0
 41
1.0
  0
SPLINE
  5
170
330
1F
100
AcDbEntity
  8
LINEE VISIBILI 2D
100
AcDbSpline
210
0.0
220
0.0
230
1.0
 70
    12
 71
     3
 72
    13
 73
     9
 74
     0
 42
0.0000000001
 43
0.0000000001
 40
0.0
 40
0.0
 40
0.0
 40
0.0
 40
2.376763152791536
 40
2.376763152791536
 40
3.532852592319027
 40
5.266987253849514
 40
6.278565519058496
 40
6.396434968892014
 40
6.396434968892014
 40
6.396434968892014
 40
6.396434968892014
 10
-561.3005365519001
 20
165.4512976376878
 30
0.0
 41
1.0
 10
-561.9400702698301
 20
165.8424773849681
 30
0.0
 41
1.0
 10
-562.564239324997
 20
166.2661550488757
 30
0.0
 41
1.0
 10
-563.4614685646702
 20
166.9503412031991
 30
0.0
 41
1.0
 10
-564.1825154576856
 20
167.5310395093467
 30
0.0
 41
1.0
 10
-565.1053314601439
 20
168.3955648013573
 30
0.0
 41
1.0
 10
-565.7335909307191
 20
169.0907740622095
 30
0.0
 41
1.0
 10
-565.9710859865714
 20
169.3764938062408
 30
0.0
 41
1.0
 10
-565.9957542850674
 20
169.4064382635797
 30
0.0
 41
1.0
  0
SPLINE
  5
171
330
1F
100
AcDbEntity
  8
LINEE VISIBILI 2D
100
AcDbSpline
210
0.0
220
0.0
230
1.0
 70
     8
 71
     3
 72
    17
 73
    13
 74
     0
 42
0.0000000001
 43
0.0000000001
 40
0.0
 40
0.0
 40
0.0
 40
0.0
 40
4.076587283565609
 40
8.337982808546977
 40
12.45751125004663
 40
16.25100139732056
 40
19.41573032868617
 40
21.96577853957978
 40
22.99068684334064
 40
23.91162176826544
 40
24.85551628183087
 40
25.73185612681897
 40
25.73185612681897
 40
25.73185612681897
 40
25.73185612681897
 10
-547.1205325360858
 20
180.5519725659783
 30
0.0
 10
-545.7679392120938
 20
180.4191163118363
 30
0.0
 10
-543.0193779861339
 20
179.9821091808835
 30
0.0
 10
-539.0062772991512
 20
178.8895072288528
 30
0.0
 10
-535.2232458640997
 20
177.4062471707798
 30
0.0
 10
-531.9620321321269
 20
175.654183803636
 30
0.0
 10
-529.4143149375753
 20
173.7550872718614
 30
0.0
 10
-527.9237020194348
 20
172.0421825955141
 30
0.0
 10
-527.3094264026793
 20
170.6606646459841
 30
0.0
 10
-527.1674775321336
 20
169.6977375432575
 30
0.0
 10
-527.3224043148702
 20
168.785504020115
 30
0.0
 10
-527.5937676338948
 20
168.235827931074
 30
0.0
 10
-527.7745143239132
 20
168.0050035020899
 30
0.0
  0
SPLINE
  5
172
330
1F
100
AcDbEntity
  8
LINEE VISIBILI 2D
100
AcDbSpline
210
0.0
220
0.0
230
1.0
 70
    12
 71
     3
 72
    10
 73
     6
 74
     0
 42
0.0000000001
 43
0.0000000001
 40
263.4786528355775
 40
263.4786528355775
 40
263.4786528355775
 40
263.4786528355775
 40
265.536740246686
 40
274.693179565536
 40
276.3313867266942
 40
276.3313867266942
 40
276.3313867266942
 40
276.3313867266942
 10
-528.194051746518
 20
167.4476860584525
 30
0.0
 41
640.7807311097411
 10
-528.1916604024143
 20
167.3995405482564
 30
0.0
 41
640.8631244069344
 10
-528.4173237312852
 20
167.1465814979923
 30
0.0
 41
641.156058176952
 10
-528.7007364950857
 20
166.882994489676
 30
0.0
 41
641.4889172576724
 10
-528.9522717447057
 20
166.6790803166794
 30
0.0
 41
641.764888647296
 10
-528.9915287341852
 20
166.6485284034329
 30
0.0
 41
641.8059926289989
  0
SPLINE
  5
173
330
1F
100
AcDbEntity
  8
LINEE VISIBILI 2D
100
AcDbSpline
210
0.0
220
0.0
230
1.0
 70
     8
 71
     3
 72
    17
 73
    13
 74
     0
 42
0.0000000001
 43
0.0000000001
 40
0.0
 40
0.0
 40
0.0
 40
0.0
 40
4.41964270385057
 40
8.574692329439425
 40
12.05945067417708
 40
13.58091968603885
 40
14.98521834188246
 40
16.45789117771119
 40
18.09316785727157
 40
21.93964265900989
 40
26.14618982733055
 40
30.33539608083136
 40
30.33539608083136
 40
30.33539608083136
 40
30.33539608083136
 10
-549.4139352231212
 20
162.1097720942387
 30
0.0
 10
-547.9413421876738
 20
162.1412819533396
 30
0.0
 10
-545.0899904841503
 20
162.5296545379492
 30
0.0
 10
-541.3051824971105
 20
163.9586697228085
 30
0.0
 10
-538.8279556895184
 20
165.8280004671341
 30
0.0
 10
-537.6448020479893
 20
167.6349896540578
 30
0.0
 10
-537.2169581471009
 20
169.05439071142
 30
0.0
 10
-537.2490955286987
 20
170.5749057070118
 30
0.0
 10
-537.9320831443717
 20
172.8121910479456
 30
0.0
 10
-539.8202822458824
 20
175.4901770937756
 30
0.0
 10
-543.0228459147493
 20
178.0663769900493
 30
0.0
 10
-545.6187187198587
 20
179.1950375649064
 30
0.0
 10
-546.9762807718271
 20
179.5250164705953
 30
0.0
  0
SPLINE
  5
174
330
1F
100
AcDbEntity
  8
LINEE VISIBILI 2D
100
AcDbSpline
210
0.0
220
0.0
230
1.0
 70
    12
 71
     3
 72
    10
 73
     6
 74
     0
 42
0.0000000001
 43
0.0000000001
 40
113.3288392394942
 40
113.3288392394942
 40
113.3288392394942
 40
113.3288392394942
 40
124.605351262105
 40
139.640700625587
 40
155.405101928479
 40
155.405101928479
 40
155.405101928479
 40
155.405101928479
 10
-547.653274958971
 20
160.8461967681003
 30
0.0
 41
647.2024276511381
 10
-547.8231142053297
 20
160.8568534884583
 30
0.0
 41
646.9046296293476
 10
-548.2168412016319
 20
160.9478402723013
 30
0.0
 41
646.2076580907262
 10
-548.8202789279463
 20
161.3394969271847
 30
0.0
 41
645.1162061230534
 10
-549.2229599973135
 20
161.8188132500022
 30
0.0
 41
644.3680799627957
 10
-549.4139352231213
 20
162.1097720942387
 30
0.0
 41
644.0069203097427
  0
SPLINE
  5
175
330
1F
100
AcDbEntity
  8
LINEE VISIBILI 2D
100
AcDbSpline
210
0.0
220
0.0
230
1.0
 70
    12
 71
     2
 72
    14
 73
    11
 74
     0
 42
0.0000000001
 43
0.0000000001
 40
0.0
 40
0.0
 40
0.0
 40
0.1073609531897811
 40
0.1073609531897811
 40
0.1948310078162459
 40
0.1948310078162459
 40
0.237332695819786
 40
0.237332695819786
 40
0.2970769346732406
 40
0.2970769346732406
 40
0.4218511888074041
 40
0.4218511888074041
 40
0.4218511888074041
 10
-540.045451636337
 20
179.5287184288218
 30
0.0
 41
1.0
 10
-540.0969721072853
 20
179.5437927328135
 30
0.0
 41
0.9999999999616935
 10
-540.148492314339
 20
179.5588679387085
 30
0.0
 41
1.0
 10
-540.1904676019755
 20
179.5711504868415
 30
0.0
 41
1.0
 10
-540.2324426321531
 20
179.5834325654799
 30
0.0
 41
1.0
 10
-540.2528378589159
 20
179.5893998195421
 30
0.0
 41
1.0
 10
-540.2732335205416
 20
179.5953676799321
 30
0.0
 41
1.0
 10
-540.3019034080891
 20
179.603756875913
 30
0.0
 41
1.0
 10
-540.3305734053757
 20
179.6121458433482
 30
0.0
 41
1.0
 10
-540.3904182067365
 20
179.6297762283836
 30
0.0
 41
0.9999841741970012
 10
-540.4504575850382
 20
179.6467323130471
 30
0.0
 41
1.0
  0
SPLINE
  5
176
330
1F
100
AcDbEntity
  8
LINEE VISIBILI 2D
100
AcDbSpline
210
0.0
220
0.0
230
1.0
 70
    12
 71
     2
 72
     8
 73
     5
 74
     0
 42
0.0000000001
 43
0.0000000001
 40
0.0
 40
0.0
 40
0.0
 40
3.197406890088067
 40
3.197406890088067
 40
6.375524418448431
 40
6.375524418448431
 40
6.375524418448431
 10
-540.4504575850382
 20
179.6467323130471
 30
0.0
 41
1.0
 10
-541.9876567856004
 20
180.0891380475777
 30
0.0
 41
0.9991641499938543
 10
-543.5558576504226
 20
180.4044954063394
 30
0.0
 41
1.0
 10
-545.1140950753617
 20
180.7208609803152
 30
0.0
 41
0.9990852984304831
 10
-546.6936657553494
 20
180.9029255727026
 30
0.0
 41
1.0
  0
SPLINE
  5
177
330
1F
100
AcDbEntity
  8
LINEE VISIBILI 2D
100
AcDbSpline
210
0.0
220
0.0
230
1.0
 70
    12
 71
     3
 72
     8
 73
     4
 74
     0
 42
0.0000000001
 43
0.0000000001
 40
-46.1990183650762
 40
-46.1990183650762
 40
-46.1990183650762
 40
-46.1990183650762
 40
-31.4159265358979
 40
-31.4159265358979
 40
-31.4159265358979
 40
-31.4159265358979
 10
-546.7965526705935
 20
160.3291086912005
 30
0.0
 41
648.9732901018018
 10
-546.539541407498
 20
160.4701045303206
 30
0.0
 41
649.4077525051514
 10
-546.6969075583571
 20
160.6409498184764
 30
0.0
 41
649.9349726465975
 10
-547.1590480834096
 20
160.7234393970147
 30
0.0
 41
650.1898379881758
  0
SPLINE
  5
178
330
1F
100
AcDbEntity
  8
LINEE VISIBILI 2D
100
AcDbSpline
210
0.0
220
0.0
230
1.0
 70
    12
 71
     2
 72
     6
 73
     3
 74
     0
 42
0.0000000001
 43
0.0000000001
 40
0.0
 40
0.0
 40
0.0
 40
0.0246994326647444
 40
0.0246994326647444
 40
0.0246994326647444
 10
-555.9208056825119
 20
170.5060474787968
 30
0.0
 41
1.0
 10
-555.9118670046084
 20
170.4975259990428
 30
0.0
 41
0.9999995752738993
 10
-555.9029126341309
 20
170.489021010553
 30
0.0
 41
1.0
  0
SPLINE
  5
179
330
1F
100
AcDbEntity
  8
LINEE VISIBILI 2D
100
AcDbSpline
210
0.0
220
0.0
230
1.0
 70
    12
 71
     2
 72
     6
 73
     3
 74
     0
 42
0.0000000001
 43
0.0000000001
 40
0.0
 40
0.0
 40
0.0
 40
0.0280975159262508
 40
0.0280975159262508
 40
0.0280975159262508
 10
-555.7447908834696
 20
181.5279671835076
 30
0.0
 41
1.0
 10
-555.7307902973295
 20
181.5291296018577
 30
0.0
 41
0.9999998921555514
 10
-555.716788637521
 20
181.5302790153143
 30
0.0
 41
1.0
  0
SPLINE
  5
17A
330
1F
100
AcDbEntity
  8
LINEE VISIBILI 2D
100
AcDbSpline
210
0.0
220
0.0
230
1.0
 70
    12
 71
     2
 72
     8
 73
     5
 74
     0
 42
0.0000000001
 43
0.0000000001
 40
0.0
 40
0.0
 40
0.0
 40
0.3193647087589719
 40
0.3193647087589719
 40
0.8746209782628939
 40
0.8746209782628939
 40
0.8746209782628939
 10
-567.5283071416164
 20
172.1770891749369
 30
0.0
 41
1.0
 10
-567.4378587139015
 20
172.0449188311614
 30
0.0
 41
0.9955705655852741
 10
-567.3737517880351
 20
171.8981529635156
 30
0.0
 41
1.0
 10
-567.2500786901237
 20
171.6495923376004
 30
0.0
 41
0.9999996234654929
 10
-567.125974379104
 20
171.4012467318641
 30
0.0
 41
1.0
  0
SPLINE
  5
17B
330
1F
100
AcDbEntity
  8
LINEE VISIBILI 2D
100
AcDbSpline
210
0.0
220
0.0
230
1.0
 70
    12
 71
     2
 72
     8
 73
     5
 74
     0
 42
0.0000000001
 43
0.0000000001
 40
0.0
 40
0.0
 40
0.0
 40
0.008924104444251
 40
0.008924104444251
 40
0.017848208888502
 40
0.017848208888502
 40
0.017848208888502
 10
-552.1902191828956
 20
168.5963491224631
 30
0.0
 41
1.0
 10
-552.1927779760477
 20
168.6006188615791
 30
0.0
 41
0.8516012779865873
 10
-552.1977426143648
 20
168.6002576678708
 30
0.0
 41
1.0
 10
-552.2027072526818
 20
168.5998964741625
 30
0.0
 41
0.8516012779865873
 10
-552.20462109696
 20
168.5953013360153
 30
0.0
 41
1.0
  0
SPLINE
  5
17C
330
1F
100
AcDbEntity
  8
LINEE VISIBILI 2D
100
AcDbSpline
210
0.0
220
0.0
230
1.0
 70
    12
 71
     2
 72
     6
 73
     3
 74
     0
 42
0.0000000001
 43
0.0000000001
 40
0.0
 40
0.0
 40
0.0
 40
0.343899462883355
 40
0.343899462883355
 40
0.343899462883355
 10
-558.7148922308186
 20
174.4159262958799
 30
0.0
 41
1.0
 10
-558.7063591037482
 20
174.2439672385012
 30
0.0
 41
0.9980764316275864
 10
-558.6766112223078
 20
174.0743860036256
 30
0.0
 41
1.0
  0
SPLINE
  5
17D
330
1F
100
AcDbEntity
  8
LINEE VISIBILI 2D
100
AcDbSpline
210
0.0
220
0.0
230
1.0
 70
    12
 71
     2
 72
     6
 73
     3
 74
     0
 42
0.0000000001
 43
0.0000000001
 40
0.0
 40
0.0
 40
0.0
 40
0.0418394481016185
 40
0.0418394481016185
 40
0.0418394481016185
 10
-557.1617967309122
 20
171.6096778651794
 30
0.0
 41
1.0
 10
-557.1466585008533
 20
171.5952393616768
 30
0.0
 41
0.9999973636462261
 10
-557.1314541221794
 20
171.5808705321539
 30
0.0
 41
1.0
  0
SPLINE
  5
17E
330
1F
100
AcDbEntity
  8
LINEE VISIBILI 2D
100
AcDbSpline
210
0.0
220
0.0
230
1.0
 70
    12
 71
     2
 72
     6
 73
     3
 74
     0
 42
0.0000000001
 43
0.0000000001
 40
0.0
 40
0.0
 40
0.0
 40
0.2908920261796346
 40
0.2908920261796346
 40
0.2908920261796346
 10
-556.8495125324445
 20
171.3253649704578
 30
0.0
 41
1.0
 10
-556.7397570342063
 20
171.229912426969
 30
0.0
 41
0.9998966769173451
 10
-556.627302951747
 20
171.1376544365822
 30
0.0
 41
1.0
  0
SPLINE
  5
17F
330
1F
100
AcDbEntity
  8
LINEE VISIBILI 2D
100
AcDbSpline
210
0.0
220
0.0
230
1.0
 70
    12
 71
     2
 72
     6
 73
     3
 74
     0
 42
0.0000000001
 43
0.0000000001
 40
0.0
 40
0.0
 40
0.0
 40
0.679099443774523
 40
0.679099443774523
 40
0.679099443774523
 10
-556.5589374449266
 20
171.0820169500228
 30
0.0
 41
1.0
 10
-556.2944054014226
 20
170.8689960410629
 30
0.0
 41
0.9996027687626284
 10
-556.0182910538215
 20
170.671218446924
 30
0.0
 41
1.0
  0
SPLINE
  5
180
330
1F
100
AcDbEntity
  8
LINEE VISIBILI 2D
100
AcDbSpline
210
0.0
220
0.0
230
1.0
 70
    12
 71
     2
 72
     6
 73
     3
 74
     0
 42
0.0000000001
 43
0.0000000001
 40
0.0
 40
0.0
 40
0.0
 40
0.6511010954349725
 40
0.6511010954349725
 40
0.6511010954349725
 10
-555.9582856424376
 20
170.6283864816236
 30
0.0
 41
1.0
 10
-555.6926851607197
 20
170.440038457246
 30
0.0
 41
0.9997493221356895
 10
-555.4189190175736
 20
170.2637696481987
 30
0.0
 41
1.0
  0
SPLINE
  5
181
330
1F
100
AcDbEntity
  8
LINEE VISIBILI 2D
100
AcDbSpline
210
0.0
220
0.0
230
1.0
 70
    12
 71
     3
 72
     8
 73
     4
 74
     0
 42
0.0000000001
 43
0.0000000001
 40
-31.4159265358979
 40
-31.4159265358979
 40
-31.4159265358979
 40
-31.4159265358979
 40
-21.54383015948036
 40
-21.54383015948036
 40
-21.54383015948036
 40
-21.54383015948036
 10
-546.8324233316089
 20
7.365894533448018
 30
0.0
 41
704.0933508350073
 10
-547.1189344599277
 20
7.45429394101766
 30
0.0
 41
704.264519308177
 10
-547.2782432184553
 20
7.606036517177924
 30
0.0
 41
704.5585337827835
 10
-547.2801061237996
 20
7.763963324353491
 30
0.0
 41
704.8647915575038
  0
SPLINE
  5
182
330
1F
100
AcDbEntity
  8
LINEE VISIBILI 2D
100
AcDbSpline
210
0.0
220
0.0
230
1.0
 70
    12
 71
     2
 72
     6
 73
     3
 74
     0
 42
0.0000000001
 43
0.0000000001
 40
0.0
 40
0.0
 40
0.0
 40
0.2617846659441415
 40
0.2617846659441415
 40
0.2617846659441415
 10
-545.3108307665311
 20
7.790814909339299
 30
0.0
 41
1.0
 10
-545.3164068695286
 20
7.65182572639661
 30
0.0
 41
0.9137874144554709
 10
-545.4233212376644
 20
7.562840313064851
 30
0.0
 41
1.0
  0
SPLINE
  5
183
330
1F
100
AcDbEntity
  8
LINEE VISIBILI 2D
100
AcDbSpline
210
0.0
220
0.0
230
1.0
 70
    12
 71
     3
 72
     8
 73
     4
 74
     0
 42
0.0000000001
 43
0.0000000001
 40
-48.0487612426176
 40
-48.0487612426176
 40
-48.0487612426176
 40
-48.0487612426176
 40
-31.4159265358979
 40
-31.4159265358979
 40
-31.4159265358979
 40
-31.4159265358979
 10
-545.4233212376644
 20
7.56284031306485
 30
0.0
 41
704.4748123785117
 10
-545.6926107582485
 20
7.307109302485157
 30
0.0
 41
703.9795705812605
 10
-546.3458162893615
 20
7.215758046581679
 30
0.0
 41
703.8028309445699
 10
-546.8324233316089
 20
7.365894533448018
 30
0.0
 41
704.0933508350073
  0
SPLINE
  5
184
330
1F
100
AcDbEntity
  8
LINEE VISIBILI 2D
100
AcDbSpline
210
0.0
220
0.0
230
1.0
 70
    12
 71
     2
 72
     6
 73
     3
 74
     0
 42
0.0000000001
 43
0.0000000001
 40
0.0
 40
0.0
 40
0.0
 40
6.124137993225608
 40
6.124137993225608
 40
6.124137993225608
 10
-555.338636751657
 20
181.1661373057019
 30
0.0
 41
1.0
 10
-552.276187359266
 20
181.3799439621488
 30
0.0
 41
0.9961761751586848
 10
-549.2232729679662
 20
181.0574175497592
 30
0.0
 41
1.0
  0
SPLINE
  5
185
330
1F
100
AcDbEntity
  8
LINEE VISIBILI 2D
100
AcDbSpline
210
0.0
220
0.0
230
1.0
 70
    12
 71
     2
 72
     6
 73
     3
 74
     0
 42
0.0000000001
 43
0.0000000001
 40
0.0
 40
0.0
 40
0.0
 40
2.922387267336199
 40
2.922387267336199
 40
2.922387267336199
 10
-547.6922371595991
 20
167.1009949513917
 30
0.0
 41
1.0
 10
-546.2715531800549
 20
166.7547241293997
 30
0.0
 41
0.9988917084776932
 10
-544.824603722686
 20
166.5435755567885
 30
0.0
 41
1.0
  0
SPLINE
  5
186
330
1F
100
AcDbEntity
  8
LINEE VISIBILI 2D
100
AcDbSpline
210
0.0
220
0.0
230
1.0
 70
    12
 71
     2
 72
     6
 73
     3
 74
     0
 42
0.0000000001
 43
0.0000000001
 40
0.0
 40
0.0
 40
0.0
 40
0.6178223530034358
 40
0.6178223530034358
 40
0.6178223530034358
 10
-555.9205771559467
 20
170.5062871932689
 30
0.0
 41
1.0
 10
-556.1441359871322
 20
170.7195386866209
 30
0.0
 41
0.9997750059717512
 10
-556.3765384734942
 20
170.9231162756393
 30
0.0
 41
1.0
  0
SPLINE
  5
187
330
1F
100
AcDbEntity
  8
LINEE VISIBILI 2D
100
AcDbSpline
210
0.0
220
0.0
230
1.0
 70
    12
 71
     2
 72
     6
 73
     3
 74
     0
 42
0.0000000001
 43
0.0000000001
 40
0.0
 40
0.0
 40
0.0
 40
2.417290859019797
 40
2.417290859019797
 40
2.417290859019797
 10
-546.2367185398925
 20
181.0292747190238
 30
0.0
 41
1.0
 10
-545.0494192006714
 20
180.8008332173049
 30
0.0
 41
0.9994656732572693
 10
-543.8795824588193
 20
180.4953054149093
 30
0.0
 41
1.0
  0
SPLINE
  5
18A
330
1F
100
AcDbEntity
  8
LINEE VISIBILI 2D
100
AcDbSpline
210
0.0
220
0.0
230
1.0
 70
    12
 71
     2
 72
     6
 73
     3
 74
     0
 42
0.0000000001
 43
0.0000000001
 40
0.0
 40
0.0
 40
0.0
 40
0.4186521264258394
 40
0.4186521264258394
 40
0.4186521264258394
 10
-466.5062514686163
 20
377.5713033388001
 30
0.0
 41
1.0
 10
-466.332376064115
 20
377.6878631613126
 30
0.0
 41
0.9999752199858638
 10
-466.1601589793843
 20
377.8068594815978
 30
0.0
 41
1.0
  0
SPLINE
  5
18B
330
1F
100
AcDbEntity
  8
LINEE VISIBILI 2D
100
AcDbSpline
210
0.0
220
0.0
230
1.0
 70
     8
 71
     3
 72
    12
 73
     8
 74
     0
 42
0.0000000001
 43
0.0000000001
 40
0.0
 40
0.0
 40
0.0
 40
0.0
 40
1.474702837631526
 40
2.972455882155145
 40
5.939606272462243
 40
8.764061587945414
 40
11.18135210035239
 40
11.18135210035239
 40
11.18135210035239
 40
11.18135210035239
 10
-479.6917582332027
 20
390.7747193638496
 30
0.0
 10
-479.2048932283237
 20
390.7065502184817
 30
0.0
 10
-478.2303041293508
 20
390.5228733452357
 30
0.0
 10
-476.3229658967453
 20
389.9845115620763
 30
0.0
 10
-474.0774096562798
 20
389.0356412944043
 30
0.0
 10
-471.7592276666103
 20
387.5614759757601
 30
0.0
 10
-470.4951446162515
 20
386.3385949761367
 30
0.0
 10
-470.0105988556898
 20
385.6932932194941
 30
0.0
  0
SPLINE
  5
18C
330
1F
100
AcDbEntity
  8
LINEE VISIBILI 2D
100
AcDbSpline
210
0.0
220
0.0
230
1.0
 70
    12
 71
     2
 72
     8
 73
     5
 74
     0
 42
0.0000000001
 43
0.0000000001
 40
0.0
 40
0.0
 40
0.0
 40
0.3141592653586505
 40
0.3141592653586505
 40
14.49334824675602
 40
14.49334824675602
 40
14.49334824675602
 10
-493.3795582232654
 20
209.2289101368689
 30
0.0
 41
1.0
 10
-493.5452436482144
 20
209.228910136869
 30
0.0
 41
0.9238795325115528
 10
-493.6624009357398
 20
209.3460674243941
 30
0.0
 41
1.0
 10
-494.1637109636466
 20
209.847377452301
 30
0.0
 41
1.0
 10
-494.6650209915536
 20
210.3486874802079
 30
0.0
 41
1.0
  0
SPLINE
  5
18D
330
1F
100
AcDbEntity
  8
LINEE VISIBILI 2D
100
AcDbSpline
210
0.0
220
0.0
230
1.0
 70
    12
 71
     2
 72
     6
 73
     3
 74
     0
 42
0.0000000001
 43
0.0000000001
 40
0.0
 40
0.0
 40
0.0
 40
0.7930563738465584
 40
0.7930563738465584
 40
0.7930563738465584
 10
-553.2217535776838
 20
168.2208118858549
 30
0.0
 41
1.0
 10
-553.5103602520503
 20
167.9488768742272
 30
0.0
 41
0.9999625100160468
 10
-553.8036328506048
 20
167.6819805535793
 30
0.0
 41
1.0
  0
SPLINE
  5
18E
330
1F
100
AcDbEntity
  8
LINEE VISIBILI 2D
100
AcDbSpline
210
0.0
220
0.0
230
1.0
 70
    12
 71
     2
 72
     6
 73
     3
 74
     0
 42
0.0000000001
 43
0.0000000001
 40
0.0
 40
0.0
 40
0.0
 40
0.0203338333717913
 40
0.0203338333717913
 40
0.0203338333717913
 10
-555.3386349970224
 20
181.1661136122203
 30
0.0
 41
1.0
 10
-555.3498642567332
 20
181.1632132791282
 30
0.0
 41
0.8248110150585695
 10
-555.3512086538005
 20
181.1516936957061
 30
0.0
 41
1.0
  0
SPLINE
  5
18F
330
1F
100
AcDbEntity
  8
LINEE VISIBILI 2D
100
AcDbSpline
210
0.0
220
0.0
230
1.0
 70
    12
 71
     2
 72
     6
 73
     3
 74
     0
 42
0.0000000001
 43
0.0000000001
 40
0.0
 40
0.0
 40
0.0
 40
0.3331714315170013
 40
0.3331714315170013
 40
0.3331714315170013
 10
-538.6220319019428
 20
166.8731307884778
 30
0.0
 41
1.0
 10
-538.758354687279
 20
166.7773340835134
 30
0.0
 41
0.9997268673554236
 10
-538.8990050096319
 20
166.6880122087801
 30
0.0
 41
1.0
  0
SPLINE
  5
190
330
1F
100
AcDbEntity
  8
LINEE VISIBILI 2D
100
AcDbSpline
210
0.0
220
0.0
230
1.0
 70
    12
 71
     2
 72
     6
 73
     3
 74
     0
 42
0.0000000001
 43
0.0000000001
 40
0.0
 40
0.0
 40
0.0
 40
0.3313032809669918
 40
0.3313032809669918
 40
0.3313032809669918
 10
-538.9164724822803
 20
166.6769435975693
 30
0.0
 41
1.0
 10
-539.0565726907698
 20
166.5885110442856
 30
0.0
 41
0.9997836222033825
 10
-539.2002299446098
 20
166.5059823927861
 30
0.0
 41
1.0
  0
SPLINE
  5
191
330
1F
100
AcDbEntity
  8
LINEE VISIBILI 2D
100
AcDbSpline
210
0.0
220
0.0
230
1.0
 70
    12
 71
     2
 72
     6
 73
     3
 74
     0
 42
0.0000000001
 43
0.0000000001
 40
0.0
 40
0.0
 40
0.0
 40
0.3294752365327139
 40
0.3294752365327139
 40
0.3294752365327139
 10
-539.218319329717
 20
166.495610780856
 30
0.0
 41
1.0
 10
-539.3613807145749
 20
166.4138920318218
 30
0.0
 41
0.9998333657036113
 10
-539.5073297872153
 20
166.3374500147331
 30
0.0
 41
1.0
  0
SPLINE
  5
192
330
1F
100
AcDbEntity
  8
LINEE VISIBILI 2D
100
AcDbSpline
210
0.0
220
0.0
230
1.0
 70
    12
 71
     2
 72
     6
 73
     3
 74
     0
 42
0.0000000001
 43
0.0000000001
 40
0.0
 40
0.0
 40
0.0
 40
0.6764732332180007
 40
0.6764732332180007
 40
0.6764732332180007
 10
-539.5258785137367
 20
166.32775163257
 30
0.0
 41
1.0
 10
-539.8260149492499
 20
166.1715207777161
 30
0.0
 41
0.9994369414697041
 10
-540.1359537045681
 20
166.0357712735444
 30
0.0
 41
1.0
  0
SPLINE
  5
193
330
1F
100
AcDbEntity
  8
LINEE VISIBILI 2D
100
AcDbSpline
210
0.0
220
0.0
230
1.0
 70
    12
 71
     2
 72
     6
 73
     3
 74
     0
 42
0.0000000001
 43
0.0000000001
 40
0.0
 40
0.0
 40
0.0
 40
0.6758026041137322
 40
0.6758026041137322
 40
0.6758026041137322
 10
-540.1552123685398
 20
166.0273408007832
 30
0.0
 41
1.0
 10
-540.4650802229508
 20
165.8923534318047
 30
0.0
 41
0.9995904144011918
 10
-540.7821635479365
 20
165.7753156515921
 30
0.0
 41
1.0
  0
SPLINE
  5
194
330
1F
100
AcDbEntity
  8
LINEE VISIBILI 2D
100
AcDbSpline
210
0.0
220
0.0
230
1.0
 70
    24
 71
     2
 72
     6
 73
     3
 74
     0
 42
0.0000000001
 43
0.0000000001
 40
0.0
 40
0.0
 40
0.0
 40
29.79999999593639
 40
29.79999999593639
 40
29.79999999593639
 10
-466.6452436482156
 20
210.3486874802075
 30
0.0
 10
-481.5452436461838
 20
210.3486874802078
 30
0.0
 10
-496.4452436441519
 20
210.348687480208
 30
0.0
  0
SPLINE
  5
195
330
1F
100
AcDbEntity
  8
LINEE VISIBILI 2D
100
AcDbSpline
210
0.0
220
0.0
230
1.0
 70
    24
 71
     2
 72
     6
 73
     3
 74
     0
 42
0.0000000001
 43
0.0000000001
 40
0.0
 40
0.0
 40
0.0
 40
18.42939541428993
 40
18.42939541428993
 40
18.42939541428993
 10
-493.3795582232654
 20
209.2289101368689
 30
0.0
 10
-478.9256268020515
 20
209.2289101368686
 30
0.0
 10
-469.7109290949066
 20
209.2289101368685
 30
0.0
  0
SPLINE
  5
196
330
1F
100
AcDbEntity
  8
LINEE VISIBILI 2D
100
AcDbSpline
210
0.0
220
0.0
230
1.0
 70
    24
 71
     2
 72
     6
 73
     3
 74
     0
 42
0.0000000001
 43
0.0000000001
 40
0.0
 40
0.0
 40
0.0
 40
25.74265870821796
 40
25.74265870821796
 40
25.74265870821796
 10
-492.3879023781622
 20
210.808687480208
 30
0.0
 10
-479.5165730240532
 20
210.8086874802077
 30
0.0
 10
-466.6452436699443
 20
210.8086874802074
 30
0.0
  0
SPLINE
  5
197
330
1F
100
AcDbEntity
  8
LINEE VISIBILI 2D
100
AcDbSpline
210
0.0
220
0.0
230
1.0
 70
    24
 71
     2
 72
     6
 73
     3
 74
     0
 42
0.0000000001
 43
0.0000000001
 40
0.0
 40
0.0
 40
0.0
 40
14.89999997507428
 40
14.89999997507428
 40
14.89999997507428
 10
-567.9655437617966
 20
210.8086874802078
 30
0.0
 10
-560.5155437742594
 20
210.8086874802076
 30
0.0
 10
-553.0655437867223
 20
210.8086874802074
 30
0.0
  0
SPLINE
  5
198
330
1F
100
AcDbEntity
  8
LINEE VISIBILI 2D
100
AcDbSpline
210
0.0
220
0.0
230
1.0
 70
    24
 71
     2
 72
     6
 73
     3
 74
     0
 42
0.0000000001
 43
0.0000000001
 40
0.0
 40
0.0
 40
0.0
 40
0.2102857427267679
 40
0.2102857427267679
 40
0.2102857427267679
 10
-492.9189766687532
 20
210.8086874802079
 30
0.0
 10
-492.8138337973898
 20
210.8086874802079
 30
0.0
 10
-492.7086909260264
 20
210.8086874802079
 30
0.0
  0
SPLINE
  5
199
330
1F
100
AcDbEntity
  8
LINEE VISIBILI 2D
100
AcDbSpline
210
0.0
220
0.0
230
1.0
 70
    24
 71
     2
 72
     6
 73
     3
 74
     0
 42
0.0000000001
 43
0.0000000001
 40
0.0
 40
0.0
 40
0.0
 40
161.5
 40
161.5
 40
161.5
 10
-554.0655437867234
 20
210.8086874802085
 30
0.0
 10
-554.0655437867234
 20
291.5586874802085
 30
0.0
 10
-554.0655437867234
 20
372.3086874802085
 30
0.0
  0
SPLINE
  5
19A
330
1F
100
AcDbEntity
  8
LINEE VISIBILI 2D
100
AcDbSpline
210
0.0
220
0.0
230
1.0
 70
    12
 71
     2
 72
     6
 73
     3
 74
     0
 42
0.0000000001
 43
0.0000000001
 40
0.0
 40
0.0
 40
0.0
 40
0.0307073544345038
 40
0.0307073544345038
 40
0.0307073544345038
 10
-565.9955292920078
 20
169.4067789577342
 30
0.0
 41
1.0
 10
-566.0054530412581
 20
169.4186775111812
 30
0.0
 41
0.9864938484725156
 10
-566.0109990044128
 20
169.4331446693678
 30
0.0
 41
1.0
  0
SPLINE
  5
19B
330
1F
100
AcDbEntity
  8
LINEE VISIBILI 2D
100
AcDbSpline
210
0.0
220
0.0
230
1.0
 70
    12
 71
     2
 72
    30
 73
    27
 74
     0
 42
0.0000000001
 43
0.0000000001
 40
0.0
 40
0.0
 40
0.0
 40
0.7724913638595347
 40
0.7724913638595347
 40
3.0412650121982
 40
3.0412650121982
 40
4.186469136887859
 40
4.186469136887859
 40
5.338520576647768
 40
5.338520576647768
 40
6.506045708202228
 40
6.506045708202228
 40
7.111544455434279
 40
7.111544455434279
 40
7.736807064918649
 40
7.736807064918649
 40
8.390797792740762
 40
8.390797792740762
 40
9.077870996624062
 40
9.077870996624062
 40
10.50933656621481
 40
10.50933656621481
 40
11.95334925680273
 40
11.95334925680273
 40
13.37827705409956
 40
13.37827705409956
 40
16.05052085757314
 40
16.05052085757314
 40
16.05052085757314
 10
-553.4039592769598
 20
179.2644652342422
 30
0.0
 41
1.0
 10
-553.77154393725
 20
179.1454231486024
 30
0.0
 41
0.9994786523994683
 10
-554.1306793232043
 20
179.0029055174487
 30
0.0
 41
1.0
 10
-555.1908682479036
 20
178.587348436536
 30
0.0
 41
0.9942989318525576
 10
-556.1388340383429
 20
177.956437108607
 30
0.0
 41
1.0
 10
-556.6159082422184
 20
177.6381220298984
 30
0.0
 41
0.9976029862440841
 10
-557.0444661512945
 20
177.25698897714
 30
0.0
 41
1.0
 10
-557.4769088011516
 20
176.8741653259265
 30
0.0
 41
0.9960534982370507
 10
-557.834851628907
 20
176.4209131605681
 30
0.0
 41
1.0
 10
-558.2004048888737
 20
175.9616786393165
 30
0.0
 41
0.9918413036417648
 10
-558.4379470519214
 20
175.4249298599459
 30
0.0
 41
1.0
 10
-558.5595664054421
 20
175.1468698241915
 30
0.0
 41
0.9963234457403897
 10
-558.6319320566568
 20
174.8521294924436
 30
0.0
 41
1.0
 10
-558.7064264853339
 20
174.5473506397457
 30
0.0
 41
0.994656394972962
 10
-558.7167379676009
 20
174.2337693228768
 30
0.0
 41
1.0
 10
-558.7267996850014
 20
173.9054324647966
 30
0.0
 41
0.9931844415089496
 10
-558.660572207823
 20
173.5836868326621
 30
0.0
 41
1.0
 10
-558.5897614250378
 20
173.2461800346183
 30
0.0
 41
0.9942750605761377
 10
-558.4488546903023
 20
172.9314256894689
 30
0.0
 41
1.0
 10
-558.1467615071666
 20
172.2769134163047
 30
0.0
 41
0.989354480724336
 10
-557.6689949111876
 20
171.7371118909396
 30
0.0
 41
1.0
 10
-557.1917353119021
 20
171.1929788646011
 30
0.0
 41
0.9963282527240901
 10
-556.6286420204471
 20
170.7382444139806
 30
0.0
 41
1.0
 10
-556.0753126377627
 20
170.288285102636
 30
0.0
 41
0.9984782363698275
 10
-555.4757963859372
 20
169.9019988727433
 30
0.0
 41
1.0
 10
-554.3495376082915
 20
169.1792326929178
 30
0.0
 41
0.9976428116963528
 10
-553.1349256981208
 20
168.6174785717973
 30
0.0
 41
1.0
  0
SPLINE
  5
19C
330
1F
100
AcDbEntity
  8
LINEE VISIBILI 2D
100
AcDbSpline
210
0.0
220
0.0
230
1.0
 70
    12
 71
     2
 72
     6
 73
     3
 74
     0
 42
0.0000000001
 43
0.0000000001
 40
0.0
 40
0.0
 40
0.0
 40
0.042893555743371
 40
0.042893555743371
 40
0.042893555743371
 10
-549.6822874434399
 20
179.8700955681898
 30
0.0
 41
1.0
 10
-549.7037339998203
 20
179.8699931873323
 30
0.0
 41
0.9999983998953105
 10
-549.7251800526329
 20
179.8698140752405
 30
0.0
 41
1.0
  0
SPLINE
  5
19D
330
1F
100
AcDbEntity
  8
LINEE VISIBILI 2D
100
AcDbSpline
210
0.0
220
0.0
230
1.0
 70
    24
 71
     2
 72
     6
 73
     3
 74
     0
 42
0.0000000001
 43
0.0000000001
 40
0.0
 40
0.0
 40
0.0
 40
0.0600041849752984
 40
0.0600041849752984
 40
0.0600041849752984
 10
-488.3862053609641
 20
13.78726832254318
 30
0.0
 10
-488.4162074534518
 20
13.78726832254318
 30
0.0
 10
-488.4462095459394
 20
13.78726832254318
 30
0.0
  0
SPLINE
  5
19E
330
1F
100
AcDbEntity
  8
LINEE VISIBILI 2D
100
AcDbSpline
210
0.0
220
0.0
230
1.0
 70
    12
 71
     2
 72
     8
 73
     5
 74
     0
 42
0.0000000001
 43
0.0000000001
 40
0.0
 40
0.0
 40
0.0
 40
1.224712680322855
 40
1.224712680322855
 40
1.274767668218051
 40
1.274767668218051
 40
1.274767668218051
 10
-473.0998754815648
 20
374.4120309663674
 30
0.0
 41
1.0
 10
-472.5173741346635
 20
374.6011647827645
 30
0.0
 41
0.9998017760484323
 10
-471.9428644253919
 20
374.8133392713335
 30
0.0
 41
1.0
 10
-471.9193869379154
 20
374.8220101025292
 30
0.0
 41
0.9999996664985449
 10
-471.8959236447308
 20
374.830719270386
 30
0.0
 41
1.0
  0
SPLINE
  5
19F
330
1F
100
AcDbEntity
  8
LINEE VISIBILI 2D
100
AcDbSpline
210
0.0
220
0.0
230
1.0
 70
    12
 71
     2
 72
     6
 73
     3
 74
     0
 42
0.0000000001
 43
0.0000000001
 40
0.0
 40
0.0
 40
0.0
 40
1.910167821564457
 40
1.910167821564457
 40
1.910167821564457
 10
-566.0109990044128
 20
169.4331446693678
 30
0.0
 41
1.0
 10
-566.6236373841734
 20
170.1689810688675
 30
0.0
 41
0.996239862954577
 10
-567.100055374765
 20
170.9995272081181
 30
0.0
 41
1.0
  0
SPLINE
  5
1A0
330
1F
100
AcDbEntity
  8
LINEE VISIBILI 2D
100
AcDbSpline
210
0.0
220
0.0
230
1.0
 70
    12
 71
     2
 72
     6
 73
     3
 74
     0
 42
0.0000000001
 43
0.0000000001
 40
0.0
 40
0.0
 40
0.0
 40
2.349424275941
 40
2.349424275941
 40
2.349424275941
 10
-567.100055374765
 20
170.9995272081181
 30
0.0
 41
1.0
 10
-567.7021646569553
 20
172.0222499857231
 30
0.0
 41
0.9847902205434545
 10
-567.9179349293246
 20
173.189272117944
 30
0.0
 41
1.0
  0
SPLINE
  5
1A1
330
1F
100
AcDbEntity
  8
LINEE VISIBILI 2D
100
AcDbSpline
210
0.0
220
0.0
230
1.0
 70
    12
 71
     2
 72
     6
 73
     3
 74
     0
 42
0.0000000001
 43
0.0000000001
 40
0.0
 40
0.0
 40
0.0
 40
0.0362317581719344
 40
0.0362317581719344
 40
0.0362317581719344
 10
-548.0784887149959
 20
180.6172951649404
 30
0.0
 41
1.0
 10
-548.074871820223
 20
180.6352324570771
 30
0.0
 41
0.9851116379166235
 10
-548.0653931333797
 20
180.6508843857992
 30
0.0
 41
1.0
  0
SPLINE
  5
1A2
330
1F
100
AcDbEntity
  8
LINEE VISIBILI 2D
100
AcDbSpline
210
0.0
220
0.0
230
1.0
 70
    12
 71
     2
 72
    14
 73
    11
 74
     0
 42
0.0000000001
 43
0.0000000001
 40
0.0
 40
0.0
 40
0.0
 40
0.1010244134591419
 40
0.1010244134591419
 40
0.1833484414742786
 40
0.1833484414742786
 40
0.223355406873067
 40
0.223355406873067
 40
0.2795988861249286
 40
0.2795988861249286
 40
0.3835413655501424
 40
0.3835413655501424
 40
0.3835413655501424
 10
-555.7345805776929
 20
181.1340876753602
 30
0.0
 41
1.0
 10
-555.6842326584042
 20
181.1381583082566
 30
0.0
 41
0.9999999999467316
 10
-555.6338848231578
 20
181.142229980501
 30
0.0
 41
1.0
 10
-555.5928568232965
 20
181.1455488183467
 30
0.0
 41
1.0
 10
-555.551828742718
 20
181.1488666491447
 30
0.0
 41
1.0
 10
-555.5318900161679
 20
181.1504780642881
 30
0.0
 41
1.0
 10
-555.5119516210279
 20
181.1520904288081
 30
0.0
 41
1.0
 10
-555.4839214154658
 20
181.1543572795132
 30
0.0
 41
1.0
 10
-555.4558911786759
 20
181.1566240095575
 30
0.0
 41
1.0
 10
-555.4040888879736
 20
181.1608116807514
 30
0.0
 41
0.9999999971874652
 10
-555.3522872786738
 20
181.1650072786094
 30
0.0
 41
1.0
  0
SPLINE
  5
1A3
330
1F
100
AcDbEntity
  8
LINEE VISIBILI 2D
100
AcDbSpline
210
0.0
220
0.0
230
1.0
 70
    12
 71
     2
 72
     6
 73
     3
 74
     0
 42
0.0000000001
 43
0.0000000001
 40
0.0
 40
0.0
 40
0.0
 40
0.3359202201223978
 40
0.3359202201223978
 40
0.3359202201223978
 10
-548.0653931333797
 20
180.6508843857992
 30
0.0
 41
1.0
 10
-547.9420257933189
 20
180.76487745853
 30
0.0
 41
0.9999116749241904
 10
-547.8217318618272
 20
180.882109242917
 30
0.0
 41
1.0
  0
SPLINE
  5
1A4
330
1F
100
AcDbEntity
  8
LINEE VISIBILI 2D
100
AcDbSpline
210
0.0
220
0.0
230
1.0
 70
    12
 71
     2
 72
     6
 73
     3
 74
     0
 42
0.0000000001
 43
0.0000000001
 40
0.0
 40
0.0
 40
0.0
 40
1.565739104802911
 40
1.565739104802911
 40
1.565739104802911
 10
-549.628928443546
 20
180.7318853389025
 30
0.0
 41
1.0
 10
-548.8463404837077
 20
180.7072189408476
 30
0.0
 41
0.9997949467771842
 10
-548.0653931333797
 20
180.6508843857992
 30
0.0
 41
1.0
  0
SPLINE
  5
1A5
330
1F
100
AcDbEntity
  8
LINEE VISIBILI 2D
100
AcDbSpline
210
0.0
220
0.0
230
1.0
 70
    12
 71
     2
 72
     6
 73
     3
 74
     0
 42
0.0000000001
 43
0.0000000001
 40
0.0
 40
0.0
 40
0.0
 40
0.3527160327549704
 40
0.3527160327549704
 40
0.3527160327549704
 10
-548.9652643399964
 20
179.8520656310669
 30
0.0
 41
1.0
 10
-549.1415887566983
 20
179.855943823012
 30
0.0
 41
0.9999230751326361
 10
-549.3179551185279
 20
179.855447120928
 30
0.0
 41
1.0
  0
SPLINE
  5
1A6
330
1F
100
AcDbEntity
  8
LINEE VISIBILI 2D
100
AcDbSpline
210
0.0
220
0.0
230
1.0
 70
    12
 71
     2
 72
     6
 73
     3
 74
     0
 42
0.0000000001
 43
0.0000000001
 40
0.0
 40
0.0
 40
0.0
 40
0.8528083660513832
 40
0.8528083660513832
 40
0.8528083660513832
 10
-549.3179551185279
 20
179.855447120928
 30
0.0
 41
1.0
 10
-549.506053433992
 20
180.2388167745586
 30
0.0
 41
0.9978087336506769
 10
-549.6418851617253
 20
180.6436661408007
 30
0.0
 41
1.0
  0
SPLINE
  5
1A7
330
1F
100
AcDbEntity
  8
LINEE VISIBILI 2D
100
AcDbSpline
210
0.0
220
0.0
230
1.0
 70
    12
 71
     2
 72
     6
 73
     3
 74
     0
 42
0.0000000001
 43
0.0000000001
 40
0.0
 40
0.0
 40
0.0
 40
0.9455948116883787
 40
0.9455948116883787
 40
0.9455948116883787
 10
-546.6887139913983
 20
180.43368522919
 30
0.0
 41
1.0
 10
-546.6003561151739
 20
179.9667021537814
 30
0.0
 41
0.9922186439396391
 10
-546.6301188123606
 20
179.4923663140379
 30
0.0
 41
1.0
  0
SPLINE
  5
1A8
330
1F
100
AcDbEntity
  8
LINEE VISIBILI 2D
100
AcDbSpline
210
0.0
220
0.0
230
1.0
 70
    12
 71
     2
 72
     6
 73
     3
 74
     0
 42
0.0000000001
 43
0.0000000001
 40
0.0
 40
0.0
 40
0.0
 40
0.0931726382494983
 40
0.0931726382494983
 40
0.0931726382494983
 10
-549.628928443546
 20
180.7318853389025
 30
0.0
 41
1.0
 10
-549.6601557077921
 20
180.691410601608
 30
0.0
 41
0.8721051091819125
 10
-549.6418851617253
 20
180.6436661408007
 30
0.0
 41
1.0
  0
SPLINE
  5
1A9
330
1F
100
AcDbEntity
  8
LINEE VISIBILI 2D
100
AcDbSpline
210
0.0
220
0.0
230
1.0
 70
    12
 71
     2
 72
     6
 73
     3
 74
     0
 42
0.0000000001
 43
0.0000000001
 40
0.0
 40
0.0
 40
0.0
 40
0.3089544137240975
 40
0.3089544137240975
 40
0.3089544137240975
 10
-549.3179551185279
 20
179.855447120928
 30
0.0
 41
1.0
 10
-549.472151010916
 20
179.8649203847156
 30
0.0
 41
0.999908598705036
 10
-549.6265466673913
 20
179.8702210656085
 30
0.0
 41
1.0
  0
SPLINE
  5
1AA
330
1F
100
AcDbEntity
  8
LINEE VISIBILI 2D
100
AcDbSpline
210
0.0
220
0.0
230
1.0
 70
    12
 71
     2
 72
     6
 73
     3
 74
     0
 42
0.0000000001
 43
0.0000000001
 40
0.0
 40
0.0
 40
0.0
 40
0.0557409678937374
 40
0.0557409678937374
 40
0.0557409678937374
 10
-549.6265466673913
 20
179.8702210656085
 30
0.0
 41
1.0
 10
-549.6544172018151
 20
179.8702233415173
 30
0.0
 41
0.9999972783152376
 10
-549.6822874434399
 20
179.8700955681898
 30
0.0
 41
1.0
  0
SPLINE
  5
1AB
330
1F
100
AcDbEntity
  8
LINEE VISIBILI 2D
100
AcDbSpline
210
0.0
220
0.0
230
1.0
 70
    12
 71
     2
 72
     6
 73
     3
 74
     0
 42
0.0000000001
 43
0.0000000001
 40
0.0
 40
0.0
 40
0.0
 40
0.0263084516728089
 40
0.0263084516728089
 40
0.0263084516728089
 10
-555.7547551258399
 20
181.1183437669725
 30
0.0
 41
1.0
 10
-555.7480543780554
 20
181.1305552813309
 30
0.0
 41
0.9186020111754286
 10
-555.7345805776927
 20
181.1340876753603
 30
0.0
 41
1.0
  0
SPLINE
  5
1AC
330
1F
100
AcDbEntity
  8
LINEE VISIBILI 2D
100
AcDbSpline
210
0.0
220
0.0
230
1.0
 70
    12
 71
     2
 72
     6
 73
     3
 74
     0
 42
0.0000000001
 43
0.0000000001
 40
0.0
 40
0.0
 40
0.0
 40
0.1537350341405415
 40
0.1537350341405415
 40
0.1537350341405415
 10
-540.8017438748717
 20
165.7680880616523
 30
0.0
 41
1.0
 10
-540.8738783834329
 20
165.7415294542787
 30
0.0
 41
0.9999832743071875
 10
-540.946315274566
 20
165.7158070174976
 30
0.0
 41
1.0
  0
SPLINE
  5
1AD
330
1F
100
AcDbEntity
  8
LINEE VISIBILI 2D
100
AcDbSpline
210
0.0
220
0.0
230
1.0
 70
    12
 71
     2
 72
     6
 73
     3
 74
     0
 42
0.0000000001
 43
0.0000000001
 40
0.0
 40
0.0
 40
0.0
 40
0.031882074405446
 40
0.031882074405446
 40
0.031882074405446
 10
-547.908068623146
 20
164.6446111050857
 30
0.0
 41
1.0
 10
-547.9037205405274
 20
164.6607813810477
 30
0.0
 41
0.9295413209344859
 10
-547.8894703723013
 20
164.6695743528248
 30
0.0
 41
1.0
  0
SPLINE
  5
1AE
330
1F
100
AcDbEntity
  8
LINEE VISIBILI 2D
100
AcDbSpline
210
0.0
220
0.0
230
1.0
 70
    12
 71
     2
 72
     6
 73
     3
 74
     0
 42
0.0000000001
 43
0.0000000001
 40
0.0
 40
0.0
 40
0.0
 40
2.807841252379701
 40
2.807841252379701
 40
2.807841252379701
 10
-543.3654333439087
 20
165.0760070064455
 30
0.0
 41
1.0
 10
-544.7459820210147
 20
164.8124939397933
 30
0.0
 41
0.9983442573976802
 10
-546.1476601688651
 20
164.7092846572929
 30
0.0
 41
1.0
  0
SPLINE
  5
1AF
330
1F
100
AcDbEntity
  8
LINEE VISIBILI 2D
100
AcDbSpline
210
0.0
220
0.0
230
1.0
 70
    12
 71
     2
 72
     6
 73
     3
 74
     0
 42
0.0000000001
 43
0.0000000001
 40
0.0
 40
0.0
 40
0.0
 40
0.2438893254609487
 40
0.2438893254609487
 40
0.2438893254609487
 10
-541.2296698018502
 20
165.6186529867555
 30
0.0
 41
1.0
 10
-541.3454455071811
 20
165.5803490862933
 30
0.0
 41
0.9999645976255949
 10
-541.4618494099498
 20
165.5439989259678
 30
0.0
 41
1.0
  0
SPLINE
  5
1B0
330
1F
100
AcDbEntity
  8
LINEE VISIBILI 2D
100
AcDbSpline
210
0.0
220
0.0
230
1.0
 70
    12
 71
     2
 72
     6
 73
     3
 74
     0
 42
0.0000000001
 43
0.0000000001
 40
0.0
 40
0.0
 40
0.0
 40
0.2885856083644636
 40
0.2885856083644636
 40
0.2885856083644636
 10
-541.8520681230741
 20
165.4278502422237
 30
0.0
 41
1.0
 10
-541.9908998018395
 20
165.3885148701018
 30
0.0
 41
0.9999606227532801
 10
-542.130407732951
 20
165.351649660408
 30
0.0
 41
1.0
  0
SPLINE
  5
1B1
330
1F
100
AcDbEntity
  8
LINEE VISIBILI 2D
100
AcDbSpline
210
0.0
220
0.0
230
1.0
 70
    12
 71
     2
 72
     6
 73
     3
 74
     0
 42
0.0000000001
 43
0.0000000001
 40
0.0
 40
0.0
 40
0.0
 40
1.762060216300927
 40
1.762060216300927
 40
1.762060216300927
 10
-546.1476610323671
 20
164.7092845918659
 30
0.0
 41
1.0
 10
-547.0265773023073
 20
164.6419014997007
 30
0.0
 41
0.9992082773158228
 10
-547.908068623146
 20
164.6446111050857
 30
0.0
 41
1.0
  0
SPLINE
  5
1B2
330
1F
100
AcDbEntity
  8
LINEE VISIBILI 2D
100
AcDbSpline
210
0.0
220
0.0
230
1.0
 70
    24
 71
     2
 72
     6
 73
     3
 74
     0
 42
0.0000000001
 43
0.0000000001
 40
0.0
 40
0.0
 40
0.0
 40
0.2399137993349996
 40
0.2399137993349996
 40
0.2399137993349996
 10
-474.5962095460575
 20
13.28541790640592
 30
0.0
 10
-474.5962095459985
 20
13.40537480607342
 30
0.0
 10
-474.5962095459394
 20
13.52533170574092
 30
0.0
  0
SPLINE
  5
1B3
330
1F
100
AcDbEntity
  8
LINEE VISIBILI 2D
100
AcDbSpline
210
0.0
220
0.0
230
1.0
 70
    24
 71
     2
 72
     6
 73
     3
 74
     0
 42
0.0000000001
 43
0.0000000001
 40
0.0
 40
0.0
 40
0.0
 40
0.0899958150247073
 40
0.0899958150247073
 40
0.0899958150247073
 10
-474.7862053609641
 20
16.08726832254275
 30
0.0
 10
-474.7412074534517
 20
16.08726832254275
 30
0.0
 10
-474.6962095459394
 20
16.08726832254275
 30
0.0
  0
SPLINE
  5
1B4
330
1F
100
AcDbEntity
  8
LINEE VISIBILI 2D
100
AcDbSpline
210
0.0
220
0.0
230
1.0
 70
    12
 71
     2
 72
     8
 73
     5
 74
     0
 42
0.0000000001
 43
0.0000000001
 40
0.0
 40
0.0
 40
0.0
 40
0.0785724819801398
 40
0.0785724819801398
 40
0.1571449639602796
 40
0.1571449639602796
 40
0.1571449639602796
 10
-474.5962095459394
 20
13.68726832254309
 30
0.0
 41
1.0
 10
-474.5961465361828
 20
13.72871575022009
 30
0.0
 41
0.9235883818312037
 10
-474.6254543272225
 20
13.75802354125994
 30
0.0
 41
1.0
 10
-474.6547621182624
 20
13.78733133229979
 30
0.0
 41
0.9235883818312037
 10
-474.6962095459394
 20
13.78726832254315
 30
0.0
 41
1.0
  0
SPLINE
  5
1B5
330
1F
100
AcDbEntity
  8
LINEE VISIBILI 2D
100
AcDbSpline
210
0.0
220
0.0
230
1.0
 70
    24
 71
     2
 72
     6
 73
     3
 74
     0
 42
0.0000000001
 43
0.0000000001
 40
0.0
 40
0.0
 40
0.0
 40
0.0899958150247216
 40
0.0899958150247216
 40
0.0899958150247216
 10
-474.6962095459394
 20
13.78726832254315
 30
0.0
 10
-474.7412074534517
 20
13.78726832254315
 30
0.0
 10
-474.7862053609641
 20
13.78726832254316
 30
0.0
  0
SPLINE
  5
1B6
330
1F
100
AcDbEntity
  8
LINEE VISIBILI 2D
100
AcDbSpline
210
0.0
220
0.0
230
1.0
 70
    12
 71
     2
 72
     6
 73
     3
 74
     0
 42
0.0000000001
 43
0.0000000001
 40
0.0
 40
0.0
 40
0.0
 40
0.0128656459291287
 40
0.0128656459291287
 40
0.0128656459291287
 10
-474.5952044357649
 20
12.30839553899565
 30
0.0
 41
1.0
 10
-474.5957068337284
 20
12.31480871352805
 30
0.0
 41
0.9999999999446956
 10
-474.5962093665869
 20
12.32122187749151
 30
0.0
 41
1.0
  0
SPLINE
  5
1B7
330
1F
100
AcDbEntity
  8
LINEE VISIBILI 2D
100
AcDbSpline
210
0.0
220
0.0
230
1.0
 70
    12
 71
     2
 72
     6
 73
     3
 74
     0
 42
0.0000000001
 43
0.0000000001
 40
0.0
 40
0.0
 40
0.0
 40
0.0231399727765525
 40
0.0231399727765525
 40
0.0231399727765525
 10
-474.5962093665869
 20
12.32122187749152
 30
0.0
 41
1.0
 10
-474.6045172539354
 20
12.31210761018004
 30
0.0
 41
0.9097831106107767
 10
-474.6168460892222
 20
12.31240874352644
 30
0.0
 41
1.0
  0
SPLINE
  5
1B9
330
1F
100
AcDbEntity
  8
LINEE VISIBILI 2D
100
AcDbSpline
210
0.0
220
0.0
230
1.0
 70
    12
 71
     2
 72
     6
 73
     3
 74
     0
 42
0.0000000001
 43
0.0000000001
 40
0.0
 40
0.0
 40
0.0
 40
0.0527345397947109
 40
0.0527345397947109
 40
0.0527345397947109
 10
-474.5962115898914
 20
17.83649090553022
 30
0.0
 41
1.0
 10
-474.594850208812
 20
17.86282300730938
 30
0.0
 41
0.9999999776572629
 10
-474.5934999605077
 20
17.88915568229822
 30
0.0
 41
1.0
  0
SPLINE
  5
1BA
330
1F
100
AcDbEntity
  8
LINEE VISIBILI 2D
100
AcDbSpline
210
0.0
220
0.0
230
1.0
 70
    12
 71
     2
 72
     6
 73
     3
 74
     0
 42
0.0000000001
 43
0.0000000001
 40
0.0
 40
0.0
 40
0.0
 40
0.0666038736943714
 40
0.0666038736943714
 40
0.0666038736943714
 10
-474.5934999605077
 20
17.88915568229822
 30
0.0
 41
1.0
 10
-474.6120223008021
 20
17.92333957839422
 30
0.0
 41
0.7980734369229118
 10
-474.6499717053715
 20
17.91488626335813
 30
0.0
 41
1.0
  0
SPLINE
  5
1BB
330
1F
100
AcDbEntity
  8
LINEE VISIBILI 2D
100
AcDbSpline
210
0.0
220
0.0
230
1.0
 70
    12
 71
     2
 72
     6
 73
     3
 74
     0
 42
0.0000000001
 43
0.0000000001
 40
0.0
 40
0.0
 40
0.0
 40
0.9641960289144892
 40
0.9641960289144892
 40
0.9641960289144892
 10
-474.5962093665895
 20
12.32122187749152
 30
0.0
 41
1.0
 10
-474.5962097781936
 20
12.80331989194867
 30
0.0
 41
0.9999999999997772
 10
-474.5962095460903
 20
13.28541790640592
 30
0.0
 41
1.0
  0
SPLINE
  5
1BC
330
1F
100
AcDbEntity
  8
LINEE VISIBILI 2D
100
AcDbSpline
210
0.0
220
0.0
230
1.0
 70
    12
 71
     2
 72
     6
 73
     3
 74
     0
 42
0.0000000001
 43
0.0000000001
 40
0.0
 40
0.0
 40
0.0
 40
13.78109445523924
 40
13.78109445523924
 40
13.78109445523924
 10
-474.6168460892222
 20
12.31240874352644
 30
0.0
 41
1.0
 10
-481.5506428421249
 20
12.16098518950988
 30
0.0
 41
0.9999999368229921
 10
-488.4985534523103
 20
11.99925868463015
 30
0.0
 41
1.0
  0
SPLINE
  5
1BD
330
1F
100
AcDbEntity
  8
LINEE VISIBILI 2D
100
AcDbSpline
210
0.0
220
0.0
230
1.0
 70
    12
 71
     2
 72
     6
 73
     3
 74
     0
 42
0.0000000001
 43
0.0000000001
 40
0.0
 40
0.0
 40
0.0
 40
0.9642012371699573
 40
0.9642012371699573
 40
0.9642012371699573
 10
-488.4962099548013
 20
17.56007017586202
 30
0.0
 41
1.0
 10
-488.4962090229304
 20
17.07796955727757
 30
0.0
 41
0.9999999999988617
 10
-488.4962095458627
 20
16.59586893869251
 30
0.0
 41
1.0
  0
SPLINE
  5
1C5
330
1F
100
AcDbEntity
  8
LINEE VISIBILI 2D
100
AcDbSpline
210
0.0
220
0.0
230
1.0
 70
    12
 71
     2
 72
     6
 73
     3
 74
     0
 42
0.0000000001
 43
0.0000000001
 40
0.0
 40
0.0
 40
0.0
 40
1.853757385749133
 40
1.853757385749133
 40
1.853757385749133
 10
-550.7615231668976
 20
383.059068458819
 30
0.0
 41
1.0
 10
-550.6137922328448
 20
382.1428376639491
 30
0.0
 41
0.9980848835697779
 10
-550.3540543147081
 20
381.251860945832
 30
0.0
 41
1.0
  0
SPLINE
  5
1C8
330
1F
100
AcDbEntity
  8
LINEE VISIBILI 2D
100
AcDbSpline
210
0.0
220
0.0
230
1.0
 70
    12
 71
     2
 72
     6
 73
     3
 74
     0
 42
0.0000000001
 43
0.0000000001
 40
0.0
 40
0.0
 40
0.0
 40
0.0100513066991626
 40
0.0100513066991626
 40
0.0100513066991626
 10
-553.5173459908893
 20
392.2574826558059
 30
0.0
 41
1.0
 10
-552.311044922819
 20
392.4190390888447
 30
0.0
 41
0.9999736233535767
 10
-551.6635373090196
 20
388.8604118133521
 30
0.0
 41
1.0
  0
SPLINE
  5
1CA
330
1F
100
AcDbEntity
  8
LINEE VISIBILI 2D
100
AcDbSpline
210
0.0
220
0.0
230
1.0
 70
    24
 71
     2
 72
     6
 73
     3
 74
     0
 42
0.0000000001
 43
0.0000000001
 40
0.0
 40
0.0
 40
0.0
 40
1.469064959792355
 40
1.469064959792355
 40
1.469064959792355
 10
-552.0728378435721
 20
210.8086874802074
 30
0.0
 10
-551.338305363676
 20
210.8086874802074
 30
0.0
 10
-550.6037728837798
 20
210.8086874802074
 30
0.0
  0
SPLINE
  5
1CD
330
1F
100
AcDbEntity
  8
LINEE VISIBILI 2D
100
AcDbSpline
210
0.0
220
0.0
230
1.0
 70
    24
 71
     2
 72
     6
 73
     3
 74
     0
 42
0.0000000001
 43
0.0000000001
 40
0.0
 40
0.0
 40
0.0
 40
0.9957261119363636
 40
0.9957261119363636
 40
0.9957261119363636
 10
-553.0655437867234
 20
372.3086874802085
 30
0.0
 10
-552.5676807307552
 20
372.3086874802085
 30
0.0
 10
-552.069817674787
 20
372.3086874802085
 30
0.0
  0
SPLINE
  5
1CF
330
1F
100
AcDbEntity
  8
LINEE VISIBILI 2D
100
AcDbSpline
210
0.0
220
0.0
230
1.0
 70
    28
 71
     3
 72
     8
 73
     4
 74
     0
 42
0.0000000001
 43
0.0000000001
 40
-62.83185307179589
 40
-62.83185307179589
 40
-62.83185307179589
 40
-62.83185307179589
 40
-46.1990183650762
 40
-46.1990183650762
 40
-46.1990183650762
 40
-46.1990183650762
 10
-554.0612698986598
 20
372.3086874802084
 30
0.0
 41
1.0
 10
-554.115644945017
 20
372.3086874802084
 30
0.0
 41
1.0
 10
-553.6543028405146
 20
372.3086874802085
 30
0.0
 41
1.0
 10
-553.0655437867234
 20
372.3086874802085
 30
0.0
 41
1.0
  0
SPLINE
  5
1D1
330
1F
100
AcDbEntity
  8
LINEE VISIBILI 2D
100
AcDbSpline
210
0.0
220
0.0
230
1.0
 70
    12
 71
     2
 72
     6
 73
     3
 74
     0
 42
0.0000000001
 43
0.0000000001
 40
0.0
 40
0.0
 40
0.0
 40
0.153822737897781
 40
0.153822737897781
 40
0.153822737897781
 10
-548.3502952938416
 20
375.3536793604036
 30
0.0
 41
1.0
 10
-548.3889862084395
 20
375.2728463541267
 30
0.0
 41
0.9999228456192541
 10
-548.4693672359099
 20
375.2428605847624
 30
0.0
 41
1.0
  0
SPLINE
  5
1D2
330
1F
100
AcDbEntity
  8
LINEE VISIBILI 2D
100
AcDbSpline
210
0.0
220
0.0
230
1.0
 70
    12
 71
     2
 72
     6
 73
     3
 74
     0
 42
0.0000000001
 43
0.0000000001
 40
0.0
 40
0.0
 40
0.0
 40
0.0313718230530026
 40
0.0313718230530026
 40
0.0313718230530026
 10
-554.5906156010129
 20
388.0825308868182
 30
0.0
 41
1.0
 10
-554.586088424841
 20
388.0975492938485
 30
0.0
 41
0.9999998372322561
 10
-554.5815783893336
 20
388.1125728571254
 30
0.0
 41
1.0
  0
SPLINE
  5
1D3
330
1F
100
AcDbEntity
  8
LINEE VISIBILI 2D
100
AcDbSpline
210
0.0
220
0.0
230
1.0
 70
    12
 71
     2
 72
     6
 73
     3
 74
     0
 42
0.0000000001
 43
0.0000000001
 40
0.0
 40
0.0
 40
0.0
 40
0.053892417940795
 40
0.053892417940795
 40
0.053892417940795
 10
-548.2855852398992
 20
375.6827678047695
 30
0.0
 41
1.0
 10
-548.3130443558036
 20
375.3863210978484
 30
0.0
 41
0.9560471865599344
 10
-548.3501483922475
 20
375.3535335943189
 30
0.0
 41
1.0
  0
SPLINE
  5
1D5
330
1F
100
AcDbEntity
  8
LINEE VISIBILI 2D
100
AcDbSpline
210
0.0
220
0.0
230
1.0
 70
    24
 71
     2
 72
     6
 73
     3
 74
     0
 42
0.0000000001
 43
0.0000000001
 40
0.0
 40
0.0
 40
0.0
 40
0.5881576982809538
 40
0.5881576982809538
 40
0.5881576982809538
 10
-553.0655437867223
 20
210.8086874802074
 30
0.0
 10
-552.7714649375818
 20
210.8086874802075
 30
0.0
 10
-552.4773860884413
 20
210.8086874802075
 30
0.0
  0
SPLINE
  5
1D6
330
1F
100
AcDbEntity
  8
LINEE VISIBILI 2D
100
AcDbSpline
210
0.0
220
0.0
230
1.0
 70
    24
 71
     2
 72
     6
 73
     3
 74
     0
 42
0.0000000001
 43
0.0000000001
 40
0.0
 40
0.0
 40
0.0
 40
2.850604079729215
 40
2.850604079729215
 40
2.850604079729215
 10
-549.9380852773525
 20
210.8086874802074
 30
0.0
 10
-548.5127832374879
 20
210.8086874802075
 30
0.0
 10
-547.0874811976233
 20
210.8086874802075
 30
0.0
  0
SPLINE
  5
1D7
330
1F
100
AcDbEntity
  8
LINEE VISIBILI 2D
100
AcDbSpline
210
0.0
220
0.0
230
1.0
 70
    24
 71
     2
 72
     6
 73
     3
 74
     0
 42
0.0000000001
 43
0.0000000001
 40
0.0
 40
0.0
 40
0.0
 40
0.0344912841801772
 40
0.0344912841801772
 40
0.0344912841801772
 10
-545.6678320842764
 20
210.8086874802075
 30
0.0
 10
-545.6505864421863
 20
210.8086874802075
 30
0.0
 10
-545.6333408000963
 20
210.8086874802075
 30
0.0
  0
SPLINE
  5
1D8
330
1F
100
AcDbEntity
  8
LINEE VISIBILI 2D
100
AcDbSpline
210
0.0
220
0.0
230
1.0
 70
    24
 71
     2
 72
     6
 73
     3
 74
     0
 42
0.0000000001
 43
0.0000000001
 40
0.0
 40
0.0
 40
0.0
 40
0.0465345092239566
 40
0.0465345092239566
 40
0.0465345092239566
 10
-545.2830170435365
 20
210.8086874802075
 30
0.0
 10
-545.2597497889246
 20
210.8086874802075
 30
0.0
 10
-545.2364825343125
 20
210.8086874802075
 30
0.0
  0
SPLINE
  5
1D9
330
1F
100
AcDbEntity
  8
LINEE VISIBILI 2D
100
AcDbSpline
210
0.0
220
0.0
230
1.0
 70
     8
 71
     2
 72
     6
 73
     3
 74
     0
 42
0.0000000001
 43
0.0000000001
 40
0.0
 40
0.0
 40
0.0
 40
5.376838658387271
 40
5.376838658387271
 40
5.376838658387271
 10
-544.2679916283295
 20
210.8086874802075
 30
0.0
 10
-541.5795722991358
 20
210.8086874802076
 30
0.0
 10
-538.1652932944199
 20
210.8092665236388
 30
0.0
  0
SPLINE
  5
1DA
330
1F
100
AcDbEntity
  8
LINEE VISIBILI 2D
100
AcDbSpline
210
0.0
220
0.0
230
1.0
 70
    12
 71
     2
 72
     6
 73
     3
 74
     0
 42
0.0000000001
 43
0.0000000001
 40
0.0
 40
0.0
 40
0.0
 40
0.0673395942471777
 40
0.0673395942471777
 40
0.0673395942471777
 10
-499.2049434809981
 20
379.5076897512386
 30
0.0
 41
1.0
 10
-499.2318337791234
 20
379.5300301610958
 30
0.0
 41
0.9455618028571763
 10
-499.239278566134
 20
379.5641879887822
 30
0.0
 41
1.0
  0
SPLINE
  5
1DB
330
1F
100
AcDbEntity
  8
LINEE VISIBILI 2D
100
AcDbSpline
210
0.0
220
0.0
230
1.0
 70
    12
 71
     2
 72
     6
 73
     3
 74
     0
 42
0.0000000001
 43
0.0000000001
 40
0.0
 40
0.0
 40
0.0
 40
1.853946556588989
 40
1.853946556588989
 40
1.853946556588989
 10
-499.239278566134
 20
379.5641879887822
 30
0.0
 41
1.0
 10
-499.9752232632579
 20
380.1320067452412
 30
0.0
 41
0.9958734726701257
 10
-500.5964087215566
 20
380.8234988737645
 30
0.0
 41
1.0
  0
SPLINE
  5
1DC
330
1F
100
AcDbEntity
  8
LINEE VISIBILI 2D
100
AcDbSpline
210
0.0
220
0.0
230
1.0
 70
    12
 71
     3
 72
    10
 73
     6
 74
     0
 42
0.0000000001
 43
0.0000000001
 40
-1.0
 40
-1.0
 40
-1.0
 40
-1.0
 40
-0.8935814750332987
 40
-0.8935814750332987
 40
-0.8414393164319802
 40
-0.8414393164319802
 40
-0.8414393164319802
 40
-0.8414393164319802
 10
-500.5964087215566
 20
380.8234988737645
 30
0.0
 41
1.0
 10
-501.0238165202371
 20
381.3084576212083
 30
0.0
 41
1.0
 10
-501.403307674693
 20
381.8535171527577
 30
0.0
 41
1.0
 10
-501.7650097416856
 20
382.7508028180741
 30
0.0
 41
1.0
 10
-501.8467505635094
 20
383.0636529525712
 30
0.0
 41
1.0
 10
-501.8830370063255
 20
383.3814301663947
 30
0.0
 41
1.0
  0
SPLINE
  5
1E0
330
1F
100
AcDbEntity
  8
LINEE VISIBILI 2D
100
AcDbSpline
210
0.0
220
0.0
230
1.0
 70
    12
 71
     2
 72
     6
 73
     3
 74
     0
 42
0.0000000001
 43
0.0000000001
 40
0.0
 40
0.0
 40
0.0
 40
0.2074630732274244
 40
0.2074630732274244
 40
0.2074630732274244
 10
-557.8103109245891
 20
375.0076262789605
 30
0.0
 41
1.0
 10
-557.8189609592743
 20
375.111631731693
 30
0.0
 41
0.9909268100365762
 10
-557.7675146043285
 20
375.3082382591195
 30
0.0
 41
1.0
  0
SPLINE
  5
1E1
330
1F
100
AcDbEntity
  8
LINEE VISIBILI 2D
100
AcDbSpline
210
0.0
220
0.0
230
1.0
 70
    12
 71
     2
 72
     6
 73
     3
 74
     0
 42
0.0000000001
 43
0.0000000001
 40
0.0
 40
0.0
 40
0.0
 40
3.954509425160958
 40
3.954509425160958
 40
3.954509425160958
 10
-553.0728498129014
 20
372.9854866831198
 30
0.0
 41
1.0
 10
-555.1102228947289
 20
372.9939441227724
 30
0.0
 41
0.9563081798707198
 10
-556.7945792367908
 20
374.1402007763178
 30
0.0
 41
1.0
  0
SPLINE
  5
1E4
330
1F
100
AcDbEntity
  8
LINEE VISIBILI 2D
100
AcDbSpline
210
0.0
220
0.0
230
1.0
 70
    12
 71
     2
 72
     6
 73
     3
 74
     0
 42
0.0000000001
 43
0.0000000001
 40
0.0
 40
0.0
 40
0.0
 40
6.83451242272278
 40
6.83451242272278
 40
6.83451242272278
 10
-488.6394110306414
 20
378.6299382484858
 30
0.0
 41
1.0
 10
-485.1683452465825
 20
377.4531678846078
 30
0.0
 41
0.9914627647256711
 10
-481.7373480948456
 20
377.2523797682386
 30
0.0
 41
1.0
  0
SPLINE
  5
1E7
330
1F
100
AcDbEntity
  8
LINEE VISIBILI 2D
100
AcDbSpline
210
0.0
220
0.0
230
1.0
 70
    12
 71
     2
 72
     6
 73
     3
 74
     0
 42
0.0000000001
 43
0.0000000001
 40
0.0
 40
0.0
 40
0.0
 40
2.642273273618193
 40
2.642273273618193
 40
2.642273273618193
 10
-480.0375473652731
 20
377.3703524233493
 30
0.0
 41
1.0
 10
-481.7060542705227
 20
377.2282387751933
 30
0.0
 41
0.9992503536715872
 10
-481.7505252488482
 20
377.2531542582874
 30
0.0
 41
1.0
  0
SPLINE
  5
1E9
330
1F
100
AcDbEntity
  8
LINEE VISIBILI 2D
100
AcDbSpline
210
0.0
220
0.0
230
1.0
 70
    12
 71
     2
 72
     8
 73
     5
 74
     0
 42
0.0000000001
 43
0.0000000001
 40
0.0
 40
0.0
 40
0.0
 40
0.6139674027470616
 40
0.6139674027470616
 40
1.551664939868643
 40
1.551664939868643
 40
1.551664939868643
 10
-477.2604739579207
 20
373.3741767865879
 30
0.0
 41
1.0
 10
-476.9581149630298
 20
373.4273282200482
 30
0.0
 41
0.9999439463873503
 10
-476.6569492228232
 20
373.4868700842795
 30
0.0
 41
1.0
 10
-476.1969616164611
 20
373.5777765918592
 30
0.0
 41
0.9998859799425217
 10
-475.7399289559125
 20
373.6825322042119
 30
0.0
 41
1.0
  0
SPLINE
  5
1EA
330
1F
100
AcDbEntity
  8
LINEE VISIBILI 2D
100
AcDbSpline
210
0.0
220
0.0
230
1.0
 70
     8
 71
     3
 72
    12
 73
     8
 74
     0
 42
0.0000000001
 43
0.0000000001
 40
0.0
 40
0.0
 40
0.0
 40
0.0
 40
1.157762573160018
 40
2.296192975358381
 40
4.278040586910224
 40
5.901726608133839
 40
7.203329301629365
 40
7.203329301629365
 40
7.203329301629365
 40
7.203329301629365
 10
-488.6234493583565
 20
379.0157397609988
 30
0.0
 10
-488.9887332113184
 20
379.1403163059262
 30
0.0
 10
-489.7063746299426
 20
379.407256235958
 30
0.0
 10
-491.0058502265625
 20
379.9973507116915
 30
0.0
 10
-492.3659162107236
 20
380.8144214417757
 30
0.0
 10
-493.5477914570243
 20
381.9733318422033
 30
0.0
 10
-493.9461792323558
 20
382.8887635273598
 30
0.0
 10
-494.0031238820941
 20
383.4017747498579
 30
0.0
  0
SPLINE
  5
1EB
330
1F
100
AcDbEntity
  8
LINEE VISIBILI 2D
100
AcDbSpline
210
0.0
220
0.0
230
1.0
 70
     8
 71
     3
 72
    12
 73
     8
 74
     0
 42
0.0000000001
 43
0.0000000001
 40
0.0
 40
0.0
 40
0.0
 40
0.0
 40
1.797951707006756
 40
3.986349541565973
 40
8.559559679250078
 40
13.19690447510773
 40
17.81980864587145
 40
17.81980864587145
 40
17.81980864587145
 40
17.81980864587145
 10
-499.2441978490838
 20
379.9511352434735
 30
0.0
 10
-498.782482571386
 20
379.5683352268306
 30
0.0
 10
-497.6754574197851
 20
378.8285112038691
 30
0.0
 10
-495.1399271095636
 20
377.5111696474919
 30
0.0
 10
-491.541338509095
 20
376.2492482930937
 30
0.0
 10
-486.993412188891
 20
375.4137297681648
 30
0.0
 10
-483.5872702077526
 20
375.1030687697572
 30
0.0
 10
-480.7413319877919
 20
375.2775777321585
 30
0.0
  0
SPLINE
  5
1ED
330
1F
100
AcDbEntity
  8
LINEE VISIBILI 2D
100
AcDbSpline
210
0.0
220
0.0
230
1.0
 70
    12
 71
     2
 72
     6
 73
     3
 74
     0
 42
0.0000000001
 43
0.0000000001
 40
0.0
 40
0.0
 40
0.0
 40
0.3960653874875567
 40
0.3960653874875567
 40
0.3960653874875567
 10
-497.8713142484131
 20
388.9551217687241
 30
0.0
 41
1.0
 10
-497.6979897873656
 20
389.0509292591444
 30
0.0
 41
0.999933142628698
 10
-497.5224961204375
 20
389.1427029857013
 30
0.0
 41
1.0
  0
SPLINE
  5
1EF
330
1F
100
AcDbEntity
  8
LINEE VISIBILI 2D
100
AcDbSpline
210
0.0
220
0.0
230
1.0
 70
    12
 71
     2
 72
     6
 73
     3
 74
     0
 42
0.0000000001
 43
0.0000000001
 40
0.0
 40
0.0
 40
0.0
 40
0.1679119086384
 40
0.1679119086384
 40
0.1679119086384
 10
-555.7699785353857
 20
181.3598545289604
 30
0.0
 41
1.0
 10
-555.779225500057
 20
181.2764085889917
 30
0.0
 41
0.9999862754756039
 10
-555.7875975948276
 20
181.1928703385787
 30
0.0
 41
1.0
  0
SPLINE
  5
1F0
330
1F
100
AcDbEntity
  8
LINEE VISIBILI 2D
100
AcDbSpline
210
0.0
220
0.0
230
1.0
 70
    12
 71
     2
 72
     6
 73
     3
 74
     0
 42
0.0000000001
 43
0.0000000001
 40
0.0
 40
0.0
 40
0.0
 40
0.2975276616943286
 40
0.2975276616943286
 40
0.2975276616943286
 10
-550.9511673256898
 20
162.524809710025
 30
0.0
 41
1.0
 10
-550.8877309110723
 20
162.3900933272651
 30
0.0
 41
0.9985790923572018
 10
-550.810317189027
 20
162.2628934918778
 30
0.0
 41
1.0
  0
SPLINE
  5
1F1
330
1F
100
AcDbEntity
  8
LINEE VISIBILI 2D
100
AcDbSpline
210
0.0
220
0.0
230
1.0
 70
    12
 71
     2
 72
     6
 73
     3
 74
     0
 42
0.0000000001
 43
0.0000000001
 40
0.0
 40
0.0
 40
0.0
 40
1.188870752013712
 40
1.188870752013712
 40
1.188870752013712
 10
-537.710094661449
 20
167.6636030454181
 30
0.0
 41
1.0
 10
-538.1158301139506
 20
167.2260426402226
 30
0.0
 41
0.9942552026170512
 10
-538.6053997342657
 20
166.8848653366445
 30
0.0
 41
1.0
  0
SPLINE
  5
1F2
330
1F
100
AcDbEntity
  8
LINEE VISIBILI 2D
100
AcDbSpline
210
0.0
220
0.0
230
1.0
 70
    12
 71
     2
 72
     8
 73
     5
 74
     0
 42
0.0000000001
 43
0.0000000001
 40
0.0
 40
0.0
 40
0.0
 40
0.0785791095890218
 40
0.0785791095890218
 40
0.1571582191780437
 40
0.1571582191780437
 40
0.1571582191780437
 10
-488.4962095459394
 20
16.1872683225434
 30
0.0
 41
1.0
 10
-488.4962853302062
 20
16.14581561601504
 30
0.0
 41
0.9235293340548562
 10
-488.4669737913371
 20
16.11650407714557
 30
0.0
 41
1.0
 10
-488.4376622524676
 20
16.0871925382761
 30
0.0
 41
0.9235293340548562
 10
-488.3962095459394
 20
16.08726832254274
 30
0.0
 41
1.0
  0
SPLINE
  5
1F3
330
1F
100
AcDbEntity
  8
LINEE VISIBILI 2D
100
AcDbSpline
210
0.0
220
0.0
230
1.0
 70
    12
 71
     3
 72
    10
 73
     6
 74
     0
 42
0.0000000001
 43
0.0000000001
 40
55.47132303433735
 40
55.47132303433735
 40
55.47132303433735
 40
55.47132303433735
 40
55.53882411475197
 40
55.53882411475197
 40
55.7856242265367
 40
55.7856242265367
 40
55.7856242265367
 40
55.7856242265367
 10
-553.0942121651428
 20
168.0908467993284
 30
0.0
 41
652.7069367773961
 10
-553.102890708873
 20
168.1028848914367
 30
0.0
 41
652.6872514274899
 10
-553.1115734563855
 20
168.1149136740732
 30
0.0
 41
652.6675624675897
 10
-553.152026837321
 20
168.1708842729973
 30
0.0
 41
652.5758687807402
 10
-553.184860709477
 20
168.2373946207419
 30
0.0
 41
652.4948721809823
 10
-553.2217535776839
 20
168.2208118858549
 30
0.0
 41
652.4324351003308
  0
SPLINE
  5
1F4
330
1F
100
AcDbEntity
  8
LINEE VISIBILI 2D
100
AcDbSpline
210
0.0
220
0.0
230
1.0
 70
     8
 71
     3
 72
    12
 73
     8
 74
     0
 42
0.0000000001
 43
0.0000000001
 40
0.0
 40
0.0
 40
0.0
 40
0.0
 40
1.122467999751509
 40
2.267381571078034
 40
5.03805179255066
 40
8.465256990550567
 40
12.44962001020083
 40
12.44962001020083
 40
12.44962001020083
 40
12.44962001020083
 10
-567.9769643982631
 20
173.9229818793186
 30
0.0
 10
-567.9383312874512
 20
174.6377648331549
 30
0.0
 10
-567.7734188649425
 20
175.3804429494594
 30
0.0
 10
-566.9603782986249
 20
176.8736707266732
 30
0.0
 10
-565.0906386159302
 20
178.5147400115157
 30
0.0
 10
-561.9981632109941
 20
179.9564309120078
 30
0.0
 10
-559.5939475315645
 20
180.566686320554
 30
0.0
 10
-558.2867004407195
 20
180.7982613344981
 30
0.0
  0
SPLINE
  5
1F5
330
1F
100
AcDbEntity
  8
LINEE VISIBILI 2D
100
AcDbSpline
210
0.0
220
0.0
230
1.0
 70
    12
 71
     2
 72
     6
 73
     3
 74
     0
 42
0.0000000001
 43
0.0000000001
 40
0.0
 40
0.0
 40
0.0
 40
2.553331302604882
 40
2.553331302604882
 40
2.553331302604882
 10
-558.2867004407195
 20
180.7982613344981
 30
0.0
 41
1.0
 10
-557.0288031715444
 20
181.0211833552642
 30
0.0
 41
0.9990235976319789
 10
-555.7561383082064
 20
181.132196475057
 30
0.0
 41
1.0
  0
SPLINE
  5
1F6
330
1F
100
AcDbEntity
  8
LINEE VISIBILI 2D
100
AcDbSpline
210
0.0
220
0.0
230
1.0
 70
    12
 71
     2
 72
     6
 73
     3
 74
     0
 42
0.0000000001
 43
0.0000000001
 40
0.0
 40
0.0
 40
0.0
 40
4.031330047970632
 40
4.031330047970632
 40
4.031330047970632
 10
-544.8132665328808
 20
166.5418015621925
 30
0.0
 41
1.0
 10
-542.8173965063972
 20
166.2413889705395
 30
0.0
 41
0.9980042705071255
 10
-540.7995791792763
 20
166.1949333765919
 30
0.0
 41
1.0
  0
SPLINE
  5
1F7
330
1F
100
AcDbEntity
  8
LINEE VISIBILI 2D
100
AcDbSpline
210
0.0
220
0.0
230
1.0
 70
    12
 71
     2
 72
     6
 73
     3
 74
     0
 42
0.0000000001
 43
0.0000000001
 40
0.0
 40
0.0
 40
0.0
 40
1.150399453288073
 40
1.150399453288073
 40
1.150399453288073
 10
-551.9309709590535
 20
165.0029260485312
 30
0.0
 41
1.0
 10
-551.3626220062844
 20
164.9138914572407
 30
0.0
 41
0.9997893193899528
 10
-550.7910976847998
 20
164.8482588395005
 30
0.0
 41
1.0
  0
SPLINE
  5
1F8
330
1F
100
AcDbEntity
  8
LINEE VISIBILI 2D
100
AcDbSpline
210
0.0
220
0.0
230
1.0
 70
    12
 71
     3
 72
    12
 73
     8
 74
     0
 42
0.0000000001
 43
0.0000000001
 40
0.0
 40
0.0
 40
0.0
 40
0.0
 40
0.165779021359703
 40
0.165779021359703
 40
0.423918781861492
 40
0.423918781861492
 40
1.0
 40
1.0
 40
1.0
 40
1.0
 10
-540.0656604351807
 20
179.0832261608098
 30
0.0
 41
639.4485645939035
 10
-540.0807260435406
 20
179.0519754564082
 30
0.0
 41
639.4461502616276
 10
-540.1059488782578
 20
179.0053929890193
 30
0.0
 41
639.4433355329178
 10
-540.19401663035
 20
178.9037901407129
 30
0.0
 41
639.4467690382064
 10
-540.2744890878823
 20
178.874819978068
 30
0.0
 41
639.4636932703881
 10
-540.4232423131021
 20
178.9265210474088
 30
0.0
 41
639.5143969664883
 10
-540.4403527623869
 20
179.1285426417912
 30
0.0
 41
639.5523253707428
 10
-540.4420707032849
 20
179.1927169296759
 30
0.0
 41
639.5625649996349
  0
SPLINE
  5
1F9
330
1F
100
AcDbEntity
  8
LINEE VISIBILI 2D
100
AcDbSpline
210
0.0
220
0.0
230
1.0
 70
    12
 71
     2
 72
     6
 73
     3
 74
     0
 42
0.0000000001
 43
0.0000000001
 40
0.0
 40
0.0
 40
0.0
 40
0.0376693192929906
 40
0.0376693192929906
 40
0.0376693192929906
 10
-540.4420707032849
 20
179.1927169296759
 30
0.0
 41
1.0
 10
-540.4433864704735
 20
179.2115696418547
 30
0.0
 41
0.9949349688624526
 10
-540.4409046699067
 20
179.2303045468649
 30
0.0
 41
1.0
  0
SPLINE
  5
1FA
330
1F
100
AcDbEntity
  8
LINEE VISIBILI 2D
100
AcDbSpline
210
0.0
220
0.0
230
1.0
 70
    12
 71
     2
 72
     6
 73
     3
 74
     0
 42
0.0000000001
 43
0.0000000001
 40
0.0
 40
0.0
 40
0.0
 40
0.0391589837036328
 40
0.0391589837036328
 40
0.0391589837036328
 10
-540.0424523566644
 20
179.1145460692373
 30
0.0
 41
1.0
 10
-540.0566648609993
 20
179.1008189898418
 30
0.0
 41
0.9864095198868239
 10
-540.0656604351805
 20
179.0832261608098
 30
0.0
 41
1.0
  0
SPLINE
  5
1FB
330
1F
100
AcDbEntity
  8
LINEE VISIBILI 2D
100
AcDbSpline
210
0.0
220
0.0
230
1.0
 70
     8
 71
     3
 72
    11
 73
     7
 74
     0
 42
0.0000000001
 43
0.0000000001
 40
0.0
 40
0.0
 40
0.0
 40
0.0
 40
1.792071092225855
 40
3.54369768644301
 40
7.334299050914085
 40
14.83477553936576
 40
14.83477553936576
 40
14.83477553936576
 40
14.83477553936576
 10
-532.8626369383804
 20
164.1688987024512
 30
0.0
 10
-533.3845238265996
 20
163.8777617972898
 30
0.0
 10
-534.4334471299085
 20
163.3343316396814
 30
0.0
 10
-536.6889661110051
 20
162.3831819539405
 30
0.0
 10
-540.8615176826217
 20
161.1372161679806
 30
0.0
 10
-544.6321288498429
 20
160.7125064829958
 30
0.0
 10
-547.1325659319083
 20
160.8178831897361
 30
0.0
  0
SPLINE
  5
1FC
330
1F
100
AcDbEntity
  8
LINEE VISIBILI 2D
100
AcDbSpline
210
0.0
220
0.0
230
1.0
 70
    24
 71
     2
 72
     6
 73
     3
 74
     0
 42
0.0000000001
 43
0.0000000001
 40
0.0
 40
0.0
 40
0.0
 40
10.14894887323768
 40
10.14894887323768
 40
10.14894887323768
 10
-554.0418767551754
 20
166.3910412563832
 30
0.0
 10
-549.0163064145518
 20
165.6882371874259
 30
0.0
 10
-543.9907360739282
 20
164.9854331184686
 30
0.0
  0
SPLINE
  5
1FE
330
1F
100
AcDbEntity
  8
LINEE VISIBILI 2D
100
AcDbSpline
210
0.0
220
0.0
230
1.0
 70
    24
 71
     2
 72
     6
 73
     3
 74
     0
 42
0.0000000001
 43
0.0000000001
 40
0.0
 40
0.0
 40
0.0
 40
1.491518208978789
 40
1.491518208978789
 40
1.491518208978789
 10
-490.1385103879976
 20
208.7786874802075
 30
0.0
 10
-490.8842694924871
 20
208.7786874802075
 30
0.0
 10
-491.6300285969765
 20
208.7786874802075
 30
0.0
  0
SPLINE
  5
1FF
330
1F
100
AcDbEntity
  8
LINEE VISIBILI 2D
100
AcDbSpline
210
0.0
220
0.0
230
1.0
 70
    12
 71
     2
 72
     6
 73
     3
 74
     0
 42
0.0000000001
 43
0.0000000001
 40
0.0
 40
0.0
 40
0.0
 40
4.733237984301887
 40
4.733237984301887
 40
4.733237984301887
 10
-552.2249964914021
 20
168.5820944638617
 30
0.0
 41
1.0
 10
-550.0443181279673
 20
167.6497555351226
 30
0.0
 41
0.9968356398802951
 10
-547.7434431398187
 20
167.0747874562641
 30
0.0
 41
1.0
  0
SPLINE
  5
200
330
1F
100
AcDbEntity
  8
LINEE VISIBILI 2D
100
AcDbSpline
210
0.0
220
0.0
230
1.0
 70
    12
 71
     2
 72
     6
 73
     3
 74
     0
 42
0.0000000001
 43
0.0000000001
 40
0.0
 40
0.0
 40
0.0
 40
2.00598063588683
 40
2.00598063588683
 40
2.00598063588683
 10
-545.0422134727154
 20
178.8765803646018
 30
0.0
 41
1.0
 10
-544.1213273542309
 20
178.4762167812379
 30
0.0
 41
0.9982648406100798
 10
-543.2538953145801
 20
177.9703671013044
 30
0.0
 41
1.0
  0
SPLINE
  5
201
330
1F
100
AcDbEntity
  8
LINEE VISIBILI 2D
100
AcDbSpline
210
0.0
220
0.0
230
1.0
 70
    12
 71
     2
 72
     6
 73
     3
 74
     0
 42
0.0000000001
 43
0.0000000001
 40
0.0
 40
0.0
 40
0.0
 40
2.907442709175242
 40
2.907442709175242
 40
2.907442709175242
 10
-547.7434431398187
 20
167.0747874562641
 30
0.0
 41
1.0
 10
-546.3292061173289
 20
166.7340570983452
 30
0.0
 41
0.9989871343242402
 10
-544.8900634777784
 20
166.5218496630052
 30
0.0
 41
1.0
  0
SPLINE
  5
202
330
1F
100
AcDbEntity
  8
LINEE VISIBILI 2D
100
AcDbSpline
210
0.0
220
0.0
230
1.0
 70
    12
 71
     2
 72
     6
 73
     3
 74
     0
 42
0.0000000001
 43
0.0000000001
 40
0.0
 40
0.0
 40
0.0
 40
4.056541681466277
 40
4.056541681466277
 40
4.056541681466277
 10
-544.8805912864237
 20
166.5203956724638
 30
0.0
 41
1.0
 10
-542.8718495812927
 20
166.2200808418378
 30
0.0
 41
0.997936404004322
 10
-540.8411848041676
 20
166.1796729419919
 30
0.0
 41
1.0
  0
SPLINE
  5
204
330
1F
100
AcDbEntity
  8
LINEE VISIBILI 2D
100
AcDbSpline
210
0.0
220
0.0
230
1.0
 70
    12
 71
     2
 72
     6
 73
     3
 74
     0
 42
0.0000000001
 43
0.0000000001
 40
0.0
 40
0.0
 40
0.0
 40
0.1926856730687911
 40
0.1926856730687911
 40
0.1926856730687911
 10
-474.2721874387973
 20
374.0569560735283
 30
0.0
 41
1.0
 10
-474.1794449715071
 20
374.0830489288796
 30
0.0
 41
0.9999951367167312
 10
-474.0868670612464
 20
374.1097197532255
 30
0.0
 41
1.0
  0
SPLINE
  5
205
330
1F
100
AcDbEntity
  8
LINEE VISIBILI 2D
100
AcDbSpline
210
0.0
220
0.0
230
1.0
 70
    12
 71
     2
 72
     6
 73
     3
 74
     0
 42
0.0000000001
 43
0.0000000001
 40
0.0
 40
0.0
 40
0.0
 40
6.344325105098723
 40
6.344325105098723
 40
6.344325105098723
 10
-473.5065102217584
 20
391.2861893439372
 30
0.0
 41
1.0
 10
-476.8628039135093
 20
391.8310902972282
 30
0.0
 41
0.9968602249631498
 10
-480.0416200286358
 20
391.837553814901
 30
0.0
 41
1.0
  0
SPLINE
  5
206
330
1F
100
AcDbEntity
  8
LINEE VISIBILI 2D
100
AcDbSpline
210
0.0
220
0.0
230
1.0
 70
    12
 71
     2
 72
    10
 73
     7
 74
     0
 42
0.0000000001
 43
0.0000000001
 40
0.0
 40
0.0
 40
0.0
 40
0.1570796326794827
 40
0.1570796326794827
 40
2.757079632679477
 40
2.757079632679477
 40
2.914159265358978
 40
2.914159265358978
 40
2.914159265358978
 10
-496.4452436482146
 20
210.348687480208
 30
0.0
 41
1.0
 10
-496.5452436482146
 20
210.3486874802081
 30
0.0
 41
0.7071067811866982
 10
-496.5452436482146
 20
210.448687480208
 30
0.0
 41
1.0
 10
-496.5452436482146
 20
210.578687480208
 30
0.0
 41
1.0
 10
-496.5452436482145
 20
210.708687480208
 30
0.0
 41
1.0
 10
-496.5452436482146
 20
210.8086874802082
 30
0.0
 41
0.7071067811858442
 10
-496.4452436482146
 20
210.808687480208
 30
0.0
 41
1.0
  0
SPLINE
  5
207
330
1F
100
AcDbEntity
  8
LINEE VISIBILI 2D
100
AcDbSpline
210
0.0
220
0.0
230
1.0
 70
    12
 71
     2
 72
     8
 73
     5
 74
     0
 42
0.0000000001
 43
0.0000000001
 40
0.0
 40
0.0
 40
0.0
 40
0.0474068067381438
 40
0.0474068067381438
 40
0.0948136134762876
 40
0.0948136134762876
 40
0.0948136134762876
 10
-553.0711256910371
 20
168.4102971954034
 30
0.0
 41
1.0
 10
-553.0708846935917
 20
168.4362200274584
 30
0.0
 41
0.8763316895700993
 10
-553.0488696109228
 20
168.4499089805444
 30
0.0
 41
1.0
 10
-553.0268545282537
 20
168.4635979336304
 30
0.0
 41
0.8763316895700993
 10
-553.0034991234053
 20
168.4523473173856
 30
0.0
 41
1.0
  0
SPLINE
  5
208
330
1F
100
AcDbEntity
  8
LINEE VISIBILI 2D
100
AcDbSpline
210
0.0
220
0.0
230
1.0
 70
    12
 71
     2
 72
     6
 73
     3
 74
     0
 42
0.0000000001
 43
0.0000000001
 40
0.0
 40
0.0
 40
0.0
 40
6.375378853899936
 40
6.375378853899936
 40
6.375378853899936
 10
-540.4420707032849
 20
179.1927169296759
 30
0.0
 41
1.0
 10
-543.5161507482247
 20
180.0610677692893
 30
0.0
 41
0.996865794824137
 10
-546.6887139913983
 20
180.43368522919
 30
0.0
 41
1.0
  0
SPLINE
  5
209
330
1F
100
AcDbEntity
  8
LINEE VISIBILI 2D
100
AcDbSpline
210
0.0
220
0.0
230
1.0
 70
    12
 71
     2
 72
     6
 73
     3
 74
     0
 42
0.0000000001
 43
0.0000000001
 40
0.0
 40
0.0
 40
0.0
 40
0.0697886179188699
 40
0.0697886179188699
 40
0.0697886179188699
 10
-542.4153636758715
 20
165.2889986616006
 30
0.0
 41
1.0
 10
-542.4450230245992
 20
165.2692375271558
 30
0.0
 41
0.9689263014571007
 10
-542.4805251937394
 20
165.2661109654912
 30
0.0
 41
1.0
  0
SPLINE
  5
20A
330
1F
100
AcDbEntity
  8
LINEE VISIBILI 2D
100
AcDbSpline
210
0.0
220
0.0
230
1.0
 70
    12
 71
     2
 72
     6
 73
     3
 74
     0
 42
0.0000000001
 43
0.0000000001
 40
0.0
 40
0.0
 40
0.0
 40
0.0269814196770311
 40
0.0269814196770311
 40
0.0269814196770311
 10
-543.3524807313657
 20
165.0784652044273
 30
0.0
 41
1.0
 10
-543.3524215285556
 20
165.0936624258708
 30
0.0
 41
0.8397603596452039
 10
-543.3385387658232
 20
165.0998453008889
 30
0.0
 41
1.0
  0
SPLINE
  5
20B
330
1F
100
AcDbEntity
  8
LINEE VISIBILI 2D
100
AcDbSpline
210
0.0
220
0.0
230
1.0
 70
    12
 71
     2
 72
     6
 73
     3
 74
     0
 42
0.0000000001
 43
0.0000000001
 40
0.0
 40
0.0
 40
0.0
 40
0.0272361244973546
 40
0.0272361244973546
 40
0.0272361244973546
 10
-552.9782881445499
 20
168.4572672701516
 30
0.0
 41
1.0
 10
-552.9908535023313
 20
168.46349916314
 30
0.0
 41
0.9569532869272178
 10
-553.0047636302439
 20
168.4617010953351
 30
0.0
 41
1.0
  0
SPLINE
  5
20C
330
1F
100
AcDbEntity
  8
LINEE VISIBILI 2D
100
AcDbSpline
210
0.0
220
0.0
230
1.0
 70
     8
 71
     3
 72
    17
 73
    13
 74
     0
 42
0.0000000001
 43
0.0000000001
 40
0.0
 40
0.0
 40
0.0
 40
0.0
 40
4.233395496291149
 40
8.419800200476405
 40
12.3723637887143
 40
15.92281152780113
 40
18.71324195139911
 40
20.97989846053828
 40
21.92179771893756
 40
22.80566232294139
 40
23.78586124065233
 40
24.78355039245323
 40
24.78355039245323
 40
24.78355039245323
 40
24.78355039245323
 10
-480.4612885852973
 20
391.9146504414975
 30
0.0
 10
-479.0500413995634
 20
391.9308404806694
 30
0.0
 10
-476.2426160737962
 20
391.797616740055
 30
0.0
 10
-472.163120325538
 20
391.1464193901705
 30
0.0
 10
-468.4052401503168
 20
390.0928036374087
 30
0.0
 10
-465.2483325374356
 20
388.7183168900013
 30
0.0
 10
-462.8551791820078
 20
387.113117954586
 30
0.0
 10
-461.5435485791096
 20
385.5561802009564
 30
0.0
 10
-461.1140594563574
 20
384.2403447540398
 30
0.0
 10
-461.1056865662167
 20
383.2958628286446
 30
0.0
 10
-461.3775360872478
 20
382.3713417611346
 30
0.0
 10
-461.7056287958371
 20
381.7960060672425
 30
0.0
 10
-461.9068343879628
 20
381.5304533354698
 30
0.0
  0
SPLINE
  5
20D
330
1F
100
AcDbEntity
  8
LINEE VISIBILI 2D
100
AcDbSpline
210
0.0
220
0.0
230
1.0
 70
    12
 71
     3
 72
     9
 73
     5
 74
     0
 42
0.0000000001
 43
0.0000000001
 40
263.9931746883547
 40
263.9931746883547
 40
263.9931746883547
 40
263.9931746883547
 40
265.536740246686
 40
270.4835515471501
 40
270.4835515471501
 40
270.4835515471501
 40
270.4835515471501
 10
-462.5017764298234
 20
380.773053065674
 30
0.0
 41
1.0
 10
-462.5295836688612
 20
380.7278035845437
 30
0.0
 41
1.0
 10
-462.6899596362835
 20
380.5545572026614
 30
0.0
 41
1.0
 10
-462.8571128207368
 20
380.3881502562141
 30
0.0
 41
1.0
 10
-462.9877163872522
 20
380.2649585189037
 30
0.0
 41
1.0
  0
SPLINE
  5
20E
330
1F
100
AcDbEntity
  8
LINEE VISIBILI 2D
100
AcDbSpline
210
0.0
220
0.0
230
1.0
 70
    12
 71
     2
 72
     6
 73
     3
 74
     0
 42
0.0000000001
 43
0.0000000001
 40
0.0
 40
0.0
 40
0.0
 40
0.15242803478425
 40
0.15242803478425
 40
0.15242803478425
 10
-463.7089355427804
 20
379.6518257870098
 30
0.0
 41
1.0
 10
-463.7706637385941
 20
379.6071051149436
 30
0.0
 41
0.99977640159399
 10
-463.8342276212971
 20
379.5650344424485
 30
0.0
 41
1.0
  0
SPLINE
  5
20F
330
1F
100
AcDbEntity
  8
LINEE VISIBILI 2D
100
AcDbSpline
210
0.0
220
0.0
230
1.0
 70
     8
 71
     3
 72
    19
 73
    15
 74
     0
 42
0.0000000001
 43
0.0000000001
 40
0.0
 40
0.0
 40
0.0
 40
0.0
 40
4.708935049430447
 40
8.915636901655677
 40
10.76857513937502
 40
12.31917873251453
 40
13.69968442515388
 40
14.94521926957727
 40
16.29539351283602
 40
17.82433552655782
 40
19.54735382316178
 40
21.46252967593931
 40
25.61448639038453
 40
29.89656924783446
 40
29.89656924783446
 40
29.89656924783446
 40
29.89656924783446
 10
-480.7413319877919
 20
375.2775777321585
 30
0.0
 10
-479.1869763060815
 20
375.5030174818561
 30
0.0
 10
-476.2899125241367
 20
376.2145162527954
 30
0.0
 10
-473.0190988234802
 20
377.7512795300327
 30
0.0
 10
-470.9926235790722
 20
379.294455642204
 30
0.0
 10
-469.9171957887201
 20
380.4820159291631
 30
0.0
 10
-469.2349186844046
 20
381.7091289253318
 30
0.0
 10
-468.9715784490231
 20
383.0293598376968
 30
0.0
 10
-469.2136811096459
 20
384.4052445784072
 30
0.0
 10
-469.932978486215
 20
385.7746555703071
 30
0.0
 10
-471.0627510599591
 20
387.0858325330576
 30
0.0
 10
-473.0924045532574
 20
388.7208077237597
 30
0.0
 10
-476.2221145371285
 20
390.24779615642
 30
0.0
 10
-478.9974630011422
 20
390.8120346182573
 30
0.0
 10
-480.4243961624275
 20
390.8923972977225
 30
0.0
  0
SPLINE
  5
210
330
1F
100
AcDbEntity
  8
LINEE VISIBILI 2D
100
AcDbSpline
210
0.0
220
0.0
230
1.0
 70
    12
 71
     2
 72
     6
 73
     3
 74
     0
 42
0.0000000001
 43
0.0000000001
 40
0.0
 40
0.0
 40
0.0
 40
0.3890823741730308
 40
0.3890823741730308
 40
0.3890823741730308
 10
-474.2723240747405
 20
374.057446635627
 30
0.0
 41
1.0
 10
-474.4597371245073
 20
374.005259394433
 30
0.0
 41
0.9999824446435649
 10
-474.6477554640269
 20
373.9552967746992
 30
0.0
 41
1.0
  0
SPLINE
  5
211
330
1F
100
AcDbEntity
  8
LINEE VISIBILI 2D
100
AcDbSpline
210
0.0
220
0.0
230
1.0
 70
    12
 71
     2
 72
     6
 73
     3
 74
     0
 42
0.0000000001
 43
0.0000000001
 40
0.0
 40
0.0
 40
0.0
 40
0.4323235195886473
 40
0.4323235195886473
 40
0.4323235195886473
 10
-464.2671471242416
 20
379.2057047518051
 30
0.0
 41
1.0
 10
-464.4378996298987
 20
379.073153663828
 30
0.0
 41
0.999995141141132
 10
-464.6094752216457
 20
378.9416697278178
 30
0.0
 41
1.0
  0
SPLINE
  5
212
330
1F
100
AcDbEntity
  8
LINEE VISIBILI 2D
100
AcDbSpline
210
0.0
220
0.0
230
1.0
 70
     8
 71
     3
 72
    14
 73
    10
 74
     0
 42
0.0000000001
 43
0.0000000001
 40
0.0
 40
0.0
 40
0.0
 40
0.0
 40
2.273451318711598
 40
4.379719718476462
 40
6.629989575263394
 40
8.98424210539057
 40
13.15886028976812
 40
15.16902438223753
 40
17.6952950193182
 40
17.6952950193182
 40
17.6952950193182
 40
17.6952950193182
 10
-483.0421562725045
 20
373.0352399397431
 30
0.0
 10
-483.7980940927248
 20
373.0858116378793
 30
0.0
 10
-485.2513773496847
 20
373.2440250681327
 30
0.0
 10
-487.4197272464573
 20
373.6773309083432
 30
0.0
 10
-489.5827194771853
 20
374.2530628991048
 30
0.0
 10
-492.346971826088
 20
375.2198702202675
 30
0.0
 10
-494.9168356087998
 20
376.4647475464975
 30
0.0
 10
-497.3414269394561
 20
378.0694451090813
 30
0.0
 10
-498.5430701972369
 20
378.9864090380949
 30
0.0
 10
-499.2049434809981
 20
379.5076897512385
 30
0.0
  0
SPLINE
  5
213
330
1F
100
AcDbEntity
  8
LINEE VISIBILI 2D
100
AcDbSpline
210
0.0
220
0.0
230
1.0
 70
    12
 71
     2
 72
     6
 73
     3
 74
     0
 42
0.0000000001
 43
0.0000000001
 40
0.0
 40
0.0
 40
0.0
 40
0.3457545689656973
 40
0.3457545689656973
 40
0.3457545689656973
 10
-477.2606667947517
 20
373.3752772629135
 30
0.0
 41
1.0
 10
-477.4309514753004
 20
373.3454375726438
 30
0.0
 41
0.9999818303511631
 10
-477.6015835314876
 20
373.317653027549
 30
0.0
 41
1.0
  0
SPLINE
  5
214
330
1F
100
AcDbEntity
  8
LINEE VISIBILI 2D
100
AcDbSpline
210
0.0
220
0.0
230
1.0
 70
    12
 71
     2
 72
     6
 73
     3
 74
     0
 42
0.0000000001
 43
0.0000000001
 40
0.0
 40
0.0
 40
0.0
 40
2.18962965117835
 40
2.18962965117835
 40
2.18962965117835
 10
-477.8667993143545
 20
373.2760033480909
 30
0.0
 41
1.0
 10
-478.9498773662814
 20
373.1121897361771
 30
0.0
 41
0.9992039930352614
 10
-480.0425675771339
 20
373.0352412526239
 30
0.0
 41
1.0
  0
SPLINE
  5
217
330
1F
100
AcDbEntity
  8
LINEE VISIBILI 2D
100
AcDbSpline
210
0.0
220
0.0
230
1.0
 70
    12
 71
     2
 72
     6
 73
     3
 74
     0
 42
0.0000000001
 43
0.0000000001
 40
0.0
 40
0.0
 40
0.0
 40
0.2127633251607285
 40
0.2127633251607285
 40
0.2127633251607285
 10
-479.8259959416458
 20
390.7929719783195
 30
0.0
 41
1.0
 10
-479.9319405349791
 20
390.8026743362253
 30
0.0
 41
0.9999115725101239
 10
-480.0375896276634
 20
390.8151907982042
 30
0.0
 41
1.0
  0
SPLINE
  5
218
330
1F
100
AcDbEntity
  8
LINEE VISIBILI 2D
100
AcDbSpline
210
0.0
220
0.0
230
1.0
 70
    12
 71
     2
 72
     6
 73
     3
 74
     0
 42
0.0000000001
 43
0.0000000001
 40
0.0
 40
0.0
 40
0.0
 40
0.185869864787099
 40
0.185869864787099
 40
0.185869864787099
 10
-474.4948464426133
 20
378.6014814082222
 30
0.0
 41
1.0
 10
-474.4067451986238
 20
378.6310652518709
 30
0.0
 41
0.9999885951636187
 10
-474.3189305514612
 20
378.6614892677343
 30
0.0
 41
1.0
  0
SPLINE
  5
219
330
1F
100
AcDbEntity
  8
LINEE VISIBILI 2D
100
AcDbSpline
210
0.0
220
0.0
230
1.0
 70
    12
 71
     2
 72
     6
 73
     3
 74
     0
 42
0.0000000001
 43
0.0000000001
 40
0.0
 40
0.0
 40
0.0
 40
1.509220317517125
 40
1.509220317517125
 40
1.509220317517125
 10
-474.2519575267822
 20
378.6848350942253
 30
0.0
 41
1.0
 10
-473.5388159339117
 20
378.9332074107023
 30
0.0
 41
0.9989172339649067
 10
-472.8518461995126
 20
379.2467872619257
 30
0.0
 41
1.0
  0
SPLINE
  5
21A
330
1F
100
AcDbEntity
  8
LINEE VISIBILI 2D
100
AcDbSpline
210
0.0
220
0.0
230
1.0
 70
    12
 71
     2
 72
     6
 73
     3
 74
     0
 42
0.0000000001
 43
0.0000000001
 40
0.0
 40
0.0
 40
0.0
 40
2.126570427890289
 40
2.126570427890289
 40
2.126570427890289
 10
-472.2138734467068
 20
379.5600274135508
 30
0.0
 41
1.0
 10
-471.2610132695179
 20
380.0429730762676
 30
0.0
 41
0.9930295164248862
 10
-470.4476802110012
 20
380.735554021958
 30
0.0
 41
1.0
  0
SPLINE
  5
21B
330
1F
100
AcDbEntity
  8
LINEE VISIBILI 2D
100
AcDbSpline
210
0.0
220
0.0
230
1.0
 70
    12
 71
     2
 72
     6
 73
     3
 74
     0
 42
0.0000000001
 43
0.0000000001
 40
0.0
 40
0.0
 40
0.0
 40
0.2258452715425554
 40
0.2258452715425554
 40
0.2258452715425554
 10
-469.510128116386
 20
384.911134809334
 30
0.0
 41
1.0
 10
-469.562665275917
 20
385.0111129874004
 30
0.0
 41
0.9997490793844781
 10
-469.6196276914597
 20
385.1086377147095
 30
0.0
 41
1.0
  0
SPLINE
  5
21C
330
1F
100
AcDbEntity
  8
LINEE VISIBILI 2D
100
AcDbSpline
210
0.0
220
0.0
230
1.0
 70
    12
 71
     2
 72
     6
 73
     3
 74
     0
 42
0.0000000001
 43
0.0000000001
 40
0.0
 40
0.0
 40
0.0
 40
0.5947136526440568
 40
0.5947136526440568
 40
0.5947136526440568
 10
-469.6755409276466
 20
385.202242471542
 30
0.0
 41
1.0
 10
-469.8312186135433
 20
385.4558535758697
 30
0.0
 41
0.9988730878170116
 10
-470.0102411415374
 20
385.6935615239806
 30
0.0
 41
1.0
  0
SPLINE
  5
21D
330
1F
100
AcDbEntity
  8
LINEE VISIBILI 2D
100
AcDbSpline
210
0.0
220
0.0
230
1.0
 70
    12
 71
     2
 72
     6
 73
     3
 74
     0
 42
0.0000000001
 43
0.0000000001
 40
0.0
 40
0.0
 40
0.0
 40
0.0436304480854183
 40
0.0436304480854183
 40
0.0436304480854183
 10
-480.0437739640766
 20
390.8155835470037
 30
0.0
 41
1.0
 10
-480.0421855735266
 20
390.8373544753733
 30
0.0
 41
0.999067686839499
 10
-480.0424811077307
 20
390.8591812700569
 30
0.0
 41
1.0
  0
SPLINE
  5
21E
330
1F
100
AcDbEntity
  8
LINEE VISIBILI 2D
100
AcDbSpline
210
0.0
220
0.0
230
1.0
 70
    12
 71
     2
 72
     6
 73
     3
 74
     0
 42
0.0000000001
 43
0.0000000001
 40
0.0
 40
0.0
 40
0.0
 40
1.101662126471742
 40
1.101662126471742
 40
1.101662126471742
 10
-481.5422862923598
 20
390.9271352445498
 30
0.0
 41
1.0
 10
-482.0932537314077
 20
390.9158341329857
 30
0.0
 41
0.9993135000339483
 10
-482.6418719487752
 20
390.8637679675236
 30
0.0
 41
1.0
  0
SPLINE
  5
21F
330
1F
100
AcDbEntity
  8
LINEE VISIBILI 2D
100
AcDbSpline
210
0.0
220
0.0
230
1.0
 70
    12
 71
     2
 72
     6
 73
     3
 74
     0
 42
0.0000000001
 43
0.0000000001
 40
0.0
 40
0.0
 40
0.0
 40
0.0172143256216338
 40
0.0172143256216338
 40
0.0172143256216338
 10
-482.6418719487752
 20
390.8637679675236
 30
0.0
 41
1.0
 10
-482.6418454307144
 20
390.8723750941542
 30
0.0
 41
0.9999991861105419
 10
-482.6418408754263
 20
390.8809822604299
 30
0.0
 41
1.0
  0
SPLINE
  5
220
330
1F
100
AcDbEntity
  8
LINEE VISIBILI 2D
100
AcDbSpline
210
0.0
220
0.0
230
1.0
 70
    12
 71
     2
 72
     6
 73
     3
 74
     0
 42
0.0000000001
 43
0.0000000001
 40
0.0
 40
0.0
 40
0.0
 40
2.603871352574392
 40
2.603871352574392
 40
2.603871352574392
 10
-482.6418408754263
 20
390.8809822604299
 30
0.0
 41
1.0
 10
-481.3432326965889
 20
391.0127512386425
 30
0.0
 41
0.9961654127240642
 10
-480.0415363561695
 20
390.9161442870187
 30
0.0
 41
1.0
  0
SPLINE
  5
221
330
1F
100
AcDbEntity
  8
LINEE VISIBILI 2D
100
AcDbSpline
210
0.0
220
0.0
230
1.0
 70
    12
 71
     2
 72
     6
 73
     3
 74
     0
 42
0.0000000001
 43
0.0000000001
 40
0.0
 40
0.0
 40
0.0
 40
1.117087628899249
 40
1.117087628899249
 40
1.117087628899249
 10
-480.4243961624275
 20
390.8923972977225
 30
0.0
 41
1.0
 10
-480.9822811386891
 20
390.9235115219775
 30
0.0
 41
0.9994413422986907
 10
-481.5409984086203
 20
390.9172862533137
 30
0.0
 41
1.0
  0
SPLINE
  5
223
330
1F
100
AcDbEntity
  8
LINEE VISIBILI 2D
100
AcDbSpline
210
0.0
220
0.0
230
1.0
 70
    12
 71
     2
 72
     6
 73
     3
 74
     0
 42
0.0000000001
 43
0.0000000001
 40
0.0
 40
0.0
 40
0.0
 40
0.0160613959098503
 40
0.0160613959098503
 40
0.0160613959098503
 10
-483.4919877508268
 20
390.7740904479462
 30
0.0
 41
1.0
 10
-483.4905022064423
 20
390.7661345826877
 30
0.0
 41
0.9884249742210593
 10
-483.4866990103784
 20
390.7589904708584
 30
0.0
 41
1.0
  0
SPLINE
  5
224
330
1F
100
AcDbEntity
  8
LINEE VISIBILI 2D
100
AcDbSpline
210
0.0
220
0.0
230
1.0
 70
    12
 71
     2
 72
     6
 73
     3
 74
     0
 42
0.0000000001
 43
0.0000000001
 40
0.0
 40
0.0
 40
0.0
 40
2.672233877974358
 40
2.672233877974358
 40
2.672233877974358
 10
-470.73029910469
 20
391.0881202225502
 30
0.0
 41
1.0
 10
-472.022197337357
 20
391.4317244616537
 30
0.0
 41
0.9992208633508152
 10
-473.3371719954452
 20
391.6723622917719
 30
0.0
 41
1.0
  0
SPLINE
  5
227
330
1F
100
AcDbEntity
  8
LINEE VISIBILI 2D
100
AcDbSpline
210
0.0
220
0.0
230
1.0
 70
    12
 71
     2
 72
     6
 73
     3
 74
     0
 42
0.0000000001
 43
0.0000000001
 40
0.0
 40
0.0
 40
0.0
 40
0.4047875750249789
 40
0.4047875750249789
 40
0.4047875750249789
 10
-489.3514649163289
 20
391.7437347049999
 30
0.0
 41
1.0
 10
-489.5506171422913
 20
391.7076311120526
 30
0.0
 41
0.9999664352917351
 10
-489.750334217774
 20
391.6747956390078
 30
0.0
 41
1.0
  0
SPLINE
  5
229
330
1F
100
AcDbEntity
  8
LINEE VISIBILI 2D
100
AcDbSpline
210
0.0
220
0.0
230
1.0
 70
    12
 71
     2
 72
     6
 73
     3
 74
     0
 42
0.0000000001
 43
0.0000000001
 40
0.0
 40
0.0
 40
0.0
 40
0.1964631719382275
 40
0.1964631719382275
 40
0.1964631719382275
 10
-461.1873196176714
 20
384.061237107502
 30
0.0
 41
1.0
 10
-461.1765325843058
 20
383.9635658824653
 30
0.0
 41
0.9994886158811024
 10
-461.1720108151837
 20
383.865404882608
 30
0.0
 41
1.0
  0
SPLINE
  5
22A
330
1F
100
AcDbEntity
  8
LINEE VISIBILI 2D
100
AcDbSpline
210
0.0
220
0.0
230
1.0
 70
    12
 71
     2
 72
     6
 73
     3
 74
     0
 42
0.0000000001
 43
0.0000000001
 40
0.0
 40
0.0
 40
0.0
 40
3.184296539246592
 40
3.184296539246592
 40
3.184296539246592
 10
-480.0487897403794
 20
392.2990426271959
 30
0.0
 41
1.0
 10
-478.4558051268566
 20
392.2880345887202
 30
0.0
 41
0.9991768835779087
 10
-476.8689555587952
 20
392.1479288994229
 30
0.0
 41
1.0
  0
SPLINE
  5
22B
330
1F
100
AcDbEntity
  8
LINEE VISIBILI 2D
100
AcDbSpline
210
0.0
220
0.0
230
1.0
 70
    12
 71
     2
 72
     6
 73
     3
 74
     0
 42
0.0000000001
 43
0.0000000001
 40
0.0
 40
0.0
 40
0.0
 40
0.66918089543012
 40
0.66918089543012
 40
0.66918089543012
 10
-493.2457392656733
 20
390.840065229691
 30
0.0
 41
1.0
 10
-492.9250738045787
 20
390.9356327861463
 30
0.0
 41
0.9999415317533951
 10
-492.6024166061607
 20
391.0242433278137
 30
0.0
 41
1.0
  0
SPLINE
  5
22D
330
1F
100
AcDbEntity
  8
LINEE VISIBILI 2D
100
AcDbSpline
210
0.0
220
0.0
230
1.0
 70
    12
 71
     2
 72
     6
 73
     3
 74
     0
 42
0.0000000001
 43
0.0000000001
 40
0.0
 40
0.0
 40
0.0
 40
0.4686494702345012
 40
0.4686494702345012
 40
0.4686494702345012
 10
-463.8681719349055
 20
379.5169217160512
 30
0.0
 41
1.0
 10
-464.0526115308068
 20
379.372387045344
 30
0.0
 41
0.9999978953301026
 10
-464.2376426466033
 20
379.2286104069086
 30
0.0
 41
1.0
  0
SPLINE
  5
230
330
1F
100
AcDbEntity
  8
LINEE VISIBILI 2D
100
AcDbSpline
210
0.0
220
0.0
230
1.0
 70
    12
 71
     2
 72
     6
 73
     3
 74
     0
 42
0.0000000001
 43
0.0000000001
 40
0.0
 40
0.0
 40
0.0
 40
0.2891703182098937
 40
0.2891703182098937
 40
0.2891703182098937
 10
-475.458727066778
 20
373.7499873922665
 30
0.0
 41
1.0
 10
-475.5993134090096
 20
373.7162138294696
 30
0.0
 41
0.9999890601454495
 10
-475.7402095517323
 20
373.6837569329472
 30
0.0
 41
1.0
  0
SPLINE
  5
231
330
1F
100
AcDbEntity
  8
LINEE VISIBILI 2D
100
AcDbSpline
210
0.0
220
0.0
230
1.0
 70
    12
 71
     2
 72
     6
 73
     3
 74
     0
 42
0.0000000001
 43
0.0000000001
 40
0.0
 40
0.0
 40
0.0
 40
0.3878907148959895
 40
0.3878907148959895
 40
0.3878907148959895
 10
-464.6765340756155
 20
378.8903759843992
 30
0.0
 41
1.0
 10
-464.8306532381958
 20
378.772637055076
 30
0.0
 41
0.9999926211193088
 10
-464.9856724513244
 20
378.6560857131115
 30
0.0
 41
1.0
  0
SPLINE
  5
232
330
1F
100
AcDbEntity
  8
LINEE VISIBILI 2D
100
AcDbSpline
210
0.0
220
0.0
230
1.0
 70
    12
 71
     2
 72
     6
 73
     3
 74
     0
 42
0.0000000001
 43
0.0000000001
 40
0.0
 40
0.0
 40
0.0
 40
0.338368141755985
 40
0.338368141755985
 40
0.338368141755985
 10
-465.0963015741419
 20
378.5731973187541
 30
0.0
 41
1.0
 10
-465.2318486720046
 20
378.4719522318298
 30
0.0
 41
0.999991260880208
 10
-465.3682375727487
 20
378.3718440347672
 30
0.0
 41
1.0
  0
SPLINE
  5
233
330
1F
100
AcDbEntity
  8
LINEE VISIBILI 2D
100
AcDbSpline
210
0.0
220
0.0
230
1.0
 70
    12
 71
     2
 72
     6
 73
     3
 74
     0
 42
0.0000000001
 43
0.0000000001
 40
0.0
 40
0.0
 40
0.0
 40
0.286774229583147
 40
0.286774229583147
 40
0.286774229583147
 10
-465.5263923676785
 20
378.2564172960029
 30
0.0
 41
1.0
 10
-465.6424353020311
 20
378.172190587706
 30
0.0
 41
0.9999913795831014
 10
-465.7591736811851
 20
378.0889304421608
 30
0.0
 41
1.0
  0
SPLINE
  5
234
330
1F
100
AcDbEntity
  8
LINEE VISIBILI 2D
100
AcDbSpline
210
0.0
220
0.0
230
1.0
 70
    12
 71
     2
 72
     6
 73
     3
 74
     0
 42
0.0000000001
 43
0.0000000001
 40
0.0
 40
0.0
 40
0.0
 40
0.1820807757813916
 40
0.1820807757813916
 40
0.1820807757813916
 10
-466.0109272970347
 20
377.9111857668819
 30
0.0
 41
1.0
 10
-466.0855518435699
 20
377.859036194513
 30
0.0
 41
0.9999956007910721
 10
-466.1604844486995
 20
377.8073302419322
 30
0.0
 41
1.0
  0
SPLINE
  5
235
330
1F
100
AcDbEntity
  8
LINEE VISIBILI 2D
100
AcDbSpline
210
0.0
220
0.0
230
1.0
 70
    12
 71
     2
 72
     6
 73
     3
 74
     0
 42
0.0000000001
 43
0.0000000001
 40
0.0
 40
0.0
 40
0.0
 40
1.065668571560602
 40
1.065668571560602
 40
1.065668571560602
 10
-466.5067293294905
 20
377.5720175156633
 30
0.0
 41
1.0
 10
-466.9495441439146
 20
377.2755375432292
 30
0.0
 41
0.999807318498801
 10
-467.4036550968036
 20
376.9966673648408
 30
0.0
 41
1.0
  0
SPLINE
  5
236
330
1F
100
AcDbEntity
  8
LINEE VISIBILI 2D
100
AcDbSpline
210
0.0
220
0.0
230
1.0
 70
    12
 71
     2
 72
     6
 73
     3
 74
     0
 42
0.0000000001
 43
0.0000000001
 40
0.0
 40
0.0
 40
0.0
 40
3.625333607512159
 40
3.625333607512159
 40
3.625333607512159
 10
-468.5908248028562
 20
376.3136328255945
 30
0.0
 41
1.0
 10
-470.1931880776155
 20
375.4603255063444
 30
0.0
 41
0.9977376762987793
 10
-471.8955392783147
 20
374.8296894505564
 30
0.0
 41
1.0
  0
SPLINE
  5
237
330
1F
100
AcDbEntity
  8
LINEE VISIBILI 2D
100
AcDbSpline
210
0.0
220
0.0
230
1.0
 70
    12
 71
     2
 72
     6
 73
     3
 74
     0
 42
0.0000000001
 43
0.0000000001
 40
0.0
 40
0.0
 40
0.0
 40
0.4568430097735047
 40
0.4568430097735047
 40
0.4568430097735047
 10
-473.0992005811473
 20
374.4099451697071
 30
0.0
 41
1.0
 10
-473.3165348333381
 20
374.339628620914
 30
0.0
 41
0.9999682295421441
 10
-473.5349624445793
 20
374.2727857240818
 30
0.0
 41
1.0
  0
SPLINE
  5
238
330
1F
100
AcDbEntity
  8
LINEE VISIBILI 2D
100
AcDbSpline
210
0.0
220
0.0
230
1.0
 70
    12
 71
     2
 72
     6
 73
     3
 74
     0
 42
0.0000000001
 43
0.0000000001
 40
0.0
 40
0.0
 40
0.0
 40
0.419878408663873
 40
0.419878408663873
 40
0.419878408663873
 10
-473.6838919370109
 20
374.227637356846
 30
0.0
 41
1.0
 10
-473.8849692103372
 20
374.167273275852
 30
0.0
 41
0.9999757927482106
 10
-474.0868670213357
 20
374.1097131678189
 30
0.0
 41
1.0
  0
SPLINE
  5
239
330
1F
100
AcDbEntity
  8
LINEE VISIBILI 2D
100
AcDbSpline
210
0.0
220
0.0
230
1.0
 70
    12
 71
     2
 72
    16
 73
    13
 74
     0
 42
0.0000000001
 43
0.0000000001
 40
0.0
 40
0.0
 40
0.0
 40
0.0927264384219283
 40
0.0927264384219283
 40
0.1666400167558302
 40
0.1666400167558302
 40
0.283032757278393
 40
0.283032757278393
 40
0.4812849860565793
 40
0.4812849860565793
 40
0.4914635501386199
 40
0.4914635501386199
 40
0.5016421142206604
 40
0.5016421142206604
 40
0.5016421142206604
 10
-540.4383940484083
 20
179.6510518126746
 30
0.0
 41
1.0
 10
-540.4040160842217
 20
179.6193918467421
 30
0.0
 41
0.9880972505871829
 10
-540.3616405504376
 20
179.5996811389674
 30
0.0
 41
1.0
 10
-540.3292515580132
 20
179.5818641348601
 30
0.0
 41
0.9996222763015362
 10
-540.2959325400225
 20
179.565853653737
 30
0.0
 41
1.0
 10
-540.2432656845944
 20
179.540989015408
 30
0.0
 41
0.998843488336371
 10
-540.1884541094946
 20
179.5212979226226
 30
0.0
 41
1.0
 10
-540.0977995480712
 20
179.4744166841239
 30
0.0
 41
0.9574423428591394
 10
-539.9963383353853
 20
179.4854494693724
 30
0.0
 41
1.0
 10
-539.9926939050452
 20
179.4894572383144
 30
0.0
 41
0.9116706257714433
 10
-539.9932830705157
 20
179.4948421216413
 30
0.0
 41
1.0
 10
-539.993872235986
 20
179.500227004968
 30
0.0
 41
0.9116706257714433
 10
-539.9982970591887
 20
179.5033519088098
 30
0.0
 41
1.0
  0
SPLINE
  5
23A
330
1F
100
AcDbEntity
  8
LINEE VISIBILI 2D
100
AcDbSpline
210
0.0
220
0.0
230
1.0
 70
    12
 71
     3
 72
    13
 73
     9
 74
     0
 42
0.0000000001
 43
0.0000000001
 40
87.83510766424527
 40
87.83510766424527
 40
87.83510766424527
 40
87.83510766424527
 40
104.390768194048
 40
121.337321472303
 40
138.283874750557
 40
155.230428028812
 40
172.176981307067
 40
182.7234626362355
 40
182.7234626362355
 40
182.7234626362355
 40
182.7234626362355
 10
-555.7875975948276
 20
181.1928703385787
 30
0.0
 41
646.1771837140052
 10
-556.2889561204744
 20
181.1457909902761
 30
0.0
 41
646.4125111223837
 10
-557.3017531146414
 20
181.0316479467453
 30
0.0
 41
646.8899997725407
 10
-558.8171401688562
 20
180.7700870001116
 30
0.0
 41
647.6107065537433
 10
-560.3287295846477
 20
180.4117984469348
 30
0.0
 41
648.338189143469
 10
-561.8197163973925
 20
179.9554905713705
 30
0.0
 41
649.0663328397125
 10
-563.0958900235939
 20
179.4684326353726
 30
0.0
 41
649.7064264334018
 10
-563.853243833523
 20
179.0796802107502
 30
0.0
 41
650.098266179477
 10
-564.1369651716281
 20
178.9162020620334
 30
0.0
 41
650.2470950358047
  0
SPLINE
  5
23B
330
1F
100
AcDbEntity
  8
LINEE VISIBILI 2D
100
AcDbSpline
210
0.0
220
0.0
230
1.0
 70
    12
 71
     2
 72
     6
 73
     3
 74
     0
 42
0.0000000001
 43
0.0000000001
 40
0.0
 40
0.0
 40
0.0
 40
0.8747393974505728
 40
0.8747393974505728
 40
0.8747393974505728
 10
-567.1259743791039
 20
171.4012467318642
 30
0.0
 41
1.0
 10
-567.3555893875828
 20
171.7744151967264
 30
0.0
 41
0.9973217070805684
 10
-567.5283071416164
 20
172.1770891749369
 30
0.0
 41
1.0
  0
SPLINE
  5
23C
330
1F
100
AcDbEntity
  8
LINEE VISIBILI 2D
100
AcDbSpline
210
0.0
220
0.0
230
1.0
 70
    12
 71
     2
 72
     6
 73
     3
 74
     0
 42
0.0000000001
 43
0.0000000001
 40
0.0
 40
0.0
 40
0.0
 40
0.0027763306872764
 40
0.0027763306872764
 40
0.0027763306872764
 10
-554.7723244711014
 20
165.7054066624973
 30
0.0
 41
1.0
 10
-554.7736700248992
 20
165.705747965883
 30
0.0
 41
0.9999999993337603
 10
-554.7750155537755
 20
165.7060893675016
 30
0.0
 41
1.0
  0
SPLINE
  5
23D
330
1F
100
AcDbEntity
  8
LINEE VISIBILI 2D
100
AcDbSpline
210
0.0
220
0.0
230
1.0
 70
    12
 71
     3
 72
     8
 73
     4
 74
     0
 42
0.0000000001
 43
0.0000000001
 40
-31.4159265358979
 40
-31.4159265358979
 40
-31.4159265358979
 40
-31.4159265358979
 40
-14.6992911047164
 40
-14.6992911047164
 40
-14.6992911047164
 40
-14.6992911047164
 10
-547.1590480834096
 20
160.7234393970147
 30
0.0
 41
650.1898379881758
 10
-547.6854649478032
 20
160.8174019536946
 30
0.0
 41
650.4803946426648
 10
-548.3928462725327
 20
160.7602648452622
 30
0.0
 41
650.3036809126573
 10
-548.6868854644352
 20
160.5999517069796
 30
0.0
 41
649.8083764446715
  0
SPLINE
  5
23E
330
1F
100
AcDbEntity
  8
LINEE VISIBILI 2D
100
AcDbSpline
210
0.0
220
0.0
230
1.0
 70
    12
 71
     3
 72
     8
 73
     4
 74
     0
 42
0.0000000001
 43
0.0000000001
 40
-14.6992911047164
 40
-14.6992911047164
 40
-14.6992911047164
 40
-14.6992911047164
 40
0.0
 40
0.0
 40
0.0
 40
0.0
 10
-548.6868854644352
 20
160.5999517069796
 30
0.0
 41
649.8083764446715
 10
-548.9451748438471
 20
160.4591297276689
 30
0.0
 41
649.373914041322
 10
-548.789499447019
 20
160.2879889715161
 30
0.0
 41
648.8466938998758
 10
-548.3270425816096
 20
160.205157457416
 30
0.0
 41
648.5918285582974
  0
SPLINE
  5
23F
330
1F
100
AcDbEntity
  8
LINEE VISIBILI 2D
100
AcDbSpline
210
0.0
220
0.0
230
1.0
 70
    12
 71
     3
 72
     8
 73
     4
 74
     0
 42
0.0000000001
 43
0.0000000001
 40
-62.83185307179589
 40
-62.83185307179589
 40
-62.83185307179589
 40
-62.83185307179589
 40
-46.1990183650762
 40
-46.1990183650762
 40
-46.1990183650762
 40
-46.1990183650762
 10
-548.3270425816096
 20
160.205157457416
 30
0.0
 41
648.5918285582974
 10
-547.7994465507248
 20
160.1106587455573
 30
0.0
 41
648.3013086678599
 10
-547.0899387044972
 20
160.1681577292147
 30
0.0
 41
648.4780483045506
 10
-546.7965526705935
 20
160.3291086912005
 30
0.0
 41
648.9732901018018
  0
SPLINE
  5
241
330
1F
100
AcDbEntity
  8
LINEE VISIBILI 2D
100
AcDbSpline
210
0.0
220
0.0
230
1.0
 70
    12
 71
     2
 72
     6
 73
     3
 74
     0
 42
0.0000000001
 43
0.0000000001
 40
0.0
 40
0.0
 40
0.0
 40
1.319276126779408
 40
1.319276126779408
 40
1.319276126779408
 10
-470.1887942611836
 20
12.76830830065792
 30
0.0
 41
1.0
 10
-470.8373123811792
 20
12.64673679137329
 30
0.0
 41
0.9995985826357349
 10
-471.4916752443755
 20
12.56209267106979
 30
0.0
 41
1.0
  0
SPLINE
  5
242
330
1F
100
AcDbEntity
  8
LINEE VISIBILI 2D
100
AcDbSpline
210
0.0
220
0.0
230
1.0
 70
    12
 71
     2
 72
     6
 73
     3
 74
     0
 42
0.0000000001
 43
0.0000000001
 40
0.0
 40
0.0
 40
0.0
 40
0.0167391932272956
 40
0.0167391932272956
 40
0.0167391932272956
 10
-474.4675997219125
 20
12.29802704546222
 30
0.0
 41
1.0
 10
-474.4592596053458
 20
12.29872890239741
 30
0.0
 41
0.9999999996481806
 10
-474.4509194515551
 20
12.29943031686848
 30
0.0
 41
1.0
  0
SPLINE
  5
243
330
1F
100
AcDbEntity
  8
LINEE VISIBILI 2D
100
AcDbSpline
210
0.0
220
0.0
230
1.0
 70
     8
 71
     3
 72
    11
 73
     7
 74
     0
 42
0.0000000001
 43
0.0000000001
 40
0.0
 40
0.0
 40
0.0
 40
0.0
 40
0.989809265783059
 40
1.982127796973353
 40
4.087337350075676
 40
8.386198497529546
 40
8.386198497529546
 40
8.386198497529546
 40
8.386198497529546
 10
-546.707734714041
 20
164.7207970542759
 30
0.0
 10
-547.0373522540905
 20
164.712071357165
 30
0.0
 10
-547.6985949290918
 20
164.7003916759115
 30
0.0
 10
-549.0599703075706
 20
164.7549809192085
 30
0.0
 10
-551.5159074585329
 20
164.9908629949935
 30
0.0
 10
-553.6151843165048
 20
165.3992689103109
 30
0.0
 10
-555.0011664409818
 20
165.7642048345917
 30
0.0
  0
SPLINE
  5
248
330
1F
100
AcDbEntity
  8
LINEE VISIBILI 2D
100
AcDbSpline
210
0.0
220
0.0
230
1.0
 70
    12
 71
     2
 72
     8
 73
     5
 74
     0
 42
0.0000000001
 43
0.0000000001
 40
0.0
 40
0.0
 40
0.0
 40
3.129035953530842
 40
3.129035953530842
 40
6.305648679454509
 40
6.305648679454509
 40
6.305648679454509
 10
-473.7464565692163
 20
14.99625484450683
 30
0.0
 41
1.0
 10
-475.3074778216906
 20
14.89145747234863
 30
0.0
 41
0.9999836564611582
 10
-476.8695953080098
 20
14.80451611955872
 30
0.0
 41
1.0
 10
-478.4555907285539
 20
14.71882552988882
 30
0.0
 41
0.9999978450319998
 10
-480.0412166850612
 20
14.62655052137856
 30
0.0
 41
1.0
  0
SPLINE
  5
249
330
1F
100
AcDbEntity
  8
LINEE VISIBILI 2D
100
AcDbSpline
210
0.0
220
0.0
230
1.0
 70
    12
 71
     2
 72
     6
 73
     3
 74
     0
 42
0.0000000001
 43
0.0000000001
 40
0.0
 40
0.0
 40
0.0
 40
0.1031333983183755
 40
0.1031333983183755
 40
0.1031333983183755
 10
-473.3424389642452
 20
15.02600032855116
 30
0.0
 41
1.0
 10
-473.3938740739613
 20
15.02231875949687
 30
0.0
 41
0.9999999999992878
 10
-473.4453091748898
 20
15.01863706767917
 30
0.0
 41
1.0
  0
SPLINE
  5
24A
330
1F
100
AcDbEntity
  8
LINEE VISIBILI 2D
100
AcDbSpline
210
0.0
220
0.0
230
1.0
 70
    24
 71
     2
 72
     6
 73
     3
 74
     0
 42
0.0000000001
 43
0.0000000001
 40
0.0
 40
0.0
 40
0.0
 40
0.1822845141939131
 40
0.1822845141939131
 40
0.1822845141939131
 10
-473.4453179607605
 20
15.0186364387958
 30
0.0
 10
-473.5362276254322
 20
15.01212921988096
 30
0.0
 10
-473.627137290104
 20
15.00562200096611
 30
0.0
  0
SPLINE
  5
24B
330
1F
100
AcDbEntity
  8
LINEE VISIBILI 2D
100
AcDbSpline
210
0.0
220
0.0
230
1.0
 70
    12
 71
     2
 72
     6
 73
     3
 74
     0
 42
0.0000000001
 43
0.0000000001
 40
0.0
 40
0.0
 40
0.0
 40
0.1122603755036205
 40
0.1122603755036205
 40
0.1122603755036205
 10
-473.6271552541697
 20
15.00562071511703
 30
0.0
 41
1.0
 10
-473.6831554118159
 20
15.00177980663692
 30
0.0
 41
0.9999589963321342
 10
-473.7390768234455
 20
14.99692532873885
 30
0.0
 41
1.0
  0
SPLINE
  5
250
330
1F
100
AcDbEntity
  8
LINEE VISIBILI 2D
100
AcDbSpline
210
0.0
220
0.0
230
1.0
 70
    12
 71
     2
 72
    10
 73
     7
 74
     0
 42
0.0000000001
 43
0.0000000001
 40
0.0
 40
0.0
 40
0.0
 40
0.1570796326795011
 40
0.1570796326795011
 40
2.757079632679506
 40
2.757079632679506
 40
2.914159265358982
 40
2.914159265358982
 40
2.914159265358982
 10
-466.6452436482156
 20
210.8086874802074
 30
0.0
 41
1.0
 10
-466.5452436482155
 20
210.8086874802075
 30
0.0
 41
0.7071067811858442
 10
-466.5452436482156
 20
210.7086874802075
 30
0.0
 41
1.0
 10
-466.5452436482156
 20
210.5786874802074
 30
0.0
 41
1.0
 10
-466.5452436482156
 20
210.4486874802075
 30
0.0
 41
1.0
 10
-466.5452436482156
 20
210.3486874802075
 30
0.0
 41
0.7071067811867989
 10
-466.6452436482156
 20
210.3486874802074
 30
0.0
 41
1.0
  0
SPLINE
  5
251
330
1F
100
AcDbEntity
  8
LINEE VISIBILI 2D
100
AcDbSpline
210
0.0
220
0.0
230
1.0
 70
    12
 71
     2
 72
     6
 73
     3
 74
     0
 42
0.0000000001
 43
0.0000000001
 40
0.0
 40
0.0
 40
0.0
 40
0.0615958476276402
 40
0.0615958476276402
 40
0.0615958476276402
 10
-461.1621472127966
 20
16.80730351562262
 30
0.0
 41
1.0
 10
-461.1986457751675
 20
16.75457391789666
 30
0.0
 41
0.9999950903688031
 10
-461.2228913201288
 20
16.71982078957138
 30
0.0
 41
1.0
  0
SPLINE
  5
252
330
1F
100
AcDbEntity
  8
LINEE VISIBILI 2D
100
AcDbSpline
210
0.0
220
0.0
230
1.0
 70
     8
 71
     3
 72
    14
 73
    10
 74
     0
 42
0.0000000001
 43
0.0000000001
 40
0.0
 40
0.0
 40
0.0
 40
0.0
 40
1.478168778037215
 40
2.855210992961271
 40
4.403378428240782
 40
6.272335426792451
 40
8.589245077834069
 40
11.17191104779357
 40
17.13176557647248
 40
17.13176557647248
 40
17.13176557647248
 40
17.13176557647248
 10
-461.7102531478988
 20
381.8757123110572
 30
0.0
 10
-461.4714233396543
 20
382.3027373383544
 30
0.0
 10
-461.1023473066636
 20
383.2073517481167
 30
0.0
 10
-461.2257259969348
 20
384.7092866719657
 30
0.0
 10
-462.0310307987145
 20
386.1224420185441
 30
0.0
 10
-463.4154230795117
 20
387.4540708215975
 30
0.0
 10
-465.3248521620371
 20
388.6735848093354
 30
0.0
 10
-468.6250667465159
 20
390.1741654793156
 30
0.0
 10
-471.3941256719912
 20
390.9072592476881
 30
0.0
 10
-473.5065102217584
 20
391.2861893439372
 30
0.0
  0
SPLINE
  5
253
330
1F
100
AcDbEntity
  8
LINEE VISIBILI 2D
100
AcDbSpline
210
0.0
220
0.0
230
1.0
 70
     8
 71
     3
 72
    18
 73
    14
 74
     0
 42
0.0000000001
 43
0.0000000001
 40
0.0
 40
0.0
 40
0.0
 40
0.0
 40
2.720506637320016
 40
5.477799895671891
 40
7.668649031535762
 40
9.214495560447325
 40
10.20344744531937
 40
10.51870390287269
 40
10.73401706831033
 40
10.90751732295168
 40
11.14154953258916
 40
11.47429625775037
 40
11.931450012199
 40
11.931450012199
 40
11.931450012199
 40
11.931450012199
 10
-479.2957500303328
 20
14.63081219584075
 30
0.0
 10
-478.3956189104928
 20
14.52162480396114
 30
0.0
 10
-476.5864689745356
 20
14.27033825988192
 30
0.0
 10
-474.0652352159038
 20
13.85156827678822
 30
0.0
 10
-471.9412680655034
 20
13.42622276045595
 30
0.0
 10
-470.4169724167914
 20
13.03256018176801
 30
0.0
 10
-469.5190914323371
 20
12.70650779838562
 30
0.0
 10
-469.0910122123047
 20
12.43622840340516
 30
0.0
 10
-468.9335517028555
 20
12.24573921687062
 30
0.0
 10
-468.9579892832397
 20
12.02511524093238
 30
0.0
 10
-469.1481777794129
 20
11.85144115333016
 30
0.0
 10
-469.4389143341688
 20
11.68245257273235
 30
0.0
 10
-469.689537746972
 20
11.58601374720983
 30
0.0
 10
-469.8314246402496
 20
11.53519324699277
 30
0.0
  0
SPLINE
  5
258
330
1F
100
AcDbEntity
  8
LINEE VISIBILI 2D
100
AcDbSpline
210
0.0
220
0.0
230
1.0
 70
    12
 71
     2
 72
     6
 73
     3
 74
     0
 42
0.0000000001
 43
0.0000000001
 40
0.0
 40
0.0
 40
0.0
 40
0.423718121823495
 40
0.423718121823495
 40
0.423718121823495
 10
-474.3188204664778
 20
12.26817451755187
 30
0.0
 41
1.0
 10
-474.107616589516
 20
12.28483174685096
 30
0.0
 41
0.9999953340059528
 10
-473.8965184238723
 20
12.30277904173545
 30
0.0
 41
1.0
  0
SPLINE
  5
259
330
1F
100
AcDbEntity
  8
LINEE VISIBILI 2D
100
AcDbSpline
210
0.0
220
0.0
230
1.0
 70
    12
 71
     2
 72
     6
 73
     3
 74
     0
 42
0.0000000001
 43
0.0000000001
 40
0.0
 40
0.0
 40
0.0
 40
0.2336056963063592
 40
0.2336056963063592
 40
0.2336056963063592
 10
-473.5078770160015
 20
12.33700993465167
 30
0.0
 41
1.0
 10
-473.3915563547729
 20
12.34761385189453
 30
0.0
 41
0.9999981334904727
 10
-473.2752775376065
 20
12.35866717573906
 30
0.0
 41
1.0
  0
SPLINE
  5
25A
330
1F
100
AcDbEntity
  8
LINEE VISIBILI 2D
100
AcDbSpline
210
0.0
220
0.0
230
1.0
 70
    12
 71
     2
 72
     6
 73
     3
 74
     0
 42
0.0000000001
 43
0.0000000001
 40
0.0
 40
0.0
 40
0.0
 40
0.1879183761872068
 40
0.1879183761872068
 40
0.1879183761872068
 10
-472.8524750084866
 20
12.40044716240155
 30
0.0
 41
1.0
 10
-472.7590070056251
 20
12.41004300040219
 30
0.0
 41
0.9999984165803581
 10
-472.6655737474604
 20
12.41997144109419
 30
0.0
 41
1.0
  0
SPLINE
  5
25B
330
1F
100
AcDbEntity
  8
LINEE VISIBILI 2D
100
AcDbSpline
210
0.0
220
0.0
230
1.0
 70
    12
 71
     2
 72
     6
 73
     3
 74
     0
 42
0.0000000001
 43
0.0000000001
 40
0.0
 40
0.0
 40
0.0
 40
0.1452742674890599
 40
0.1452742674890599
 40
0.1452742674890599
 10
-472.2143024834635
 20
12.4700081035859
 30
0.0
 41
1.0
 10
-472.1421462040544
 20
12.47835277099738
 30
0.0
 41
0.9999987300825527
 10
-472.0700168886917
 20
12.48692738455248
 30
0.0
 41
1.0
  0
SPLINE
  5
25C
330
1F
100
AcDbEntity
  8
LINEE VISIBILI 2D
100
AcDbSpline
210
0.0
220
0.0
230
1.0
 70
    12
 71
     2
 72
     6
 73
     3
 74
     0
 42
0.0000000001
 43
0.0000000001
 40
0.0
 40
0.0
 40
0.0
 40
0.415078535218498
 40
0.415078535218498
 40
0.415078535218498
 10
-471.9030834100508
 20
12.50708061051476
 30
0.0
 41
1.0
 10
-471.6970796278226
 20
12.53229632401474
 30
0.0
 41
0.9999853233013665
 10
-471.4913611656116
 20
12.55974272277866
 30
0.0
 41
1.0
  0
SPLINE
  5
25D
330
1F
100
AcDbEntity
  8
LINEE VISIBILI 2D
100
AcDbSpline
210
0.0
220
0.0
230
1.0
 70
    12
 71
     2
 72
     6
 73
     3
 74
     0
 42
0.0000000001
 43
0.0000000001
 40
0.0
 40
0.0
 40
0.0
 40
0.0125233188373201
 40
0.0125233188373201
 40
0.0125233188373201
 10
-470.1890780804933
 20
12.76972562330724
 30
0.0
 41
1.0
 10
-470.1829383121361
 20
12.77095510696068
 30
0.0
 41
0.9999998688047012
 10
-470.176799806584
 20
12.77219088004711
 30
0.0
 41
1.0
  0
SPLINE
  5
25E
330
1F
100
AcDbEntity
  8
LINEE VISIBILI 2D
100
AcDbSpline
210
0.0
220
0.0
230
1.0
 70
    12
 71
     2
 72
     6
 73
     3
 74
     0
 42
0.0000000001
 43
0.0000000001
 40
0.0
 40
0.0
 40
0.0
 40
0.3312366071434329
 40
0.3312366071434329
 40
0.3312366071434329
 10
-462.7939448404312
 20
17.80494053999637
 30
0.0
 41
1.0
 10
-462.6352271209243
 20
17.75759979321217
 30
0.0
 41
0.9999169326636273
 10
-462.4777823899908
 20
17.70618367227065
 30
0.0
 41
1.0
  0
SPLINE
  5
260
330
1F
100
AcDbEntity
  8
LINEE VISIBILI 2D
100
AcDbSpline
210
0.0
220
0.0
230
1.0
 70
    12
 71
     2
 72
     6
 73
     3
 74
     0
 42
0.0000000001
 43
0.0000000001
 40
0.0
 40
0.0
 40
0.0
 40
2.097476550497645
 40
2.097476550497645
 40
2.097476550497645
 10
-488.5402605381989
 20
12.00009313538589
 30
0.0
 41
1.0
 10
-488.5586188868084
 20
13.04867071555679
 30
0.0
 41
0.9999999995713221
 10
-488.5770386414199
 20
14.09724721884139
 30
0.0
 41
1.0
  0
SPLINE
  5
261
330
1F
100
AcDbEntity
  8
LINEE VISIBILI 2D
100
AcDbSpline
210
0.0
220
0.0
230
1.0
 70
    12
 71
     2
 72
     6
 73
     3
 74
     0
 42
0.0000000001
 43
0.0000000001
 40
0.0
 40
0.0
 40
0.0
 40
1.582112158457078
 40
1.582112158457078
 40
1.582112158457078
 10
-488.6123050035023
 20
16.11172182396066
 30
0.0
 41
1.0
 10
-488.6260993127823
 20
16.90265762680515
 30
0.0
 41
0.9999999919634895
 10
-488.6396930728592
 20
17.69359690189316
 30
0.0
 41
1.0
  0
SPLINE
  5
263
330
1F
100
AcDbEntity
  8
LINEE VISIBILI 2D
100
AcDbSpline
210
0.0
220
0.0
230
1.0
 70
    12
 71
     2
 72
     6
 73
     3
 74
     0
 42
0.0000000001
 43
0.0000000001
 40
0.0
 40
0.0
 40
0.0
 40
0.0135590980273593
 40
0.0135590980273593
 40
0.0135590980273593
 10
-481.4363811897236
 20
14.54149131982126
 30
0.0
 41
1.0
 10
-481.4465875110411
 20
14.54011159012805
 30
0.0
 41
0.9999500189630607
 10
-481.4533583894366
 20
14.53976438159239
 30
0.0
 41
1.0
  0
SPLINE
  5
266
330
1F
100
AcDbEntity
  8
LINEE VISIBILI 2D
100
AcDbSpline
210
0.0
220
0.0
230
1.0
 70
    12
 71
     2
 72
     6
 73
     3
 74
     0
 42
0.0000000001
 43
0.0000000001
 40
0.0
 40
0.0
 40
0.0
 40
0.0617979441639163
 40
0.0617979441639163
 40
0.0617979441639163
 10
-474.5951261500207
 20
12.30739620089712
 30
0.0
 41
1.0
 10
-474.4995455460818
 20
12.3144022234789
 30
0.0
 41
0.9999999414564658
 10
-474.4687085091292
 20
12.31635765238859
 30
0.0
 41
1.0
  0
SPLINE
  5
267
330
1F
100
AcDbEntity
  8
LINEE VISIBILI 2D
100
AcDbSpline
210
0.0
220
0.0
230
1.0
 70
    12
 71
     2
 72
     6
 73
     3
 74
     0
 42
0.0000000001
 43
0.0000000001
 40
0.0
 40
0.0
 40
0.0
 40
0.0183641653291867
 40
0.0183641653291867
 40
0.0183641653291867
 10
-474.4687085091292
 20
12.31635765238859
 30
0.0
 41
1.0
 10
-474.4681153706833
 20
12.30719469253468
 30
0.0
 41
0.9999910649255745
 10
-474.4675997219125
 20
12.2980270454622
 30
0.0
 41
1.0
  0
SPLINE
  5
268
330
1F
100
AcDbEntity
  8
LINEE VISIBILI 2D
100
AcDbSpline
210
0.0
220
0.0
230
1.0
 70
    12
 71
     2
 72
     6
 73
     3
 74
     0
 42
0.0000000001
 43
0.0000000001
 40
0.0
 40
0.0
 40
0.0
 40
0.004483724673829
 40
0.004483724673829
 40
0.004483724673829
 10
-483.0505375583689
 20
14.43876667646929
 30
0.0
 41
1.0
 10
-483.0508921494318
 20
14.44098876085391
 30
0.0
 41
0.9944522206954321
 10
-483.0507740081881
 20
14.44323585597447
 30
0.0
 41
1.0
  0
SPLINE
  5
26B
330
1F
100
AcDbEntity
  8
LINEE VISIBILI 2D
100
AcDbSpline
210
0.0
220
0.0
230
1.0
 70
    24
 71
     2
 72
     6
 73
     3
 74
     0
 42
0.0000000001
 43
0.0000000001
 40
0.0
 40
0.0
 40
0.0
 40
0.1619366168021656
 40
0.1619366168021656
 40
0.1619366168021656
 10
-474.5962095459394
 20
13.52533170574092
 30
0.0
 10
-474.5962095459394
 20
13.606300014142
 30
0.0
 10
-474.5962095459394
 20
13.68726832254309
 30
0.0
  0
SPLINE
  5
26C
330
1F
100
AcDbEntity
  8
LINEE VISIBILI 2D
100
AcDbSpline
210
0.0
220
0.0
230
1.0
 70
    24
 71
     2
 72
     6
 73
     3
 74
     0
 42
0.0000000001
 43
0.0000000001
 40
0.0
 40
0.0
 40
0.0
 40
0.3111410885671979
 40
0.3111410885671979
 40
0.3111410885671979
 10
-553.0727231504906
 20
168.6536763229656
 30
0.0
 10
-553.0746168590917
 20
168.8092353410791
 30
0.0
 10
-553.0765105676927
 20
168.9647943591926
 30
0.0
  0
SPLINE
  5
26D
330
1F
100
AcDbEntity
  8
LINEE VISIBILI 2D
100
AcDbSpline
210
0.0
220
0.0
230
1.0
 70
    12
 71
     2
 72
     6
 73
     3
 74
     0
 42
0.0000000001
 43
0.0000000001
 40
0.0
 40
0.0
 40
0.0
 40
0.9336254617242222
 40
0.9336254617242222
 40
0.9336254617242222
 10
-553.0765105676927
 20
168.9647943591926
 30
0.0
 41
1.0
 10
-552.6546602140643
 20
168.764751968968
 30
0.0
 41
0.9997916496440449
 10
-552.2249964914021
 20
168.5820944638617
 30
0.0
 41
1.0
  0
SPLINE
  5
26E
330
1F
100
AcDbEntity
  8
LINEE VISIBILI 2D
100
AcDbSpline
210
0.0
220
0.0
230
1.0
 70
    24
 71
     2
 72
     6
 73
     3
 74
     0
 42
0.0000000001
 43
0.0000000001
 40
0.0
 40
0.0
 40
0.0
 40
0.4502226566612251
 40
0.4502226566612251
 40
0.4502226566612251
 10
-564.5655437867223
 20
208.7786874802075
 30
0.0
 10
-564.5655437867223
 20
209.0037988085381
 30
0.0
 10
-564.5655437867223
 20
209.2289101368687
 30
0.0
  0
SPLINE
  5
26F
330
1F
100
AcDbEntity
  8
LINEE VISIBILI 2D
100
AcDbSpline
210
0.0
220
0.0
230
1.0
 70
    24
 71
     2
 72
     6
 73
     3
 74
     0
 42
0.0000000001
 43
0.0000000001
 40
0.0
 40
0.0
 40
0.0
 40
0.4502226566609693
 40
0.4502226566609693
 40
0.4502226566609693
 10
-559.3155437867223
 20
208.7786874802076
 30
0.0
 10
-559.3155437867223
 20
209.003798808538
 30
0.0
 10
-559.3155437867223
 20
209.2289101368685
 30
0.0
  0
SPLINE
  5
270
330
1F
100
AcDbEntity
  8
LINEE VISIBILI 2D
100
AcDbSpline
210
0.0
220
0.0
230
1.0
 70
    24
 71
     2
 72
     6
 73
     3
 74
     0
 42
0.0000000001
 43
0.0000000001
 40
0.0
 40
0.0
 40
0.0
 40
0.4502226566611683
 40
0.4502226566611683
 40
0.4502226566611683
 10
-543.5655437867223
 20
208.7786874802075
 30
0.0
 10
-543.5655437867223
 20
209.0037988085381
 30
0.0
 10
-543.5655437867223
 20
209.2289101368687
 30
0.0
  0
SPLINE
  5
271
330
1F
100
AcDbEntity
  8
LINEE VISIBILI 2D
100
AcDbSpline
210
0.0
220
0.0
230
1.0
 70
    24
 71
     2
 72
     6
 73
     3
 74
     0
 42
0.0000000001
 43
0.0000000001
 40
0.0
 40
0.0
 40
0.0
 40
11.8343145587913
 40
11.8343145587913
 40
11.8343145587913
 10
-553.0655437867223
 20
209.2289101368685
 30
0.0
 10
-558.982701066118
 20
209.2289101368686
 30
0.0
 10
-564.8998583455136
 20
209.2289101368687
 30
0.0
  0
SPLINE
  5
272
330
1F
100
AcDbEntity
  8
LINEE VISIBILI 2D
100
AcDbSpline
210
0.0
220
0.0
230
1.0
 70
    12
 71
     2
 72
    18
 73
    15
 74
     0
 42
0.0000000001
 43
0.0000000001
 40
0.0
 40
0.0
 40
0.0
 40
3.253388571677608
 40
3.253388571677608
 40
3.795838427365248
 40
3.795838427365248
 40
4.182277622409863
 40
4.182277622409863
 40
4.569469730484616
 40
4.569469730484616
 40
5.548161925262265
 40
5.548161925262265
 40
6.18260385956051
 40
6.18260385956051
 40
11.82073869632155
 40
11.82073869632155
 40
11.82073869632155
 10
-541.6449988843063
 20
165.9145645560723
 30
0.0
 41
1.0
 10
-543.2709592239054
 20
165.9978219466924
 30
0.0
 41
0.9987140893277556
 10
-544.8801306668666
 20
166.2453014129122
 30
0.0
 41
1.0
 10
-545.1482055508884
 20
166.2865406654014
 30
0.0
 41
0.9999810584754676
 10
-545.4157524874748
 20
166.3310766745665
 30
0.0
 41
1.0
 10
-545.6063482545791
 20
166.3628214685989
 30
0.0
 41
0.9999866305919095
 10
-545.7966055325758
 20
166.3965356578304
 30
0.0
 41
1.0
 10
-545.9872343391965
 20
166.4303136614512
 30
0.0
 41
0.9999827248436869
 10
-546.177452891009
 20
166.4663302963392
 30
0.0
 41
1.0
 10
-546.658374956321
 20
166.55692226894
 30
0.0
 41
0.9998956060343676
 10
-547.1364785356242
 20
166.6613727637272
 30
0.0
 41
1.0
 10
-547.4461737845106
 20
166.730134591489
 30
0.0
 41
0.9999240294566737
 10
-547.7540799101985
 20
166.8065096784203
 30
0.0
 41
1.0
 10
-550.4981262711054
 20
167.4861406366418
 30
0.0
 41
0.9958187337511537
 10
-553.0727231504906
 20
168.6536763229656
 30
0.0
 41
1.0
  0
SPLINE
  5
273
330
1F
100
AcDbEntity
  8
LINEE VISIBILI 2D
100
AcDbSpline
210
0.0
220
0.0
230
1.0
 70
    24
 71
     2
 72
     6
 73
     3
 74
     0
 42
0.0000000001
 43
0.0000000001
 40
0.0
 40
0.0
 40
0.0
 40
0.2119366168018928
 40
0.2119366168018928
 40
0.2119366168018928
 10
-488.4962095459394
 20
13.73726832254282
 30
0.0
 10
-488.4962095459394
 20
13.63130001414187
 30
0.0
 10
-488.4962095459394
 20
13.52533170574092
 30
0.0
  0
SPLINE
  5
276
330
1F
100
AcDbEntity
  8
LINEE VISIBILI 2D
100
AcDbSpline
210
0.0
220
0.0
230
1.0
 70
    12
 71
     3
 72
    11
 73
     7
 74
     0
 42
0.0000000001
 43
0.0000000001
 40
-265.383024337467
 40
-265.383024337467
 40
-265.383024337467
 40
-265.383024337467
 40
-256.90974769834
 40
-248.436471059212
 40
-239.963194420085
 40
-233.6082369407397
 40
-233.6082369407397
 40
-233.6082369407397
 40
-233.6082369407397
 10
-501.1326575818666
 20
12.46613014696983
 30
0.0
 41
1.0
 10
-501.2890222670055
 20
12.5303282384917
 30
0.0
 41
1.0
 10
-501.5704267212558
 20
12.66269494102499
 30
0.0
 41
1.0
 10
-501.8655331432417
 20
12.87252055795699
 30
0.0
 41
1.0
 10
-501.9691135954298
 20
13.06958827422268
 30
0.0
 41
1.0
 10
-501.9153259350175
 20
13.1902472666446
 30
0.0
 41
1.0
 10
-501.8452290115014
 20
13.27746818841394
 30
0.0
 41
1.0
  0
SPLINE
  5
277
330
1F
100
AcDbEntity
  8
LINEE VISIBILI 2D
100
AcDbSpline
210
0.0
220
0.0
230
1.0
 70
     8
 71
     3
 72
    14
 73
    10
 74
     0
 42
0.0000000001
 43
0.0000000001
 40
0.0
 40
0.0
 40
0.0
 40
0.0
 40
0.1801659777107478
 40
0.422258224362681
 40
1.126939840926766
 40
2.114041010714351
 40
3.43816455344133
 40
7.183529338610163
 40
12.32840908237445
 40
12.32840908237445
 40
12.32840908237445
 40
12.32840908237445
 10
-501.867109859235
 20
13.27410577599917
 30
0.0
 10
-501.8317311205173
 20
13.32286702189891
 30
0.0
 10
-501.7249756424578
 20
13.4167255890158
 30
0.0
 10
-501.3910906613465
 20
13.59258788953172
 30
0.0
 10
-500.7739770995176
 20
13.78446178785159
 30
0.0
 10
-499.7912383933423
 20
13.99755856486092
 30
0.0
 10
-497.7957423216587
 20
14.30864073655789
 30
0.0
 10
-494.4086027882883
 20
14.66255642812146
 30
0.0
 10
-491.4538374130325
 20
14.88849559981195
 30
0.0
 10
-489.3656187362571
 20
15.02708476293588
 30
0.0
  0
SPLINE
  5
279
330
1F
100
AcDbEntity
  8
LINEE VISIBILI 2D
100
AcDbSpline
210
0.0
220
0.0
230
1.0
 70
    12
 71
     2
 72
     6
 73
     3
 74
     0
 42
0.0000000001
 43
0.0000000001
 40
0.0
 40
0.0
 40
0.0
 40
2.350060438589037
 40
2.350060438589037
 40
2.350060438589037
 10
-489.3656187362571
 20
15.02708476293588
 30
0.0
 41
1.0
 10
-488.1930792096668
 20
15.10371835988245
 30
0.0
 41
0.9999860761108314
 10
-487.0197961957203
 20
15.16797268877417
 30
0.0
 41
1.0
  0
SPLINE
  5
27C
330
1F
100
AcDbEntity
  8
LINEE VISIBILI 2D
100
AcDbSpline
210
0.0
220
0.0
230
1.0
 70
     8
 71
     3
 72
    11
 73
     7
 74
     0
 42
0.0000000001
 43
0.0000000001
 40
0.0
 40
0.0
 40
0.0
 40
0.0
 40
1.418393618595822
 40
2.57018356023703
 40
3.650978110594384
 40
4.484093556582775
 40
4.484093556582775
 40
4.484093556582775
 40
4.484093556582775
 10
-488.6228875747009
 20
17.69523632879767
 30
0.0
 10
-489.0940551713556
 20
17.65598303510448
 30
0.0
 10
-489.9472812519424
 20
17.57837910155824
 30
0.0
 10
-491.1572385218925
 20
17.44700839603322
 30
0.0
 10
-492.1698482555757
 20
17.30865893671505
 30
0.0
 10
-492.7988924144718
 20
17.20154966797609
 30
0.0
 10
-493.0707489903498
 20
17.14466490718887
 30
0.0
  0
SPLINE
  5
27E
330
1F
100
AcDbEntity
  8
LINEE VISIBILI 2D
100
AcDbSpline
210
0.0
220
0.0
230
1.0
 70
    12
 71
     2
 72
     6
 73
     3
 74
     0
 42
0.0000000001
 43
0.0000000001
 40
0.0
 40
0.0
 40
0.0
 40
3.088716600436496
 40
3.088716600436496
 40
3.088716600436496
 10
-476.9567636273682
 20
14.77838695912294
 30
0.0
 41
1.0
 10
-478.4992596786905
 20
14.70244575314901
 30
0.0
 41
0.999994158747118
 10
-480.0412005642352
 20
14.61596199400815
 30
0.0
 41
1.0
  0
SPLINE
  5
27F
330
1F
100
AcDbEntity
  8
LINEE VISIBILI 2D
100
AcDbSpline
210
0.0
220
0.0
230
1.0
 70
     8
 71
     3
 72
    12
 73
     8
 74
     0
 42
0.0000000001
 43
0.0000000001
 40
0.0
 40
0.0
 40
0.0
 40
0.0
 40
1.136298158826863
 40
2.267124718145516
 40
4.643891272867058
 40
7.025892990428726
 40
10.34960260990056
 40
10.34960260990056
 40
10.34960260990056
 40
10.34960260990056
 10
-461.2120044140647
 20
16.73544464011502
 30
0.0
 10
-461.4915650260966
 20
16.34596560577426
 30
0.0
 10
-461.9650820882833
 20
15.7532418208113
 30
0.0
 10
-463.0664897892939
 20
14.66653264786179
 30
0.0
 10
-464.6545669815703
 20
13.4902639748701
 30
0.0
 10
-467.1088758652789
 20
12.35862482702391
 30
0.0
 10
-468.9299336307223
 20
11.8007551237474
 30
0.0
 10
-469.9898193247832
 20
11.47971050545102
 30
0.0
  0
SPLINE
  5
280
330
1F
100
AcDbEntity
  8
LINEE VISIBILI 2D
100
AcDbSpline
210
0.0
220
0.0
230
1.0
 70
    12
 71
     2
 72
     6
 73
     3
 74
     0
 42
0.0000000001
 43
0.0000000001
 40
0.0
 40
0.0
 40
0.0
 40
0.0373525251062848
 40
0.0373525251062848
 40
0.0373525251062848
 10
-464.2668131441825
 20
379.2052743601425
 30
0.0
 41
1.0
 10
-464.2520619891089
 20
379.2167288886473
 30
0.0
 41
0.9999999649105705
 10
-464.2373169050108
 20
379.2281912310873
 30
0.0
 41
1.0
  0
SPLINE
  5
281
330
1F
100
AcDbEntity
  8
LINEE VISIBILI 2D
100
AcDbSpline
210
0.0
220
0.0
230
1.0
 70
    12
 71
     2
 72
     6
 73
     3
 74
     0
 42
0.0000000001
 43
0.0000000001
 40
0.0
 40
0.0
 40
0.0
 40
0.0709215834327503
 40
0.0709215834327503
 40
0.0709215834327503
 10
-474.2516730594728
 20
378.6839970842201
 30
0.0
 41
1.0
 10
-474.2851444390917
 20
378.6722840831644
 30
0.0
 41
0.9999642761813991
 10
-474.3188090393272
 20
378.6611385756244
 30
0.0
 41
1.0
  0
SPLINE
  5
282
330
1F
100
AcDbEntity
  8
LINEE VISIBILI 2D
100
AcDbSpline
210
0.0
220
0.0
230
1.0
 70
     8
 71
     3
 72
    15
 73
    11
 74
     0
 42
0.0000000001
 43
0.0000000001
 40
0.0
 40
0.0
 40
0.0
 40
0.0
 40
0.1544084120102274
 40
0.2844752742518675
 40
0.4432200185630608
 40
0.7001212139154307
 40
1.39114223062907
 40
2.3951254901713
 40
5.519027037654955
 40
10.00607066363827
 40
10.00607066363827
 40
10.00607066363827
 40
10.00607066363827
 10
-461.2404393070689
 20
17.05435491693099
 30
0.0
 10
-461.2124309425546
 20
17.01329330954742
 30
0.0
 10
-461.1685403875874
 20
16.91979125895868
 30
0.0
 10
-461.2130747019685
 20
16.77252270998203
 30
0.0
 10
-461.3464230548955
 20
16.64345643649464
 30
0.0
 10
-461.670695391388
 20
16.46525269997533
 30
0.0
 10
-462.2906716023041
 20
16.26102550238755
 30
0.0
 10
-463.8619973923754
 20
15.92286610613226
 30
0.0
 10
-466.7124388944791
 20
15.55685297070134
 30
0.0
 10
-469.2387027556796
 20
15.33087121632928
 30
0.0
 10
-470.73029910469
 20
15.21646220081673
 30
0.0
  0
SPLINE
  5
283
330
1F
100
AcDbEntity
  8
LINEE VISIBILI 2D
100
AcDbSpline
210
0.0
220
0.0
230
1.0
 70
    12
 71
     2
 72
     6
 73
     3
 74
     0
 42
0.0000000001
 43
0.0000000001
 40
0.0
 40
0.0
 40
0.0
 40
2.616990674611896
 40
2.616990674611896
 40
2.616990674611896
 10
-470.7303135877408
 20
15.21646106295333
 30
0.0
 41
1.0
 10
-472.0348380746362
 20
15.11444428304842
 30
0.0
 41
0.9999861963948541
 10
-473.3403625596045
 20
15.02614151162945
 30
0.0
 41
1.0
  0
SPLINE
  5
288
330
1F
100
AcDbEntity
  8
LINEE VISIBILI 2D
100
AcDbSpline
210
0.0
220
0.0
230
1.0
 70
    12
 71
     2
 72
     6
 73
     3
 74
     0
 42
0.0000000001
 43
0.0000000001
 40
0.0
 40
0.0
 40
0.0
 40
0.2780958374694118
 40
0.2780958374694118
 40
0.2780958374694118
 10
-474.8282844013383
 20
17.99772831962328
 30
0.0
 41
1.0
 10
-474.6892458908138
 20
17.99604034339835
 30
0.0
 41
0.9999909630127044
 10
-474.5502267584163
 20
17.993170238874
 30
0.0
 41
1.0
  0
SPLINE
  5
289
330
1F
100
AcDbEntity
  8
LINEE VISIBILI 2D
100
AcDbSpline
210
0.0
220
0.0
230
1.0
 70
    12
 71
     2
 72
     6
 73
     3
 74
     0
 42
0.0000000001
 43
0.0000000001
 40
0.0
 40
0.0
 40
0.0
 40
0.8769575413713756
 40
0.8769575413713756
 40
0.8769575413713756
 10
-488.5601033825833
 20
17.68079547560734
 30
0.0
 41
1.0
 10
-488.1224904862634
 20
17.70834256880844
 30
0.0
 41
0.9999989973644971
 10
-487.6848013275544
 20
17.73465016691638
 30
0.0
 41
1.0
  0
SPLINE
  5
28A
330
1F
100
AcDbEntity
  8
LINEE VISIBILI 2D
100
AcDbSpline
210
0.0
220
0.0
230
1.0
 70
    12
 71
     2
 72
     6
 73
     3
 74
     0
 42
0.0000000001
 43
0.0000000001
 40
0.0
 40
0.0
 40
0.0
 40
4.637756379810137
 40
4.637756379810137
 40
4.637756379810137
 10
-487.6848012889312
 20
17.73465016923694
 30
0.0
 41
1.0
 10
-485.3703830046403
 20
17.88095920271114
 30
0.0
 41
0.9998964839077528
 10
-483.0527131655601
 20
17.96061373775554
 30
0.0
 41
1.0
  0
SPLINE
  5
28B
330
1F
100
AcDbEntity
  8
LINEE VISIBILI 2D
100
AcDbSpline
210
0.0
220
0.0
230
1.0
 70
    12
 71
     2
 72
     6
 73
     3
 74
     0
 42
0.0000000001
 43
0.0000000001
 40
0.0
 40
0.0
 40
0.0
 40
2.990482508508183
 40
2.990482508508183
 40
2.990482508508183
 10
-483.0527130408796
 20
17.96061374167746
 30
0.0
 41
1.0
 10
-481.5579535915857
 20
18.00009280319086
 30
0.0
 41
0.9999604182335389
 10
-480.0627283121007
 20
18.01296801737125
 30
0.0
 41
1.0
  0
SPLINE
  5
28C
330
1F
100
AcDbEntity
  8
LINEE VISIBILI 2D
100
AcDbSpline
210
0.0
220
0.0
230
1.0
 70
    12
 71
     2
 72
     6
 73
     3
 74
     0
 42
0.0000000001
 43
0.0000000001
 40
0.0
 40
0.0
 40
0.0
 40
5.224747161583526
 40
5.224747161583526
 40
5.224747161583526
 10
-480.0527969773678
 20
18.01310348069714
 30
0.0
 41
1.0
 10
-477.4404207395731
 20
18.04617509161255
 30
0.0
 41
0.9998782944821394
 10
-474.8282844013383
 20
17.99772831962328
 30
0.0
 41
1.0
  0
SPLINE
  5
28F
330
1F
100
AcDbEntity
  8
LINEE VISIBILI 2D
100
AcDbSpline
210
0.0
220
0.0
230
1.0
 70
    12
 71
     2
 72
     6
 73
     3
 74
     0
 42
0.0000000001
 43
0.0000000001
 40
0.0
 40
0.0
 40
0.0
 40
0.1198005730162604
 40
0.1198005730162604
 40
0.1198005730162604
 10
-493.194276791007
 20
14.70405309042913
 30
0.0
 41
1.0
 10
-493.2540403211952
 20
14.70000765748045
 30
0.0
 41
0.99999984437296
 10
-493.3137993002746
 20
14.69589554273716
 30
0.0
 41
1.0
  0
SPLINE
  5
290
330
1F
100
AcDbEntity
  8
LINEE VISIBILI 2D
100
AcDbSpline
210
0.0
220
0.0
230
1.0
 70
    12
 71
     2
 72
     6
 73
     3
 74
     0
 42
0.0000000001
 43
0.0000000001
 40
0.0
 40
0.0
 40
0.0
 40
0.5502667636944956
 40
0.5502667636944956
 40
0.5502667636944956
 10
-500.6127049066226
 20
12.28707970198908
 30
0.0
 41
1.0
 10
-500.8782092686026
 20
12.36055184483482
 30
0.0
 41
0.9980990122231233
 10
-501.1326575818666
 20
12.46613014696983
 30
0.0
 41
1.0
  0
SPLINE
  5
291
330
1F
100
AcDbEntity
  8
LINEE VISIBILI 2D
100
AcDbSpline
210
0.0
220
0.0
230
1.0
 70
    12
 71
     2
 72
     6
 73
     3
 74
     0
 42
0.0000000001
 43
0.0000000001
 40
0.0
 40
0.0
 40
0.0
 40
1.392624364063855
 40
1.392624364063855
 40
1.392624364063855
 10
-483.0441573456504
 20
15.36663713290636
 30
0.0
 41
1.0
 10
-482.3490914419444
 20
15.40829154762181
 30
0.0
 41
0.9999983821129651
 10
-481.6541798941517
 20
15.45244629259929
 30
0.0
 41
1.0
  0
SPLINE
  5
298
330
1F
100
AcDbEntity
  8
LINEE VISIBILI 2D
100
AcDbSpline
210
0.0
220
0.0
230
1.0
 70
    12
 71
     2
 72
     6
 73
     3
 74
     0
 42
0.0000000001
 43
0.0000000001
 40
0.0
 40
0.0
 40
0.0
 40
5.375694937816223
 40
5.375694937816223
 40
5.375694937816223
 10
-488.4160825209445
 20
15.05794025596947
 30
0.0
 41
1.0
 10
-485.7330963505644
 20
15.21964024611926
 30
0.0
 41
0.9999960903004103
 10
-483.0492478137367
 20
15.36633281114085
 30
0.0
 41
1.0
  0
SPLINE
  5
299
330
1F
100
AcDbEntity
  8
LINEE VISIBILI 2D
100
AcDbSpline
210
0.0
220
0.0
230
1.0
 70
    12
 71
     2
 72
     6
 73
     3
 74
     0
 42
0.0000000001
 43
0.0000000001
 40
0.0
 40
0.0
 40
0.0
 40
0.0726824431294798
 40
0.0726824431294798
 40
0.0726824431294798
 10
-476.9490086829026
 20
14.77878453387249
 30
0.0
 41
1.0
 10
-476.9127154502323
 20
14.78065215808188
 30
0.0
 41
0.9999986523889925
 10
-476.8764285453946
 20
14.78263893817675
 30
0.0
 41
1.0
  0
SPLINE
  5
29A
330
1F
100
AcDbEntity
  8
LINEE VISIBILI 2D
100
AcDbSpline
210
0.0
220
0.0
230
1.0
 70
     8
 71
     3
 72
    11
 73
     7
 74
     0
 42
0.0000000001
 43
0.0000000001
 40
0.0
 40
0.0
 40
0.0
 40
0.0
 40
0.8459979858011058
 40
1.826738144138839
 40
4.112180970873984
 40
9.447845141882782
 40
9.447845141882782
 40
9.447845141882782
 40
9.447845141882782
 10
-470.6549493502779
 20
11.29461092135199
 30
0.0
 10
-470.9286680918891
 20
11.22664409015205
 30
0.0
 10
-471.5238977097621
 20
11.09782696668648
 30
0.0
 10
-472.8742876596384
 20
10.86076111690348
 30
0.0
 10
-475.7195966255228
 20
10.49931302336728
 30
0.0
 10
-478.2571353762264
 20
10.3420600159799
 30
0.0
 10
-480.0346520769331
 20
10.28660727678584
 30
0.0
  0
SPLINE
  5
2A2
330
1F
100
AcDbEntity
  8
LINEE VISIBILI 2D
100
AcDbSpline
210
0.0
220
0.0
230
1.0
 70
     8
 71
     3
 72
    11
 73
     7
 74
     0
 42
0.0000000001
 43
0.0000000001
 40
0.0
 40
0.0
 40
0.0
 40
0.0
 40
1.442331419591672
 40
1.516990081101013
 40
1.585511649322015
 40
1.7319600163271
 40
1.7319600163271
 40
1.7319600163271
 40
1.7319600163271
 10
-539.9458980674848
 20
210.3486874796526
 30
0.0
 10
-540.2879121584464
 20
210.0109729428015
 30
0.0
 10
-540.6398142032233
 20
209.6471648961355
 30
0.0
 10
-541.019158508325
 20
209.2796901012704
 30
0.0
 10
-541.1151288496336
 20
209.2469741091527
 30
0.0
 10
-541.1800268171007
 20
209.226309941053
 30
0.0
 10
-541.2312274825315
 20
209.2289101368724
 30
0.0
  0
SPLINE
  5
2A3
330
1F
100
AcDbEntity
  8
LINEE VISIBILI 2D
100
AcDbSpline
210
0.0
220
0.0
230
1.0
 70
     8
 71
     3
 72
    14
 73
    10
 74
     0
 42
0.0000000001
 43
0.0000000001
 40
0.0
 40
0.0
 40
0.0
 40
0.0
 40
2.751784202290106
 40
5.397310917750872
 40
10.15528029240664
 40
12.17247540118032
 40
13.92308840110407
 40
15.45572817786387
 40
16.86119536689126
 40
16.86119536689126
 40
16.86119536689126
 40
16.86119536689126
 10
-545.3740011637038
 20
14.85552806768969
 30
0.0
 10
-544.4581023486379
 20
14.83635292693812
 30
0.0
 10
-542.6575154307118
 20
14.72098553562688
 30
0.0
 10
-539.3188213829017
 20
14.16866420224362
 30
0.0
 10
-536.30358541328
 20
13.20004083327134
 30
0.0
 10
-533.8629353581173
 20
11.7188109570458
 30
0.0
 10
-532.5614950483013
 20
10.5076403170451
 30
0.0
 10
-531.7290532514894
 20
9.162739762193696
 30
0.0
 10
-531.5307040415361
 20
8.184945711941477
 30
0.0
 10
-531.531170868551
 20
7.716677992927973
 30
0.0
  0
SPLINE
  5
2A4
330
1F
100
AcDbEntity
  8
LINEE VISIBILI 2D
100
AcDbSpline
210
0.0
220
0.0
230
1.0
 70
    12
 71
     2
 72
     6
 73
     3
 74
     0
 42
0.0000000001
 43
0.0000000001
 40
0.0
 40
0.0
 40
0.0
 40
0.3901393562180549
 40
0.3901393562180549
 40
0.3901393562180549
 10
-473.5080413481805
 20
12.33881229128151
 30
0.0
 41
1.0
 10
-473.7022543472394
 20
12.32054663649775
 30
0.0
 41
0.9999971651435048
 10
-473.8965521290114
 20
12.30320607288338
 30
0.0
 41
1.0
  0
SPLINE
  5
2A5
330
1F
100
AcDbEntity
  8
LINEE VISIBILI 2D
100
AcDbSpline
210
0.0
220
0.0
230
1.0
 70
    24
 71
     2
 72
     6
 73
     3
 74
     0
 42
0.0000000001
 43
0.0000000001
 40
0.0
 40
0.0
 40
0.0
 40
0.6675592709447589
 40
0.6675592709447589
 40
0.6675592709447589
 10
-488.3862053609641
 20
14.10968487421677
 30
0.0
 10
-488.3862053609641
 20
13.77590523874439
 30
0.0
 10
-488.3862053609641
 20
13.44212560327202
 30
0.0
  0
SPLINE
  5
2A6
330
1F
100
AcDbEntity
  8
LINEE VISIBILI 2D
100
AcDbSpline
210
0.0
220
0.0
230
1.0
 70
    24
 71
     2
 72
     6
 73
     3
 74
     0
 42
0.0000000001
 43
0.0000000001
 40
0.0
 40
0.0
 40
0.0
 40
13.60000000000002
 40
13.60000000000002
 40
13.60000000000002
 10
-488.3862053609641
 20
13.44212560327202
 30
0.0
 10
-481.5862053609641
 20
13.44212560327202
 30
0.0
 10
-474.7862053609641
 20
13.44212560327202
 30
0.0
  0
SPLINE
  5
2A7
330
1F
100
AcDbEntity
  8
LINEE VISIBILI 2D
100
AcDbSpline
210
0.0
220
0.0
230
1.0
 70
     8
 71
     3
 72
    11
 73
     7
 74
     0
 42
0.0000000001
 43
0.0000000001
 40
0.0
 40
0.0
 40
0.0
 40
0.0
 40
0.434724773627159
 40
0.8718334938822994
 40
1.775373522407203
 40
3.795434204113004
 40
3.795434204113004
 40
3.795434204113004
 40
3.795434204113004
 10
-531.5308965152499
 20
7.490286588265123
 30
0.0
 10
-531.5305183753358
 20
7.34546088124093
 30
0.0
 10
-531.5480515567964
 20
7.05462302276048
 30
0.0
 10
-531.6509357078391
 20
6.47127114618155
 30
0.0
 10
-532.0368003291665
 20
5.41096585363611
 30
0.0
 10
-532.6457973953676
 20
4.628205875642628
 30
0.0
 10
-533.1228635081813
 20
4.155475204106939
 30
0.0
  0
SPLINE
  5
2A8
330
1F
100
AcDbEntity
  8
LINEE VISIBILI 2D
100
AcDbSpline
210
0.0
220
0.0
230
1.0
 70
    12
 71
     2
 72
     6
 73
     3
 74
     0
 42
0.0000000001
 43
0.0000000001
 40
0.0
 40
0.0
 40
0.0
 40
2.350060438589057
 40
2.350060438589057
 40
2.350060438589057
 10
-473.3388281211502
 20
14.99174758591984
 30
0.0
 41
1.0
 10
-474.8974080869465
 20
14.8895450143774
 30
0.0
 41
0.9999860761108314
 10
-476.0706911008931
 20
14.82529068548575
 30
0.0
 41
1.0
  0
SPLINE
  5
2A9
330
1F
100
AcDbEntity
  8
LINEE VISIBILI 2D
100
AcDbSpline
210
0.0
220
0.0
230
1.0
 70
     8
 71
     3
 72
    22
 73
    18
 74
     0
 42
0.0000000001
 43
0.0000000001
 40
0.0
 40
0.0
 40
0.0
 40
0.0
 40
4.368252880910059
 40
8.122831010653511
 40
9.645724583599761
 40
10.78552404126708
 40
11.56261375948752
 40
11.81611954490223
 40
12.00021764763753
 40
12.14627549721034
 40
12.31884988938272
 40
12.5480871742641
 40
12.85666276135087
 40
13.67824205303484
 40
14.84148281476382
 40
18.14030255607181
 40
22.87163763353898
 40
22.87163763353898
 40
22.87163763353898
 40
22.87163763353898
 10
-479.8920523633062
 20
19.73723824774909
 30
0.0
 10
-483.8049747740308
 20
19.74920949345956
 30
0.0
 10
-486.5098962661059
 20
19.61091742826683
 30
0.0
 10
-489.7077228190862
 20
19.25727640901659
 30
0.0
 10
-491.8131255875969
 20
18.87282401660833
 30
0.0
 10
-492.9233621481054
 20
18.58354909187359
 30
0.0
 10
-493.6002745853227
 20
18.3192356691371
 30
0.0
 10
-493.9324259688447
 20
18.08223479491185
 30
0.0
 10
-494.0442072718512
 20
17.91522917104463
 30
0.0
 10
-494.0362006599783
 20
17.73898518787472
 30
0.0
 10
-493.9180433737477
 20
17.59057215413156
 30
0.0
 10
-493.7335595437665
 20
17.44593678057309
 30
0.0
 10
-493.3298668663099
 20
17.23282099439462
 30
0.0
 10
-492.6106165706625
 20
16.97303093076651
 30
0.0
 10
-490.9060194961759
 20
16.52447750632978
 30
0.0
 10
-487.8919593007179
 20
15.96286703572411
 30
0.0
 10
-485.2429285949279
 20
15.57916391942098
 30
0.0
 10
-483.6797089565489
 20
15.36945736501471
 30
0.0
  0
SPLINE
  5
2AA
330
1F
100
AcDbEntity
  8
LINEE VISIBILI 2D
100
AcDbSpline
210
0.0
220
0.0
230
1.0
 70
    12
 71
     2
 72
     6
 73
     3
 74
     0
 42
0.0000000001
 43
0.0000000001
 40
0.0
 40
0.0
 40
0.0
 40
3.741240545765393
 40
3.741240545765393
 40
3.741240545765393
 10
-549.7251226097672
 20
179.8601481173217
 30
0.0
 41
1.0
 10
-551.6103362825097
 20
179.8451649338981
 30
0.0
 41
0.9883821973156063
 10
-553.4039490587242
 20
179.264468544482
 30
0.0
 41
1.0
  0
SPLINE
  5
2AB
330
1F
100
AcDbEntity
  8
LINEE VISIBILI 2D
100
AcDbSpline
210
0.0
220
0.0
230
1.0
 70
    12
 71
     2
 72
     6
 73
     3
 74
     0
 42
0.0000000001
 43
0.0000000001
 40
0.0
 40
0.0
 40
0.0
 40
0.3604118216100947
 40
0.3604118216100947
 40
0.3604118216100947
 10
-542.4805251937394
 20
165.2661109654912
 30
0.0
 41
1.0
 10
-542.3050992513542
 20
165.3073726918689
 30
0.0
 41
0.9999394712004797
 10
-542.1306236862855
 20
165.3524844255896
 30
0.0
 41
1.0
  0
SPLINE
  5
2AC
330
1F
100
AcDbEntity
  8
LINEE VISIBILI 2D
100
AcDbSpline
210
0.0
220
0.0
230
1.0
 70
    12
 71
     2
 72
     6
 73
     3
 74
     0
 42
0.0000000001
 43
0.0000000001
 40
0.0
 40
0.0
 40
0.0
 40
0.5071204834850192
 40
0.5071204834850192
 40
0.5071204834850192
 10
-547.4555120643359
 20
179.6430507880397
 30
0.0
 41
1.0
 10
-547.7041948094259
 20
179.6927609663107
 30
0.0
 41
0.999750286345059
 10
-547.9548503273639
 20
179.7313099073672
 30
0.0
 41
1.0
  0
SPLINE
  5
2AD
330
1F
100
AcDbEntity
  8
LINEE VISIBILI 2D
100
AcDbSpline
210
0.0
220
0.0
230
1.0
 70
    12
 71
     2
 72
     6
 73
     3
 74
     0
 42
0.0000000001
 43
0.0000000001
 40
0.0
 40
0.0
 40
0.0
 40
0.1834440309268208
 40
0.1834440309268208
 40
0.1834440309268208
 10
-543.8796259919325
 20
180.4951385417468
 30
0.0
 41
1.0
 10
-543.7908091181599
 20
180.4721516851137
 30
0.0
 41
0.9996520749476527
 10
-543.7009036174987
 20
180.4538805714244
 30
0.0
 41
1.0
  0
SPLINE
  5
2AE
330
1F
100
AcDbEntity
  8
LINEE VISIBILI 2D
100
AcDbSpline
210
0.0
220
0.0
230
1.0
 70
    12
 71
     2
 72
     6
 73
     3
 74
     0
 42
0.0000000001
 43
0.0000000001
 40
0.0
 40
0.0
 40
0.0
 40
1.959606245876497
 40
1.959606245876497
 40
1.959606245876497
 10
-567.4447311131664
 20
172.0473785558064
 30
0.0
 41
1.0
 10
-567.8676739867999
 20
172.9412184887336
 30
0.0
 41
0.9863283423925498
 10
-567.9770779262083
 20
173.9240009051892
 30
0.0
 41
1.0
  0
SPLINE
  5
2AF
330
1F
100
AcDbEntity
  8
LINEE VISIBILI 2D
100
AcDbSpline
210
0.0
220
0.0
230
1.0
 70
    12
 71
     2
 72
     6
 73
     3
 74
     0
 42
0.0000000001
 43
0.0000000001
 40
0.0
 40
0.0
 40
0.0
 40
1.554919811387118
 40
1.554919811387118
 40
1.554919811387118
 10
-567.6196395962741
 20
176.0511968780328
 30
0.0
 41
1.0
 10
-567.2872166949986
 20
176.7602890845222
 30
0.0
 41
0.9891457315733312
 10
-566.7630252402479
 20
177.3421310401793
 30
0.0
 41
1.0
  0
SPLINE
  5
2B0
330
1F
100
AcDbEntity
  8
LINEE VISIBILI 2D
100
AcDbSpline
210
0.0
220
0.0
230
1.0
 70
    12
 71
     2
 72
     6
 73
     3
 74
     0
 42
0.0000000001
 43
0.0000000001
 40
0.0
 40
0.0
 40
0.0
 40
1.293462428628563
 40
1.293462428628563
 40
1.293462428628563
 10
-540.0252471398923
 20
179.5289431319875
 30
0.0
 41
1.0
 10
-539.4063196095451
 20
179.3411446030583
 30
0.0
 41
0.9998596019367436
 10
-538.7940324047319
 20
179.1327124699496
 30
0.0
 41
1.0
  0
SPLINE
  5
2B1
330
1F
100
AcDbEntity
  8
LINEE VISIBILI 2D
100
AcDbSpline
210
0.0
220
0.0
230
1.0
 70
     8
 71
     3
 72
    12
 73
     8
 74
     0
 42
0.0000000001
 43
0.0000000001
 40
0.0
 40
0.0
 40
0.0
 40
0.0
 40
1.082635965510928
 40
2.264251111288031
 40
5.312377669813025
 40
9.155138007675803
 40
13.33697052050885
 40
13.33697052050885
 40
13.33697052050885
 40
13.33697052050885
 10
-527.3319674889542
 20
170.6162211275436
 30
0.0
 10
-527.3847745925825
 20
170.9737883724422
 30
0.0
 10
-527.6215548400752
 20
171.6970751675814
 30
0.0
 10
-528.5664779933066
 20
173.2088176750912
 30
0.0
 10
-530.543697662918
 20
175.0671135670229
 30
0.0
 10
-533.6772922070129
 20
177.0325470027926
 30
0.0
 10
-536.1231011251357
 20
178.1333521689128
 30
0.0
 10
-537.4236483296763
 20
178.6329111442077
 30
0.0
  0
SPLINE
  5
2B2
330
1F
100
AcDbEntity
  8
LINEE VISIBILI 2D
100
AcDbSpline
210
0.0
220
0.0
230
1.0
 70
    12
 71
     2
 72
     6
 73
     3
 74
     0
 42
0.0000000001
 43
0.0000000001
 40
0.0
 40
0.0
 40
0.0
 40
2.771249119498275
 40
2.771249119498275
 40
2.771249119498275
 10
-537.4236483296762
 20
178.6329111442077
 30
0.0
 41
1.0
 10
-538.7179830292573
 20
179.1293021061288
 30
0.0
 41
0.9993166537775318
 10
-540.045451636337
 20
179.5287184288221
 30
0.0
 41
1.0
  0
SPLINE
  5
2B3
330
1F
100
AcDbEntity
  8
LINEE VISIBILI 2D
100
AcDbSpline
210
0.0
220
0.0
230
1.0
 70
    12
 71
     3
 72
    12
 73
     8
 74
     0
 42
0.0000000001
 43
0.0000000001
 40
0.0
 40
0.0
 40
0.0
 40
0.0
 40
0.165779021359703
 40
0.165779021359703
 40
0.423918781861492
 40
0.423918781861492
 40
0.711959390930746
 40
0.711959390930746
 40
0.711959390930746
 40
0.711959390930746
 10
-555.716788637521
 20
181.5302790153143
 30
0.0
 41
646.1678533475529
 10
-555.7010812318934
 20
181.5061067847841
 30
0.0
 41
646.188427152875
 10
-555.6749459984072
 20
181.4696567343827
 30
0.0
 41
646.2184503389091
 10
-555.5854061098058
 20
181.3850130157243
 30
0.0
 41
646.2760729114266
 10
-555.5053634295906
 20
181.3522950114211
 30
0.0
 41
646.2794090230651
 10
-555.4103411405151
 20
181.3620030931129
 30
0.0
 41
646.2320093852095
 10
-555.382410303049
 20
181.4006219393699
 30
0.0
 41
646.1816735906068
 10
-555.3670063218791
 20
181.443816339973
 30
0.0
 41
646.1317627856013
  0
SPLINE
  5
2B4
330
1F
100
AcDbEntity
  8
LINEE VISIBILI 2D
100
AcDbSpline
210
0.0
220
0.0
230
1.0
 70
    12
 71
     2
 72
     6
 73
     3
 74
     0
 42
0.0000000001
 43
0.0000000001
 40
0.0
 40
0.0
 40
0.0
 40
0.3907852079509719
 40
0.3907852079509719
 40
0.3907852079509719
 10
-555.3511277831264
 20
181.5769965547475
 30
0.0
 41
1.0
 10
-555.5458201454981
 20
181.5604052969565
 30
0.0
 41
0.9999584318842959
 10
-555.7407826759408
 20
181.5473669870798
 30
0.0
 41
1.0
  0
SPLINE
  5
2B5
330
1F
100
AcDbEntity
  8
LINEE VISIBILI 2D
100
AcDbSpline
210
0.0
220
0.0
230
1.0
 70
    12
 71
     2
 72
     6
 73
     3
 74
     0
 42
0.0000000001
 43
0.0000000001
 40
0.0
 40
0.0
 40
0.0
 40
0.0302655170553478
 40
0.0302655170553478
 40
0.0302655170553478
 10
-555.7407826759408
 20
181.5473669870798
 30
0.0
 41
1.0
 10
-555.7251532987752
 20
181.5439233687267
 30
0.0
 41
0.9202857812769977
 10
-555.716788637521
 20
181.5302790153143
 30
0.0
 41
1.0
  0
SPLINE
  5
2B6
330
1F
100
AcDbEntity
  8
LINEE VISIBILI 2D
100
AcDbSpline
210
0.0
220
0.0
230
1.0
 70
     8
 71
     3
 72
    12
 73
     8
 74
     0
 42
0.0000000001
 43
0.0000000001
 40
0.0
 40
0.0
 40
0.0
 40
0.0
 40
1.343482032756079
 40
2.53129640247067
 40
4.635550837497371
 40
6.382457450649903
 40
7.779364267282568
 40
7.779364267282568
 40
7.779364267282568
 40
7.779364267282568
 10
-553.1284194779924
 20
169.0027989089198
 30
0.0
 10
-553.5344717600716
 20
169.1916493852633
 30
0.0
 10
-554.2900148002502
 20
169.5681863390023
 30
0.0
 10
-555.6259890403332
 20
170.346195461265
 30
0.0
 10
-556.990840345421
 20
171.3326334214274
 30
0.0
 10
-558.1886028192248
 20
172.627253453259
 30
0.0
 10
-558.6286978837616
 20
173.5982351188874
 30
0.0
 10
-558.7089181789217
 20
174.0586343338069
 30
0.0
  0
SPLINE
  5
2B7
330
1F
100
AcDbEntity
  8
LINEE VISIBILI 2D
100
AcDbSpline
210
0.0
220
0.0
230
1.0
 70
    12
 71
     2
 72
     6
 73
     3
 74
     0
 42
0.0000000001
 43
0.0000000001
 40
0.0
 40
0.0
 40
0.0
 40
11.85236959686585
 40
11.85236959686585
 40
11.85236959686585
 10
-550.3049506361547
 20
161.1743133428232
 30
0.0
 41
1.0
 10
-556.1971664005098
 20
162.2795814013357
 30
0.0
 41
0.9828745579151531
 10
-561.2888386270315
 20
165.4441821711885
 30
0.0
 41
1.0
  0
SPLINE
  5
2B8
330
1F
100
AcDbEntity
  8
LINEE VISIBILI 2D
100
AcDbSpline
210
0.0
220
0.0
230
1.0
 70
    12
 71
     2
 72
     6
 73
     3
 74
     0
 42
0.0000000001
 43
0.0000000001
 40
0.0
 40
0.0
 40
0.0
 40
1.788476173965831
 40
1.788476173965831
 40
1.788476173965831
 10
-543.7009050628152
 20
180.4538735086498
 30
0.0
 41
1.0
 10
-542.8241739598052
 20
180.2770456198805
 30
0.0
 41
0.9997526877308104
 10
-541.9561729832454
 20
180.0614074184332
 30
0.0
 41
1.0
  0
SPLINE
  5
2B9
330
1F
100
AcDbEntity
  8
LINEE VISIBILI 2D
100
AcDbSpline
210
0.0
220
0.0
230
1.0
 70
     8
 71
     3
 72
    17
 73
    13
 74
     0
 42
0.0000000001
 43
0.0000000001
 40
0.0
 40
0.0
 40
0.0
 40
0.0
 40
4.04942143204276
 40
8.218538408900316
 40
10.22977856469626
 40
12.00635415820427
 40
13.62025641102736
 40
15.04949585114651
 40
17.83526383405773
 40
21.24144877280398
 40
25.26386586878622
 40
29.52766898306937
 40
29.52766898306937
 40
29.52766898306937
 40
29.52766898306937
 10
-546.6301188123606
 20
179.4923663140379
 30
0.0
 10
-545.322287837279
 20
179.1477891163313
 30
0.0
 10
-542.8081148008709
 20
178.0018623169234
 30
0.0
 10
-540.1471494462372
 20
175.8185076602943
 30
0.0
 10
-538.4988711630061
 20
173.7324476486177
 30
0.0
 10
-537.6309140585776
 20
172.1403590707504
 30
0.0
 10
-537.1633893742996
 20
170.602734147152
 30
0.0
 10
-537.0770394014248
 20
168.6237841175739
 30
0.0
 10
-538.2019886536215
 20
166.2463698202811
 30
0.0
 10
-540.9070180728113
 20
164.086372028427
 30
0.0
 10
-544.5342020573896
 20
162.598118795243
 30
0.0
 10
-547.280220369308
 20
162.14765489179
 30
0.0
 10
-548.6978179370957
 20
162.0694411252418
 30
0.0
  0
SPLINE
  5
2BA
330
1F
100
AcDbEntity
  8
LINEE VISIBILI 2D
100
AcDbSpline
210
0.0
220
0.0
230
1.0
 70
    12
 71
     3
 72
    10
 73
     6
 74
     0
 42
0.0000000001
 43
0.0000000001
 40
0.0000000000000003
 40
0.0000000000000003
 40
0.0000000000000003
 40
0.0000000000000003
 40
0.5007408919829024
 40
0.5007408919829024
 40
0.6824435150973117
 40
0.6824435150973117
 40
0.6824435150973117
 40
0.6824435150973117
 10
-548.6978179370959
 20
162.0694411252418
 30
0.0
 41
643.7742749435471
 10
-548.3951078750344
 20
161.498264071361
 30
0.0
 41
644.5124227926024
 10
-548.0252850342545
 20
161.1028237663769
 30
0.0
 41
645.3298817247635
 10
-547.4523549606626
 20
160.8602973255743
 30
0.0
 41
646.4703925903395
 10
-547.2941582623303
 20
160.8247801697814
 30
0.0
 41
646.7746545830598
 10
-547.1325697975949
 20
160.817793893061
 30
0.0
 41
647.0761240062259
  0
SPLINE
  5
2BB
330
1F
100
AcDbEntity
  8
LINEE VISIBILI 2D
100
AcDbSpline
210
0.0
220
0.0
230
1.0
 70
    12
 71
     2
 72
     6
 73
     3
 74
     0
 42
0.0000000001
 43
0.0000000001
 40
0.0
 40
0.0
 40
0.0
 40
1.446535744984353
 40
1.446535744984353
 40
1.446535744984353
 10
-547.908068623146
 20
164.6446111050857
 30
0.0
 41
1.0
 10
-548.6316595685695
 20
164.6474401508501
 30
0.0
 41
0.9993189515509119
 10
-549.3530713401173
 20
164.7036265875704
 30
0.0
 41
1.0
  0
SPLINE
  5
2BC
330
1F
100
AcDbEntity
  8
LINEE VISIBILI 2D
100
AcDbSpline
210
0.0
220
0.0
230
1.0
 70
    12
 71
     2
 72
     6
 73
     3
 74
     0
 42
0.0000000001
 43
0.0000000001
 40
0.0
 40
0.0
 40
0.0
 40
1.445386851168122
 40
1.445386851168122
 40
1.445386851168122
 10
-549.3530713401173
 20
164.7036265875704
 30
0.0
 41
1.0
 10
-550.0735979400247
 20
164.7608952487971
 30
0.0
 41
0.9997810825658646
 10
-550.7910976847998
 20
164.8482588395005
 30
0.0
 41
1.0
  0
SPLINE
  5
2BD
330
1F
100
AcDbEntity
  8
LINEE VISIBILI 2D
100
AcDbSpline
210
0.0
220
0.0
230
1.0
 70
    12
 71
     2
 72
     6
 73
     3
 74
     0
 42
0.0000000001
 43
0.0000000001
 40
0.0
 40
0.0
 40
0.0
 40
0.4960080265290086
 40
0.4960080265290086
 40
0.4960080265290086
 10
-547.9710615881838
 20
179.7370080072777
 30
0.0
 41
1.0
 10
-548.2164382327136
 20
179.7732696622615
 30
0.0
 41
0.9997730804409181
 10
-548.4631367415963
 20
179.799046609673
 30
0.0
 41
1.0
  0
SPLINE
  5
2BE
330
1F
100
AcDbEntity
  8
LINEE VISIBILI 2D
100
AcDbSpline
210
0.0
220
0.0
230
1.0
 70
    12
 71
     2
 72
     6
 73
     3
 74
     0
 42
0.0000000001
 43
0.0000000001
 40
0.0
 40
0.0
 40
0.0
 40
0.9507291683711425
 40
0.9507291683711425
 40
0.9507291683711425
 10
-541.8519367410675
 20
165.4273537055266
 30
0.0
 41
1.0
 10
-541.3937366508301
 20
165.5546519482677
 30
0.0
 41
0.9994007983028307
 10
-540.9454414597633
 20
165.71334532231
 30
0.0
 41
1.0
  0
SPLINE
  5
2BF
330
1F
100
AcDbEntity
  8
LINEE VISIBILI 2D
100
AcDbSpline
210
0.0
220
0.0
230
1.0
 70
    12
 71
     2
 72
     6
 73
     3
 74
     0
 42
0.0000000001
 43
0.0000000001
 40
0.0
 40
0.0
 40
0.0
 40
0.0208808098189223
 40
0.0208808098189223
 40
0.0208808098189223
 10
-540.8008546091198
 20
165.7656775948696
 30
0.0
 41
1.0
 10
-540.7910595047783
 20
165.7692911855114
 30
0.0
 41
0.9999996442196009
 10
-540.7812705107954
 20
165.7729212961402
 30
0.0
 41
1.0
  0
SPLINE
  5
2C0
330
1F
100
AcDbEntity
  8
LINEE VISIBILI 2D
100
AcDbSpline
210
0.0
220
0.0
230
1.0
 70
    12
 71
     2
 72
     6
 73
     3
 74
     0
 42
0.0000000001
 43
0.0000000001
 40
0.0
 40
0.0
 40
0.0
 40
0.0210309063421933
 40
0.0210309063421933
 40
0.0210309063421933
 10
-540.1545063025416
 20
166.0257277028551
 30
0.0
 41
1.0
 10
-540.1448732249754
 20
166.0299441749351
 30
0.0
 41
0.9999995604072841
 10
-540.1352480714833
 20
166.0341787044799
 30
0.0
 41
1.0
  0
SPLINE
  5
2C1
330
1F
100
AcDbEntity
  8
LINEE VISIBILI 2D
100
AcDbSpline
210
0.0
220
0.0
230
1.0
 70
    12
 71
     2
 72
     6
 73
     3
 74
     0
 42
0.0000000001
 43
0.0000000001
 40
0.0
 40
0.0
 40
0.0
 40
0.020929215280067
 40
0.020929215280067
 40
0.020929215280067
 10
-539.5247097379201
 20
166.3254962742138
 30
0.0
 41
1.0
 10
-539.5154185977305
 20
166.3303111281568
 30
0.0
 41
0.9999993736406151
 10
-539.5061382588536
 20
166.3351467682226
 30
0.0
 41
1.0
  0
SPLINE
  5
2C2
330
1F
100
AcDbEntity
  8
LINEE VISIBILI 2D
100
AcDbSpline
210
0.0
220
0.0
230
1.0
 70
    12
 71
     2
 72
     6
 73
     3
 74
     0
 42
0.0000000001
 43
0.0000000001
 40
0.0
 40
0.0
 40
0.0
 40
0.0208577065971377
 40
0.0208577065971377
 40
0.0208577065971377
 10
-539.2167264298146
 20
166.4928164294162
 30
0.0
 41
1.0
 10
-539.2076662328873
 20
166.4979811104694
 30
0.0
 41
0.9999991889093864
 10
-539.1986192213209
 20
166.503168853761
 30
0.0
 41
1.0
  0
SPLINE
  5
2C3
330
1F
100
AcDbEntity
  8
LINEE VISIBILI 2D
100
AcDbSpline
210
0.0
220
0.0
230
1.0
 70
    12
 71
     2
 72
     6
 73
     3
 74
     0
 42
0.0000000001
 43
0.0000000001
 40
0.0
 40
0.0
 40
0.0
 40
0.0206890511546657
 40
0.0206890511546657
 40
0.0206890511546657
 10
-538.9146547180738
 20
166.6740678335995
 30
0.0
 41
1.0
 10
-538.9059105710616
 20
166.6795949709205
 30
0.0
 41
0.9999989871330702
 10
-538.897182192815
 20
166.6851469766047
 30
0.0
 41
1.0
  0
SPLINE
  5
2C4
330
1F
100
AcDbEntity
  8
LINEE VISIBILI 2D
100
AcDbSpline
210
0.0
220
0.0
230
1.0
 70
    12
 71
     2
 72
     6
 73
     3
 74
     0
 42
0.0000000001
 43
0.0000000001
 40
0.0
 40
0.0
 40
0.0
 40
0.020362660943947
 40
0.020362660943947
 40
0.020362660943947
 10
-538.62029881708
 20
166.8706772404549
 30
0.0
 41
1.0
 10
-538.6119828483105
 20
166.8765512783663
 30
0.0
 41
0.9999987860663434
 10
-538.6036852252927
 20
166.8824512029607
 30
0.0
 41
1.0
  0
SPLINE
  5
2C5
330
1F
100
AcDbEntity
  8
LINEE VISIBILI 2D
100
AcDbSpline
210
0.0
220
0.0
230
1.0
 70
    12
 71
     2
 72
     6
 73
     3
 74
     0
 42
0.0000000001
 43
0.0000000001
 40
0.0
 40
0.0
 40
0.0
 40
0.077489669446003
 40
0.077489669446003
 40
0.077489669446003
 10
-537.7930472072274
 20
167.5762603947682
 30
0.0
 41
1.0
 10
-537.7662009564183
 20
167.604198056657
 30
0.0
 41
0.9999640712150103
 10
-537.7398321911438
 20
167.632586828244
 30
0.0
 41
1.0
  0
SPLINE
  5
2C6
330
1F
100
AcDbEntity
  8
LINEE VISIBILI 2D
100
AcDbSpline
210
0.0
220
0.0
230
1.0
 70
    12
 71
     2
 72
     6
 73
     3
 74
     0
 42
0.0000000001
 43
0.0000000001
 40
0.0
 40
0.0
 40
0.0
 40
0.0182513724175174
 40
0.0182513724175174
 40
0.0182513724175174
 10
-547.9544144592598
 20
179.7341449922818
 30
0.0
 41
1.0
 10
-547.9638869002285
 20
179.7288963058751
 30
0.0
 41
0.7798923885835074
 10
-547.9710615881838
 20
179.7370080072777
 30
0.0
 41
1.0
  0
SPLINE
  5
2C7
330
1F
100
AcDbEntity
  8
LINEE VISIBILI 2D
100
AcDbSpline
210
0.0
220
0.0
230
1.0
 70
    12
 71
     2
 72
     6
 73
     3
 74
     0
 42
0.0000000001
 43
0.0000000001
 40
0.0
 40
0.0
 40
0.0
 40
2.36659245251551
 40
2.36659245251551
 40
2.36659245251551
 10
-548.9652643399964
 20
179.8520656310669
 30
0.0
 41
1.0
 10
-547.7797308690959
 20
179.7888157625204
 30
0.0
 41
0.9950504700479772
 10
-546.6301188123606
 20
179.4923663140379
 30
0.0
 41
1.0
  0
SPLINE
  5
2C8
330
1F
100
AcDbEntity
  8
LINEE VISIBILI 2D
100
AcDbSpline
210
0.0
220
0.0
230
1.0
 70
    12
 71
     2
 72
     6
 73
     3
 74
     0
 42
0.0000000001
 43
0.0000000001
 40
0.0
 40
0.0
 40
0.0
 40
0.4936655999153107
 40
0.4936655999153107
 40
0.4936655999153107
 10
-546.9762807718271
 20
179.5250164705953
 30
0.0
 41
1.0
 10
-547.2137541030539
 20
179.592733812949
 30
0.0
 41
0.9993507028987737
 10
-547.455487436842
 20
179.6431740432728
 30
0.0
 41
1.0
  0
SPLINE
  5
2C9
330
1F
100
AcDbEntity
  8
LINEE VISIBILI 2D
100
AcDbSpline
210
0.0
220
0.0
230
1.0
 70
    12
 71
     2
 72
     6
 73
     3
 74
     0
 42
0.0000000001
 43
0.0000000001
 40
0.0
 40
0.0
 40
0.0
 40
3.795609038756511
 40
3.795609038756511
 40
3.795609038756511
 10
-555.9194610854749
 20
166.0256519992538
 30
0.0
 41
1.0
 10
-554.4880021343722
 20
167.2726645983607
 30
0.0
 41
0.9994895004153651
 10
-553.1391064059725
 20
168.6085521179248
 30
0.0
 41
1.0
  0
SPLINE
  5
2CA
330
1F
100
AcDbEntity
  8
LINEE VISIBILI 2D
100
AcDbSpline
210
0.0
220
0.0
230
1.0
 70
    12
 71
     2
 72
     6
 73
     3
 74
     0
 42
0.0000000001
 43
0.0000000001
 40
0.0
 40
0.0
 40
0.0
 40
0.2865351954235085
 40
0.2865351954235085
 40
0.2865351954235085
 10
-553.128362072486
 20
168.6077971668692
 30
0.0
 41
1.0
 10
-553.1382967509914
 20
168.4648741457974
 30
0.0
 41
0.9999969586212063
 10
-553.1489362951141
 20
168.3220018675551
 30
0.0
 41
1.0
  0
SPLINE
  5
2CB
330
1F
100
AcDbEntity
  8
LINEE VISIBILI 2D
100
AcDbSpline
210
0.0
220
0.0
230
1.0
 70
    12
 71
     2
 72
     6
 73
     3
 74
     0
 42
0.0000000001
 43
0.0000000001
 40
0.0
 40
0.0
 40
0.0
 40
3.476007888893241
 40
3.476007888893241
 40
3.476007888893241
 10
-553.1489362951141
 20
168.3220018675551
 30
0.0
 41
1.0
 10
-554.389015111105
 20
167.1036221621966
 30
0.0
 41
0.9996061984233707
 10
-555.6954931407873
 20
165.9567308272146
 30
0.0
 41
1.0
  0
SPLINE
  5
2CC
330
1F
100
AcDbEntity
  8
LINEE VISIBILI 2D
100
AcDbSpline
210
0.0
220
0.0
230
1.0
 70
    12
 71
     2
 72
     6
 73
     3
 74
     0
 42
0.0000000001
 43
0.0000000001
 40
0.0
 40
0.0
 40
0.0
 40
0.9980834359858198
 40
0.9980834359858198
 40
0.9980834359858198
 10
-553.1138822561187
 20
169.0072135714913
 30
0.0
 41
1.0
 10
-552.6613294025204
 20
168.7967492789367
 30
0.0
 41
0.9998293820033181
 10
-552.2013114010252
 20
168.6031446766132
 30
0.0
 41
1.0
  0
SPLINE
  5
2CD
330
1F
100
AcDbEntity
  8
LINEE VISIBILI 2D
100
AcDbSpline
210
0.0
220
0.0
230
1.0
 70
    12
 71
     2
 72
     6
 73
     3
 74
     0
 42
0.0000000001
 43
0.0000000001
 40
0.0
 40
0.0
 40
0.0
 40
0.1832831294623528
 40
0.1832831294623528
 40
0.1832831294623528
 10
-556.6273026105091
 20
171.1376548689083
 30
0.0
 41
1.0
 10
-556.5564571604455
 20
171.079521372258
 30
0.0
 41
0.9999638473241654
 10
-556.4846333519512
 20
171.0226010616401
 30
0.0
 41
1.0
  0
SPLINE
  5
2CE
330
1F
100
AcDbEntity
  8
LINEE VISIBILI 2D
100
AcDbSpline
210
0.0
220
0.0
230
1.0
 70
    12
 71
     2
 72
     6
 73
     3
 74
     0
 42
0.0000000001
 43
0.0000000001
 40
0.0
 40
0.0
 40
0.0
 40
0.4038451182246165
 40
0.4038451182246165
 40
0.4038451182246165
 10
-565.1039838495528
 20
178.7467065458415
 30
0.0
 41
1.0
 10
-564.9351583074468
 20
178.8575180842904
 30
0.0
 41
0.9998429262570663
 10
-564.7625115073624
 20
178.9622765834269
 30
0.0
 41
1.0
  0
SPLINE
  5
2CF
330
1F
100
AcDbEntity
  8
LINEE VISIBILI 2D
100
AcDbSpline
210
0.0
220
0.0
230
1.0
 70
    12
 71
     2
 72
     6
 73
     3
 74
     0
 42
0.0000000001
 43
0.0000000001
 40
0.0
 40
0.0
 40
0.0
 40
0.2812843866720824
 40
0.2812843866720824
 40
0.2812843866720824
 10
-564.6584766007605
 20
179.0247073694817
 30
0.0
 41
1.0
 10
-564.5375052193239
 20
179.0964560423503
 30
0.0
 41
0.9999347646741034
 10
-564.4149264564426
 20
179.1654226580088
 30
0.0
 41
1.0
  0
SPLINE
  5
2D0
330
1F
100
AcDbEntity
  8
LINEE VISIBILI 2D
100
AcDbSpline
210
0.0
220
0.0
230
1.0
 70
    12
 71
     2
 72
     6
 73
     3
 74
     0
 42
0.0000000001
 43
0.0000000001
 40
0.0
 40
0.0
 40
0.0
 40
0.6998492018243289
 40
0.6998492018243289
 40
0.6998492018243289
 10
-557.4690014805839
 20
181.3442336568263
 30
0.0
 41
1.0
 10
-557.1227683408972
 20
181.3950448224504
 30
0.0
 41
0.999926902518945
 10
-556.7754078179874
 20
181.4374692104039
 30
0.0
 41
1.0
  0
SPLINE
  5
2D1
330
1F
100
AcDbEntity
  8
LINEE VISIBILI 2D
100
AcDbSpline
210
0.0
220
0.0
230
1.0
 70
    12
 71
     2
 72
     6
 73
     3
 74
     0
 42
0.0000000001
 43
0.0000000001
 40
0.0
 40
0.0
 40
0.0
 40
0.0737229434911211
 40
0.0737229434911211
 40
0.0737229434911211
 10
-556.0181953340408
 20
170.6713516156628
 30
0.0
 41
1.0
 10
-555.9882427339421
 20
170.6498663521413
 30
0.0
 41
0.9999963007035388
 10
-555.9581736962399
 20
170.628544350056
 30
0.0
 41
1.0
  0
SPLINE
  5
2D2
330
1F
100
AcDbEntity
  8
LINEE VISIBILI 2D
100
AcDbSpline
210
0.0
220
0.0
230
1.0
 70
    12
 71
     2
 72
     6
 73
     3
 74
     0
 42
0.0000000001
 43
0.0000000001
 40
0.0
 40
0.0
 40
0.0
 40
1.30342565559529
 40
1.30342565559529
 40
1.30342565559529
 10
-540.1543678029309
 20
166.0207537247946
 30
0.0
 41
1.0
 10
-540.8008282309118
 20
165.9379154514836
 30
0.0
 41
0.9999229212310654
 10
-541.4450325080514
 20
165.839051333694
 30
0.0
 41
1.0
  0
SPLINE
  5
2D4
330
1F
100
AcDbEntity
  8
LINEE VISIBILI 2D
100
AcDbSpline
210
0.0
220
0.0
230
1.0
 70
    12
 71
     2
 72
     6
 73
     3
 74
     0
 42
0.0000000001
 43
0.0000000001
 40
0.0
 40
0.0
 40
0.0
 40
0.1681366986009146
 40
0.1681366986009146
 40
0.1681366986009146
 10
-471.9033636050282
 20
12.50936555303539
 30
0.0
 41
1.0
 10
-471.986807940409
 20
12.49914060097278
 30
0.0
 41
0.9999979415228784
 10
-472.070293082037
 20
12.48925435400026
 30
0.0
 41
1.0
  0
SPLINE
  5
2D5
330
1F
100
AcDbEntity
  8
LINEE VISIBILI 2D
100
AcDbSpline
210
0.0
220
0.0
230
1.0
 70
    24
 71
     2
 72
     6
 73
     3
 74
     0
 42
0.0000000001
 43
0.0000000001
 40
0.0
 40
0.0
 40
0.0
 40
0.49195162678555
 40
0.49195162678555
 40
0.49195162678555
 10
-489.6465587612121
 20
208.7786874802076
 30
0.0
 10
-489.8925345746049
 20
208.7786874802075
 30
0.0
 10
-490.1385103879976
 20
208.7786874802075
 30
0.0
  0
SPLINE
  5
2D6
330
1F
100
AcDbEntity
  8
LINEE VISIBILI 2D
100
AcDbSpline
210
0.0
220
0.0
230
1.0
 70
    12
 71
     2
 72
     6
 73
     3
 74
     0
 42
0.0000000001
 43
0.0000000001
 40
0.0
 40
0.0
 40
0.0
 40
0.7662426085277461
 40
0.7662426085277461
 40
0.7662426085277461
 10
-494.833599227198
 20
390.3160173893809
 30
0.0
 41
1.0
 10
-494.473566100383
 20
390.4470817003612
 30
0.0
 41
0.9998989846414881
 10
-494.1099530812132
 20
390.5678595058846
 30
0.0
 41
1.0
  0
SPLINE
  5
2D7
330
1F
100
AcDbEntity
  8
LINEE VISIBILI 2D
100
AcDbSpline
210
0.0
220
0.0
230
1.0
 70
     8
 71
     3
 72
     9
 73
     5
 74
     0
 42
0.0000000001
 43
0.0000000001
 40
0.0
 40
0.0
 40
0.0
 40
0.0
 40
1.566587332134748
 40
5.868361947458803
 40
5.868361947458803
 40
5.868361947458803
 40
5.868361947458803
 10
-551.6635373214598
 20
388.8604118070603
 30
0.0
 10
-551.5755945235191
 20
388.3456664824919
 30
0.0
 10
-551.2675205956635
 20
386.4139260854809
 30
0.0
 10
-550.9877625988069
 20
384.4778391491416
 30
0.0
 10
-550.7619563654301
 20
383.0617883138062
 30
0.0
  0
SPLINE
  5
2D8
330
1F
100
AcDbEntity
  8
LINEE VISIBILI 2D
100
AcDbSpline
210
0.0
220
0.0
230
1.0
 70
     8
 71
     3
 72
    11
 73
     7
 74
     0
 42
0.0000000001
 43
0.0000000001
 40
0.0
 40
0.0
 40
0.0
 40
0.0
 40
0.5022821555945081
 40
1.005233919489451
 40
2.148998681010166
 40
4.790624722400957
 40
4.790624722400957
 40
4.790624722400957
 40
4.790624722400957
 10
-492.8160094098131
 20
380.9066532651629
 30
0.0
 10
-492.694300118511
 20
380.7916473828529
 30
0.0
 10
-492.4404547479272
 20
380.5725810099572
 30
0.0
 10
-491.8667539487302
 20
380.142960886535
 30
0.0
 10
-490.6429986262714
 20
379.3991965561101
 30
0.0
 10
-489.4718120762556
 20
378.9154517958459
 30
0.0
 10
-488.6394110306414
 20
378.6299382484858
 30
0.0
  0
SPLINE
  5
2D9
330
1F
100
AcDbEntity
  8
LINEE VISIBILI 2D
100
AcDbSpline
210
0.0
220
0.0
230
1.0
 70
    12
 71
     2
 72
     6
 73
     3
 74
     0
 42
0.0000000001
 43
0.0000000001
 40
0.0
 40
0.0
 40
0.0
 40
0.2387690652954682
 40
0.2387690652954682
 40
0.2387690652954682
 10
-469.942768389448
 20
12.81944065978256
 30
0.0
 41
1.0
 10
-470.0593379890046
 20
12.79364084334401
 30
0.0
 41
0.9999244724185011
 10
-470.176506495851
 20
12.77071393617283
 30
0.0
 41
1.0
  0
SPLINE
  5
2DA
330
1F
100
AcDbEntity
  8
LINEE VISIBILI 2D
100
AcDbSpline
210
0.0
220
0.0
230
1.0
 70
    12
 71
     2
 72
     8
 73
     5
 74
     0
 42
0.0000000001
 43
0.0000000001
 40
0.0
 40
0.0
 40
0.0
 40
1.222164111710694
 40
1.222164111710694
 40
1.369894475766544
 40
1.369894475766544
 40
1.369894475766544
 10
-468.5902590162632
 20
376.3125807702156
 30
0.0
 41
1.0
 10
-468.0520289235543
 20
376.6022146684018
 30
0.0
 41
0.9996824965104076
 10
-467.5290736580087
 20
376.9185961120955
 30
0.0
 41
1.0
 10
-467.4658746370811
 20
376.9568319965946
 30
0.0
 41
0.9999953272074032
 10
-467.4029105744516
 20
376.9954535699293
 30
0.0
 41
1.0
  0
SPLINE
  5
2DB
330
1F
100
AcDbEntity
  8
LINEE VISIBILI 2D
100
AcDbSpline
210
0.0
220
0.0
230
1.0
 70
    12
 71
     2
 72
     8
 73
     5
 74
     0
 42
0.0000000001
 43
0.0000000001
 40
176.2514549124367
 40
176.2514549124367
 40
176.2514549124367
 40
190.430643720829
 40
190.430643720829
 40
190.7448029861877
 40
190.7448029861877
 40
190.7448029861877
 10
-468.4254663048765
 20
210.3486874802075
 30
0.0
 41
1.0
 10
-468.9267763327834
 20
209.8473774523006
 30
0.0
 41
1.0
 10
-469.4280863606905
 20
209.3460674243937
 30
0.0
 41
1.0
 10
-469.5452436482159
 20
209.2289101368685
 30
0.0
 41
0.9238795325112668
 10
-469.7109290731648
 20
209.2289101368685
 30
0.0
 41
1.0
  0
SPLINE
  5
2DC
330
1F
100
AcDbEntity
  8
LINEE VISIBILI 2D
100
AcDbSpline
210
0.0
220
0.0
230
1.0
 70
     8
 71
     3
 72
    12
 73
     8
 74
     0
 42
0.0000000001
 43
0.0000000001
 40
0.0
 40
0.0
 40
0.0
 40
0.0
 40
0.0623298348500803
 40
0.1402524324793961
 40
0.2805123424143094
 40
0.3273822225158145
 40
1.731817490221752
 40
1.731817490221752
 40
1.731817490221752
 40
1.731817490221752
 10
-564.8998601033932
 20
209.2289101368725
 30
0.0
 10
-564.9204000816773
 20
209.2291073251553
 30
0.0
 10
-564.9678275661301
 20
209.232365364031
 30
0.0
 10
-565.0575026760774
 20
209.2572223922764
 30
0.0
 10
-565.1369357947376
 20
209.3004556767096
 30
0.0
 10
-565.5123455409003
 20
209.6753733046225
 30
0.0
 10
-565.8541665888824
 20
210.01764969055
 30
0.0
 10
-566.1852034995899
 20
210.3486874801619
 30
0.0
  0
SPLINE
  5
2DD
330
1F
100
AcDbEntity
  8
LINEE VISIBILI 2D
100
AcDbSpline
210
0.0
220
0.0
230
1.0
 70
    12
 71
     2
 72
    14
 73
    11
 74
     0
 42
0.0000000001
 43
0.0000000001
 40
0.0
 40
0.0
 40
0.0
 40
0.1361884820602132
 40
0.1361884820602132
 40
0.2209128227060484
 40
0.2209128227060484
 40
0.3374402954288689
 40
0.3374402954288689
 40
0.5555107753183353
 40
0.5555107753183353
 40
0.6781696734453516
 40
0.6781696734453516
 40
0.6781696734453516
 10
-555.3512086538005
 20
181.1516936957061
 30
0.0
 41
1.0
 10
-555.3747860515324
 20
181.0861076779036
 30
0.0
 41
0.9658974220719819
 10
-555.4280075619085
 20
181.0411088973837
 30
0.0
 41
1.0
 10
-555.4582899094591
 20
181.0113475058394
 30
0.0
 41
0.9965850431775063
 10
-555.4930574845529
 20
180.9869758681856
 30
0.0
 41
1.0
 10
-555.5418035354803
 20
180.954031101186
 30
0.0
 41
0.9855037456322975
 10
-555.598759889152
 20
180.9392829172264
 30
0.0
 41
1.0
 10
-555.7230103444971
 20
180.8799192630008
 30
0.0
 41
0.7150753399088813
 10
-555.7851749451372
 20
181.0027922930918
 30
0.0
 41
1.0
 10
-555.7940759530737
 20
181.066915415586
 30
0.0
 41
0.9228630202823906
 10
-555.7547551258399
 20
181.1183437669725
 30
0.0
 41
1.0
  0
SPLINE
  5
2DE
330
1F
100
AcDbEntity
  8
LINEE VISIBILI 2D
100
AcDbSpline
210
0.0
220
0.0
230
1.0
 70
    24
 71
     2
 72
     6
 73
     3
 74
     0
 42
0.0000000001
 43
0.0000000001
 40
0.0
 40
0.0
 40
0.0
 40
1.0911663740128
 40
1.0911663740128
 40
1.0911663740128
 10
-496.4452436443314
 20
210.808687480208
 30
0.0
 10
-495.899660457325
 20
210.808687480208
 30
0.0
 10
-495.3540772703187
 20
210.808687480208
 30
0.0
  0
SPLINE
  5
2DF
330
1F
100
AcDbEntity
  8
LINEE VISIBILI 2D
100
AcDbSpline
210
0.0
220
0.0
230
1.0
 70
    24
 71
     2
 72
     6
 73
     3
 74
     0
 42
0.0000000001
 43
0.0000000001
 40
0.0
 40
0.0
 40
0.0
 40
0.1862420447820199
 40
0.1862420447820199
 40
0.1862420447820199
 10
-495.3440146334737
 20
210.8086874802081
 30
0.0
 10
-495.2508936110827
 20
210.8086874802081
 30
0.0
 10
-495.1577725886917
 20
210.808687480208
 30
0.0
  0
SPLINE
  5
2E0
330
1F
100
AcDbEntity
  8
LINEE VISIBILI 2D
100
AcDbSpline
210
0.0
220
0.0
230
1.0
 70
    24
 71
     2
 72
     6
 73
     3
 74
     0
 42
0.0000000001
 43
0.0000000001
 40
0.0
 40
0.0
 40
0.0
 40
0.2008847090559414
 40
0.2008847090559414
 40
0.2008847090559414
 10
-495.1468802264962
 20
210.808687480208
 30
0.0
 10
-495.0464378719683
 20
210.808687480208
 30
0.0
 10
-494.9459955174403
 20
210.808687480208
 30
0.0
  0
SPLINE
  5
2E2
330
1F
100
AcDbEntity
  8
LINEE VISIBILI 2D
100
AcDbSpline
210
0.0
220
0.0
230
1.0
 70
    24
 71
     2
 72
     6
 73
     3
 74
     0
 42
0.0000000001
 43
0.0000000001
 40
0.0
 40
0.0
 40
0.0
 40
0.1691633980475586
 40
0.1691633980475586
 40
0.1691633980475586
 10
-494.7064649667026
 20
210.808687480208
 30
0.0
 10
-494.6218832676787
 20
210.808687480208
 30
0.0
 10
-494.537301568655
 20
210.808687480208
 30
0.0
  0
SPLINE
  5
2E3
330
1F
100
AcDbEntity
  8
LINEE VISIBILI 2D
100
AcDbSpline
210
0.0
220
0.0
230
1.0
 70
    24
 71
     2
 72
     6
 73
     3
 74
     0
 42
0.0000000001
 43
0.0000000001
 40
0.0
 40
0.0
 40
0.0
 40
0.5695386876855793
 40
0.5695386876855793
 40
0.5695386876855793
 10
-493.9342418329365
 20
210.808687480208
 30
0.0
 10
-493.6494724890937
 20
210.808687480208
 30
0.0
 10
-493.3647031452509
 20
210.808687480208
 30
0.0
  0
SPLINE
  5
2E4
330
1F
100
AcDbEntity
  8
LINEE VISIBILI 2D
100
AcDbSpline
210
0.0
220
0.0
230
1.0
 70
    24
 71
     2
 72
     6
 73
     3
 74
     0
 42
0.0000000001
 43
0.0000000001
 40
0.0
 40
0.0
 40
0.0
 40
0.4293119437794246
 40
0.4293119437794246
 40
0.4293119437794246
 10
-493.3482886067241
 20
210.8086874802079
 30
0.0
 10
-493.1336326348343
 20
210.8086874802079
 30
0.0
 10
-492.9189766629447
 20
210.8086874802079
 30
0.0
  0
SPLINE
  5
2E5
330
1F
100
AcDbEntity
  8
LINEE VISIBILI 2D
100
AcDbSpline
210
0.0
220
0.0
230
1.0
 70
    24
 71
     2
 72
     6
 73
     3
 74
     0
 42
0.0000000001
 43
0.0000000001
 40
0.0
 40
0.0
 40
0.0
 40
0.21530565225369
 40
0.21530565225369
 40
0.21530565225369
 10
-494.9342854451752
 20
210.808687480208
 30
0.0
 10
-494.8266326190483
 20
210.808687480208
 30
0.0
 10
-494.7189797929215
 20
210.808687480208
 30
0.0
  0
SPLINE
  5
2E6
330
1F
100
AcDbEntity
  8
LINEE VISIBILI 2D
100
AcDbSpline
210
0.0
220
0.0
230
1.0
 70
    24
 71
     2
 72
     6
 73
     3
 74
     0
 42
0.0000000001
 43
0.0000000001
 40
0.0
 40
0.0
 40
0.0
 40
0.0108923621993142
 40
0.0108923621993142
 40
0.0108923621993142
 10
-495.1577725887566
 20
210.808687480208
 30
0.0
 10
-495.1523264076569
 20
210.808687480208
 30
0.0
 10
-495.1468802265573
 20
210.808687480208
 30
0.0
  0
SPLINE
  5
2E7
330
1F
100
AcDbEntity
  8
LINEE VISIBILI 2D
100
AcDbSpline
210
0.0
220
0.0
230
1.0
 70
    24
 71
     2
 72
     6
 73
     3
 74
     0
 42
0.0000000001
 43
0.0000000001
 40
0.0
 40
0.0
 40
0.0
 40
0.0117100722678458
 40
0.0117100722678458
 40
0.0117100722678458
 10
-494.9459955174823
 20
210.808687480208
 30
0.0
 10
-494.9401404813484
 20
210.808687480208
 30
0.0
 10
-494.9342854452145
 20
210.808687480208
 30
0.0
  0
SPLINE
  5
2E8
330
1F
100
AcDbEntity
  8
LINEE VISIBILI 2D
100
AcDbSpline
210
0.0
220
0.0
230
1.0
 70
    24
 71
     2
 72
     6
 73
     3
 74
     0
 42
0.0000000001
 43
0.0000000001
 40
0.0
 40
0.0
 40
0.0
 40
0.0125148262224713
 40
0.0125148262224713
 40
0.0125148262224713
 10
-494.7189797929484
 20
210.808687480208
 30
0.0
 10
-494.7127223798371
 20
210.808687480208
 30
0.0
 10
-494.7064649667259
 20
210.808687480208
 30
0.0
  0
SPLINE
  5
2E9
330
1F
100
AcDbEntity
  8
LINEE VISIBILI 2D
100
AcDbSpline
210
0.0
220
0.0
230
1.0
 70
    24
 71
     2
 72
     6
 73
     3
 74
     0
 42
0.0000000001
 43
0.0000000001
 40
0.0
 40
0.0
 40
0.0
 40
0.0100626368505203
 40
0.0100626368505203
 40
0.0100626368505203
 10
-495.3540772704217
 20
210.808687480208
 30
0.0
 10
-495.3490459519964
 20
210.808687480208
 30
0.0
 10
-495.3440146335712
 20
210.808687480208
 30
0.0
  0
SPLINE
  5
2EA
330
1F
100
AcDbEntity
  8
LINEE VISIBILI 2D
100
AcDbSpline
210
0.0
220
0.0
230
1.0
 70
    24
 71
     2
 72
     6
 73
     3
 74
     0
 42
0.0000000001
 43
0.0000000001
 40
0.0
 40
0.0
 40
0.0
 40
0.320788549518511
 40
0.320788549518511
 40
0.320788549518511
 10
-492.7086909260571
 20
210.808687480208
 30
0.0
 10
-492.5482966512979
 20
210.808687480208
 30
0.0
 10
-492.3879023765386
 20
210.808687480208
 30
0.0
  0
SPLINE
  5
2EB
330
1F
100
AcDbEntity
  8
LINEE VISIBILI 2D
100
AcDbSpline
210
0.0
220
0.0
230
1.0
 70
    24
 71
     2
 72
     6
 73
     3
 74
     0
 42
0.0000000001
 43
0.0000000001
 40
0.0
 40
0.0
 40
0.0
 40
0.0164145384824792
 40
0.0164145384824792
 40
0.0164145384824792
 10
-493.3647031452019
 20
210.808687480208
 30
0.0
 10
-493.3564958759606
 20
210.808687480208
 30
0.0
 10
-493.3482886067194
 20
210.808687480208
 30
0.0
  0
SPLINE
  5
2EF
330
1F
100
AcDbEntity
  8
LINEE VISIBILI 2D
100
AcDbSpline
210
0.0
220
0.0
230
1.0
 70
    24
 71
     2
 72
     6
 73
     3
 74
     0
 42
0.0000000001
 43
0.0000000001
 40
0.0
 40
0.0
 40
0.0
 40
0.4502226566611967
 40
0.4502226566611967
 40
0.4502226566611967
 10
-541.5655437867224
 20
209.2289101368687
 30
0.0
 10
-541.5655437867224
 20
209.0037988085381
 30
0.0
 10
-541.5655437867224
 20
208.7786874802075
 30
0.0
  0
SPLINE
  5
2F0
330
1F
100
AcDbEntity
  8
LINEE VISIBILI 2D
100
AcDbSpline
210
0.0
220
0.0
230
1.0
 70
    24
 71
     2
 72
     6
 73
     3
 74
     0
 42
0.0000000001
 43
0.0000000001
 40
0.0
 40
0.0
 40
0.0
 40
0.4502226566609409
 40
0.4502226566609409
 40
0.4502226566609409
 10
-546.8155437867223
 20
209.2289101368685
 30
0.0
 10
-546.8155437867223
 20
209.003798808538
 30
0.0
 10
-546.8155437867223
 20
208.7786874802076
 30
0.0
  0
SPLINE
  5
2F1
330
1F
100
AcDbEntity
  8
LINEE VISIBILI 2D
100
AcDbSpline
210
0.0
220
0.0
230
1.0
 70
    24
 71
     2
 72
     6
 73
     3
 74
     0
 42
0.0000000001
 43
0.0000000001
 40
0.0
 40
0.0
 40
0.0
 40
0.4502226566609409
 40
0.4502226566609409
 40
0.4502226566609409
 10
-548.8155437867224
 20
208.7786874802076
 30
0.0
 10
-548.8155437867224
 20
209.003798808538
 30
0.0
 10
-548.8155437867224
 20
209.2289101368685
 30
0.0
  0
SPLINE
  5
2F2
330
1F
100
AcDbEntity
  8
LINEE VISIBILI 2D
100
AcDbSpline
210
0.0
220
0.0
230
1.0
 70
    24
 71
     2
 72
     6
 73
     3
 74
     0
 42
0.0000000001
 43
0.0000000001
 40
0.0
 40
0.0
 40
0.0
 40
161.5
 40
161.5
 40
161.5
 10
-552.0655437867234
 20
372.3086874802085
 30
0.0
 10
-552.0655437867234
 20
291.5586874802085
 30
0.0
 10
-552.0655437867234
 20
210.8086874802085
 30
0.0
  0
SPLINE
  5
2F3
330
1F
100
AcDbEntity
  8
LINEE VISIBILI 2D
100
AcDbSpline
210
0.0
220
0.0
230
1.0
 70
    24
 71
     2
 72
     6
 73
     3
 74
     0
 42
0.0000000001
 43
0.0000000001
 40
0.0
 40
0.0
 40
0.0
 40
0.6030597357436563
 40
0.6030597357436563
 40
0.6030597357436563
 10
-494.5373015687061
 20
210.808687480208
 30
0.0
 10
-494.2357717008343
 20
210.808687480208
 30
0.0
 10
-493.9342418329625
 20
210.808687480208
 30
0.0
  0
SPLINE
  5
2F5
330
1F
100
AcDbEntity
  8
LINEE VISIBILI 2D
100
AcDbSpline
210
0.0
220
0.0
230
1.0
 70
    12
 71
     2
 72
     6
 73
     3
 74
     0
 42
0.0000000001
 43
0.0000000001
 40
0.0
 40
0.0
 40
0.0
 40
13.78852302893274
 40
13.78852302893274
 40
13.78852302893274
 10
-474.6499717053715
 20
17.91488626335831
 30
0.0
 41
1.0
 10
-481.542588284704
 20
17.76408875712286
 30
0.0
 41
0.9999990316659035
 10
-488.435597878485
 20
17.63247592484777
 30
0.0
 41
1.0
  0
SPLINE
  5
2F6
330
1F
100
AcDbEntity
  8
LINEE VISIBILI 2D
100
AcDbSpline
210
0.0
220
0.0
230
1.0
 70
    24
 71
     2
 72
     6
 73
     3
 74
     0
 42
0.0000000001
 43
0.0000000001
 40
0.0
 40
0.0
 40
0.0
 40
0.2399137993349996
 40
0.2399137993349996
 40
0.2399137993349996
 10
-474.5962095459394
 20
16.35595513935752
 30
0.0
 10
-474.5962095458803
 20
16.47591203902502
 30
0.0
 10
-474.5962095458213
 20
16.59586893869252
 30
0.0
  0
SPLINE
  5
2F7
330
1F
100
AcDbEntity
  8
LINEE VISIBILI 2D
100
AcDbSpline
210
0.0
220
0.0
230
1.0
 70
    24
 71
     2
 72
     6
 73
     3
 74
     0
 42
0.0000000001
 43
0.0000000001
 40
0.0
 40
0.0
 40
0.0
 40
0.2399137993349996
 40
0.2399137993349996
 40
0.2399137993349996
 10
-488.4962095458213
 20
16.59586893869252
 30
0.0
 10
-488.4962095458804
 20
16.47591203902502
 30
0.0
 10
-488.4962095459394
 20
16.35595513935752
 30
0.0
  0
SPLINE
  5
2F8
330
1F
100
AcDbEntity
  8
LINEE VISIBILI 2D
100
AcDbSpline
210
0.0
220
0.0
230
1.0
 70
    24
 71
     2
 72
     6
 73
     3
 74
     0
 42
0.0000000001
 43
0.0000000001
 40
0.0
 40
0.0
 40
0.0
 40
0.2399137993349996
 40
0.2399137993349996
 40
0.2399137993349996
 10
-488.4962095459394
 20
13.52533170574092
 30
0.0
 10
-488.4962095459984
 20
13.40537480607342
 30
0.0
 10
-488.4962095460574
 20
13.28541790640592
 30
0.0
  0
SPLINE
  5
2F9
330
1F
100
AcDbEntity
  8
LINEE VISIBILI 2D
100
AcDbSpline
210
0.0
220
0.0
230
1.0
 70
     8
 71
     3
 72
    14
 73
    10
 74
     0
 42
0.0000000001
 43
0.0000000001
 40
0.0
 40
0.0
 40
0.0
 40
0.0
 40
0.18016597771163
 40
0.4222582243637273
 40
1.126939840927812
 40
2.114041010715394
 40
3.4381645534424
 40
7.183529338611193
 40
12.32840908237579
 40
12.32840908237579
 40
12.32840908237579
 40
12.32840908237579
 10
-461.2233774373778
 20
16.71915759826155
 30
0.0
 10
-461.2587561760953
 20
16.67039635236148
 30
0.0
 10
-461.3655116541552
 20
16.57653778524426
 30
0.0
 10
-461.6993966352667
 20
16.40067548472816
 30
0.0
 10
-462.3165101970957
 20
16.20880158640829
 30
0.0
 10
-463.299248903271
 20
15.99570480939896
 30
0.0
 10
-465.2947449749547
 20
15.68462263770199
 30
0.0
 10
-468.6818845083251
 20
15.33070694613841
 30
0.0
 10
-471.6366498835809
 20
15.10476777444794
 30
0.0
 10
-473.3479203329483
 20
14.99114372387693
 30
0.0
  0
SPLINE
  5
2FA
330
1F
100
AcDbEntity
  8
LINEE VISIBILI 2D
100
AcDbSpline
210
0.0
220
0.0
230
1.0
 70
    12
 71
     2
 72
     6
 73
     3
 74
     0
 42
0.0000000001
 43
0.0000000001
 40
0.0
 40
0.0
 40
0.0
 40
0.0945537369008195
 40
0.0945537369008195
 40
0.0945537369008195
 10
-474.3188090393272
 20
12.2680296349327
 30
0.0
 41
1.0
 10
-474.3660183237017
 20
12.26533764229901
 30
0.0
 41
0.9997111737167239
 10
-474.4133024289846
 20
12.2649172340494
 30
0.0
 41
1.0
  0
SPLINE
  5
2FB
330
1F
100
AcDbEntity
  8
LINEE VISIBILI 2D
100
AcDbSpline
210
0.0
220
0.0
230
1.0
 70
     8
 71
     3
 72
    14
 73
    10
 74
     0
 42
0.0000000001
 43
0.0000000001
 40
0.0
 40
0.0
 40
0.0
 40
0.0
 40
1.357818734814357
 40
2.746874750072037
 40
4.463831730151253
 40
6.525278528005945
 40
8.983320653677772
 40
11.75507856325697
 40
17.98023994729861
 40
17.98023994729861
 40
17.98023994729861
 40
17.98023994729861
 10
-527.6186589267135
 20
168.3539965261508
 30
0.0
 10
-527.4275324223019
 20
168.7612295575364
 30
0.0
 10
-527.2003139578997
 20
169.6791221134026
 30
0.0
 10
-527.5491036902293
 20
171.1571312977528
 30
0.0
 10
-528.4936675092142
 20
172.6164327228849
 30
0.0
 10
-529.9722114994704
 20
174.0871607512788
 30
0.0
 10
-531.9401172633969
 20
175.5235472154853
 30
0.0
 10
-535.2672604041273
 20
177.4062011986224
 30
0.0
 10
-538.0775206490536
 20
178.492162230331
 30
0.0
 10
-540.0656604351807
 20
179.0832261608098
 30
0.0
  0
SPLINE
  5
2FC
330
1F
100
AcDbEntity
  8
LINEE VISIBILI 2D
100
AcDbSpline
210
0.0
220
0.0
230
1.0
 70
     8
 71
     3
 72
    22
 73
    18
 74
     0
 42
0.0000000001
 43
0.0000000001
 40
0.0
 40
0.0
 40
0.0
 40
0.0
 40
4.368252880910045
 40
8.122831010653499
 40
9.645724583599804
 40
10.78552404126709
 40
11.56261375948754
 40
11.81611954490221
 40
12.00021764763754
 40
12.14627549721034
 40
12.31884988938271
 40
12.54808717426412
 40
12.85666276135088
 40
13.6782420530348
 40
14.84148281476378
 40
18.1403025560718
 40
22.87163763353899
 40
22.87163763353899
 40
22.87163763353899
 40
22.87163763353899
 10
-480.7413319877919
 20
10.21145484465916
 30
0.0
 10
-479.2855125225826
 20
10.24405388080031
 30
0.0
 10
-476.5805910305074
 20
10.38234594599303
 30
0.0
 10
-473.3827644775275
 20
10.73598696524324
 30
0.0
 10
-471.2773617090165
 20
11.12043935765158
 30
0.0
 10
-470.1671251485081
 20
11.40971428238625
 30
0.0
 10
-469.4902127112909
 20
11.67402770512274
 30
0.0
 10
-469.1580613277686
 20
11.91102857934804
 30
0.0
 10
-469.0462800247623
 20
12.07803420321517
 30
0.0
 10
-469.0542866366349
 20
12.25427818638522
 30
0.0
 10
-469.172443922866
 20
12.40269122012825
 30
0.0
 10
-469.3569277528468
 20
12.54732659368678
 30
0.0
 10
-469.7606204303036
 20
12.76044237986523
 30
0.0
 10
-470.4798707259508
 20
13.02023244349335
 30
0.0
 10
-472.1844678004375
 20
13.46878586793007
 30
0.0
 10
-475.1985279958956
 20
14.03039633853575
 30
0.0
 10
-477.8475587016855
 20
14.41409945483889
 30
0.0
 10
-479.4107783400644
 20
14.62380600924515
 30
0.0
  0
SPLINE
  5
2FD
330
1F
100
AcDbEntity
  8
LINEE VISIBILI 2D
100
AcDbSpline
210
0.0
220
0.0
230
1.0
 70
    12
 71
     2
 72
     6
 73
     3
 74
     0
 42
0.0000000001
 43
0.0000000001
 40
0.0
 40
0.0
 40
0.0
 40
2.910147387411094
 40
2.910147387411094
 40
2.910147387411094
 10
-474.5104543787858
 20
378.5951673377578
 30
0.0
 41
1.0
 10
-476.8020016837848
 20
377.9060200157066
 30
0.0
 41
0.9986801448518017
 10
-478.2343933972609
 20
377.6429121115597
 30
0.0
 41
1.0
  0
SPLINE
  5
2FF
330
1F
100
AcDbEntity
  8
LINEE VISIBILI 2D
100
AcDbSpline
210
0.0
220
0.0
230
1.0
 70
    12
 71
     2
 72
     6
 73
     3
 74
     0
 42
0.0000000001
 43
0.0000000001
 40
0.0
 40
0.0
 40
0.0
 40
1.824259156920791
 40
1.824259156920791
 40
1.824259156920791
 10
-478.2344089380726
 20
377.6429092237953
 30
0.0
 41
1.0
 10
-479.1314332652901
 20
377.475629234616
 30
0.0
 41
0.9994101107867271
 10
-480.0378245980333
 20
377.370320211601
 30
0.0
 41
1.0
  0
SPLINE
  5
300
330
1F
100
AcDbEntity
  8
LINEE VISIBILI 2D
100
AcDbSpline
210
0.0
220
0.0
230
1.0
 70
    12
 71
     2
 72
     6
 73
     3
 74
     0
 42
0.0000000001
 43
0.0000000001
 40
0.0
 40
0.0
 40
0.0
 40
0.1321442487263458
 40
0.1321442487263458
 40
0.1321442487263458
 10
-479.6923236190847
 20
390.7718456318525
 30
0.0
 41
1.0
 10
-479.757735833221
 20
390.7811632949606
 30
0.0
 41
0.9999912406469093
 10
-479.8232237534554
 20
390.7899330673294
 30
0.0
 41
1.0
  0
SPLINE
  5
301
330
1F
100
AcDbEntity
  8
LINEE VISIBILI 2D
100
AcDbSpline
210
0.0
220
0.0
230
1.0
 70
    12
 71
     3
 72
    10
 73
     6
 74
     0
 42
0.0000000001
 43
0.0000000001
 40
0.0
 40
0.0
 40
0.0
 40
0.0
 40
0.5858939195480764
 40
0.5858939195480764
 40
1.0
 40
1.0
 40
1.0
 40
1.0
 10
-488.4462095459394
 20
13.78726832254318
 30
0.0
 41
1.0
 10
-488.4553372331971
 20
13.78726832254318
 30
0.0
 41
1.0
 10
-488.4619250493784
 20
13.78194565826222
 30
0.0
 41
1.0
 10
-488.4824986065872
 20
13.77959357494052
 30
0.0
 41
1.0
 10
-488.4962095459325
 20
13.78093589546434
 30
0.0
 41
1.0
 10
-488.4962095459394
 20
13.73726832254282
 30
0.0
 41
1.0
  0
SPLINE
  5
303
330
1F
100
AcDbEntity
  8
LINEE VISIBILI 2D
100
AcDbSpline
210
0.0
220
0.0
230
1.0
 70
    12
 71
     2
 72
     6
 73
     3
 74
     0
 42
0.0000000001
 43
0.0000000001
 40
0.0
 40
0.0
 40
0.0
 40
0.9826816798265159
 40
0.9826816798265159
 40
0.9826816798265159
 10
-480.4574349851933
 20
391.8856504012043
 30
0.0
 41
1.0
 10
-480.9487961749344
 20
391.8817264790661
 30
0.0
 41
0.9998900550830327
 10
-481.4398249286933
 20
391.8632338067106
 30
0.0
 41
1.0
  0
SPLINE
  5
304
330
1F
100
AcDbEntity
  8
LINEE VISIBILI 2D
100
AcDbSpline
210
0.0
220
0.0
230
1.0
 70
    12
 71
     3
 72
    12
 73
     8
 74
     0
 42
0.0000000001
 43
0.0000000001
 40
1.634977688419614
 40
1.634977688419614
 40
1.634977688419614
 40
1.634977688419614
 40
13.0749462616146
 40
13.0749462616146
 40
26.1498925232292
 40
26.1498925232292
 40
34.25176331445547
 40
34.25176331445547
 40
34.25176331445547
 40
34.25176331445547
 10
-463.8376022572879
 20
379.5409300118077
 30
0.0
 41
1.0
 10
-463.5434933818303
 20
379.7726375101036
 30
0.0
 41
1.0
 10
-463.2614962625602
 20
380.0158492342971
 30
0.0
 41
1.0
 10
-462.6897585768396
 20
380.5665070069784
 30
0.0
 41
1.0
 10
-462.4044187253534
 20
380.8781476871925
 30
0.0
 41
1.0
 10
-461.9889218616258
 20
381.4256741299457
 30
0.0
 41
1.0
 10
-461.8407079773491
 20
381.6460347800489
 30
0.0
 41
1.0
 10
-461.7102972129696
 20
381.8756345790935
 30
0.0
 41
1.0
  0
SPLINE
  5
307
330
1F
100
AcDbEntity
  8
LINEE VISIBILI 2D
100
AcDbSpline
210
0.0
220
0.0
230
1.0
 70
    24
 71
     2
 72
     6
 73
     3
 74
     0
 42
0.0000000001
 43
0.0000000001
 40
0.0
 40
0.0
 40
0.0
 40
0.4502226566614241
 40
0.4502226566614241
 40
0.4502226566614241
 10
-491.6385103879977
 20
208.7786874802075
 30
0.0
 10
-491.6385103879977
 20
209.0037988085382
 30
0.0
 10
-491.6385103879977
 20
209.2289101368689
 30
0.0
  0
SPLINE
  5
308
330
1F
100
AcDbEntity
  8
LINEE VISIBILI 2D
100
AcDbSpline
210
0.0
220
0.0
230
1.0
 70
    24
 71
     2
 72
     6
 73
     3
 74
     0
 42
0.0000000001
 43
0.0000000001
 40
0.0
 40
0.0
 40
0.0
 40
0.4502226566613672
 40
0.4502226566613672
 40
0.4502226566613672
 10
-489.6385103879977
 20
209.2289101368689
 30
0.0
 10
-489.6385103879977
 20
209.0037988085382
 30
0.0
 10
-489.6385103879977
 20
208.7786874802075
 30
0.0
  0
SPLINE
  5
309
330
1F
100
AcDbEntity
  8
LINEE VISIBILI 2D
100
AcDbSpline
210
0.0
220
0.0
230
1.0
 70
    24
 71
     2
 72
     6
 73
     3
 74
     0
 42
0.0000000001
 43
0.0000000001
 40
0.0
 40
0.0
 40
0.0
 40
2.0
 40
2.0
 40
2.0
 10
-480.5452436482611
 20
208.7786874802076
 30
0.0
 10
-481.5452436482611
 20
208.7786874802075
 30
0.0
 10
-482.5452436482611
 20
208.7786874802075
 30
0.0
  0
SPLINE
  5
30B
330
1F
100
AcDbEntity
  8
LINEE VISIBILI 2D
100
AcDbSpline
210
0.0
220
0.0
230
1.0
 70
    12
 71
     2
 72
     6
 73
     3
 74
     0
 42
0.0000000001
 43
0.0000000001
 40
0.0
 40
0.0
 40
0.0
 40
0.308182453799356
 40
0.308182453799356
 40
0.308182453799356
 10
-466.0106535064953
 20
377.9107939744137
 30
0.0
 41
1.0
 10
-465.8843901317476
 20
377.9991230269765
 30
0.0
 41
0.999988783006302
 10
-465.7589691432373
 20
378.0886441807356
 30
0.0
 41
1.0
  0
SPLINE
  5
30C
330
1F
100
AcDbEntity
  8
LINEE VISIBILI 2D
100
AcDbSpline
210
0.0
220
0.0
230
1.0
 70
    12
 71
     2
 72
     6
 73
     3
 74
     0
 42
0.0000000001
 43
0.0000000001
 40
0.0
 40
0.0
 40
0.0
 40
0.4507664432751186
 40
0.4507664432751186
 40
0.4507664432751186
 10
-469.6775028712868
 20
385.2010482012945
 30
0.0
 41
1.0
 10
-469.5604543325824
 20
385.0082819481741
 30
0.0
 41
0.9990916976379089
 10
-469.4602442390795
 20
384.8062494608979
 30
0.0
 41
1.0
  0
SPLINE
  5
30D
330
1F
100
AcDbEntity
  8
LINEE VISIBILI 2D
100
AcDbSpline
210
0.0
220
0.0
230
1.0
 70
    24
 71
     2
 72
     6
 73
     3
 74
     0
 42
0.0000000001
 43
0.0000000001
 40
0.0
 40
0.0
 40
0.0
 40
0.4502226566612251
 40
0.4502226566612251
 40
0.4502226566612251
 10
-482.5452436482611
 20
208.7786874802075
 30
0.0
 10
-482.5452436482611
 20
209.0037988085381
 30
0.0
 10
-482.5452436482611
 20
209.2289101368687
 30
0.0
  0
SPLINE
  5
30F
330
1F
100
AcDbEntity
  8
LINEE VISIBILI 2D
100
AcDbSpline
210
0.0
220
0.0
230
1.0
 70
    24
 71
     2
 72
     6
 73
     3
 74
     0
 42
0.0000000001
 43
0.0000000001
 40
0.0
 40
0.0
 40
0.0
 40
0.4502226566611683
 40
0.4502226566611683
 40
0.4502226566611683
 10
-480.5452436482611
 20
209.2289101368687
 30
0.0
 10
-480.5452436482611
 20
209.0037988085381
 30
0.0
 10
-480.5452436482611
 20
208.7786874802076
 30
0.0
  0
SPLINE
  5
310
330
1F
100
AcDbEntity
  8
LINEE VISIBILI 2D
100
AcDbSpline
210
0.0
220
0.0
230
1.0
 70
    24
 71
     2
 72
     6
 73
     3
 74
     0
 42
0.0000000001
 43
0.0000000001
 40
0.0
 40
0.0
 40
0.0
 40
0.4919516267856068
 40
0.4919516267856068
 40
0.4919516267856068
 10
-472.9519769085245
 20
208.7786874802076
 30
0.0
 10
-473.1979527219174
 20
208.7786874802076
 30
0.0
 10
-473.4439285353102
 20
208.7786874802076
 30
0.0
  0
SPLINE
  5
311
330
1F
100
AcDbEntity
  8
LINEE VISIBILI 2D
100
AcDbSpline
210
0.0
220
0.0
230
1.0
 70
    24
 71
     2
 72
     6
 73
     3
 74
     0
 42
0.0000000001
 43
0.0000000001
 40
0.0
 40
0.0
 40
0.0
 40
1.491951626785606
 40
1.491951626785606
 40
1.491951626785606
 10
-471.4600252817389
 20
208.7786874802076
 30
0.0
 10
-472.2060010951317
 20
208.7786874802076
 30
0.0
 10
-472.9519769085245
 20
208.7786874802076
 30
0.0
  0
SPLINE
  5
316
330
1F
100
AcDbEntity
  8
LINEE VISIBILI 2D
100
AcDbSpline
210
0.0
220
0.0
230
1.0
 70
    12
 71
     2
 72
     6
 73
     3
 74
     0
 42
0.0000000001
 43
0.0000000001
 40
0.0
 40
0.0
 40
0.0
 40
5.799066592826319
 40
5.799066592826319
 40
5.799066592826319
 10
-480.4612885852973
 20
14.56038622146457
 30
0.0
 41
1.0
 10
-477.5668216502871
 20
14.7319892513546
 30
0.0
 41
0.999991694735975
 10
-474.6738496287561
 20
14.92717972339108
 30
0.0
 41
1.0
  0
SPLINE
  5
318
330
1F
100
AcDbEntity
  8
LINEE VISIBILI 2D
100
AcDbSpline
210
0.0
220
0.0
230
1.0
 70
     8
 71
     3
 72
    11
 73
     7
 74
     0
 42
0.0000000001
 43
0.0000000001
 40
0.0
 40
0.0
 40
0.0
 40
0.0
 40
0.3118250261752149
 40
0.6600477274507429
 40
1.360474829603934
 40
2.982158996515798
 40
2.982158996515798
 40
2.982158996515798
 40
2.982158996515798
 10
-469.0706534032555
 20
383.2786341362588
 30
0.0
 10
-469.0710013856834
 20
383.1747159095075
 30
0.0
 10
-469.0859114791469
 20
382.9546847715627
 30
0.0
 10
-469.1731380317881
 20
382.5088570334008
 30
0.0
 10
-469.5157243041625
 20
381.6790853469261
 30
0.0
 10
-470.042595831619
 20
381.0905705595171
 30
0.0
 10
-470.448827238421
 20
380.7368566249764
 30
0.0
  0
SPLINE
  5
319
330
1F
100
AcDbEntity
  8
LINEE VISIBILI 2D
100
AcDbSpline
210
0.0
220
0.0
230
1.0
 70
    12
 71
     2
 72
     6
 73
     3
 74
     0
 42
0.0000000001
 43
0.0000000001
 40
0.0
 40
0.0
 40
0.0
 40
0.0577892371031931
 40
0.0577892371031931
 40
0.0577892371031931
 10
-480.7345027162212
 20
10.26883911170472
 30
0.0
 41
1.0
 10
-480.7378712786102
 20
10.24014149501119
 30
0.0
 41
0.9999987107298432
 10
-480.7413319877919
 20
10.21145484465916
 30
0.0
 41
1.0
  0
SPLINE
  5
31A
330
1F
100
AcDbEntity
  8
LINEE VISIBILI 2D
100
AcDbSpline
210
0.0
220
0.0
230
1.0
 70
    24
 71
     2
 72
     6
 73
     3
 74
     0
 42
0.0000000001
 43
0.0000000001
 40
0.0
 40
0.0
 40
0.0
 40
0.9018184616761857
 40
0.9018184616761857
 40
0.9018184616761857
 10
-482.5394174563346
 20
372.3086874802085
 30
0.0
 10
-482.0885082254965
 20
372.3086874802085
 30
0.0
 10
-481.6375989946584
 20
372.3086874802084
 30
0.0
  0
SPLINE
  5
31B
330
1F
100
AcDbEntity
  8
LINEE VISIBILI 2D
100
AcDbSpline
210
0.0
220
0.0
230
1.0
 70
    24
 71
     2
 72
     6
 73
     3
 74
     0
 42
0.0000000001
 43
0.0000000001
 40
0.0
 40
0.0
 40
0.0
 40
1.086528339176012
 40
1.086528339176012
 40
1.086528339176012
 10
-481.6375989946584
 20
372.3086874802084
 30
0.0
 10
-481.0943348250703
 20
372.3086874802085
 30
0.0
 10
-480.5510706554823
 20
372.3086874802085
 30
0.0
  0
SPLINE
  5
31C
330
1F
100
AcDbEntity
  8
LINEE VISIBILI 2D
100
AcDbSpline
210
0.0
220
0.0
230
1.0
 70
    24
 71
     2
 72
     6
 73
     3
 74
     0
 42
0.0000000001
 43
0.0000000001
 40
0.0
 40
0.0
 40
0.0
 40
161.5
 40
161.5
 40
161.5
 10
-480.5452436482615
 20
210.8086874802085
 30
0.0
 10
-480.5452436482615
 20
291.5586874802085
 30
0.0
 10
-480.5452436482615
 20
372.3086874802085
 30
0.0
  0
SPLINE
  5
31D
330
1F
100
AcDbEntity
  8
LINEE VISIBILI 2D
100
AcDbSpline
210
0.0
220
0.0
230
1.0
 70
    24
 71
     2
 72
     6
 73
     3
 74
     0
 42
0.0000000001
 43
0.0000000001
 40
0.0
 40
0.0
 40
0.0
 40
161.5
 40
161.5
 40
161.5
 10
-482.5452436482614
 20
372.3086874802085
 30
0.0
 10
-482.5452436482614
 20
291.5586874802085
 30
0.0
 10
-482.5452436482614
 20
210.8086874802085
 30
0.0
  0
SPLINE
  5
31F
330
1F
100
AcDbEntity
  8
LINEE VISIBILI 2D
100
AcDbSpline
210
0.0
220
0.0
230
1.0
 70
    12
 71
     2
 72
     6
 73
     3
 74
     0
 42
0.0000000001
 43
0.0000000001
 40
0.0
 40
0.0
 40
0.0
 40
0.195797884446149
 40
0.195797884446149
 40
0.195797884446149
 10
-465.5262514315396
 20
378.2562231004905
 30
0.0
 41
1.0
 10
-465.4470459819148
 20
378.3137621204449
 30
0.0
 41
0.9999969340926504
 10
-465.3681264645534
 20
378.3716926982692
 30
0.0
 41
1.0
  0
SPLINE
  5
320
330
1F
100
AcDbEntity
  8
LINEE VISIBILI 2D
100
AcDbSpline
210
0.0
220
0.0
230
1.0
 70
    24
 71
     2
 72
     6
 73
     3
 74
     0
 42
0.0000000001
 43
0.0000000001
 40
0.0
 40
0.0
 40
0.0
 40
0.4502226566609693
 40
0.4502226566609693
 40
0.4502226566609693
 10
-473.4519769085245
 20
208.7786874802076
 30
0.0
 10
-473.4519769085245
 20
209.003798808538
 30
0.0
 10
-473.4519769085245
 20
209.2289101368685
 30
0.0
  0
SPLINE
  5
321
330
1F
100
AcDbEntity
  8
LINEE VISIBILI 2D
100
AcDbSpline
210
0.0
220
0.0
230
1.0
 70
    24
 71
     2
 72
     6
 73
     3
 74
     0
 42
0.0000000001
 43
0.0000000001
 40
0.0
 40
0.0
 40
0.0
 40
0.4502226566609693
 40
0.4502226566609693
 40
0.4502226566609693
 10
-471.4519769085245
 20
209.2289101368685
 30
0.0
 10
-471.4519769085245
 20
209.003798808538
 30
0.0
 10
-471.4519769085245
 20
208.7786874802076
 30
0.0
  0
LWPOLYLINE
  5
331
330
1F
100
AcDbEntity
  8
0
100
AcDbPolyline
 90
        4
 70
     1
 43
0.0
 10
-482.6520677879382
 20
372.3086874802085
 10
-480.4491743316889
 20
372.3086874802085
 10
-480.4491743316889
 20
373.0120208806756
 10
-482.6527704803042
 20
373.0127626228397
  0
SPLINE
  5
332
330
1F
100
AcDbEntity
  8
LINEE VISIBILI 2D
100
AcDbSpline
210
0.0
220
0.0
230
1.0
 70
     8
 71
     3
 72
    13
 73
     9
 74
     0
 42
0.0000000001
 43
0.0000000001
 40
0.0
 40
0.0
 40
0.0
 40
0.0
 40
0.0457233439062281
 40
0.0903813289539795
 40
0.1804492101891844
 40
0.4170473727978207
 40
0.4458867533237542
 40
0.5739432319010486
 40
0.5739432319010486
 40
0.5739432319010486
 40
0.5739432319010486
 10
-538.1653003612889
 20
210.3486874802077
 30
0.0
 10
-538.1484922885237
 20
210.3495538530743
 30
0.0
 10
-538.123185639664
 20
210.3556985500623
 30
0.0
 10
-538.0666624312242
 20
210.3962195551662
 30
0.0
 10
-538.0646431107178
 20
210.5229301393927
 30
0.0
 10
-538.0636868593718
 20
210.6391989109221
 30
0.0
 10
-538.0691359207904
 20
210.7717362680039
 30
0.0
 10
-538.1238557108049
 20
210.8101269502288
 30
0.0
 10
-538.165322498051
 20
210.8092659225799
 30
0.0
  0
SPLINE
  5
338
330
1F
100
AcDbEntity
  8
LINEE VISIBILI 2D
100
AcDbSpline
210
0.0
220
0.0
230
1.0
 70
    12
 71
     2
 72
     6
 73
     3
 74
     0
 42
0.0000000001
 43
0.0000000001
 40
0.0
 40
0.0
 40
0.0
 40
1.289437359386334
 40
1.289437359386334
 40
1.289437359386334
 10
-549.2314353455062
 20
374.1846234350244
 30
0.0
 41
1.0
 10
-548.6993574054282
 20
374.5522855398627
 30
0.0
 41
0.9953011456958405
 10
-548.2481218890391
 20
375.0156092565026
 30
0.0
 41
1.0
  0
SPLINE
  5
339
330
1F
100
AcDbEntity
  8
LINEE VISIBILI 2D
100
AcDbSpline
210
0.0
220
0.0
230
1.0
 70
    12
 71
     2
 72
     6
 73
     3
 74
     0
 42
0.0000000001
 43
0.0000000001
 40
0.0
 40
0.0
 40
0.0
 40
0.2074630732274244
 40
0.2074630732274244
 40
0.2074630732274244
 10
-548.248121889039
 20
375.0156092565026
 30
0.0
 41
1.0
 10
-548.1517893555924
 20
375.075302474568
 30
0.0
 41
0.9909268100365762
 10
-548.283742044252
 20
375.6716168222329
 30
0.0
 41
1.0
  0
SPLINE
  5
33A
330
1F
100
AcDbEntity
  8
LINEE VISIBILI 2D
100
AcDbSpline
210
0.0
220
0.0
230
1.0
 70
    12
 71
     2
 72
     6
 73
     3
 74
     0
 42
0.0000000001
 43
0.0000000001
 40
0.0
 40
0.0
 40
0.0
 40
3.954509425160958
 40
3.954509425160958
 40
3.954509425160958
 10
-553.0641543801896
 20
372.9853125668873
 30
0.0
 41
1.0
 10
-550.9021921968635
 20
373.018633335775
 30
0.0
 41
0.9563081798707198
 10
-549.2314019063751
 20
374.1845751902645
 30
0.0
 41
1.0
  0
LWPOLYLINE
  5
33C
330
1F
100
AcDbEntity
  8
0
100
AcDbPolyline
 90
        4
 70
     1
 43
0.0
 10
-554.1674119697544
 20
372.3086874802086
 10
-551.9645185135051
 20
372.3086874802086
 10
-551.9645185135051
 20
373.0120208806756
 10
-554.1681146621205
 20
373.0127626228398
  0
ENDSEC
  0
SECTION
  2
OBJECTS
  0
DICTIONARY
  5
C
330
0
100
AcDbDictionary
281
     1
  3
ACAD_COLOR
350
324
  3
ACAD_GROUP
350
D
  3
ACAD_LAYOUT
350
1A
  3
ACAD_MATERIAL
350
323
  3
ACAD_MLINESTYLE
350
17
  3
ACAD_PLOTSETTINGS
350
19
  3
ACAD_PLOTSTYLENAME
350
E
  3
ACAD_TABLESTYLE
350
325
  3
AcDbVariableDictionary
350
32B
  0
DICTIONARY
  5
324
102
{ACAD_REACTORS
330
C
102
}
330
C
100
AcDbDictionary
281
     1
  0
DICTIONARY
  5
D
102
{ACAD_REACTORS
330
C
102
}
330
C
100
AcDbDictionary
281
     1
  0
DICTIONARY
  5
1A
102
{ACAD_REACTORS
330
C
102
}
330
C
100
AcDbDictionary
281
     1
  3
Layout1
350
1E
  3
Layout2
350
26
  3
Model
350
22
  0
DICTIONARY
  5
323
102
{ACAD_REACTORS
330
C
102
}
330
C
100
AcDbDictionary
281
     1
  0
DICTIONARY
  5
17
102
{ACAD_REACTORS
330
C
102
}
330
C
100
AcDbDictionary
281
     1
  3
Standard
350
18
  0
DICTIONARY
  5
19
102
{ACAD_REACTORS
330
C
102
}
330
C
100
AcDbDictionary
281
     1
  0
ACDBDICTIONARYWDFLT
  5
E
102
{ACAD_REACTORS
330
C
102
}
330
C
100
AcDbDictionary
281
     1
  3
Normal
350
F
100
AcDbDictionaryWithDefault
340
F
  0
DICTIONARY
  5
325
102
{ACAD_REACTORS
330
C
102
}
330
C
100
AcDbDictionary
281
     1
  3
Standard
350
326
  0
DICTIONARY
  5
32B
102
{ACAD_REACTORS
330
C
102
}
330
C
100
AcDbDictionary
281
     1
  3
CTABLESTYLE
350
32C
  0
LAYOUT
  5
1E
102
{ACAD_REACTORS
330
1A
102
}
330
1A
100
AcDbPlotSettings
  1

  2
none_device
  4

  6

 40
0.0
 41
0.0
 42
0.0
 43
0.0
 44
0.0
 45
0.0
 46
0.0
 47
0.0
 48
0.0
 49
0.0
140
0.0
141
0.0
142
1.0
143
1.0
 70
   688
 72
     0
 73
     0
 74
     5
  7

 75
    16
147
1.0
 76
     0
 77
     2
 78
   300
148
0.0
149
0.0
100
AcDbLayout
  1
Layout1
 70
     1
 71
     1
 10
0.0
 20
0.0
 11
12.0
 21
9.0
 12
0.0
 22
0.0
 32
0.0
 14
1.000000000000000E+20
 24
1.000000000000000E+20
 34
1.000000000000000E+20
 15
-1.000000000000000E+20
 25
-1.000000000000000E+20
 35
-1.000000000000000E+20
146
0.0
 13
0.0
 23
0.0
 33
0.0
 16
1.0
 26
0.0
 36
0.0
 17
0.0
 27
1.0
 37
0.0
 76
     0
330
1B
  0
LAYOUT
  5
26
102
{ACAD_REACTORS
330
1A
102
}
330
1A
100
AcDbPlotSettings
  1

  2
none_device
  4

  6

 40
0.0
 41
0.0
 42
0.0
 43
0.0
 44
0.0
 45
0.0
 46
0.0
 47
0.0
 48
0.0
 49
0.0
140
0.0
141
0.0
142
1.0
143
1.0
 70
   688
 72
     0
 73
     0
 74
     5
  7

 75
    16
147
1.0
 76
     0
 77
     2
 78
   300
148
0.0
149
0.0
100
AcDbLayout
  1
Layout2
 70
     1
 71
     2
 10
0.0
 20
0.0
 11
0.0
 21
0.0
 12
0.0
 22
0.0
 32
0.0
 14
0.0
 24
0.0
 34
0.0
 15
0.0
 25
0.0
 35
0.0
146
0.0
 13
0.0
 23
0.0
 33
0.0
 16
1.0
 26
0.0
 36
0.0
 17
0.0
 27
1.0
 37
0.0
 76
     0
330
23
  0
LAYOUT
  5
22
102
{ACAD_REACTORS
330
1A
102
}
330
1A
100
AcDbPlotSettings
  1

  2
none_device
  4

  6

 40
0.0
 41
0.0
 42
0.0
 43
0.0
 44
0.0
 45
0.0
 46
0.0
 47
0.0
 48
0.0
 49
0.0
140
0.0
141
0.0
142
1.0
143
1.0
 70
  1712
 72
     0
 73
     0
 74
     0
  7

 75
     0
147
1.0
 76
     0
 77
     2
 78
   300
148
0.0
149
0.0
100
AcDbLayout
  1
Model
 70
     1
 71
     0
 10
0.0
 20
0.0
 11
12.0
 21
9.0
 12
0.0
 22
0.0
 32
0.0
 14
-568.0653580447388
 24
0.0056829654102008
 34
0.0
 15
-461.1205164753232
 25
392.3105181168643
 35
0.0
146
0.0
 13
0.0
 23
0.0
 33
0.0
 16
1.0
 26
0.0
 36
0.0
 17
0.0
 27
1.0
 37
0.0
 76
     0
330
1F
  0
MLINESTYLE
  5
18
102
{ACAD_REACTORS
330
17
102
}
330
17
100
AcDbMlineStyle
  2
STANDARD
 70
     0
  3

 62
   256
 51
90.0
 52
90.0
 71
     2
 49
0.5
 62
   256
  6
BYLAYER
 49
-0.5
 62
   256
  6
BYLAYER
  0
ACDBPLACEHOLDER
  5
F
102
{ACAD_REACTORS
330
E
102
}
330
E
  0
TABLESTYLE
  5
326
102
{ACAD_REACTORS
330
325
102
}
330
325
100
AcDbTableStyle
  3
Standard
 70
     0
 71
     0
 40
0.06
 41
0.06
280
     0
281
     0
  7
Standard
140
0.18
170
     2
 62
     0
 63
     7
283
     0
274
    -2
284
     1
 64
     0
275
    -2
285
     1
 65
     0
276
    -2
286
     1
 66
     0
277
    -2
287
     1
 67
     0
278
    -2
288
     1
 68
     0
279
    -2
289
     1
 69
     0
  7
Standard
140
0.25
170
     5
 62
     0
 63
     7
283
     0
274
    -2
284
     1
 64
     0
275
    -2
285
     1
 65
     0
276
    -2
286
     1
 66
     0
277
    -2
287
     1
 67
     0
278
    -2
288
     1
 68
     0
279
    -2
289
     1
 69
     0
  7
Standard
140
0.18
170
     5
 62
     0
 63
     7
283
     0
274
    -2
284
     1
 64
     0
275
    -2
285
     1
 65
     0
276
    -2
286
     1
 66
     0
277
    -2
287
     1
 67
     0
278
    -2
288
     1
 68
     0
279
    -2
289
     1
 69
     0
  0
DICTIONARYVAR
  5
32C
102
{ACAD_REACTORS
330
32B
102
}
330
32B
100
DictionaryVariables
280
     0
  1
STANDARD
  0
ENDSEC
  0
EOF
