  0
SECTION
  2
HEADER
  9
$ACADVER
  1
AC1015
  9
$ACADMAINTVER
 70
     6
  9
$DWGCODEPAGE
  3
ANSI_1252
  9
$INSBASE
 10
0.0
 20
0.0
 30
0.0
  9
$EXTMIN
 10
254.7949494705709
 20
4.490861651634987
 30
0.0
  9
$EXTMAX
 10
621.0092804497433
 20
253.6710528542477
 30
0.0
  9
$LIMMIN
 10
0.0
 20
0.0
  9
$LIMMAX
 10
12.0
 20
9.0
  9
$ORTHOMODE
 70
     0
  9
$REGENMODE
 70
     1
  9
$FILLMODE
 70
     1
  9
$QTEXTMODE
 70
     0
  9
$MIRRTEXT
 70
     1
  9
$LTSCALE
 40
1.0
  9
$ATTMODE
 70
     1
  9
$TEXTSIZE
 40
0.2
  9
$TRACEWID
 40
0.05
  9
$TEXTSTYLE
  7
Standard
  9
$CLAYER
  8
0
  9
$CELTYPE
  6
ByLayer
  9
$CECOLOR
 62
   256
  9
$CELTSCALE
 40
1.0
  9
$DISPSILH
 70
     0
  9
$DIMSCALE
 40
1.0
  9
$DIMASZ
 40
0.18
  9
$DIMEXO
 40
0.0625
  9
$DIMDLI
 40
0.38
  9
$DIMRND
 40
0.0
  9
$DIMDLE
 40
0.0
  9
$DIMEXE
 40
0.18
  9
$DIMTP
 40
0.0
  9
$DIMTM
 40
0.0
  9
$DIMTXT
 40
0.18
  9
$DIMCEN
 40
0.09
  9
$DIMTSZ
 40
0.0
  9
$DIMTOL
 70
     0
  9
$DIMLIM
 70
     0
  9
$DIMTIH
 70
     1
  9
$DIMTOH
 70
     1
  9
$DIMSE1
 70
     0
  9
$DIMSE2
 70
     0
  9
$DIMTAD
 70
     0
  9
$DIMZIN
 70
     0
  9
$DIMBLK
  1

  9
$DIMASO
 70
     1
  9
$DIMSHO
 70
     1
  9
$DIMPOST
  1

  9
$DIMAPOST
  1

  9
$DIMALT
 70
     0
  9
$DIMALTD
 70
     2
  9
$DIMALTF
 40
25.4
  9
$DIMLFAC
 40
1.0
  9
$DIMTOFL
 70
     0
  9
$DIMTVP
 40
0.0
  9
$DIMTIX
 70
     0
  9
$DIMSOXD
 70
     0
  9
$DIMSAH
 70
     0
  9
$DIMBLK1
  1

  9
$DIMBLK2
  1

  9
$DIMSTYLE
  2
Standard
  9
$DIMCLRD
 70
     0
  9
$DIMCLRE
 70
     0
  9
$DIMCLRT
 70
     0
  9
$DIMTFAC
 40
1.0
  9
$DIMGAP
 40
0.09
  9
$DIMJUST
 70
     0
  9
$DIMSD1
 70
     0
  9
$DIMSD2
 70
     0
  9
$DIMTOLJ
 70
     1
  9
$DIMTZIN
 70
     0
  9
$DIMALTZ
 70
     0
  9
$DIMALTTZ
 70
     0
  9
$DIMUPT
 70
     0
  9
$DIMDEC
 70
     4
  9
$DIMTDEC
 70
     4
  9
$DIMALTU
 70
     2
  9
$DIMALTTD
 70
     2
  9
$DIMTXSTY
  7
Standard
  9
$DIMAUNIT
 70
     0
  9
$DIMADEC
 70
     0
  9
$DIMALTRND
 40
0.0
  9
$DIMAZIN
 70
     0
  9
$DIMDSEP
 70
    46
  9
$DIMATFIT
 70
     3
  9
$DIMFRAC
 70
     0
  9
$DIMLDRBLK
  1

  9
$DIMLUNIT
 70
     2
  9
$DIMLWD
 70
    -2
  9
$DIMLWE
 70
    -2
  9
$DIMTMOVE
 70
     0
  9
$LUNITS
 70
     2
  9
$LUPREC
 70
     3
  9
$SKETCHINC
 40
0.1
  9
$FILLETRAD
 40
0.5
  9
$AUNITS
 70
     0
  9
$AUPREC
 70
     0
  9
$MENU
  1
.
  9
$ELEVATION
 40
0.0
  9
$PELEVATION
 40
0.0
  9
$THICKNESS
 40
0.0
  9
$LIMCHECK
 70
     0
  9
$CHAMFERA
 40
0.5
  9
$CHAMFERB
 40
0.5
  9
$CHAMFERC
 40
1.0
  9
$CHAMFERD
 40
0.0
  9
$SKPOLY
 70
     0
  9
$TDCREATE
 40
2455015.233949606
  9
$TDUCREATE
 40
2455015.44228294
  9
$TDUPDATE
 40
2457800.72246397
  9
$TDUUPDATE
 40
2457800.930797303
  9
$TDINDWG
 40
0.0007463889
  9
$TDUSRTIMER
 40
2457800.930051944
  9
$USRTIMER
 70
     1
  9
$ANGBASE
 50
0.0
  9
$ANGDIR
 70
     0
  9
$PDMODE
 70
     0
  9
$PDSIZE
 40
0.0
  9
$PLINEWID
 40
0.0
  9
$SPLFRAME
 70
     0
  9
$SPLINETYPE
 70
     6
  9
$SPLINESEGS
 70
     8
  9
$HANDSEED
  5
10A
  9
$SURFTAB1
 70
     6
  9
$SURFTAB2
 70
     6
  9
$SURFTYPE
 70
     6
  9
$SURFU
 70
     6
  9
$SURFV
 70
     6
  9
$UCSBASE
  2

  9
$UCSNAME
  2

  9
$UCSORG
 10
0.0
 20
0.0
 30
0.0
  9
$UCSXDIR
 10
1.0
 20
0.0
 30
0.0
  9
$UCSYDIR
 10
0.0
 20
1.0
 30
0.0
  9
$UCSORTHOREF
  2

  9
$UCSORTHOVIEW
 70
     0
  9
$UCSORGTOP
 10
0.0
 20
0.0
 30
0.0
  9
$UCSORGBOTTOM
 10
0.0
 20
0.0
 30
0.0
  9
$UCSORGLEFT
 10
0.0
 20
0.0
 30
0.0
  9
$UCSORGRIGHT
 10
0.0
 20
0.0
 30
0.0
  9
$UCSORGFRONT
 10
0.0
 20
0.0
 30
0.0
  9
$UCSORGBACK
 10
0.0
 20
0.0
 30
0.0
  9
$PUCSBASE
  2

  9
$PUCSNAME
  2

  9
$PUCSORG
 10
0.0
 20
0.0
 30
0.0
  9
$PUCSXDIR
 10
1.0
 20
0.0
 30
0.0
  9
$PUCSYDIR
 10
0.0
 20
1.0
 30
0.0
  9
$PUCSORTHOREF
  2

  9
$PUCSORTHOVIEW
 70
     0
  9
$PUCSORGTOP
 10
0.0
 20
0.0
 30
0.0
  9
$PUCSORGBOTTOM
 10
0.0
 20
0.0
 30
0.0
  9
$PUCSORGLEFT
 10
0.0
 20
0.0
 30
0.0
  9
$PUCSORGRIGHT
 10
0.0
 20
0.0
 30
0.0
  9
$PUCSORGFRONT
 10
0.0
 20
0.0
 30
0.0
  9
$PUCSORGBACK
 10
0.0
 20
0.0
 30
0.0
  9
$USERI1
 70
     0
  9
$USERI2
 70
     0
  9
$USERI3
 70
     0
  9
$USERI4
 70
     0
  9
$USERI5
 70
     0
  9
$USERR1
 40
0.0
  9
$USERR2
 40
0.0
  9
$USERR3
 40
0.0
  9
$USERR4
 40
0.0
  9
$USERR5
 40
0.0
  9
$WORLDVIEW
 70
     1
  9
$SHADEDGE
 70
     3
  9
$SHADEDIF
 70
    70
  9
$TILEMODE
 70
     1
  9
$MAXACTVP
 70
    64
  9
$PINSBASE
 10
0.0
 20
0.0
 30
0.0
  9
$PLIMCHECK
 70
     0
  9
$PEXTMIN
 10
1.000000000000000E+20
 20
1.000000000000000E+20
 30
1.000000000000000E+20
  9
$PEXTMAX
 10
-1.000000000000000E+20
 20
-1.000000000000000E+20
 30
-1.000000000000000E+20
  9
$PLIMMIN
 10
0.0
 20
0.0
  9
$PLIMMAX
 10
0.0
 20
0.0
  9
$UNITMODE
 70
     0
  9
$VISRETAIN
 70
     1
  9
$PLINEGEN
 70
     0
  9
$PSLTSCALE
 70
     1
  9
$TREEDEPTH
 70
  3020
  9
$CMLSTYLE
  2
Standard
  9
$CMLJUST
 70
     0
  9
$CMLSCALE
 40
1.0
  9
$PROXYGRAPHICS
 70
     1
  9
$MEASUREMENT
 70
     0
  9
$CELWEIGHT
370
    -1
  9
$ENDCAPS
280
     0
  9
$JOINSTYLE
280
     0
  9
$LWDISPLAY
290
     0
  9
$INSUNITS
 70
     4
  9
$HYPERLINKBASE
  1

  9
$STYLESHEET
  1

  9
$XEDIT
290
     1
  9
$CEPSNTYPE
380
     0
  9
$PSTYLEMODE
290
     1
  9
$FINGERPRINTGUID
  2
{32414569-5070-4ED8-9FDC-1A501C8FC1E8}
  9
$VERSIONGUID
  2
{FAEB1C32-E019-11D5-929B-00C0DF256EC4}
  9
$EXTNAMES
290
     1
  9
$PSVPSCALE
 40
0.0
  9
$OLESTARTUP
290
     0
  0
ENDSEC
  0
SECTION
  2
CLASSES
  0
CLASS
  1
ACDBDICTIONARYWDFLT
  2
AcDbDictionaryWithDefault
  3
ObjectDBX Classes
 90
        0
280
     0
281
     0
  0
CLASS
  1
VISUALSTYLE
  2
AcDbVisualStyle
  3
ObjectDBX Classes
 90
     4095
280
     0
281
     0
  0
CLASS
  1
SCALE
  2
AcDbScale
  3
ObjectDBX Classes
 90
     1153
280
     0
281
     0
  0
CLASS
  1
MATERIAL
  2
AcDbMaterial
  3
ObjectDBX Classes
 90
     1153
280
     0
281
     0
  0
CLASS
  1
TABLESTYLE
  2
AcDbTableStyle
  3
ObjectDBX Classes
 90
     4095
280
     0
281
     0
  0
CLASS
  1
MLEADERSTYLE
  2
AcDbMLeaderStyle
  3
ACDB_MLEADERSTYLE_CLASS
 90
     4095
280
     0
281
     0
  0
CLASS
  1
SUN
  2
AcDbSun
  3
SCENEOE
 90
     1153
280
     0
281
     0
  0
CLASS
  1
RASTERVARIABLES
  2
AcDbRasterVariables
  3
ISM
 90
        0
280
     0
281
     0
  0
CLASS
  1
ACDBPLACEHOLDER
  2
AcDbPlaceHolder
  3
ObjectDBX Classes
 90
        0
280
     0
281
     0
  0
CLASS
  1
LAYOUT
  2
AcDbLayout
  3
ObjectDBX Classes
 90
        0
280
     0
281
     0
  0
ENDSEC
  0
SECTION
  2
TABLES
  0
TABLE
  2
VPORT
  5
8
330
0
100
AcDbSymbolTable
 70
     1
  0
VPORT
  5
29
330
8
100
AcDbSymbolTableRecord
100
AcDbViewportTableRecord
  2
*Active
 70
     0
 10
0.0
 20
0.0
 11
1.0
 21
1.0
 12
44.17855435476628
 22
-2.651118012127512
 13
0.0
 23
0.0
 14
0.5
 24
0.5
 15
0.5
 25
0.5
 16
0.0
 26
0.0
 36
1.0
 17
437.9021149601072
 27
129.071283986108
 37
0.0
 40
317.7294106137563
 41
1.890445859872612
 42
50.0
 43
0.0
 44
0.0
 50
0.0
 51
0.0
 71
    16
 72
   100
 73
     1
 74
     3
 75
     0
 76
     0
 77
     0
 78
     0
281
     0
 65
     1
110
0.0
120
0.0
130
0.0
111
1.0
121
0.0
131
0.0
112
0.0
122
1.0
132
0.0
 79
     0
146
0.0
  0
ENDTAB
  0
TABLE
  2
LTYPE
  5
5
330
0
100
AcDbSymbolTable
 70
     1
  0
LTYPE
  5
14
330
5
100
AcDbSymbolTableRecord
100
AcDbLinetypeTableRecord
  2
ByBlock
 70
     0
  3

 72
    65
 73
     0
 40
0.0
  0
LTYPE
  5
15
330
5
100
AcDbSymbolTableRecord
100
AcDbLinetypeTableRecord
  2
ByLayer
 70
     0
  3

 72
    65
 73
     0
 40
0.0
  0
LTYPE
  5
16
330
5
100
AcDbSymbolTableRecord
100
AcDbLinetypeTableRecord
  2
Continuous
 70
     0
  3
Solid line
 72
    65
 73
     0
 40
0.0
  0
ENDTAB
  0
TABLE
  2
LAYER
  5
2
330
0
100
AcDbSymbolTable
 70
     2
  0
LAYER
  5
10
330
2
100
AcDbSymbolTableRecord
100
AcDbLayerTableRecord
  2
0
 70
     0
 62
     7
  6
Continuous
370
    -3
390
F
  0
LAYER
  5
2A
330
2
100
AcDbSymbolTableRecord
100
AcDbLayerTableRecord
  2
LINEE VISIBILI 2D
 70
     0
 62
     7
  6
Continuous
370
    -3
390
F
  0
ENDTAB
  0
TABLE
  2
STYLE
  5
3
330
0
100
AcDbSymbolTable
 70
     1
  0
STYLE
  5
11
330
3
100
AcDbSymbolTableRecord
100
AcDbTextStyleTableRecord
  2
Standard
 70
     0
 40
0.0
 41
1.0
 50
0.0
 71
     0
 42
0.2
  3
txt
  4

  0
ENDTAB
  0
TABLE
  2
VIEW
  5
6
330
0
100
AcDbSymbolTable
 70
     0
  0
ENDTAB
  0
TABLE
  2
UCS
  5
7
330
0
100
AcDbSymbolTable
 70
     0
  0
ENDTAB
  0
TABLE
  2
APPID
  5
9
330
0
100
AcDbSymbolTable
 70
     1
  0
APPID
  5
12
330
9
100
AcDbSymbolTableRecord
100
AcDbRegAppTableRecord
  2
ACAD
 70
     0
  0
ENDTAB
  0
TABLE
  2
DIMSTYLE
  5
A
330
0
100
AcDbSymbolTable
 70
     1
100
AcDbDimStyleTable
  0
DIMSTYLE
105
27
330
A
100
AcDbSymbolTableRecord
100
AcDbDimStyleTableRecord
  2
Standard
 70
     0
178
     0
340
11
  0
ENDTAB
  0
TABLE
  2
BLOCK_RECORD
  5
1
330
0
100
AcDbSymbolTable
 70
     1
  0
BLOCK_RECORD
  5
1F
330
1
100
AcDbSymbolTableRecord
100
AcDbBlockTableRecord
  2
*Model_Space
340
22
  0
BLOCK_RECORD
  5
1B
330
1
100
AcDbSymbolTableRecord
100
AcDbBlockTableRecord
  2
*Paper_Space
340
1E
  0
BLOCK_RECORD
  5
23
330
1
100
AcDbSymbolTableRecord
100
AcDbBlockTableRecord
  2
*Paper_Space0
340
26
  0
ENDTAB
  0
ENDSEC
  0
SECTION
  2
BLOCKS
  0
BLOCK
  5
20
330
1F
100
AcDbEntity
  8
0
100
AcDbBlockBegin
  2
*Model_Space
 70
     0
 10
0.0
 20
0.0
 30
0.0
  3
*Model_Space
  1

  0
ENDBLK
  5
21
330
1F
100
AcDbEntity
  8
0
100
AcDbBlockEnd
  0
BLOCK
  5
1C
330
1B
100
AcDbEntity
 67
     1
  8
0
100
AcDbBlockBegin
  2
*Paper_Space
 70
     0
 10
0.0
 20
0.0
 30
0.0
  3
*Paper_Space
  1

  0
ENDBLK
  5
1D
330
1B
100
AcDbEntity
 67
     1
  8
0
100
AcDbBlockEnd
  0
BLOCK
  5
24
330
23
100
AcDbEntity
  8
0
100
AcDbBlockBegin
  2
*Paper_Space0
 70
     0
 10
0.0
 20
0.0
 30
0.0
  3
*Paper_Space0
  1

  0
ENDBLK
  5
25
330
23
100
AcDbEntity
  8
0
100
AcDbBlockEnd
  0
ENDSEC
  0
SECTION
  2
ENTITIES
  0
SPLINE
  5
2B
330
1F
100
AcDbEntity
  8
LINEE VISIBILI 2D
100
AcDbSpline
210
0.0
220
0.0
230
1.0
 70
    12
 71
     2
 72
     6
 73
     3
 74
     0
 42
0.000000001
 43
0.0000000001
 40
0.0
 40
0.0
 40
0.0
 40
0.1065841126673617
 40
0.1065841126673617
 40
0.1065841126673617
 10
532.2055593012184
 20
77.08737591494
 30
0.0
 41
1.0
 10
532.2540093467496
 20
77.0651802387912
 30
0.0
 41
0.9999969146521165
 10
532.3023485227175
 20
77.0427441290922
 30
0.0
 41
1.0
  0
SPLINE
  5
2C
330
1F
100
AcDbEntity
  8
LINEE VISIBILI 2D
100
AcDbSpline
210
0.0
220
0.0
230
1.0
 70
     8
 71
     3
 72
    12
 73
     8
 74
     0
 42
0.000000001
 43
0.0000000001
 40
0.0
 40
0.0
 40
0.0
 40
0.0
 40
1.319046898674486
 40
2.421763415439877
 40
4.45648956173268
 40
6.040292884195435
 40
7.513827861530053
 40
7.513827861530053
 40
7.513827861530053
 40
7.513827861530053
 10
532.2059902444182
 20
77.0883200668249
 30
0.0
 10
531.8058188688224
 20
77.2703764994385
 30
0.0
 10
531.0620334120345
 20
77.58550478064228
 30
0.0
 10
529.6572882498665
 20
78.07045473803385
 30
0.0
 10
528.1165749425882
 20
78.42021264172587
 30
0.0
 10
526.4007473189201
 20
78.39459263991853
 30
0.0
 10
525.4339243759
 20
78.01146760409293
 30
0.0
 10
525.0246504394054
 20
77.74039551891943
 30
0.0
  0
SPLINE
  5
2D
330
1F
100
AcDbEntity
  8
LINEE VISIBILI 2D
100
AcDbSpline
210
0.0
220
0.0
230
1.0
 70
    12
 71
     3
 72
    52
 73
    48
 74
     0
 42
0.000000001
 43
0.0000000001
 40
0.0
 40
0.0
 40
0.0
 40
0.0
 40
2.070307630601472
 40
2.070307630601472
 40
2.070307630601472
 40
3.158793796847732
 40
3.158793796847732
 40
3.158793796847732
 40
4.574688291066973
 40
6.303212270635854
 40
10.26576223368943
 40
14.02406657711611
 40
15.66987469402613
 40
16.98938711298139
 40
16.98938711298139
 40
16.98938711298139
 40
17.81365602288713
 40
17.81365602288713
 40
17.81365602288713
 40
18.80119628664302
 40
18.80119628664302
 40
18.80119628664302
 40
19.84958785812546
 40
19.84958785812546
 40
19.84958785812546
 40
20.7633501847765
 40
20.7633501847765
 40
20.7633501847765
 40
21.90627050626344
 40
21.90627050626344
 40
21.90627050626344
 40
22.02730318156705
 40
22.02730318156705
 40
22.02730318156705
 40
22.13010651351397
 40
22.13010651351397
 40
22.13010651351397
 40
22.21024645331696
 40
22.21024645331696
 40
22.21024645331696
 40
22.31436994565539
 40
22.31436994565539
 40
22.31436994565539
 40
22.78546557287691
 40
22.78546557287691
 40
22.78546557287691
 40
24.57152288403484
 40
24.57152288403484
 40
24.57152288403484
 40
24.57152288403484
 10
537.6938547956714
 20
64.37089987947496
 30
0.0
 41
1.0
 10
537.1118432610814
 20
63.98583110870829
 30
0.0
 41
0.9779508481571784
 10
536.4508669013505
 20
63.76194355547629
 30
0.0
 41
0.9779508481571786
 10
535.7546476208389
 20
63.7140468117498
 30
0.0
 41
1.0
 10
535.3925306974687
 20
63.68464672208894
 30
0.0
 41
0.9973618905194546
 10
535.0292338131964
 20
63.68754591872474
 30
0.0
 41
0.9973618905194545
 10
534.6676322188858
 20
63.72272145646286
 30
0.0
 41
1.0
 10
534.1971599030551
 20
63.76596904770545
 30
0.0
 41
1.0
 10
533.1653256666134
 20
63.96211562513031
 30
0.0
 41
1.0
 10
530.914269117095
 20
64.7171719639966
 30
0.0
 41
1.0
 10
528.0957360412208
 20
66.14325490110863
 30
0.0
 41
1.0
 10
525.5257473197378
 20
67.93268085206188
 30
0.0
 41
1.0
 10
523.9048419693669
 20
69.49004443754279
 30
0.0
 41
1.0
 10
523.3079893413103
 20
70.28191078700064
 30
0.0
 41
1.0
 10
523.0771635705073
 20
70.65640963406946
 30
0.0
 41
1.0
 10
522.932893578269
 20
70.89053652721734
 30
0.0
 41
0.9981730783684948
 10
522.8063399884271
 20
71.13469512660222
 30
0.0
 41
0.998173078368495
 10
522.6981964114535
 20
71.38754725634382
 30
0.0
 41
1.0
 10
522.567639142681
 20
71.69059567300468
 30
0.0
 41
0.9951908703017518
 10
522.4743583473917
 20
72.00711144907304
 30
0.0
 41
0.9951908703017519
 10
522.4196998239146
 20
72.33252808829312
 30
0.0
 41
1.0
 10
522.3641033811239
 20
72.67868258413199
 30
0.0
 41
0.9935877598146041
 10
522.3569365192732
 20
73.02920010941675
 30
0.0
 41
0.9935877598146032
 10
522.3983371052818
 20
73.37733785646321
 30
0.0
 41
1.0
 10
522.4349424580283
 20
73.68022835857403
 30
0.0
 41
0.9966809663944312
 10
522.501551939408
 20
73.97796277900426
 30
0.0
 41
0.9966809663944312
 10
522.5975023120992
 20
74.2675765461133
 30
0.0
 41
1.0
 10
522.7184884788934
 20
74.6292905209146
 30
0.0
 41
0.9977056149785279
 10
522.8690419523659
 20
74.97973067807071
 30
0.0
 41
0.9977056149785285
 10
523.048126449613
 20
75.3164848836389
 30
0.0
 41
1.0
 10
523.0668011392083
 20
75.35224695824475
 30
0.0
 41
0.9999916982216928
 10
523.0856540672081
 20
75.38791539131122
 30
0.0
 41
0.9999916982216925
 10
523.1046847640741
 20
75.42348929450421
 30
0.0
 41
1.0
 10
523.1208495178597
 20
75.45370500327164
 30
0.0
 41
0.9999933925078186
 10
523.1371486388066
 20
75.48384844331443
 30
0.0
 41
0.9999933925078182
 10
523.1535818038267
 20
75.51391901711492
 30
0.0
 41
1.0
 10
523.1663925000106
 20
75.53736022582423
 30
0.0
 41
0.9999956604336151
 10
523.1792876919112
 20
75.56075505919227
 30
0.0
 41
0.9999956604336142
 10
523.19226721165
 20
75.58410321264861
 30
0.0
 41
1.0
 10
523.2091307217252
 20
75.61443908366998
 30
0.0
 41
0.9999920928798204
 10
523.2261417809336
 20
75.64469246211426
 30
0.0
 41
0.9999920928798204
 10
523.2432999857497
 20
75.67486263033021
 30
0.0
 41
1.0
 10
523.3208407367023
 20
75.81143302564709
 30
0.0
 41
0.9997960276339567
 10
523.4017358411338
 20
75.94604366049548
 30
0.0
 41
0.9997960276339568
 10
523.4859357979473
 20
76.07861216432622
 30
0.0
 41
1.0
 10
523.7988123212729
 20
76.58764281538114
 30
0.0
 41
0.9928385940354811
 10
524.1827383964308
 20
77.04546886463514
 30
0.0
 41
0.9928385940354816
 10
524.6294656719675
 20
77.4422542774887
 30
0.0
 41
1.0
  0
SPLINE
  5
2E
330
1F
100
AcDbEntity
  8
LINEE VISIBILI 2D
100
AcDbSpline
210
0.0
220
0.0
230
1.0
 70
     8
 71
     3
 72
    19
 73
    15
 74
     0
 42
0.000000001
 43
0.0000000001
 40
0.0
 40
0.0
 40
0.0
 40
0.0
 40
1.787734319846896
 40
2.413408427430455
 40
3.084671704267044
 40
4.072069997606856
 40
4.856886807969616
 40
5.642396123893784
 40
7.202522796715905
 40
9.115677954645802
 40
11.46068578637048
 40
14.25688124369738
 40
15.79907604946886
 40
17.33900941038323
 40
17.33900941038323
 40
17.33900941038323
 40
17.33900941038323
 10
537.6938547956714
 20
64.37089987947496
 30
0.0
 10
538.1852203995319
 20
64.71101732921548
 30
0.0
 10
538.7414256996117
 20
65.30625457730369
 30
0.0
 10
539.298392903943
 20
66.17062502439893
 30
0.0
 10
539.6758078814398
 20
66.83210893493018
 30
0.0
 10
540.0160793626588
 20
67.57461641349826
 30
0.0
 10
540.2504848434642
 20
68.39581172661104
 30
0.0
 10
540.3594397353434
 20
69.44163635700102
 30
0.0
 10
540.0260553357189
 20
70.8511498752269
 30
0.0
 10
538.9192826860578
 20
72.47112326721364
 30
0.0
 10
537.2011927253396
 20
74.08326155370327
 30
0.0
 10
535.3724512994015
 20
75.36731531351813
 30
0.0
 10
533.6859793806261
 20
76.3626938762001
 30
0.0
 10
532.7680378144985
 20
76.82767619948743
 30
0.0
 10
532.3028448734863
 20
77.04381790309904
 30
0.0
  0
SPLINE
  5
2F
330
1F
100
AcDbEntity
  8
LINEE VISIBILI 2D
100
AcDbSpline
210
0.0
220
0.0
230
1.0
 70
    12
 71
     2
 72
     6
 73
     3
 74
     0
 42
0.000000001
 43
0.0000000001
 40
0.0
 40
0.0
 40
0.0
 40
2.591041599246102
 40
2.591041599246102
 40
2.591041599246102
 10
511.5858153798729
 20
54.48574053473973
 30
0.0
 41
1.0
 10
512.3633791167264
 20
53.44861418451221
 30
0.0
 41
0.9991687149065667
 10
513.2228474277179
 20
52.47827885401676
 30
0.0
 41
1.0
  0
SPLINE
  5
30
330
1F
100
AcDbEntity
  8
LINEE VISIBILI 2D
100
AcDbSpline
210
0.0
220
0.0
230
1.0
 70
     8
 71
     3
 72
    23
 73
    19
 74
     0
 42
0.000000001
 43
0.0000000001
 40
0.0
 40
0.0
 40
0.0
 40
0.0
 40
6.016381023090859
 40
12.00856185484549
 40
24.61994477024077
 40
36.93474202695528
 40
42.62515364294375
 40
48.65258320169771
 40
55.23788801048185
 40
62.46598178099691
 40
69.66455977229032
 40
75.98924643801425
 40
78.68452277738675
 40
81.09318303593662
 40
83.49816574661969
 40
85.75518352851994
 40
90.73889073828597
 40
96.10255579857629
 40
96.10255579857629
 40
96.10255579857629
 40
96.10255579857629
 10
572.7302493143324
 20
82.87322698232279
 30
0.0
 10
571.447036080571
 20
84.4149743211903
 30
0.0
 10
568.5596909327865
 20
87.21493570209913
 30
0.0
 10
561.7031263782433
 20
91.77924926808825
 30
0.0
 10
551.9012893584489
 20
95.33271110356227
 30
0.0
 10
541.6021337606892
 20
95.92096365332205
 30
0.0
 10
533.6962894861231
 20
94.41163184026905
 30
0.0
 10
527.9652897837827
 20
92.27008367724198
 30
0.0
 10
522.2343768884405
 20
88.91431260333303
 30
0.0
 10
516.8556090108339
 20
84.39404282333476
 30
0.0
 10
512.2810406651295
 20
79.17825588569752
 30
0.0
 10
509.464184623609
 20
74.53157015864059
 30
0.0
 10
508.1033243362008
 20
70.96177329353011
 30
0.0
 10
507.5368573500174
 20
68.51905469367347
 30
0.0
 10
507.312973145867
 20
66.16736919595189
 30
0.0
 10
507.4922245630556
 20
62.94521944502748
 30
0.0
 10
508.6946104519303
 20
58.87450459007954
 30
0.0
 10
510.512956152219
 20
55.91462112451575
 30
0.0
 10
511.5858153798729
 20
54.4857405347397
 30
0.0
  0
SPLINE
  5
31
330
1F
100
AcDbEntity
  8
LINEE VISIBILI 2D
100
AcDbSpline
210
0.0
220
0.0
230
1.0
 70
    12
 71
     2
 72
     6
 73
     3
 74
     0
 42
0.000000001
 43
0.0000000001
 40
0.0
 40
0.0
 40
0.0
 40
0.4953614749904268
 40
0.4953614749904268
 40
0.4953614749904268
 10
525.0246504394055
 20
77.74039551891943
 30
0.0
 41
1.0
 10
524.8176640421921
 20
77.60377661746394
 30
0.0
 41
0.9980203104060215
 10
524.6294656719675
 20
77.4422542774887
 30
0.0
 41
1.0
  0
SPLINE
  5
32
330
1F
100
AcDbEntity
  8
LINEE VISIBILI 2D
100
AcDbSpline
210
0.0
220
0.0
230
1.0
 70
     8
 71
     3
 72
    18
 73
    14
 74
     0
 42
0.000000001
 43
0.0000000001
 40
0.0
 40
0.0
 40
0.0
 40
0.0
 40
0.7340672357260121
 40
1.541229869169334
 40
2.474297652427583
 40
3.587853333525945
 40
6.42794993401052
 40
9.496624069026968
 40
12.13743142056761
 40
14.46914631073624
 40
16.2169683125028
 40
16.9609388456417
 40
17.65850249802007
 40
17.65850249802007
 40
17.65850249802007
 40
17.65850249802007
 10
324.9500650697764
 20
8.820868092623105
 30
0.0
 10
324.9425688249664
 20
8.576442567412752
 30
0.0
 10
324.8241103595096
 20
8.066975532131131
 30
0.0
 10
324.3698197687502
 20
7.367339660388887
 30
0.0
 10
323.6656067739476
 20
6.721185618911667
 30
0.0
 10
322.275537329662
 20
5.858196364424849
 30
0.0
 10
320.0717184389509
 20
5.039056278358763
 30
0.0
 10
317.2700493745483
 20
4.468720735876953
 30
0.0
 10
314.5763050169689
 20
4.43307199348843
 30
0.0
 10
312.3664991105047
 20
4.891805441249559
 30
0.0
 10
310.9424100691606
 20
5.703590296802098
 30
0.0
 10
310.3373170620667
 20
6.618915704798434
 30
0.0
 10
310.239150897833
 20
7.086900220610165
 30
0.0
 10
310.2332994602673
 20
7.323213831955633
 30
0.0
  0
SPLINE
  5
33
330
1F
100
AcDbEntity
  8
LINEE VISIBILI 2D
100
AcDbSpline
210
0.0
220
0.0
230
1.0
 70
    12
 71
     3
 72
    12
 73
     8
 74
     0
 42
0.000000001
 43
0.0000000001
 40
0.4440958013490933
 40
0.4440958013490933
 40
0.4440958013490933
 40
0.4440958013490933
 40
0.46221743336543
 40
0.46221743336543
 40
0.481108716682715
 40
0.481108716682715
 40
0.5
 40
0.5
 40
0.5
 40
0.5
 10
324.9517920388542
 20
8.913726869665405
 30
0.0
 41
330.5029361874672
 10
324.9557596797745
 20
8.981435256517942
 30
0.0
 41
330.2552988515346
 10
324.9372698950903
 20
9.049048366789313
 30
0.0
 41
330.008190844807
 10
324.8081271126609
 20
9.220911389587416
 30
0.0
 41
329.3863313662839
 10
324.6829122312858
 20
9.319174499556182
 30
0.0
 41
329.0379096060386
 10
324.3286208813569
 20
9.499885836412817
 30
0.0
 41
328.4009823772873
 10
324.1004612671542
 20
9.581731743787856
 30
0.0
 41
328.1107610840011
 10
323.9050570990916
 20
9.640867740561296
 30
0.0
 41
327.895112762451
  0
SPLINE
  5
34
330
1F
100
AcDbEntity
  8
LINEE VISIBILI 2D
100
AcDbSpline
210
0.0
220
0.0
230
1.0
 70
     8
 71
     3
 72
    12
 73
     8
 74
     0
 42
0.000000001
 43
0.0000000001
 40
0.0
 40
0.0
 40
0.0
 40
0.0
 40
0.9873058518217075
 40
1.990471347586236
 40
3.911989225668482
 40
5.831876780499338
 40
7.291560257508601
 40
7.291560257508601
 40
7.291560257508601
 40
7.291560257508601
 10
314.1152278200793
 20
10.55029643289289
 30
0.0
 10
314.4256395995155
 20
10.65956946033116
 30
0.0
 10
315.0585650958312
 20
10.8596903370203
 30
0.0
 10
316.3192228068743
 20
11.19377359638141
 30
0.0
 10
317.9074368090073
 20
11.49727785527174
 30
0.0
 10
319.6692541471296
 20
11.65606494077295
 30
0.0
 10
320.7978399819151
 20
11.64440065077509
 30
0.0
 10
321.2811182854036
 20
11.58211821912185
 30
0.0
  0
SPLINE
  5
35
330
1F
100
AcDbEntity
  8
LINEE VISIBILI 2D
100
AcDbSpline
210
0.0
220
0.0
230
1.0
 70
    12
 71
     2
 72
     6
 73
     3
 74
     0
 42
0.000000001
 43
0.0000000001
 40
0.0
 40
0.0
 40
0.0
 40
0.0188864143907721
 40
0.0188864143907721
 40
0.0188864143907721
 10
321.8813981690127
 20
11.48261137807334
 30
0.0
 41
1.0
 10
321.8906474921681
 20
11.48070263379918
 30
0.0
 41
0.999839212920858
 10
321.8999593104277
 20
11.47912677713186
 30
0.0
 41
1.0
  0
SPLINE
  5
36
330
1F
100
AcDbEntity
  8
LINEE VISIBILI 2D
100
AcDbSpline
210
0.0
220
0.0
230
1.0
 70
     8
 71
     3
 72
    17
 73
    13
 74
     0
 42
0.000000001
 43
0.0000000001
 40
0.0
 40
0.0
 40
0.0
 40
0.0
 40
8.120503875662703
 40
16.20124636028586
 40
24.49491999659735
 40
31.91297964862012
 40
38.98217452509777
 40
45.25392536082318
 40
47.82812600112936
 40
50.03538239266281
 40
51.91316378075161
 40
53.35078683362362
 40
53.35078683362362
 40
53.35078683362362
 40
53.35078683362362
 10
347.7502114666814
 20
65.85867137148156
 30
0.0
 10
350.4334921238328
 20
66.21859654941039
 30
0.0
 10
355.8260385545833
 20
66.61763666053595
 30
0.0
 10
363.998083560185
 20
66.42588778464287
 30
0.0
 10
371.8839442807663
 20
65.51387876886214
 30
0.0
 10
379.3259629734282
 20
63.9575823675838
 30
0.0
 10
385.9306277366891
 20
61.8658001887964
 30
0.0
 10
390.7551928805264
 20
59.61267969379384
 30
0.0
 10
393.7887782568383
 20
57.50246524917402
 30
0.0
 10
395.3902753781553
 20
55.95321260461242
 30
0.0
 10
396.4078032425512
 20
54.39849507172804
 30
0.0
 10
396.695729817957
 20
53.31377504917864
 30
0.0
 10
396.7331889395244
 20
52.83660398559295
 30
0.0
  0
SPLINE
  5
37
330
1F
100
AcDbEntity
  8
LINEE VISIBILI 2D
100
AcDbSpline
210
0.0
220
0.0
230
1.0
 70
     8
 71
     3
 72
    16
 73
    12
 74
     0
 42
0.000000001
 43
0.0000000001
 40
0.0
 40
0.0
 40
0.0
 40
0.0
 40
0.8214952224524477
 40
1.572238887854842
 40
1.943523850824074
 40
2.197144954250691
 40
2.258911063112012
 40
3.150914860963225
 40
4.072922825871633
 40
4.376843563583735
 40
4.599940886755709
 40
4.599940886755709
 40
4.599940886755709
 40
4.599940886755709
 10
320.6944758948714
 20
10.00942284331653
 30
0.0
 10
320.9681236645298
 20
10.00250260191486
 30
0.0
 10
321.4920369515122
 20
9.976342425428111
 30
0.0
 10
322.1358754217863
 20
9.905030972225736
 30
0.0
 10
322.5897303004343
 20
9.836706506858892
 30
0.0
 10
322.8147377044785
 20
9.797492603633987
 30
0.0
 10
323.2116639076126
 20
9.725791880151455
 30
0.0
 10
323.8179957726227
 20
9.58347128311907
 30
0.0
 10
324.4975136848134
 20
9.367857110717344
 30
0.0
 10
324.8858442442645
 20
9.06706281300613
 30
0.0
 10
324.9553288964588
 20
8.895753321341783
 30
0.0
 10
324.9509583916904
 20
8.82083753412822
 30
0.0
  0
SPLINE
  5
38
330
1F
100
AcDbEntity
  8
LINEE VISIBILI 2D
100
AcDbSpline
210
0.0
220
0.0
230
1.0
 70
    12
 71
     2
 72
     6
 73
     3
 74
     0
 42
0.000000001
 43
0.0000000001
 40
0.0
 40
0.0
 40
0.0
 40
0.0413737080040806
 40
0.0413737080040806
 40
0.0413737080040806
 10
321.7704202709292
 20
11.504743904869
 30
0.0
 41
1.0
 10
321.7907517235712
 20
11.50092286159666
 30
0.0
 41
0.999960727673248
 10
321.8110122574327
 20
11.49674205953615
 30
0.0
 41
1.0
  0
SPLINE
  5
39
330
1F
100
AcDbEntity
  8
LINEE VISIBILI 2D
100
AcDbSpline
210
0.0
220
0.0
230
1.0
 70
     8
 71
     3
 72
    12
 73
     8
 74
     0
 42
0.000000001
 43
0.0000000001
 40
0.0
 40
0.0
 40
0.0
 40
0.0
 40
1.558599035740995
 40
3.300612027900579
 40
7.488874758326797
 40
12.82635463065186
 40
19.37972799157036
 40
19.37972799157036
 40
19.37972799157036
 40
19.37972799157036
 10
576.3697442108291
 20
244.8213223546206
 30
0.0
 10
575.9699769285621
 20
244.488845550184
 30
0.0
 10
575.0621478994835
 20
243.862826082891
 30
0.0
 10
572.8048858535583
 20
242.776625201501
 30
0.0
 10
569.1661789182346
 20
241.7853308473331
 30
0.0
 10
563.8449343528321
 20
241.0982475602371
 30
0.0
 10
559.8805424428269
 20
240.9412730275652
 30
0.0
 10
557.6966824987192
 20
240.9167130976734
 30
0.0
  0
SPLINE
  5
3A
330
1F
100
AcDbEntity
  8
LINEE VISIBILI 2D
100
AcDbSpline
210
0.0
220
0.0
230
1.0
 70
     8
 71
     3
 72
    12
 73
     8
 74
     0
 42
0.000000001
 43
0.0000000001
 40
0.0
 40
0.0
 40
0.0
 40
0.0
 40
3.595872705184358
 40
8.470432986082086
 40
15.76912858062816
 40
21.42463337041441
 40
25.91831117237607
 40
25.91831117237607
 40
25.91831117237607
 40
25.91831117237607
 10
317.8018507701951
 20
240.9144836544268
 30
0.0
 10
316.6031726155368
 20
240.9242476305483
 30
0.0
 10
313.780932750292
 20
241.0124747289227
 30
0.0
 10
308.5300786193638
 20
241.2549269598016
 30
0.0
 10
302.6009824657284
 20
241.677992279652
 30
0.0
 10
296.828445603305
 20
242.4154504750838
 30
0.0
 10
293.5188386399327
 20
243.1382309805961
 30
0.0
 10
292.0837092392164
 20
243.5695321908547
 30
0.0
  0
SPLINE
  5
3B
330
1F
100
AcDbEntity
  8
LINEE VISIBILI 2D
100
AcDbSpline
210
0.0
220
0.0
230
1.0
 70
    12
 71
     2
 72
     6
 73
     3
 74
     0
 42
0.000000001
 43
0.0000000001
 40
0.0
 40
0.0
 40
0.0
 40
0.06806657759818
 40
0.06806657759818
 40
0.06806657759818
 10
321.8110122574327
 20
11.49674205953615
 30
0.0
 41
1.0
 10
321.844344103634
 20
11.48986658991997
 30
0.0
 41
0.9999874984307883
 10
321.8777430409814
 20
11.48332479829246
 30
0.0
 41
1.0
  0
SPLINE
  5
3C
330
1F
100
AcDbEntity
  8
LINEE VISIBILI 2D
100
AcDbSpline
210
0.0
220
0.0
230
1.0
 70
     8
 71
     3
 72
    15
 73
    11
 74
     0
 42
0.000000001
 43
0.0000000001
 40
0.0
 40
0.0
 40
0.0
 40
0.0
 40
4.628069735133645
 40
8.494078222664474
 40
11.69674598618919
 40
14.35881096998967
 40
16.60431497570545
 40
18.64761322935527
 40
20.65798890581176
 40
23.10124294270918
 40
23.10124294270918
 40
23.10124294270918
 40
23.10124294270918
 10
311.5308075141158
 20
25.00878700702712
 30
0.0
 10
310.0076287570184
 20
25.25314650316383
 30
0.0
 10
307.2219584367205
 20
25.76649750187924
 30
0.0
 10
303.4411856086923
 20
26.73104216930085
 30
0.0
 10
300.3871927273055
 20
27.84045531118887
 30
0.0
 10
297.9981079208799
 20
29.1263967456417
 30
0.0
 10
296.216633170106
 20
30.63479942565935
 30
0.0
 10
295.0432428739581
 20
32.40679081719254
 30
0.0
 10
294.4653553283478
 20
34.52037772088712
 30
0.0
 10
294.4849429714114
 20
36.01510787647614
 30
0.0
 10
294.519180626968
 20
36.82730379262768
 30
0.0
  0
SPLINE
  5
3D
330
1F
100
AcDbEntity
  8
LINEE VISIBILI 2D
100
AcDbSpline
210
0.0
220
0.0
230
1.0
 70
     8
 71
     3
 72
    16
 73
    12
 74
     0
 42
0.000000001
 43
0.0000000001
 40
0.0
 40
0.0
 40
0.0
 40
0.0
 40
1.564076501313789
 40
2.566723571754977
 40
4.454532331715959
 40
6.517110380270787
 40
9.125726362304222
 40
12.88333448398568
 40
17.36841194638754
 40
22.0910899748162
 40
27.40007021310971
 40
27.40007021310971
 40
27.40007021310971
 40
27.40007021310971
 10
315.1137745560971
 20
49.53198134112431
 30
0.0
 10
315.0853337330983
 20
49.0144808901399
 30
0.0
 10
315.0605780636874
 20
48.15095239402267
 30
0.0
 10
314.8511571942122
 20
46.68866837480751
 30
0.0
 10
314.1910374286476
 20
45.12146965627187
 30
0.0
 10
312.4711426597266
 20
43.70308012957205
 30
0.0
 10
309.8848654948836
 20
42.57833078319467
 30
0.0
 10
306.3610873131654
 20
41.71802229748328
 30
0.0
 10
302.0676336982785
 20
41.18577747536791
 30
0.0
 10
297.2256656727016
 20
41.03960831358138
 30
0.0
 10
293.8846284718118
 20
41.22795935052476
 30
0.0
 10
292.1209668951145
 20
41.37131204969095
 30
0.0
  0
SPLINE
  5
3E
330
1F
100
AcDbEntity
  8
LINEE VISIBILI 2D
100
AcDbSpline
210
0.0
220
0.0
230
1.0
 70
     8
 71
     3
 72
    15
 73
    11
 74
     0
 42
0.000000001
 43
0.0000000001
 40
0.0
 40
0.0
 40
0.0
 40
0.0
 40
2.316915160903
 40
4.355648954558439
 40
6.307247602200629
 40
8.14460438654972
 40
11.51191660180011
 40
13.20317521432369
 40
13.97968864520474
 40
15.08702006949712
 40
15.08702006949712
 40
15.08702006949712
 40
15.08702006949712
 10
262.9126852929289
 20
33.09180750942145
 30
0.0
 10
262.2180264080188
 20
33.43116064722073
 30
0.0
 10
260.9381682372576
 20
34.11471331997561
 30
0.0
 10
259.1904871763956
 20
35.29571120984805
 30
0.0
 10
257.7423575257843
 20
36.59192506483281
 30
0.0
 10
256.1725156814247
 20
38.40396572919788
 30
0.0
 10
255.2078247853246
 20
40.5300275327113
 30
0.0
 10
254.8612948941953
 20
42.44907020092712
 30
0.0
 10
254.7812135952032
 20
43.63904087462711
 30
0.0
 10
254.8003383316569
 20
44.26761995524978
 30
0.0
 10
254.7967280784816
 20
44.63650503399697
 30
0.0
  0
SPLINE
  5
3F
330
1F
100
AcDbEntity
  8
LINEE VISIBILI 2D
100
AcDbSpline
210
0.0
220
0.0
230
1.0
 70
     8
 71
     3
 72
    12
 73
     8
 74
     0
 42
0.000000001
 43
0.0000000001
 40
0.0
 40
0.0
 40
0.0
 40
0.0
 40
0.5467325005853342
 40
1.040665715235619
 40
1.886574180548693
 40
2.626806399953617
 40
3.362234732987794
 40
3.362234732987794
 40
3.362234732987794
 40
3.362234732987794
 10
538.0680006174207
 20
225.1117083177589
 30
0.0
 10
538.24165914017
 20
225.0575346375512
 30
0.0
 10
538.570454420196
 20
224.943175324222
 30
0.0
 10
539.1414225025262
 20
224.6812843149534
 30
0.0
 10
539.7235980317143
 20
224.2906375552872
 30
0.0
 10
540.1880477372897
 20
223.6539044614368
 30
0.0
 10
540.2935500550377
 20
223.1608125908389
 30
0.0
 10
540.3011300390133
 20
222.917025222638
 30
0.0
  0
SPLINE
  5
40
330
1F
100
AcDbEntity
  8
LINEE VISIBILI 2D
100
AcDbSpline
210
0.0
220
0.0
230
1.0
 70
    12
 71
     2
 72
     6
 73
     3
 74
     0
 42
0.000000001
 43
0.0000000001
 40
0.0
 40
0.0
 40
0.0
 40
0.0878752741136429
 40
0.0878752741136429
 40
0.0878752741136429
 10
540.3001451123323
 20
222.9060600214627
 30
0.0
 41
1.0
 10
540.3000978550078
 20
222.8621215053224
 30
0.0
 41
0.9999691220323232
 10
540.3007411580377
 20
222.8181876733123
 30
0.0
 41
1.0
  0
SPLINE
  5
41
330
1F
100
AcDbEntity
  8
LINEE VISIBILI 2D
100
AcDbSpline
210
0.0
220
0.0
230
1.0
 70
    24
 71
     2
 72
     6
 73
     3
 74
     0
 42
0.000000001
 43
0.0000000001
 40
0.0
 40
0.0
 40
0.0
 40
18.14483916950081
 40
18.14483916950081
 40
18.14483916950081
 10
524.6474259538302
 20
243.0096103921336
 30
0.0
 10
524.6474259538302
 20
233.9371908073832
 30
0.0
 10
524.6474259538302
 20
224.8647712226328
 30
0.0
  0
SPLINE
  5
42
330
1F
100
AcDbEntity
  8
LINEE VISIBILI 2D
100
AcDbSpline
210
0.0
220
0.0
230
1.0
 70
    24
 71
     2
 72
     6
 73
     3
 74
     0
 42
0.000000001
 43
0.0000000001
 40
0.0
 40
0.0
 40
0.0
 40
6.73001569895321
 40
6.73001569895321
 40
6.73001569895321
 10
333.1981745029766
 20
253.6710474575325
 30
0.0
 10
336.5631823524532
 20
253.6710474575325
 30
0.0
 10
339.9281902019298
 20
253.6710474575325
 30
0.0
  0
SPLINE
  5
43
330
1F
100
AcDbEntity
  8
LINEE VISIBILI 2D
100
AcDbSpline
210
0.0
220
0.0
230
1.0
 70
     8
 71
     3
 72
    21
 73
    17
 74
     0
 42
0.000000001
 43
0.0000000001
 40
0.0
 40
0.0
 40
0.0
 40
0.0
 40
0.7749263065034426
 40
1.569003073247716
 40
2.46638950362056
 40
3.550417783257422
 40
4.893149317666295
 40
6.487160287300159
 40
10.30529074413955
 40
14.12362862514501
 40
15.71814773432967
 40
17.06791231836494
 40
18.15463877507928
 40
19.05606552360658
 40
19.84778594368169
 40
20.62438048415496
 40
20.62438048415496
 40
20.62438048415496
 40
20.62438048415496
 10
540.30117133832
 20
222.8079477515756
 30
0.0
 10
540.2938140951212
 20
222.5503639396097
 30
0.0
 10
540.1775767273132
 20
222.0289654139336
 30
0.0
 10
539.7027212068099
 20
221.3421023178796
 30
0.0
 10
538.9527154559166
 20
220.7849481022992
 30
0.0
 10
537.9376453912021
 20
220.3321849884346
 30
0.0
 10
536.64324489152
 20
219.9730723599666
 30
0.0
 10
534.4208003818744
 20
219.5999527863873
 30
0.0
 10
531.3413198258634
 20
219.4439746158661
 30
0.0
 10
528.2645345420689
 20
219.5988280581357
 30
0.0
 10
526.0372178817447
 20
219.9695472776784
 30
0.0
 10
524.7406448286063
 20
220.3296067607531
 30
0.0
 10
523.7200936582087
 20
220.7831222853127
 30
0.0
 10
522.9696248498774
 20
221.3416948509484
 30
0.0
 10
522.4946735604474
 20
222.0299439712872
 30
0.0
 10
522.3786787873787
 20
222.550989481284
 30
0.0
 10
522.3715900624229
 20
222.8092881838229
 30
0.0
  0
SPLINE
  5
44
330
1F
100
AcDbEntity
  8
LINEE VISIBILI 2D
100
AcDbSpline
210
0.0
220
0.0
230
1.0
 70
    24
 71
     2
 72
     6
 73
     3
 74
     0
 42
0.000000001
 43
0.0000000001
 40
0.0
 40
0.0
 40
0.0
 40
18.68479576817762
 40
18.68479576817762
 40
18.68479576817762
 10
523.8474259538302
 20
224.4367304673156
 30
0.0
 10
523.8474259538302
 20
233.7791283514044
 30
0.0
 10
523.8474259538302
 20
243.1215262354932
 30
0.0
  0
SPLINE
  5
45
330
1F
100
AcDbEntity
  8
LINEE VISIBILI 2D
100
AcDbSpline
210
0.0
220
0.0
230
1.0
 70
    24
 71
     2
 72
     6
 73
     3
 74
     0
 42
0.000000001
 43
0.0000000001
 40
0.0
 40
0.0
 40
0.0
 40
11.90716183577419
 40
11.90716183577419
 40
11.90716183577419
 10
333.1981745029766
 20
253.6710474575325
 30
0.0
 10
327.2445935850895
 20
253.6710474575325
 30
0.0
 10
321.2910126672024
 20
253.6710474575325
 30
0.0
  0
SPLINE
  5
46
330
1F
100
AcDbEntity
  8
LINEE VISIBILI 2D
100
AcDbSpline
210
0.0
220
0.0
230
1.0
 70
    28
 71
     3
 72
     8
 73
     4
 74
     0
 42
0.000000001
 43
0.0000000001
 40
-0.5078479427089934
 40
-0.5078479427089934
 40
-0.5078479427089934
 40
-0.5078479427089934
 40
-0.5
 40
-0.5
 40
-0.5
 40
-0.5
 10
254.7976171297144
 20
253.6710474575325
 30
0.0
 41
1.0
 10
254.7910030095233
 20
253.6710474575325
 30
0.0
 41
1.0
 10
254.7971010986308
 20
253.6710474575325
 30
0.0
 41
1.0
 10
254.8158091673225
 20
253.6710474575325
 30
0.0
 41
1.0
  0
SPLINE
  5
47
330
1F
100
AcDbEntity
  8
LINEE VISIBILI 2D
100
AcDbSpline
210
0.0
220
0.0
230
1.0
 70
    24
 71
     2
 72
     6
 73
     3
 74
     0
 42
0.000000001
 43
0.0000000001
 40
0.0
 40
0.0
 40
0.0
 40
66.47392740739296
 40
66.47392740739296
 40
66.47392740739296
 10
254.8170852459856
 20
253.6710474575325
 30
0.0
 10
288.0540489496821
 20
253.6710474575325
 30
0.0
 10
321.2910126533785
 20
253.6710474575325
 30
0.0
  0
SPLINE
  5
48
330
1F
100
AcDbEntity
  8
LINEE VISIBILI 2D
100
AcDbSpline
210
0.0
220
0.0
230
1.0
 70
    24
 71
     2
 72
     6
 73
     3
 74
     0
 42
0.000000001
 43
0.0000000001
 40
0.0
 40
0.0
 40
0.0
 40
34.35253107456498
 40
34.35253107456498
 40
34.35253107456498
 10
586.6567493751783
 20
253.6710528542469
 30
0.0
 10
603.8330149124608
 20
253.671052854247
 30
0.0
 10
621.0092804497433
 20
253.671052854247
 30
0.0
  0
SPLINE
  5
49
330
1F
100
AcDbEntity
  8
LINEE VISIBILI 2D
100
AcDbSpline
210
0.0
220
0.0
230
1.0
 70
    24
 71
     2
 72
     6
 73
     3
 74
     0
 42
0.000000001
 43
0.0000000001
 40
0.0
 40
0.0
 40
0.0
 40
16.62523235300515
 40
16.62523235300515
 40
16.62523235300515
 10
311.2578727796102
 20
9.11224555375615
 30
0.0
 10
311.4005747226755
 20
17.42363676421531
 30
0.0
 10
311.5432766657407
 20
25.73502797467446
 30
0.0
  0
SPLINE
  5
4A
330
1F
100
AcDbEntity
  8
LINEE VISIBILI 2D
100
AcDbSpline
210
0.0
220
0.0
230
1.0
 70
    24
 71
     3
 72
     9
 73
     5
 74
     0
 42
0.000000001
 43
0.0000000001
 40
0.0
 40
0.0
 40
0.0
 40
0.0
 40
0.0026153191813592
 40
20.95739988543801
 40
20.95739988543801
 40
20.95739988543801
 40
20.95739988543801
 10
565.7010512284228
 20
253.671052854247
 30
0.0
 10
565.7001995616806
 20
253.6710528542471
 30
0.0
 10
572.6860655268888
 20
253.6710528542468
 30
0.0
 10
579.6717946225149
 20
253.6710528542469
 30
0.0
 10
586.6567493751782
 20
253.6710528542469
 30
0.0
  0
SPLINE
  5
4B
330
1F
100
AcDbEntity
  8
LINEE VISIBILI 2D
100
AcDbSpline
210
0.0
220
0.0
230
1.0
 70
    24
 71
     2
 72
     6
 73
     3
 74
     0
 42
0.000000001
 43
0.0000000001
 40
0.0
 40
0.0
 40
0.0
 40
27.77800605687753
 40
27.77800605687753
 40
27.77800605687753
 10
528.609613304488
 20
253.6710528542311
 30
0.0
 10
514.7206102760492
 20
253.6710528542394
 30
0.0
 10
500.8316072476105
 20
253.6710528542477
 30
0.0
  0
SPLINE
  5
4C
330
1F
100
AcDbEntity
  8
LINEE VISIBILI 2D
100
AcDbSpline
210
0.0
220
0.0
230
1.0
 70
    12
 71
     2
 72
     6
 73
     3
 74
     0
 42
0.000000001
 43
0.0000000001
 40
0.0
 40
0.0
 40
0.0
 40
2.591041599246113
 40
2.591041599246113
 40
2.591041599246113
 10
511.5858153908923
 20
54.48574053970603
 30
0.0
 41
1.0
 10
512.3633791277457
 20
53.44861418947846
 30
0.0
 41
0.9991687149065658
 10
513.2228474387372
 20
52.47827885898305
 30
0.0
 41
1.0
  0
SPLINE
  5
4D
330
1F
100
AcDbEntity
  8
LINEE VISIBILI 2D
100
AcDbSpline
210
0.0
220
0.0
230
1.0
 70
     8
 71
     3
 72
    21
 73
    17
 74
     0
 42
0.000000001
 43
0.0000000001
 40
0.0
 40
0.0
 40
0.0
 40
0.0
 40
5.750559801049984
 40
11.32180315452327
 40
16.70651763524713
 40
21.48184964809974
 40
25.42350913687072
 40
28.84848284267806
 40
31.91331318556061
 40
34.83753681267468
 40
38.18750774270348
 40
42.08620621725296
 40
46.48098165908086
 40
51.37154463284116
 40
61.89994474087633
 40
71.90977020481672
 40
71.90977020481672
 40
71.90977020481672
 40
71.90977020481672
 10
478.9728609672015
 20
39.2660602964485
 30
0.0
 10
478.9891631258918
 20
41.18293517632814
 30
0.0
 10
479.2090551260433
 20
44.95459611980543
 30
0.0
 10
480.0450981280696
 20
50.46632531983504
 30
0.0
 10
481.3380872141127
 20
55.55571504146753
 30
0.0
 10
483.0257503718551
 20
59.95376321464981
 30
0.0
 10
485.027922643875
 20
63.48745219359643
 30
0.0
 10
487.3297145790013
 20
66.12597924906811
 30
0.0
 10
489.9953610533494
 20
67.85526666957608
 30
0.0
 10
493.0749061914672
 20
68.57786327946616
 30
0.0
 10
496.4879434269892
 20
68.1258111756259
 30
0.0
 10
500.033289296912
 20
66.47026900088827
 30
0.0
 10
503.5228031720927
 20
63.76439636799984
 30
0.0
 10
507.9740562302595
 20
58.85987399546706
 30
0.0
 10
512.24861136562
 20
51.44224438733502
 30
0.0
 10
513.9336052747606
 20
44.73687974922497
 30
0.0
 10
514.1830242105646
 20
41.40416173865594
 30
0.0
  0
SPLINE
  5
4E
330
1F
100
AcDbEntity
  8
LINEE VISIBILI 2D
100
AcDbSpline
210
0.0
220
0.0
230
1.0
 70
    12
 71
     2
 72
     8
 73
     5
 74
     0
 42
0.000000001
 43
0.0000000001
 40
0.0
 40
0.0
 40
0.0
 40
0.6283185307180176
 40
0.6283185307180176
 40
1.256637061435907
 40
1.256637061435907
 40
1.256637061435907
 10
524.0474292882647
 20
71.8534064090347
 30
0.0
 41
1.0
 10
524.3938394497662
 20
72.05340640905587
 30
0.0
 41
0.707106781186504
 10
524.5938394497873
 20
71.70699624755422
 30
0.0
 41
1.0
 10
524.7938394498086
 20
71.36058608605259
 30
0.0
 41
0.7071067811862357
 10
524.4474292883069
 20
71.16058608603166
 30
0.0
 41
1.0
  0
SPLINE
  5
4F
330
1F
100
AcDbEntity
  8
LINEE VISIBILI 2D
100
AcDbSpline
210
0.0
220
0.0
230
1.0
 70
    12
 71
     2
 72
     8
 73
     5
 74
     0
 42
0.000000001
 43
0.0000000001
 40
0.0
 40
0.0
 40
0.0
 40
0.6283185307179184
 40
0.6283185307179184
 40
1.256637061435879
 40
1.256637061435879
 40
1.256637061435879
 10
524.4474292883069
 20
71.16058608603161
 30
0.0
 41
1.0
 10
524.1010191268053
 20
70.96058608601058
 30
0.0
 41
0.7071067811867454
 10
523.9010191267841
 20
71.30699624751199
 30
0.0
 41
1.0
 10
523.7010191267631
 20
71.65340640901358
 30
0.0
 41
0.7071067811865926
 10
524.0474292882647
 20
71.8534064090347
 30
0.0
 41
1.0
  0
SPLINE
  5
50
330
1F
100
AcDbEntity
  8
LINEE VISIBILI 2D
100
AcDbSpline
210
0.0
220
0.0
230
1.0
 70
     8
 71
     3
 72
    17
 73
    13
 74
     0
 42
0.000000001
 43
0.0000000001
 40
0.0
 40
0.0
 40
0.0
 40
0.0
 40
1.173711289382896
 40
1.939864558567828
 40
3.550976397707066
 40
6.735082542197399
 40
10.15148901389712
 40
14.17566458798695
 40
18.93916595961412
 40
24.33435134607386
 40
30.72453257124959
 40
36.91572367779533
 40
36.91572367779533
 40
36.91572367779533
 40
36.91572367779533
 10
293.8316567861015
 20
37.83837738353885
 30
0.0
 10
293.8003570094701
 20
37.44870580537187
 30
0.0
 10
293.7767241444801
 20
36.80124884574471
 30
0.0
 10
293.6192912583198
 20
35.62772381392416
 30
0.0
 10
293.1665421193305
 20
33.82251826818787
 30
0.0
 10
291.6775458696851
 20
31.4468650711023
 30
0.0
 10
288.6564213417499
 20
29.46922886041328
 30
0.0
 10
284.6874913077562
 20
28.44016798964105
 30
0.0
 10
279.9403000407251
 20
28.28652478069837
 30
0.0
 10
274.460622576977
 20
29.04044918234515
 30
0.0
 10
268.6805991039968
 20
30.6619711958062
 30
0.0
 10
264.768834238156
 20
32.18609427348118
 30
0.0
 10
262.912685292929
 20
33.0918075094214
 30
0.0
  0
SPLINE
  5
51
330
1F
100
AcDbEntity
  8
LINEE VISIBILI 2D
100
AcDbSpline
210
0.0
220
0.0
230
1.0
 70
    12
 71
     2
 72
     6
 73
     3
 74
     0
 42
0.000000001
 43
0.0000000001
 40
0.0
 40
0.0
 40
0.0
 40
0.0929758030867481
 40
0.0929758030867481
 40
0.0929758030867481
 10
310.2364338788567
 20
7.32339506248276
 30
0.0
 41
1.0
 10
310.2357293118297
 20
7.369877665995269
 30
0.0
 41
0.9999986624731253
 10
310.2348726987311
 20
7.416357716102773
 30
0.0
 41
1.0
  0
SPLINE
  5
52
330
1F
100
AcDbEntity
  8
LINEE VISIBILI 2D
100
AcDbSpline
210
0.0
220
0.0
230
1.0
 70
     8
 71
     3
 72
    12
 73
     8
 74
     0
 42
0.000000001
 43
0.0000000001
 40
0.0
 40
0.0
 40
0.0
 40
0.0
 40
0.6791164021239939
 40
1.310529529436997
 40
2.406382179954283
 40
3.34895653832804
 40
4.240345040478924
 40
4.240345040478924
 40
4.240345040478924
 40
4.240345040478924
 10
321.8999953176046
 20
11.47930258996882
 30
0.0
 10
322.121451664997
 20
11.43377011986975
 30
0.0
 10
322.5466465305789
 20
11.32832870687454
 30
0.0
 10
323.3017356289097
 20
11.05823371639519
 30
0.0
 10
324.0873812619082
 20
10.62175948737548
 30
0.0
 10
324.7491347507022
 20
9.879424823548867
 30
0.0
 10
324.9328916822209
 20
9.278580596338909
 30
0.0
 10
324.94828357085
 20
8.982025141241312
 30
0.0
  0
SPLINE
  5
53
330
1F
100
AcDbEntity
  8
LINEE VISIBILI 2D
100
AcDbSpline
210
0.0
220
0.0
230
1.0
 70
    12
 71
     2
 72
     6
 73
     3
 74
     0
 42
0.000000001
 43
0.0000000001
 40
0.0
 40
0.0
 40
0.0
 40
0.0165924557937014
 40
0.0165924557937014
 40
0.0165924557937014
 10
324.9501298640185
 20
8.909088009194832
 30
0.0
 41
1.0
 10
324.9497718470887
 20
8.900799474298111
 30
0.0
 41
0.9999935759430788
 10
324.9494732581708
 20
8.8925085858346
 30
0.0
 41
1.0
  0
SPLINE
  5
54
330
1F
100
AcDbEntity
  8
LINEE VISIBILI 2D
100
AcDbSpline
210
0.0
220
0.0
230
1.0
 70
    24
 71
     2
 72
     6
 73
     3
 74
     0
 42
0.000000001
 43
0.0000000001
 40
0.0
 40
0.0
 40
0.0
 40
16.03280981530932
 40
16.03280981530932
 40
16.03280981530932
 10
312.2718293735045
 20
25.64624680451512
 30
0.0
 10
312.1407125765282
 20
17.63091424566141
 30
0.0
 10
312.0095957795519
 20
9.615581686807701
 30
0.0
  0
SPLINE
  5
55
330
1F
100
AcDbEntity
  8
LINEE VISIBILI 2D
100
AcDbSpline
210
0.0
220
0.0
230
1.0
 70
     8
 71
     3
 72
    16
 73
    12
 74
     0
 42
0.000000001
 43
0.0000000001
 40
0.0
 40
0.0
 40
0.0
 40
0.0
 40
0.5092140906949384
 40
1.744956493576967
 40
2.39616211008798
 40
3.041594865447884
 40
6.706452435402573
 40
8.122649437552486
 40
8.57116426771491
 40
8.72438975797294
 40
8.819940093920765
 40
8.819940093920765
 40
8.819940093920765
 40
8.819940093920765
 10
317.855238422121
 20
225.1728550784734
 30
0.0
 10
318.0249274471971
 20
225.1722784422467
 30
0.0
 10
318.6066477012784
 20
225.1541964460401
 30
0.0
 10
319.4023347298742
 20
225.0841468619834
 30
0.0
 10
320.2462925263459
 20
225.0520547698454
 30
0.0
 10
321.8999950689654
 20
225.0685569892163
 30
0.0
 10
323.8081408598553
 20
225.1388306908646
 30
0.0
 10
325.6515787684309
 20
225.1093347190834
 30
0.0
 10
326.3236133707158
 20
225.0811083753831
 30
0.0
 10
326.5552449711919
 20
225.0609056328449
 30
0.0
 10
326.6375071208633
 20
225.0499133832045
 30
0.0
 10
326.6684448297727
 20
225.0422470438274
 30
0.0
  0
SPLINE
  5
56
330
1F
100
AcDbEntity
  8
LINEE VISIBILI 2D
100
AcDbSpline
210
0.0
220
0.0
230
1.0
 70
    12
 71
     2
 72
     6
 73
     3
 74
     0
 42
0.000000001
 43
0.0000000001
 40
0.0
 40
0.0
 40
0.0
 40
0.5310353007915908
 40
0.5310353007915908
 40
0.5310353007915908
 10
537.542426569862
 20
225.1728604751879
 30
0.0
 41
1.0
 10
537.809398016156
 20
225.177685972782
 30
0.0
 41
0.991609288664376
 10
538.0686838594286
 20
225.1139059599104
 30
0.0
 41
1.0
  0
SPLINE
  5
57
330
1F
100
AcDbEntity
  8
LINEE VISIBILI 2D
100
AcDbSpline
210
0.0
220
0.0
230
1.0
 70
    12
 71
     2
 72
     6
 73
     3
 74
     0
 42
0.000000001
 43
0.0000000001
 40
0.0
 40
0.0
 40
0.0
 40
0.0598002176535595
 40
0.0598002176535595
 40
0.0598002176535595
 10
325.0326259295357
 20
225.1468653446173
 30
0.0
 41
1.0
 10
325.0584781138
 20
225.1318398876994
 30
0.0
 41
0.9999301427212037
 10
325.0839679009362
 20
225.116207532196
 30
0.0
 41
1.0
  0
SPLINE
  5
58
330
1F
100
AcDbEntity
  8
LINEE VISIBILI 2D
100
AcDbSpline
210
0.0
220
0.0
230
1.0
 70
    12
 71
     2
 72
     6
 73
     3
 74
     0
 42
0.000000001
 43
0.0000000001
 40
0.0
 40
0.0
 40
0.0
 40
0.802069491083976
 40
0.802069491083976
 40
0.802069491083976
 10
325.8335802959514
 20
225.1084462854037
 30
0.0
 41
1.0
 10
325.4338357346289
 20
225.1429293982269
 30
0.0
 41
0.9992735213413078
 10
325.0326259295357
 20
225.1468653446173
 30
0.0
 41
1.0
  0
SPLINE
  5
59
330
1F
100
AcDbEntity
  8
LINEE VISIBILI 2D
100
AcDbSpline
210
0.0
220
0.0
230
1.0
 70
     8
 71
     3
 72
    18
 73
    14
 74
     0
 42
0.000000001
 43
0.0000000001
 40
0.0
 40
0.0
 40
0.0
 40
0.0
 40
1.620359644554917
 40
2.779065394689522
 40
3.84600830769035
 40
4.92195595843069
 40
6.163255738362365
 40
7.615669329685828
 40
11.33583144204481
 40
16.57825912131727
 40
23.0507523356201
 40
30.69353932966139
 40
39.32626866713422
 40
39.32626866713422
 40
39.32626866713422
 40
39.32626866713422
 10
321.2931672061151
 20
253.6710474575325
 30
0.0
 10
321.2926207676524
 20
253.1313547875078
 30
0.0
 10
321.2947347054911
 20
252.2030259200628
 30
0.0
 10
321.1061365333005
 20
250.9305762259033
 30
0.0
 10
320.7048547033583
 20
249.8952621634331
 30
0.0
 10
320.0281819735178
 20
248.9816903313195
 30
0.0
 10
319.0674836674619
 20
248.1624167602264
 30
0.0
 10
317.2112223380894
 20
247.0859077753784
 30
0.0
 10
313.9232003143068
 20
245.9299918495222
 30
0.0
 10
308.8842677271868
 20
244.8664721412667
 30
0.0
 10
302.4755104582171
 20
244.074290557959
 30
0.0
 10
294.9061223615192
 20
243.5974953451567
 30
0.0
 10
289.4801033628672
 20
243.5047650513002
 30
0.0
 10
286.6027200024462
 20
243.5045089683988
 30
0.0
  0
SPLINE
  5
5A
330
1F
100
AcDbEntity
  8
LINEE VISIBILI 2D
100
AcDbSpline
210
0.0
220
0.0
230
1.0
 70
     8
 71
     3
 72
    15
 73
    11
 74
     0
 42
0.000000001
 43
0.0000000001
 40
0.0
 40
0.0
 40
0.0
 40
0.0
 40
2.126081881422264
 40
4.378851270225868
 40
6.241109566941477
 40
9.146005152606763
 40
10.09389219663155
 40
10.88629528521954
 40
11.77373292894633
 40
12.069385367992
 40
12.069385367992
 40
12.069385367992
 40
12.069385367992
 10
525.4238766075146
 20
225.0589997158652
 30
0.0
 10
526.1322238382579
 20
225.080997961711
 30
0.0
 10
527.5915768677021
 20
225.1123270848673
 30
0.0
 10
529.671959023067
 20
225.1225541104056
 30
0.0
 10
532.0119354795584
 20
225.1132277192609
 30
0.0
 10
533.9166193404117
 20
225.0701972461503
 30
0.0
 10
535.4647794657051
 20
225.051446459958
 30
0.0
 10
536.3409996056628
 20
225.0726606347236
 30
0.0
 10
536.9960379921303
 20
225.1448915896256
 30
0.0
 10
537.3891748383542
 20
225.1742557771408
 30
0.0
 10
537.4879466099151
 20
225.1729936572378
 30
0.0
  0
SPLINE
  5
5B
330
1F
100
AcDbEntity
  8
LINEE VISIBILI 2D
100
AcDbSpline
210
0.0
220
0.0
230
1.0
 70
    12
 71
     2
 72
     6
 73
     3
 74
     0
 42
0.000000001
 43
0.0000000001
 40
0.0
 40
0.0
 40
0.0
 40
0.2921607305895118
 40
0.2921607305895118
 40
0.2921607305895118
 10
537.487946609915
 20
225.1729936572377
 30
0.0
 41
1.0
 10
537.6272767737757
 20
225.1290001405316
 30
0.0
 41
0.9996890490982236
 10
537.7642403010013
 20
225.078114815696
 30
0.0
 41
1.0
  0
SPLINE
  5
5C
330
1F
100
AcDbEntity
  8
LINEE VISIBILI 2D
100
AcDbSpline
210
0.0
220
0.0
230
1.0
 70
    12
 71
     2
 72
     6
 73
     3
 74
     0
 42
0.000000001
 43
0.0000000001
 40
0.0
 40
0.0
 40
0.0
 40
0.070307211596555
 40
0.070307211596555
 40
0.070307211596555
 10
537.7642403010013
 20
225.078114815696
 30
0.0
 41
1.0
 10
537.7972158308495
 20
225.0653068423851
 30
0.0
 41
0.9906154745427652
 10
537.8324276198462
 20
225.0619068916863
 30
0.0
 41
1.0
  0
SPLINE
  5
5D
330
1F
100
AcDbEntity
  8
LINEE VISIBILI 2D
100
AcDbSpline
210
0.0
220
0.0
230
1.0
 70
    12
 71
     3
 72
     8
 73
     4
 74
     0
 42
0.000000001
 43
0.0000000001
 40
-1.0
 40
-1.0
 40
-1.0
 40
-1.0
 40
0.0
 40
0.0
 40
0.0
 40
0.0
 10
537.8348695147287
 20
225.0619022062904
 30
0.0
 41
1.0
 10
537.8517488632097
 20
225.0618607633536
 30
0.0
 41
1.0
 10
537.836080309158
 20
225.0708420741963
 30
0.0
 41
1.0
 10
537.8169552103739
 20
225.0780146233841
 30
0.0
 41
1.0
  0
SPLINE
  5
5E
330
1F
100
AcDbEntity
  8
LINEE VISIBILI 2D
100
AcDbSpline
210
0.0
220
0.0
230
1.0
 70
    12
 71
     2
 72
     6
 73
     3
 74
     0
 42
0.000000001
 43
0.0000000001
 40
0.0
 40
0.0
 40
0.0
 40
0.2904817894854714
 40
0.2904817894854714
 40
0.2904817894854714
 10
537.8169552103739
 20
225.0780146233841
 30
0.0
 41
1.0
 10
537.6808895436147
 20
225.1289070179939
 30
0.0
 41
0.9996807193528962
 10
537.542426569862
 20
225.1728604751879
 30
0.0
 41
1.0
  0
SPLINE
  5
5F
330
1F
100
AcDbEntity
  8
LINEE VISIBILI 2D
100
AcDbSpline
210
0.0
220
0.0
230
1.0
 70
     8
 71
     3
 72
    30
 73
    26
 74
     0
 42
0.000000001
 43
0.0000000001
 40
0.0
 40
0.0
 40
0.0
 40
0.0
 40
0.8246222652702393
 40
1.728901286038819
 40
3.923171568994701
 40
6.434451825506395
 40
9.381020836669094
 40
16.7221500300794
 40
19.53988393382137
 40
22.06997582411518
 40
25.61572855412901
 40
28.0350511650167
 40
30.12106016759315
 40
31.25161902321506
 40
31.80320222969222
 40
32.37826368711941
 40
33.02443266990544
 40
34.58634335993892
 40
35.90158797579193
 40
36.55749842565974
 40
37.52510886341422
 40
38.24046552792434
 40
38.51099039882546
 40
38.587671083395
 40
39.46733150526334
 40
39.46733150526334
 40
39.46733150526334
 40
39.46733150526334
 10
512.550557936109
 20
247.3233857726679
 30
0.0
 10
512.3696556613659
 20
247.1164653917717
 30
0.0
 10
511.9509216870948
 20
246.7168015612552
 30
0.0
 10
510.8577805802888
 20
245.9923724796355
 30
0.0
 10
509.1382735471441
 20
245.236245041235
 30
0.0
 10
506.6592714188745
 20
244.6100708479822
 30
0.0
 10
502.4226623555572
 20
244.05742652957
 30
0.0
 10
498.0416950844789
 20
244.0950557765523
 30
0.0
 10
493.8241949879106
 20
244.3710653035328
 30
0.0
 10
490.8655685495763
 20
244.586674828728
 30
0.0
 10
488.0595138680339
 20
244.9801555781867
 30
0.0
 10
485.4375449577799
 20
245.5634800201613
 30
0.0
 10
483.6403094330273
 20
246.1158663630387
 30
0.0
 10
482.480789000623
 20
246.6033057869359
 30
0.0
 10
481.8095869773343
 20
246.9436185480913
 30
0.0
 10
481.3129472099391
 20
247.2661424220437
 30
0.0
 10
480.608624986523
 20
247.8745593592211
 30
0.0
 10
479.912224529353
 20
248.8358114737121
 30
0.0
 10
479.4675863363465
 20
249.9321822362274
 30
0.0
 10
479.2125157380513
 20
250.8782329608912
 30
0.0
 10
479.0808704985462
 20
251.6481232333439
 30
0.0
 10
479.022188119074
 20
252.2966283949106
 30
0.0
 10
479.0076163830976
 20
252.650698863335
 30
0.0
 10
478.9928454431109
 20
253.0593518054847
 30
0.0
 10
478.9815738095195
 20
253.3779333906596
 30
0.0
 10
478.9709429692447
 20
253.6709605843275
 30
0.0
  0
SPLINE
  5
60
330
1F
100
AcDbEntity
  8
LINEE VISIBILI 2D
100
AcDbSpline
210
0.0
220
0.0
230
1.0
 70
    12
 71
     2
 72
     6
 73
     3
 74
     0
 42
0.000000001
 43
0.0000000001
 40
0.0
 40
0.0
 40
0.0
 40
4.322797322554096
 40
4.322797322554096
 40
4.322797322554096
 10
536.4085872566518
 20
225.0891558538881
 30
0.0
 41
1.0
 10
534.2474825149799
 20
225.133324935025
 30
0.0
 41
0.9998907757213765
 10
532.0860164419173
 20
225.1136011624186
 30
0.0
 41
1.0
  0
SPLINE
  5
61
330
1F
100
AcDbEntity
  8
LINEE VISIBILI 2D
100
AcDbSpline
210
0.0
220
0.0
230
1.0
 70
    12
 71
     2
 72
     6
 73
     3
 74
     0
 42
0.000000001
 43
0.0000000001
 40
0.0
 40
0.0
 40
0.0
 40
0.6447491076250563
 40
0.6447491076250563
 40
0.6447491076250563
 10
525.9624781451971
 20
225.0793598371672
 30
0.0
 41
1.0
 10
525.6415716063707
 20
225.1101114634215
 30
0.0
 41
0.9999905012346515
 10
525.3204091944918
 20
225.1380645379387
 30
0.0
 41
1.0
  0
SPLINE
  5
62
330
1F
100
AcDbEntity
  8
LINEE VISIBILI 2D
100
AcDbSpline
210
0.0
220
0.0
230
1.0
 70
    12
 71
     2
 72
     6
 73
     3
 74
     0
 42
0.000000001
 43
0.0000000001
 40
0.0
 40
0.0
 40
0.0
 40
0.0932164710449494
 40
0.0932164710449494
 40
0.0932164710449494
 10
522.3719756575094
 20
222.8117613604919
 30
0.0
 41
1.0
 10
522.3722953324168
 20
222.8583685022169
 30
0.0
 41
0.9999999194518627
 10
522.3725775939943
 20
222.90497588554
 30
0.0
 41
1.0
  0
SPLINE
  5
63
330
1F
100
AcDbEntity
  8
LINEE VISIBILI 2D
100
AcDbSpline
210
0.0
220
0.0
230
1.0
 70
     8
 71
     3
 72
    17
 73
    13
 74
     0
 42
0.000000001
 43
0.0000000001
 40
0.0
 40
0.0
 40
0.0
 40
0.0
 40
0.6895808834700766
 40
1.449172564114281
 40
3.285009061958942
 40
5.72967477061509
 40
8.70119589528084
 40
11.65868986378461
 40
14.0949994517787
 40
15.91670931177903
 40
16.66378982136427
 40
17.36218006770667
 40
17.36218006770667
 40
17.36218006770667
 40
17.36218006770667
 10
328.715771933563
 20
222.7227063131086
 30
0.0
 10
328.7060011947482
 20
222.4917809513456
 30
0.0
 10
328.5992484802076
 20
222.0164709538577
 30
0.0
 10
327.9690554717926
 20
221.0892557968173
 30
0.0
 10
326.497436829936
 20
220.2135673495163
 30
0.0
 10
324.1381270132461
 20
219.6336182843042
 30
0.0
 10
321.3460258792062
 20
219.4359335248811
 30
0.0
 10
318.5574029562115
 20
219.6395829351806
 30
0.0
 10
316.2111344296686
 20
220.2236564316579
 30
0.0
 10
314.7541841729897
 20
221.0995675037535
 30
0.0
 10
314.1301728929268
 20
222.02417849955
 30
0.0
 10
314.0255279561436
 20
222.4979203948538
 30
0.0
 10
314.0163237878623
 20
222.7322546469446
 30
0.0
  0
SPLINE
  5
64
330
1F
100
AcDbEntity
  8
LINEE VISIBILI 2D
100
AcDbSpline
210
0.0
220
0.0
230
1.0
 70
    12
 71
     2
 72
     6
 73
     3
 74
     0
 42
0.000000001
 43
0.0000000001
 40
0.0
 40
0.0
 40
0.0
 40
0.157079632679545
 40
0.157079632679545
 40
0.157079632679545
 10
530.1371561320348
 20
40.15237085750709
 30
0.0
 41
1.0
 10
530.0871561320292
 20
40.2389733978826
 30
0.0
 41
0.7071067811844468
 10
530.173758672405
 20
40.28897339788767
 30
0.0
 41
1.0
  0
SPLINE
  5
65
330
1F
100
AcDbEntity
  8
LINEE VISIBILI 2D
100
AcDbSpline
210
0.0
220
0.0
230
1.0
 70
    12
 71
     2
 72
     6
 73
     3
 74
     0
 42
0.000000001
 43
0.0000000001
 40
0.0
 40
0.0
 40
0.0
 40
0.1570796326793151
 40
0.1570796326793151
 40
0.1570796326793151
 10
530.173758672405
 20
40.2889733978877
 30
0.0
 41
1.0
 10
530.2603612127803
 20
40.33897339789279
 30
0.0
 41
0.7071067811872388
 10
530.3103612127854
 20
40.25237085751759
 30
0.0
 41
1.0
  0
SPLINE
  5
66
330
1F
100
AcDbEntity
  8
LINEE VISIBILI 2D
100
AcDbSpline
210
0.0
220
0.0
230
1.0
 70
    12
 71
     3
 72
     8
 73
     4
 74
     0
 42
0.000000001
 43
0.0000000001
 40
-0.0902296038032193
 40
-0.0902296038032193
 40
-0.0902296038032193
 40
-0.0902296038032193
 40
0.0
 40
0.0
 40
0.0
 40
0.0
 10
523.7359251156338
 20
224.4537683059364
 30
0.0
 41
1.0
 10
523.7597090804368
 20
224.4181672132897
 30
0.0
 41
1.0
 10
523.8511761129771
 20
224.4285501170682
 30
0.0
 41
1.0
 10
523.9563273054912
 20
224.4672764087457
 30
0.0
 41
1.0
  0
SPLINE
  5
67
330
1F
100
AcDbEntity
  8
LINEE VISIBILI 2D
100
AcDbSpline
210
0.0
220
0.0
230
1.0
 70
    12
 71
     2
 72
     8
 73
     5
 74
     0
 42
0.000000001
 43
0.0000000001
 40
0.0
 40
0.0
 40
0.0
 40
0.1570796326795851
 40
0.1570796326795851
 40
0.3141592653591703
 40
0.3141592653591703
 40
0.3141592653591703
 10
530.3103612127856
 20
40.2523708575176
 30
0.0
 41
1.0
 10
530.360361212791
 20
40.16576831714217
 30
0.0
 41
0.7071067811861426
 10
530.2737586724154
 20
40.11576831713685
 30
0.0
 41
1.0
 10
530.1871561320401
 20
40.06576831713154
 30
0.0
 41
0.7071067811861426
 10
530.1371561320348
 20
40.15237085750709
 30
0.0
 41
1.0
  0
SPLINE
  5
68
330
1F
100
AcDbEntity
  8
LINEE VISIBILI 2D
100
AcDbSpline
210
0.0
220
0.0
230
1.0
 70
    12
 71
     3
 72
    10
 73
     6
 74
     0
 42
0.000000001
 43
0.0000000001
 40
-1.0
 40
-1.0
 40
-1.0
 40
-1.0
 40
-0.8463679768279718
 40
-0.8463679768279718
 40
-0.69311235764313
 40
-0.69311235764313
 40
-0.69311235764313
 40
-0.69311235764313
 10
523.9715046175326
 20
224.4729901798246
 30
0.0
 41
1.0
 10
524.0971213258576
 20
224.5212957065273
 30
0.0
 41
1.0
 10
524.2573585581238
 20
224.6077426203292
 30
0.0
 41
1.0
 10
524.544356353799
 20
224.7835332214433
 30
0.0
 41
1.0
 10
524.6702394132045
 20
224.8718043420347
 30
0.0
 41
1.0
 10
524.7133306782578
 20
224.9297075152141
 30
0.0
 41
1.0
  0
SPLINE
  5
69
330
1F
100
AcDbEntity
  8
LINEE VISIBILI 2D
100
AcDbSpline
210
0.0
220
0.0
230
1.0
 70
    12
 71
     2
 72
     6
 73
     3
 74
     0
 42
0.000000001
 43
0.0000000001
 40
0.0
 40
0.0
 40
0.0
 40
0.0568513246326739
 40
0.0568513246326739
 40
0.0568513246326739
 10
524.7133306782578
 20
224.9297075152141
 30
0.0
 41
1.0
 10
524.7433332001448
 20
224.9494995293524
 30
0.0
 41
0.7138908978040494
 10
524.7241233265008
 20
224.9798780727311
 30
0.0
 41
1.0
  0
SPLINE
  5
6A
330
1F
100
AcDbEntity
  8
LINEE VISIBILI 2D
100
AcDbSpline
210
0.0
220
0.0
230
1.0
 70
    12
 71
     2
 72
     6
 73
     3
 74
     0
 42
0.000000001
 43
0.0000000001
 40
0.0
 40
0.0
 40
0.0
 40
0.0786205071042979
 40
0.0786205071042979
 40
0.0786205071042979
 10
524.7241233265008
 20
224.979878072731
 30
0.0
 41
1.0
 10
524.6873153492378
 20
224.9973896548852
 30
0.0
 41
0.9474479118905568
 10
524.6474259538302
 20
224.9890040223051
 30
0.0
 41
1.0
  0
SPLINE
  5
6B
330
1F
100
AcDbEntity
  8
LINEE VISIBILI 2D
100
AcDbSpline
210
0.0
220
0.0
230
1.0
 70
    12
 71
     3
 72
     8
 73
     4
 74
     0
 42
0.000000001
 43
0.0000000001
 40
-0.2603458740691537
 40
-0.2603458740691537
 40
-0.2603458740691537
 40
-0.2603458740691537
 40
-0.129993230834527
 40
-0.129993230834527
 40
-0.129993230834527
 40
-0.129993230834527
 10
523.8474259539155
 20
224.6411072001532
 30
0.0
 41
1.0
 10
523.7631601262897
 20
224.5698816497625
 30
0.0
 41
1.0
 10
523.7078955843785
 20
224.4961200961963
 30
0.0
 41
1.0
 10
523.7359251156338
 20
224.4537683059364
 30
0.0
 41
1.0
  0
SPLINE
  5
6C
330
1F
100
AcDbEntity
  8
LINEE VISIBILI 2D
100
AcDbSpline
210
0.0
220
0.0
230
1.0
 70
    12
 71
     2
 72
     6
 73
     3
 74
     0
 42
0.000000001
 43
0.0000000001
 40
0.0
 40
0.0
 40
0.0
 40
0.0972992942106493
 40
0.0972992942106493
 40
0.0972992942106493
 10
524.7437421121901
 20
225.1263366870159
 30
0.0
 41
1.0
 10
524.695435712264
 20
225.1205044529994
 30
0.0
 41
0.9997671396639477
 10
524.6474259541891
 20
225.1125932990369
 30
0.0
 41
1.0
  0
SPLINE
  5
6D
330
1F
100
AcDbEntity
  8
LINEE VISIBILI 2D
100
AcDbSpline
210
0.0
220
0.0
230
1.0
 70
    12
 71
     2
 72
     6
 73
     3
 74
     0
 42
0.000000001
 43
0.0000000001
 40
0.0
 40
0.0
 40
0.0
 40
0.1007701556061829
 40
0.1007701556061829
 40
0.1007701556061829
 10
524.6474259538966
 20
225.0914004156693
 30
0.0
 41
1.0
 10
524.6963288199541
 20
225.1035371165105
 30
0.0
 41
0.999960487800238
 10
524.7450081877544
 20
225.1165413068545
 30
0.0
 41
1.0
  0
SPLINE
  5
6E
330
1F
100
AcDbEntity
  8
LINEE VISIBILI 2D
100
AcDbSpline
210
0.0
220
0.0
230
1.0
 70
    12
 71
     3
 72
     8
 73
     4
 74
     0
 42
0.000000001
 43
0.0000000001
 40
-0.999446211153308
 40
-0.999446211153308
 40
-0.999446211153308
 40
-0.999446211153308
 40
0.0
 40
0.0
 40
0.0
 40
0.0
 10
524.7455923477262
 20
225.1166971125754
 30
0.0
 41
1.0
 10
525.096988068954
 20
225.2103962237355
 30
0.0
 41
1.0
 10
525.4055417618746
 20
225.2488154762943
 30
0.0
 41
1.0
 10
525.309187726875
 20
225.1205274226273
 30
0.0
 41
1.0
  0
SPLINE
  5
6F
330
1F
100
AcDbEntity
  8
LINEE VISIBILI 2D
100
AcDbSpline
210
0.0
220
0.0
230
1.0
 70
    12
 71
     3
 72
     8
 73
     4
 74
     0
 42
0.000000001
 43
0.0000000001
 40
-1.0
 40
-1.0
 40
-1.0
 40
-1.0
 40
0.0
 40
0.0
 40
0.0
 40
0.0
 10
525.309187726875
 20
225.1205274226273
 30
0.0
 41
1.0
 10
525.2805352465546
 20
225.0823755872233
 30
0.0
 41
1.0
 10
525.3191792102093
 20
225.0556370221449
 30
0.0
 41
1.0
 10
525.4238766075146
 20
225.0589997158652
 30
0.0
 41
1.0
  0
SPLINE
  5
70
330
1F
100
AcDbEntity
  8
LINEE VISIBILI 2D
100
AcDbSpline
210
0.0
220
0.0
230
1.0
 70
     8
 71
     3
 72
    17
 73
    13
 74
     0
 42
0.000000001
 43
0.0000000001
 40
0.0
 40
0.0
 40
0.0
 40
0.0
 40
7.17504501325109
 40
13.41552264471885
 40
18.70170078030229
 40
23.00243542740535
 40
26.09701266211161
 40
28.46847228416961
 40
29.46347743347537
 40
30.51180468930608
 40
31.6837868571525
 40
33.32797622555722
 40
33.32797622555722
 40
33.32797622555722
 40
33.32797622555722
 10
594.0378254376046
 20
243.5049226604606
 30
0.0
 10
591.6462729848405
 20
243.5105006712058
 30
0.0
 10
587.1739448061101
 20
243.6082478908413
 30
0.0
 10
580.9556347946473
 20
244.0833272025176
 30
0.0
 10
575.7323741295401
 20
244.8599753133814
 30
0.0
 10
571.6303515327655
 20
245.9129639641475
 30
0.0
 10
568.6289801325038
 20
247.2129199099356
 30
0.0
 10
566.93199656558
 20
248.5908824786165
 30
0.0
 10
566.1757019226882
 20
249.877095217853
 30
0.0
 10
565.8533787334391
 20
250.8992163761327
 30
0.0
 10
565.6953189730673
 20
252.1850290411633
 30
0.0
 10
565.697092961366
 20
253.1221699592386
 30
0.0
 10
565.6965489771346
 20
253.6710528542469
 30
0.0
  0
SPLINE
  5
71
330
1F
100
AcDbEntity
  8
LINEE VISIBILI 2D
100
AcDbSpline
210
0.0
220
0.0
230
1.0
 70
     8
 71
     3
 72
    22
 73
    18
 74
     0
 42
0.000000001
 43
0.0000000001
 40
0.0
 40
0.0
 40
0.0
 40
0.0
 40
1.500461579807402
 40
4.691508412109682
 40
7.185650234154614
 40
12.23400066703594
 40
16.48473585943213
 40
19.721644072719
 40
20.8933513002891
 40
21.81753195914482
 40
23.4567350057914
 40
24.40732850891187
 40
25.22661697613264
 40
25.78729997738543
 40
26.03105667000593
 40
26.12483077166464
 40
26.92105998336527
 40
26.92105998336527
 40
26.92105998336527
 40
26.92105998336527
 10
524.6292061288339
 20
246.4817385127906
 30
0.0
 10
524.12950924294
 20
246.5034137007341
 30
0.0
 10
522.5679317562026
 20
246.5874263838253
 30
0.0
 10
520.1763902941791
 20
246.7202088153508
 30
0.0
 10
516.6051580006445
 20
246.9373543522341
 30
0.0
 10
512.6877012225668
 20
247.2737774913123
 30
0.0
 10
508.5434875139086
 20
247.8213496114462
 30
0.0
 10
505.7178583073909
 20
248.430869931378
 30
0.0
 10
504.0298901476604
 20
248.9933623998367
 30
0.0
 10
502.8834953545507
 20
249.4861136536038
 30
0.0
 10
501.962294648862
 20
250.2454063828772
 30
0.0
 10
501.3346003306355
 20
251.1987813104614
 30
0.0
 10
500.995125917827
 20
251.8991712480754
 30
0.0
 10
500.8768093546905
 20
252.4329079273145
 30
0.0
 10
500.8620480324973
 20
252.7314348442817
 30
0.0
 10
500.8481303380771
 20
253.1091916269926
 30
0.0
 10
500.8378272478179
 20
253.4056908029809
 30
0.0
 10
500.8274132988048
 20
253.6708932864031
 30
0.0
  0
SPLINE
  5
72
330
1F
100
AcDbEntity
  8
LINEE VISIBILI 2D
100
AcDbSpline
210
0.0
220
0.0
230
1.0
 70
     8
 71
     3
 72
    11
 73
     7
 74
     0
 42
0.000000001
 43
0.0000000001
 40
0.0
 40
0.0
 40
0.0
 40
0.0
 40
0.2989126593604678
 40
0.5906619302656735
 40
1.186081053451699
 40
2.553500460740234
 40
2.553500460740234
 40
2.553500460740234
 40
2.553500460740234
 10
522.3716168773553
 20
222.915603308299
 30
0.0
 10
522.3733652345768
 20
223.0147433084632
 30
0.0
 10
522.3966729957315
 20
223.2125218235602
 30
0.0
 10
522.4942681910459
 20
223.5940456314474
 30
0.0
 10
522.8677592701831
 20
224.2642470580692
 30
0.0
 10
523.4373929011631
 20
224.6333324441863
 30
0.0
 10
523.8474259538303
 20
224.8246420148704
 30
0.0
  0
SPLINE
  5
73
330
1F
100
AcDbEntity
  8
LINEE VISIBILI 2D
100
AcDbSpline
210
0.0
220
0.0
230
1.0
 70
    24
 71
     3
 72
     9
 73
     5
 74
     0
 42
0.000000001
 43
0.0000000001
 40
0.0
 40
0.0
 40
0.0
 40
0.0
 40
0.0077037050300817
 40
13.56099709003722
 40
13.56099709003722
 40
13.56099709003722
 40
13.56099709003722
 10
387.6875594266769
 20
253.6710474575324
 30
0.0
 10
387.7001779134885
 20
253.6710474575329
 30
0.0
 10
383.1804298142491
 20
253.6710474575323
 30
0.0
 10
378.6595221866862
 20
253.6710474575329
 30
0.0
 10
374.1419697466998
 20
253.6710474575324
 30
0.0
  0
SPLINE
  5
74
330
1F
100
AcDbEntity
  8
LINEE VISIBILI 2D
100
AcDbSpline
210
0.0
220
0.0
230
1.0
 70
     8
 71
     3
 72
    13
 73
     9
 74
     0
 42
0.000000001
 43
0.0000000001
 40
0.0
 40
0.0
 40
0.0
 40
0.0
 40
2.250810193196801
 40
4.774493075064297
 40
7.632229087579881
 40
10.84566644537854
 40
18.44731897446966
 40
27.52897534342231
 40
27.52897534342231
 40
27.52897534342231
 40
27.52897534342231
 10
343.8756711047276
 20
247.3806559731288
 30
0.0
 10
343.3796392516751
 20
246.8173000517032
 30
0.0
 10
342.1852359481247
 20
245.7530542952437
 30
0.0
 10
339.9975851708924
 20
244.4373315808225
 30
0.0
 10
337.3530155696293
 20
243.3228795108412
 30
0.0
 10
332.9705727800714
 20
242.0426669487753
 30
0.0
 10
326.3925960626324
 20
241.0704625232269
 30
0.0
 10
320.8292186660271
 20
240.8871766178242
 30
0.0
 10
317.8018507701951
 20
240.9144836544268
 30
0.0
  0
SPLINE
  5
75
330
1F
100
AcDbEntity
  8
LINEE VISIBILI 2D
100
AcDbSpline
210
0.0
220
0.0
230
1.0
 70
    12
 71
     2
 72
     6
 73
     3
 74
     0
 42
0.000000001
 43
0.0000000001
 40
0.0
 40
0.0
 40
0.0
 40
0.4917154947550977
 40
0.4917154947550977
 40
0.4917154947550977
 10
314.6958474001288
 20
222.8211011401747
 30
0.0
 41
1.0
 10
314.4502514972381
 20
222.8080416810156
 30
0.0
 41
0.999480899004503
 10
314.2060064536418
 20
222.7791928392903
 30
0.0
 41
1.0
  0
SPLINE
  5
76
330
1F
100
AcDbEntity
  8
LINEE VISIBILI 2D
100
AcDbSpline
210
0.0
220
0.0
230
1.0
 70
     8
 71
     3
 72
    17
 73
    13
 74
     0
 42
0.000000001
 43
0.0000000001
 40
0.0
 40
0.0
 40
0.0
 40
0.0
 40
7.977844088089189
 40
14.93099079201978
 40
20.87618806360028
 40
25.68379366416837
 40
29.13969316302974
 40
31.6985493899876
 40
32.72448721335549
 40
33.76836725336632
 40
34.92616654367919
 40
36.5708598266249
 40
36.5708598266249
 40
36.5708598266249
 40
36.5708598266249
 10
286.5995804764736
 20
243.5045089922088
 30
0.0
 10
283.9402959976035
 20
243.5051085594811
 30
0.0
 10
278.9630036586731
 20
243.5983128161714
 30
0.0
 10
272.0180840393778
 20
244.080601547856
 30
0.0
 10
266.1654816126055
 20
244.8716254250716
 30
0.0
 10
261.5431556550267
 20
245.9394256492482
 30
0.0
 10
258.1637082447755
 20
247.2351744958304
 30
0.0
 10
256.2178684007762
 20
248.6022944909096
 30
0.0
 10
255.3349717368743
 20
249.896971953218
 30
0.0
 10
254.973317110159
 20
250.9115409614566
 30
0.0
 10
254.7915347951468
 20
252.1889654994422
 30
0.0
 10
254.7965643576669
 20
253.1221424478239
 30
0.0
 10
254.7949494705709
 20
253.6710474575325
 30
0.0
  0
SPLINE
  5
77
330
1F
100
AcDbEntity
  8
LINEE VISIBILI 2D
100
AcDbSpline
210
0.0
220
0.0
230
1.0
 70
    24
 71
     2
 72
     6
 73
     3
 74
     0
 42
0.000000001
 43
0.0000000001
 40
0.0
 40
0.0
 40
0.0
 40
34.21377954476894
 40
34.21377954476894
 40
34.21377954476894
 10
374.1419697466997
 20
253.6710474575324
 30
0.0
 10
357.0350799743152
 20
253.6710474575325
 30
0.0
 10
339.9281902019308
 20
253.6710474575325
 30
0.0
  0
SPLINE
  5
78
330
1F
100
AcDbEntity
  8
LINEE VISIBILI 2D
100
AcDbSpline
210
0.0
220
0.0
230
1.0
 70
    12
 71
     2
 72
     8
 73
     5
 74
     0
 42
0.000000001
 43
0.0000000001
 40
0.0
 40
0.0
 40
0.0
 40
0.1510705535262058
 40
0.1510705535262058
 40
0.1724421343861073
 40
0.1724421343861073
 40
0.1724421343861073
 10
314.1865672100117
 20
222.7765783721786
 30
0.0
 41
1.0
 10
314.111119102028
 20
222.7690298362733
 30
0.0
 41
0.9942827269838846
 10
314.0389943324036
 20
222.7456329347846
 30
0.0
 41
1.0
 10
314.0286706277211
 20
222.7421891370099
 30
0.0
 41
0.9730455393092928
 10
314.020990557147
 20
222.7344784212544
 30
0.0
 41
1.0
  0
SPLINE
  5
79
330
1F
100
AcDbEntity
  8
LINEE VISIBILI 2D
100
AcDbSpline
210
0.0
220
0.0
230
1.0
 70
    24
 71
     2
 72
     6
 73
     3
 74
     0
 42
0.000000001
 43
0.0000000001
 40
0.0
 40
0.0
 40
0.0
 40
15.7704189571073
 40
15.7704189571073
 40
15.7704189571073
 10
322.2319437632207
 20
240.9726476518694
 30
0.0
 10
322.2319437632207
 20
233.0874381733157
 30
0.0
 10
322.2319437632207
 20
225.2022286947621
 30
0.0
  0
SPLINE
  5
7A
330
1F
100
AcDbEntity
  8
LINEE VISIBILI 2D
100
AcDbSpline
210
0.0
220
0.0
230
1.0
 70
     8
 71
     3
 72
    18
 73
    14
 74
     0
 42
0.000000001
 43
0.0000000001
 40
0.0
 40
0.0
 40
0.0
 40
0.0
 40
4.853072794541967
 40
9.552771489766924
 40
13.67034972269083
 40
15.38181797021315
 40
16.84345566549921
 40
19.2173477157471
 40
21.34126187750187
 40
23.25092903341622
 40
24.04411211426557
 40
24.33866658112899
 40
25.35252705623273
 40
25.35252705623273
 40
25.35252705623273
 40
25.35252705623273
 10
360.9172041898765
 20
244.1787308308107
 30
0.0
 10
359.3008337987294
 20
244.2445289131571
 30
0.0
 10
356.1237430231046
 20
244.4814425320312
 30
0.0
 10
351.6076471176581
 20
245.1059188571676
 30
0.0
 10
348.1725367327883
 20
245.8413928700703
 30
0.0
 10
345.8445536092594
 20
246.544390277309
 30
0.0
 10
344.1167487927717
 20
247.2062298584927
 30
0.0
 10
342.3775747673752
 20
248.1929101287367
 30
0.0
 10
340.8619039638735
 20
249.735467158542
 30
0.0
 10
340.1555352803292
 20
251.2067747856231
 30
0.0
 10
339.9888295158995
 20
252.1988643091977
 30
0.0
 10
339.9435869401504
 20
252.8960286646703
 30
0.0
 10
339.938804081069
 20
253.3338386459084
 30
0.0
 10
339.9227351766176
 20
253.6708451392071
 30
0.0
  0
SPLINE
  5
7B
330
1F
100
AcDbEntity
  8
LINEE VISIBILI 2D
100
AcDbSpline
210
0.0
220
0.0
230
1.0
 70
    12
 71
     2
 72
     6
 73
     3
 74
     0
 42
0.000000001
 43
0.0000000001
 40
0.0
 40
0.0
 40
0.0
 40
0.0920888219049946
 40
0.0920888219049946
 40
0.0920888219049946
 10
314.018570696497
 20
222.7361255384627
 30
0.0
 41
1.0
 10
314.0170956590236
 20
222.7821488364422
 30
0.0
 41
0.9999179676302437
 10
314.0144422222094
 20
222.8281192504662
 30
0.0
 41
1.0
  0
SPLINE
  5
7C
330
1F
100
AcDbEntity
  8
LINEE VISIBILI 2D
100
AcDbSpline
210
0.0
220
0.0
230
1.0
 70
     8
 71
     3
 72
    12
 73
     8
 74
     0
 42
0.000000001
 43
0.0000000001
 40
0.0
 40
0.0
 40
0.0
 40
0.0
 40
0.5040883420754404
 40
0.9621662920591262
 40
1.780983470618159
 40
2.499958314061875
 40
3.189660302964282
 40
3.189660302964282
 40
3.189660302964282
 40
3.189660302964282
 10
326.6706522083701
 20
225.0415462473134
 30
0.0
 10
326.826936438374
 20
224.9801771633113
 30
0.0
 10
327.1214530383568
 20
224.8515519705674
 30
0.0
 10
327.6404237142089
 20
224.5629107449548
 30
0.0
 10
328.1675791901103
 20
224.1481968840258
 30
0.0
 10
328.5971782865814
 20
223.5299875066174
 30
0.0
 10
328.7089683901217
 20
223.0641335113884
 30
0.0
 10
328.7158301814192
 20
222.8344455467664
 30
0.0
  0
SPLINE
  5
7D
330
1F
100
AcDbEntity
  8
LINEE VISIBILI 2D
100
AcDbSpline
210
0.0
220
0.0
230
1.0
 70
    12
 71
     2
 72
     6
 73
     3
 74
     0
 42
0.000000001
 43
0.0000000001
 40
0.0
 40
0.0
 40
0.0
 40
0.0940159635826805
 40
0.0940159635826805
 40
0.0940159635826805
 10
328.7177334481188
 20
222.8240355149558
 30
0.0
 41
1.0
 10
328.7154409063442
 20
222.7770831488981
 30
0.0
 41
0.9999897928366641
 10
328.7135727351484
 20
222.7301119836731
 30
0.0
 41
1.0
  0
SPLINE
  5
7E
330
1F
100
AcDbEntity
  8
LINEE VISIBILI 2D
100
AcDbSpline
210
0.0
220
0.0
230
1.0
 70
    24
 71
     2
 72
     6
 73
     3
 74
     0
 42
0.000000001
 43
0.0000000001
 40
0.0
 40
0.0
 40
0.0
 40
15.86919284198385
 40
15.86919284198385
 40
15.86919284198385
 10
321.4319437632207
 20
225.0776286623093
 30
0.0
 10
321.4319437632207
 20
233.0122250833012
 30
0.0
 10
321.4319437632207
 20
240.9468215042932
 30
0.0
  0
SPLINE
  5
7F
330
1F
100
AcDbEntity
  8
LINEE VISIBILI 2D
100
AcDbSpline
210
0.0
220
0.0
230
1.0
 70
     8
 71
     3
 72
    15
 73
    11
 74
     0
 42
0.000000001
 43
0.0000000001
 40
0.0
 40
0.0
 40
0.0
 40
0.0
 40
6.396460155564175
 40
14.39324399597486
 40
23.37865614854551
 40
30.63924040783068
 40
35.94670679205944
 40
40.33742114568285
 40
43.95035062636622
 40
46.85902188143667
 40
46.85902188143667
 40
46.85902188143667
 40
46.85902188143667
 10
557.6966824987202
 20
240.9167130976734
 30
0.0
 10
555.5646086506929
 20
240.8940914081912
 30
0.0
 10
550.7664734471773
 20
240.9754587755391
 30
0.0
 10
542.9831527846416
 20
241.370931262495
 30
0.0
 10
534.9198003166541
 20
241.9076777305501
 30
0.0
 10
527.765716514747
 20
242.5796218145305
 30
0.0
 10
522.1619712632353
 20
243.3342986550058
 30
0.0
 10
517.8001971192546
 20
244.1591749110919
 30
0.0
 10
514.2846187897586
 20
245.1078438419844
 30
0.0
 10
512.2604391904661
 20
245.9142251942685
 30
0.0
 10
511.3986574859541
 20
246.3598581380419
 30
0.0
  0
SPLINE
  5
80
330
1F
100
AcDbEntity
  8
LINEE VISIBILI 2D
100
AcDbSpline
210
0.0
220
0.0
230
1.0
 70
    12
 71
     5
 72
    14
 73
     8
 74
     0
 42
0.000000001
 43
0.0000000001
 40
0.0
 40
0.0
 40
0.0
 40
0.0
 40
0.0
 40
0.0
 40
443.252870906186
 40
886.505741812372
 40
1329.75861271856
 40
1329.75861271856
 40
1329.75861271856
 40
1329.75861271856
 40
1329.75861271856
 40
1329.75861271856
 10
572.7302493253517
 20
82.87322698728907
 30
0.0
 41
1.0
 10
577.0241074786313
 20
77.71270249469961
 30
0.0
 41
1.0
 10
582.0551914853827
 20
65.44533610550505
 30
0.0
 41
1.0
 10
577.1726682785634
 20
43.578234388048
 30
0.0
 41
1.0
 10
570.2530045625545
 20
22.94045680379251
 30
0.0
 41
1.0
 10
533.9306094442591
 20
35.44338316323341
 30
0.0
 41
1.0
 10
518.3181272703844
 20
46.71009860472461
 30
0.0
 41
1.0
 10
513.2228474387372
 20
52.47827885898305
 30
0.0
 41
1.0
  0
SPLINE
  5
81
330
1F
100
AcDbEntity
  8
LINEE VISIBILI 2D
100
AcDbSpline
210
0.0
220
0.0
230
1.0
 70
     8
 71
     3
 72
    23
 73
    19
 74
     0
 42
0.000000001
 43
0.0000000001
 40
0.0
 40
0.0
 40
0.0
 40
0.0
 40
3.306206778512756
 40
7.116207358132038
 40
11.4753775279029
 40
16.43020554380659
 40
20.27480948326793
 40
30.0244413535436
 40
38.68231906631244
 40
44.86042695308559
 40
50.84409676250284
 40
55.53131514910309
 40
59.39474737481272
 40
62.89426847134007
 40
66.73981864002288
 40
70.5697026848439
 40
78.77034181297337
 40
87.51520375805174
 40
87.51520375805174
 40
87.51520375805174
 40
87.51520375805174
 10
594.3281858292603
 20
69.75430058932915
 30
0.0
 10
593.3190420664473
 20
69.31107446768866
 30
0.0
 10
591.260206906785
 20
68.10582877994173
 30
0.0
 10
588.404168555873
 20
65.53627966742928
 30
0.0
 10
585.6616454896102
 20
62.1158456466279
 30
0.0
 10
583.27882919495
 20
58.43006738540515
 30
0.0
 10
580.182570533695
 20
53.0776439025255
 30
0.0
 10
576.6220892568272
 20
46.57013020215435
 30
0.0
 10
572.5146548067444
 20
39.47809898578952
 30
0.0
 10
569.1894316798912
 20
33.38595711316075
 30
0.0
 10
566.8994576413473
 20
28.24563363981256
 30
0.0
 10
565.702330405757
 20
23.52498808251831
 30
0.0
 10
565.6299426382948
 20
19.47808317539891
 30
0.0
 10
566.4983267018528
 20
15.81441505414112
 30
0.0
 10
568.287903314766
 20
12.50969526469027
 30
0.0
 10
571.8855480866425
 20
8.576683133702083
 30
0.0
 10
578.0544760594057
 20
5.142765159537119
 30
0.0
 10
583.7440292162962
 20
4.370216608143513
 30
0.0
 10
586.6567527096338
 20
4.490861651634985
 30
0.0
  0
SPLINE
  5
82
330
1F
100
AcDbEntity
  8
LINEE VISIBILI 2D
100
AcDbSpline
210
0.0
220
0.0
230
1.0
 70
     8
 71
     3
 72
    22
 73
    18
 74
     0
 42
0.000000001
 43
0.0000000001
 40
0.0
 40
0.0
 40
0.0
 40
0.0
 40
5.675922284930277
 40
11.96005441517159
 40
18.25799765792521
 40
25.17784389535811
 40
39.65995013875174
 40
47.22667201940669
 40
54.16400587437533
 40
61.07258888685837
 40
67.03397199524031
 40
73.02324452927385
 40
78.66027112079772
 40
84.32974623137585
 40
90.35148140794884
 40
95.691974052002
 40
100.7148624527265
 40
100.7148624527265
 40
100.7148624527265
 40
100.7148624527265
 10
586.6567527096338
 20
4.490861651634987
 30
0.0
 10
588.5472339461944
 20
4.567689566747421
 30
0.0
 10
592.5100766704243
 20
5.189429477292506
 30
0.0
 10
598.2065950364984
 20
7.429181243826197
 30
0.0
 10
603.6971963595435
 20
10.95859558565101
 30
0.0
 10
610.5009657351989
 20
17.2494645544542
 30
0.0
 10
615.9254287495667
 20
25.37128681715787
 30
0.0
 10
619.4550045130045
 20
34.38857101382835
 30
0.0
 10
620.9479001849177
 20
41.39913129239559
 30
0.0
 10
621.152662805448
 20
48.02634504280849
 30
0.0
 10
620.0640904626782
 20
54.25490415558702
 30
0.0
 10
617.8196916563854
 20
59.71054823048762
 30
0.0
 10
614.4176141211728
 20
64.41732646965426
 30
0.0
 10
609.9828728407688
 20
68.18595037865217
 30
0.0
 10
604.7727836793404
 20
70.59718482700453
 30
0.0
 10
599.273697289465
 20
71.2547414746473
 30
0.0
 10
595.8580554019036
 20
70.43183248747401
 30
0.0
 10
594.3281858292603
 20
69.75430058932915
 30
0.0
  0
SPLINE
  5
83
330
1F
100
AcDbEntity
  8
LINEE VISIBILI 2D
100
AcDbSpline
210
0.0
220
0.0
230
1.0
 70
     8
 71
     3
 72
    22
 73
    18
 74
     0
 42
0.000000001
 43
0.0000000001
 40
0.0
 40
0.0
 40
0.0
 40
0.0
 40
4.966823430266675
 40
9.738271920770389
 40
17.79977363891811
 40
21.51870630389862
 40
24.75970736358908
 40
27.56495241573133
 40
28.79804708686296
 40
29.9339348320178
 40
31.77497402244021
 40
33.94002401358249
 40
35.20757937375724
 40
36.8007517719796
 40
41.05076765509508
 40
49.78930284872694
 40
59.99655919681918
 40
59.99655919681918
 40
59.99655919681918
 40
59.99655919681918
 10
528.6096166389436
 20
10.03079418036614
 30
0.0
 10
527.1355999170311
 20
9.277443500144937
 30
0.0
 10
524.1830599019406
 20
7.919827785267101
 30
0.0
 10
518.5942472408871
 20
5.916207470359712
 30
0.0
 10
513.1330971908562
 20
4.874164237097772
 30
0.0
 10
508.1018733922643
 20
5.15950150181209
 30
0.0
 10
504.9366761844248
 20
5.973684506407319
 30
0.0
 10
502.7939558803066
 20
7.182071955113727
 30
0.0
 10
501.6023571805592
 20
8.446914659373906
 30
0.0
 10
500.8958408135824
 20
9.675935012630482
 30
0.0
 10
500.7062318842741
 20
11.43268821833873
 30
0.0
 10
501.3510607595708
 20
13.11075183708823
 30
0.0
 10
502.2015572419051
 20
14.5434671766237
 30
0.0
 10
503.6334448205557
 20
16.44070993725147
 30
0.0
 10
506.7954179832834
 20
20.13621280942839
 30
0.0
 10
512.5944751873094
 20
25.28714582505105
 30
0.0
 10
517.8654919428179
 20
28.78790283153044
 30
0.0
 10
520.7769514018289
 20
30.54699832460876
 30
0.0
  0
SPLINE
  5
84
330
1F
100
AcDbEntity
  8
LINEE VISIBILI 2D
100
AcDbSpline
210
0.0
220
0.0
230
1.0
 70
     8
 71
     3
 72
    21
 73
    17
 74
     0
 42
0.000000001
 43
0.0000000001
 40
0.0
 40
0.0
 40
0.0
 40
0.0
 40
4.806917150270117
 40
8.897383943988903
 40
15.99511726107057
 40
19.43696684004588
 40
22.51014900113039
 40
25.30334306714013
 40
27.90529443050374
 40
30.14664105762879
 40
32.55018820321231
 40
35.20417154187738
 40
38.37014946436582
 40
42.14671840763968
 40
46.47482673048979
 40
56.07535523277397
 40
56.07535523277397
 40
56.07535523277397
 40
56.07535523277397
 10
520.7769514018291
 20
30.54699832460886
 30
0.0
 10
522.1479333364163
 20
31.37610357489214
 30
0.0
 10
524.749744613462
 20
32.80706735094473
 30
0.0
 10
529.6699488910242
 20
34.87985224750156
 30
0.0
 10
534.5277717828753
 20
35.79309184269525
 30
0.0
 10
539.0728248394734
 20
35.25819034191796
 30
0.0
 10
541.9954501830168
 20
34.151568684005
 30
0.0
 10
544.2707003178552
 20
32.41596518638519
 30
0.0
 10
545.6546108975992
 20
30.22529577494009
 30
0.0
 10
546.1192262245786
 20
27.81584482028863
 30
0.0
 10
545.7619126200026
 20
25.37865482016947
 30
0.0
 10
544.5986198778262
 20
22.87349028230338
 30
0.0
 10
542.6808443868979
 20
20.30000848999978
 30
0.0
 10
540.0338834340982
 20
17.62443691825604
 30
0.0
 10
535.4408866545951
 20
13.90680540510537
 30
0.0
 10
531.4569811451933
 20
11.4893100082317
 30
0.0
 10
528.6096166389437
 20
10.03079418036618
 30
0.0
  0
SPLINE
  5
85
330
1F
100
AcDbEntity
  8
LINEE VISIBILI 2D
100
AcDbSpline
210
0.0
220
0.0
230
1.0
 70
     8
 71
     3
 72
    21
 73
    17
 74
     0
 42
0.000000001
 43
0.0000000001
 40
0.0
 40
0.0
 40
0.0
 40
0.0
 40
5.750559801049977
 40
11.3218031545228
 40
16.7065176352469
 40
21.48184964809953
 40
25.42350913687074
 40
28.8484828426778
 40
31.91331318556077
 40
34.83753681267522
 40
38.18750774270377
 40
42.08620621725321
 40
46.48098165908054
 40
51.37154463284135
 40
61.89994474087561
 40
71.90977020481631
 40
71.90977020481631
 40
71.90977020481631
 40
71.90977020481631
 10
576.5979122992667
 20
123.8170222310122
 30
0.0
 10
577.670207150727
 20
122.228041797834
 30
0.0
 10
579.6252806766856
 20
118.9951690393765
 30
0.0
 10
582.0581535390393
 20
113.9792686903543
 30
0.0
 10
583.8752294521008
 20
109.0526122540421
 30
0.0
 10
584.975463961821
 20
104.4721626373286
 30
0.0
 10
585.326924835344
 20
100.4259141450632
 30
0.0
 10
584.9244360013616
 20
96.94768559110264
 30
0.0
 10
583.7070861126538
 20
94.01269575169923
 30
0.0
 10
581.578435541911
 20
91.67291138855786
 30
0.0
 10
578.5096170423437
 20
90.11229378889935
 30
0.0
 10
574.650095249955
 20
89.46856343868762
 30
0.0
 10
570.2416723442668
 20
89.72206151578905
 30
0.0
 10
563.7953260659067
 20
91.24278935139907
 30
0.0
 10
556.0711615609044
 20
94.93471748021253
 30
0.0
 10
550.8845536008319
 20
99.5063930234204
 30
0.0
 10
548.7913286567997
 20
102.1117007743765
 30
0.0
  0
SPLINE
  5
86
330
1F
100
AcDbEntity
  8
LINEE VISIBILI 2D
100
AcDbSpline
210
0.0
220
0.0
230
1.0
 70
     8
 71
     3
 72
    20
 73
    16
 74
     0
 42
0.000000001
 43
0.0000000001
 40
0.0
 40
0.0
 40
0.0
 40
0.0
 40
1.573476766816345
 40
2.002985296367018
 40
2.036653375144486
 40
2.512172199336881
 40
3.159170611426904
 40
4.156393951993449
 40
8.88026253488803
 40
11.34917835736612
 40
13.18353904203937
 40
13.80143999564699
 40
13.96195257733448
 40
14.00998542720405
 40
14.03374937968595
 40
14.03374937968595
 40
14.03374937968595
 40
14.03374937968595
 10
314.6958474001288
 20
222.8211011401747
 30
0.0
 10
315.2194864196079
 20
222.8514079794953
 30
0.0
 10
315.8871058661463
 20
222.8685633907552
 30
0.0
 10
316.5659076431439
 20
222.8751023550618
 30
0.0
 10
316.8787673842624
 20
222.8770983961494
 30
0.0
 10
317.2640932577465
 20
222.8706898643305
 30
0.0
 10
317.9707723804642
 20
222.8655943273135
 30
0.0
 10
320.0922735222654
 20
222.7958890727969
 30
0.0
 10
322.8196794515899
 20
222.6724117786698
 30
0.0
 10
325.828195172841
 20
222.6080990521558
 30
0.0
 10
327.4688416909842
 20
222.6152804459256
 30
0.0
 10
328.3388387924271
 20
222.6626222566526
 30
0.0
 10
328.6125959879141
 20
222.6946516849587
 30
0.0
 10
328.6879874179079
 20
222.7130768097485
 30
0.0
 10
328.710097215847
 20
222.7231089237408
 30
0.0
 10
328.7144966768301
 20
222.7300751640248
 30
0.0
  0
SPLINE
  5
87
330
1F
100
AcDbEntity
  8
LINEE VISIBILI 2D
100
AcDbSpline
210
0.0
220
0.0
230
1.0
 70
    24
 71
     2
 72
     6
 73
     3
 74
     0
 42
0.000000001
 43
0.0000000001
 40
0.0
 40
0.0
 40
0.0
 40
19.7217560379018
 40
19.7217560379018
 40
19.7217560379018
 10
565.7010513055411
 20
253.671052854247
 30
0.0
 10
555.8401732865902
 20
253.671052854247
 30
0.0
 10
545.9792952676394
 20
253.671052854247
 30
0.0
  0
SPLINE
  5
88
330
1F
100
AcDbEntity
  8
LINEE VISIBILI 2D
100
AcDbSpline
210
0.0
220
0.0
230
1.0
 70
     8
 71
     3
 72
    16
 73
    12
 74
     0
 42
0.000000001
 43
0.0000000001
 40
0.0
 40
0.0
 40
0.0
 40
0.0
 40
5.168678974568309
 40
9.977277394351296
 40
17.94791827100481
 40
21.3098793609036
 40
23.94914161222329
 40
24.94173599965504
 40
25.76007734754516
 40
26.35386838102146
 40
26.8111248846011
 40
26.8111248846011
 40
26.8111248846011
 40
26.8111248846011
 10
289.9163190559016
 20
54.52066721498569
 30
0.0
 10
288.1951655626331
 20
54.58690920386021
 30
0.0
 10
284.8688232692318
 20
54.67136421343988
 30
0.0
 10
278.8874715279142
 20
54.63132628937154
 30
0.0
 10
273.509093370705
 20
54.32277628630296
 30
0.0
 10
268.9040430489584
 20
53.59831893681485
 30
0.0
 10
266.6407732372338
 20
53.02470154864567
 30
0.0
 10
265.2572267904526
 20
52.48119344399033
 30
0.0
 10
264.5557537515514
 20
52.08953078901614
 30
0.0
 10
264.0807002659249
 20
51.67632033683481
 30
0.0
 10
263.9279968722547
 20
51.34773645384432
 30
0.0
 10
263.9239392959062
 20
51.19326442562606
 30
0.0
  0
SPLINE
  5
89
330
1F
100
AcDbEntity
  8
LINEE VISIBILI 2D
100
AcDbSpline
210
0.0
220
0.0
230
1.0
 70
     8
 71
     3
 72
    16
 73
    12
 74
     0
 42
0.000000001
 43
0.0000000001
 40
0.0
 40
0.0
 40
0.0
 40
0.0
 40
0.4380312940210991
 40
0.9759915844538872
 40
1.640138277520548
 40
2.495158696710055
 40
4.63658411753207
 40
7.583420328035253
 40
11.53992957840186
 40
16.05687986206821
 40
26.36174156496286
 40
26.36174156496286
 40
26.36174156496286
 40
26.36174156496286
 10
315.1137745500981
 20
49.5319812514221
 30
0.0
 10
315.122533038354
 20
49.67793953907956
 30
0.0
 10
315.0490912459458
 20
50.00487774258067
 30
0.0
 10
314.711748071053
 20
50.4452487485062
 30
0.0
 10
314.1679041543056
 20
50.86730806987641
 30
0.0
 10
313.0859191613324
 20
51.44052954074692
 30
0.0
 10
311.2017385938101
 20
52.06843188612866
 30
0.0
 10
308.2591735942418
 20
52.73184948959967
 30
0.0
 10
304.499269969033
 20
53.33717516511391
 30
0.0
 10
298.2812191335245
 20
54.06302273662124
 30
0.0
 10
293.3483099478878
 20
54.38455616456349
 30
0.0
 10
289.9163190559017
 20
54.52066721498569
 30
0.0
  0
SPLINE
  5
8A
330
1F
100
AcDbEntity
  8
LINEE VISIBILI 2D
100
AcDbSpline
210
0.0
220
0.0
230
1.0
 70
     8
 71
     3
 72
    15
 73
    11
 74
     0
 42
0.000000001
 43
0.0000000001
 40
0.0
 40
0.0
 40
0.0
 40
0.0
 40
2.20198195098621
 40
4.141160009198966
 40
5.899486837081495
 40
7.355432415683461
 40
8.569719331180117
 40
9.586278615779714
 40
10.3881086166063
 40
11.12863600909712
 40
11.12863600909712
 40
11.12863600909712
 40
11.12863600909712
 10
264.6228276110335
 20
48.15121089590004
 30
0.0
 10
263.8892885473605
 20
48.12548818039155
 30
0.0
 10
262.510727875858
 20
48.04656878264149
 30
0.0
 10
260.5556636251384
 20
47.82668846379372
 30
0.0
 10
258.8645181505117
 20
47.51798642940897
 30
0.0
 10
257.4405735483107
 20
47.1208319311873
 30
0.0
 10
256.30523568008
 20
46.64187614828844
 30
0.0
 10
255.459115581917
 20
46.07596066305153
 30
0.0
 10
254.9175181709957
 20
45.39792726488159
 30
0.0
 10
254.7956767020262
 20
44.88293062226167
 30
0.0
 10
254.7967280785432
 20
44.63650503268344
 30
0.0
  0
SPLINE
  5
8B
330
1F
100
AcDbEntity
  8
LINEE VISIBILI 2D
100
AcDbSpline
210
0.0
220
0.0
230
1.0
 70
    12
 71
     3
 72
    10
 73
     6
 74
     0
 42
0.000000001
 43
0.0000000001
 40
570.6951822835335
 40
570.6951822835335
 40
570.6951822835335
 40
570.6951822835335
 40
613.828959764722
 40
657.673885462202
 40
678.137409930755
 40
678.137409930755
 40
678.137409930755
 40
678.137409930755
 10
293.8316567857696
 20
37.83837737960482
 30
0.0
 41
336.7907188597322
 10
293.8622407756064
 20
38.296377373054
 30
0.0
 41
335.3537488716008
 10
293.7452630988992
 20
39.23897048051563
 30
0.0
 41
332.4346243461331
 10
293.1278750387779
 20
40.42277110956746
 30
0.0
 41
328.8397143220335
 10
292.5308653485421
 20
41.13043705299765
 30
0.0
 41
326.7276004616509
 10
292.3164836556778
 20
41.35548942463662
 30
0.0
 41
326.0615793580072
  0
SPLINE
  5
8C
330
1F
100
AcDbEntity
  8
LINEE VISIBILI 2D
100
AcDbSpline
210
0.0
220
0.0
230
1.0
 70
     8
 71
     3
 72
    11
 73
     7
 74
     0
 42
0.000000001
 43
0.0000000001
 40
0.0
 40
0.0
 40
0.0
 40
0.0
 40
0.296907338469912
 40
0.6143487252028311
 40
1.53868920953663
 40
3.165325619957987
 40
3.165325619957987
 40
3.165325619957987
 40
3.165325619957987
 10
323.9050570990916
 20
9.640867740561296
 30
0.0
 10
323.8098353436828
 20
9.666763603739168
 30
0.0
 10
323.6141135750283
 20
9.729952212325745
 30
0.0
 10
323.1128794546299
 20
9.837031240504079
 30
0.0
 10
322.1733689960272
 20
10.01859930503462
 30
0.0
 10
321.3232777187138
 20
10.08124958882867
 30
0.0
 10
320.7818188463094
 20
10.10229195791127
 30
0.0
  0
SPLINE
  5
8D
330
1F
100
AcDbEntity
  8
LINEE VISIBILI 2D
100
AcDbSpline
210
0.0
220
0.0
230
1.0
 70
     8
 71
     3
 72
    16
 73
    12
 74
     0
 42
0.000000001
 43
0.0000000001
 40
0.0
 40
0.0
 40
0.0
 40
0.0
 40
4.170783824137374
 40
8.580391744842606
 40
13.14197016674034
 40
17.92341803212702
 40
22.24318290112472
 40
24.14110252702959
 40
25.81104349739964
 40
28.64851304074477
 40
31.72453553967519
 40
31.72453553967519
 40
31.72453553967519
 40
31.72453553967519
 10
368.114307573109
 20
21.98848625347856
 30
0.0
 10
367.0328362844308
 20
21.11315530181603
 30
0.0
 10
364.5803742057191
 20
19.61112307053563
 30
0.0
 10
360.4462507479019
 20
18.09807174894568
 30
0.0
 10
355.8927729909549
 20
17.40567402466986
 30
0.0
 10
351.3285112404656
 20
17.47677291262345
 30
0.0
 10
347.7018771493008
 20
18.13353632469821
 30
0.0
 10
345.2315316018156
 20
19.04802680405203
 30
0.0
 10
343.3407092750247
 20
20.05798004177662
 30
0.0
 10
341.5259758755053
 20
21.8935379865849
 30
0.0
 10
340.8694466174038
 20
23.81034775815549
 30
0.0
 10
340.6637525036444
 20
24.80566776752492
 30
0.0
  0
SPLINE
  5
8E
330
1F
100
AcDbEntity
  8
LINEE VISIBILI 2D
100
AcDbSpline
210
0.0
220
0.0
230
1.0
 70
     8
 71
     3
 72
    14
 73
    10
 74
     0
 42
0.000000001
 43
0.0000000001
 40
0.0
 40
0.0
 40
0.0
 40
0.0
 40
1.100485668738387
 40
2.231564532748911
 40
3.597809497689691
 40
5.27320634536697
 40
7.302613498488184
 40
9.706530063550032
 40
15.50986492387169
 40
15.50986492387169
 40
15.50986492387169
 40
15.50986492387169
 10
372.713399970629
 20
31.73806185178253
 30
0.0
 10
372.7071154530508
 20
32.10307022347327
 30
0.0
 10
372.5277412235354
 20
32.85071148659458
 30
0.0
 10
371.7236575816123
 20
33.77536779200037
 30
0.0
 10
370.4931086528622
 20
34.4516671787021
 30
0.0
 10
368.8649196927981
 20
34.92664305498594
 30
0.0
 10
366.8446860495375
 20
35.21006059644776
 30
0.0
 10
363.4313176266916
 20
35.33354278126627
 30
0.0
 10
360.6979488330378
 20
35.10211227434669
 30
0.0
 10
358.7804521771694
 20
34.85411396750217
 30
0.0
  0
SPLINE
  5
8F
330
1F
100
AcDbEntity
  8
LINEE VISIBILI 2D
100
AcDbSpline
210
0.0
220
0.0
230
1.0
 70
    12
 71
     3
 72
    10
 73
     6
 74
     0
 42
0.000000001
 43
0.0000000001
 40
0.4723094112616421
 40
0.4723094112616421
 40
0.4723094112616421
 40
0.4723094112616421
 40
0.481108716682715
 40
0.481108716682715
 40
0.5
 40
0.5
 40
0.5
 40
0.5
 10
540.2996103275541
 20
222.9075282016312
 30
0.0
 41
1.0
 10
540.3023653345692
 20
222.9141995859749
 30
0.0
 41
1.0
 10
540.2932950090212
 20
222.9210412186511
 30
0.0
 41
1.0
 10
540.2222652827065
 20
222.9418599181104
 30
0.0
 41
1.0
 10
540.113157439818
 20
222.9540826313517
 30
0.0
 41
1.0
 10
540.0068159924635
 20
222.9614135390326
 30
0.0
 41
1.0
  0
SPLINE
  5
90
330
1F
100
AcDbEntity
  8
LINEE VISIBILI 2D
100
AcDbSpline
210
0.0
220
0.0
230
1.0
 70
    12
 71
     3
 72
    22
 73
    18
 74
     0
 42
0.000000001
 43
0.0000000001
 40
0.0
 40
0.0
 40
0.0
 40
0.0
 40
1.967514473857515
 40
1.967514473857515
 40
1.967514473857515
 40
2.937227333378029
 40
2.937227333378029
 40
2.937227333378029
 40
4.095770761253484
 40
5.295949725905027
 40
7.913961488579305
 40
9.842006648801009
 40
10.47822550752875
 40
10.8406966577012
 40
10.8406966577012
 40
10.8406966577012
 40
10.94383374338537
 40
10.94383374338537
 40
10.94383374338537
 40
10.94383374338537
 10
320.6944758948715
 20
10.00942284331653
 30
0.0
 41
1.0
 10
320.0383040950056
 20
10.02079329263516
 30
0.0
 41
0.9986837035069704
 10
319.3827137016854
 20
9.990927689624483
 30
0.0
 41
0.99868370350697
 10
318.7302935689178
 20
9.919943970250023
 30
0.0
 41
1.0
 10
318.4088327913859
 20
9.88582223075465
 30
0.0
 41
0.9998204308676529
 10
318.0882505151689
 20
9.844249057034853
 30
0.0
 41
0.9998204308676525
 10
317.7687194403105
 20
9.795246844866826
 30
0.0
 41
1.0
 10
317.3868411535289
 20
9.737191927005886
 30
0.0
 41
1.0
 10
316.6128262767311
 20
9.599131071478643
 30
0.0
 41
1.0
 10
314.9925224947985
 20
9.240540624986577
 30
0.0
 41
1.0
 10
313.1445193317414
 20
8.735701018009035
 30
0.0
 41
1.0
 10
311.5077839693275
 20
8.177147967945134
 30
0.0
 41
1.0
 10
310.6235327727398
 20
7.761720119969721
 30
0.0
 41
1.0
 10
310.3553539798795
 20
7.558001004328737
 30
0.0
 41
1.0
 10
310.283592665115
 20
7.459963325066052
 30
0.0
 41
1.0
 10
310.2636262954667
 20
7.431728148294814
 30
0.0
 41
0.9883440574083735
 10
310.2492657767217
 20
7.400269339900254
 30
0.0
 41
0.9883440574083736
 10
310.241013265026
 20
7.366686946076318
 30
0.0
 41
1.0
  0
SPLINE
  5
91
330
1F
100
AcDbEntity
  8
LINEE VISIBILI 2D
100
AcDbSpline
210
0.0
220
0.0
230
1.0
 70
     8
 71
     3
 72
    10
 73
     6
 74
     0
 42
0.000000001
 43
0.0000000001
 40
0.0
 40
0.0
 40
0.0
 40
0.0
 40
0.3520661743125406
 40
0.9033807779518369
 40
2.238551307873562
 40
2.238551307873562
 40
2.238551307873562
 40
2.238551307873562
 10
540.0068159924635
 20
222.9614135390326
 30
0.0
 10
539.8897072564142
 20
222.9721271240605
 30
0.0
 10
539.5887322946895
 20
222.9763166751649
 30
0.0
 10
538.842580740687
 20
222.9783759310398
 30
0.0
 10
538.2145112436046
 20
222.9365270575131
 30
0.0
 10
537.7696676033856
 20
222.925566975719
 30
0.0
  0
SPLINE
  5
92
330
1F
100
AcDbEntity
  8
LINEE VISIBILI 2D
100
AcDbSpline
210
0.0
220
0.0
230
1.0
 70
     8
 71
     3
 72
    16
 73
    12
 74
     0
 42
0.000000001
 43
0.0000000001
 40
0.0
 40
0.0
 40
0.0
 40
0.0
 40
2.53330312907954
 40
4.777566946756626
 40
9.21714326037624
 40
13.46286471381506
 40
14.91047824048159
 40
15.29834916501818
 40
15.38519557447204
 40
15.40655435442202
 40
15.41629597078318
 40
15.41629597078318
 40
15.41629597078318
 40
15.41629597078318
 10
537.7696676033855
 20
222.925566975719
 30
0.0
 10
536.9259666097224
 20
222.8902630855603
 30
0.0
 10
535.3347031226484
 20
222.8270650206875
 30
0.0
 10
532.2634597098728
 20
222.7397057963586
 30
0.0
 10
528.6203573746599
 20
222.7004140888705
 30
0.0
 10
525.2425499198795
 20
222.7304756818843
 30
0.0
 10
523.216732060094
 20
222.8086123764874
 30
0.0
 10
522.5778913899868
 20
222.8610681664148
 30
0.0
 10
522.4143688521077
 20
222.8863141538105
 30
0.0
 10
522.3771810315698
 20
222.9006675774407
 30
0.0
 10
522.3710604345201
 20
222.9099329603785
 30
0.0
 10
522.3736575550136
 20
222.913315280559
 30
0.0
  0
SPLINE
  5
93
330
1F
100
AcDbEntity
  8
LINEE VISIBILI 2D
100
AcDbSpline
210
0.0
220
0.0
230
1.0
 70
    12
 71
     2
 72
     6
 73
     3
 74
     0
 42
0.000000001
 43
0.0000000001
 40
0.0
 40
0.0
 40
0.0
 40
0.0162173492538557
 40
0.0162173492538557
 40
0.0162173492538557
 10
523.9563273054912
 20
224.4672764087457
 30
0.0
 41
1.0
 10
523.9639362842379
 20
224.4700793116614
 30
0.0
 41
0.9999746993449716
 10
523.9715046175326
 20
224.4729901798246
 30
0.0
 41
1.0
  0
SPLINE
  5
94
330
1F
100
AcDbEntity
  8
LINEE VISIBILI 2D
100
AcDbSpline
210
0.0
220
0.0
230
1.0
 70
     8
 71
     3
 72
    13
 73
     9
 74
     0
 42
0.000000001
 43
0.0000000001
 40
0.0
 40
0.0
 40
0.0
 40
0.0
 40
1.02574656374362
 40
1.718131452165725
 40
2.42607214360151
 40
2.57030748735349
 40
2.605666167273262
 40
2.621964456565856
 40
2.621964456565856
 40
2.621964456565856
 40
2.621964456565856
 10
537.6938514722351
 20
222.8211065368891
 30
0.0
 10
538.0354575090785
 20
222.8361136937713
 30
0.0
 10
538.6077352185994
 20
222.856959259388
 30
0.0
 10
539.4161453788465
 20
222.8823645928147
 30
0.0
 10
539.9309682424544
 20
222.8692030370392
 30
0.0
 10
540.226158986777
 20
222.8457075153582
 30
0.0
 10
540.2894096227863
 20
222.8280090681939
 30
0.0
 10
540.3036231844418
 20
222.8164921510629
 30
0.0
 10
540.3009980512111
 20
222.8102362902312
 30
0.0
  0
SPLINE
  5
95
330
1F
100
AcDbEntity
  8
LINEE VISIBILI 2D
100
AcDbSpline
210
0.0
220
0.0
230
1.0
 70
     8
 71
     3
 72
    21
 73
    17
 74
     0
 42
0.000000001
 43
0.0000000001
 40
0.0
 40
0.0
 40
0.0
 40
0.0
 40
9.384814008935088
 40
13.89175417202807
 40
18.3506107839752
 40
27.55340903627054
 40
31.96352731567067
 40
36.10771761212471
 40
39.57480970801794
 40
42.80019871594978
 40
46.10067786138111
 40
49.57866790690173
 40
53.43566979463445
 40
57.76816777171715
 40
62.67321333155779
 40
68.07813010777141
 40
68.07813010777141
 40
68.07813010777141
 40
68.07813010777141
 10
514.1830242105646
 20
41.40416173865603
 30
0.0
 10
514.4213254774177
 20
38.28767643779798
 30
0.0
 10
514.0115421736103
 20
33.59750410184711
 30
0.0
 10
511.7737170001205
 20
27.87103933840233
 30
0.0
 10
508.5280695796192
 20
22.72833794183844
 30
0.0
 10
503.914262981464
 20
18.67677023311764
 30
0.0
 10
498.4937889296883
 20
16.22321518526616
 30
0.0
 10
494.5354537715349
 20
15.42386119535434
 30
0.0
 10
490.8980858495444
 20
15.62871430731265
 30
0.0
 10
487.7170984098186
 20
16.72703694896307
 30
0.0
 10
484.979465690846
 20
18.69036596696058
 30
0.0
 10
482.7388803339641
 20
21.47316654951316
 30
0.0
 10
481.0242992254938
 20
24.98465946773917
 30
0.0
 10
479.8099274832332
 20
29.1898110605853
 30
0.0
 10
479.0896445238346
 20
34.02603708002504
 30
0.0
 10
478.9579749389532
 20
37.46447410700352
 30
0.0
 10
478.9728609672015
 20
39.26606029644833
 30
0.0
  0
SPLINE
  5
96
330
1F
100
AcDbEntity
  8
LINEE VISIBILI 2D
100
AcDbSpline
210
0.0
220
0.0
230
1.0
 70
    12
 71
     2
 72
     6
 73
     3
 74
     0
 42
0.000000001
 43
0.0000000001
 40
0.0
 40
0.0
 40
0.0
 40
0.0582063370567482
 40
0.0582063370567482
 40
0.0582063370567482
 10
324.9886569184948
 20
225.1173619485027
 30
0.0
 41
1.0
 10
324.9637138630399
 20
225.1323588228596
 30
0.0
 41
0.9999399356563099
 10
324.9384480836561
 20
225.1468053673612
 30
0.0
 41
1.0
  0
SPLINE
  5
97
330
1F
100
AcDbEntity
  8
LINEE VISIBILI 2D
100
AcDbSpline
210
0.0
220
0.0
230
1.0
 70
    12
 71
     2
 72
     6
 73
     3
 74
     0
 42
0.000000001
 43
0.0000000001
 40
0.0
 40
0.0
 40
0.0
 40
0.5703311663016527
 40
0.5703311663016527
 40
0.5703311663016527
 10
324.9384480836561
 20
225.1468053673612
 30
0.0
 41
1.0
 10
324.6532406205113
 20
225.1441788126756
 30
0.0
 41
0.9997161687775369
 10
324.3684820289814
 20
225.1279695445587
 30
0.0
 41
1.0
  0
SPLINE
  5
98
330
1F
100
AcDbEntity
  8
LINEE VISIBILI 2D
100
AcDbSpline
210
0.0
220
0.0
230
1.0
 70
    12
 71
     2
 72
     6
 73
     3
 74
     0
 42
0.000000001
 43
0.0000000001
 40
0.0
 40
0.0
 40
0.0
 40
0.045603775100923
 40
0.045603775100923
 40
0.045603775100923
 10
322.8318106780946
 20
225.0989853247485
 30
0.0
 41
1.0
 10
322.8101145638386
 20
225.1061444033972
 30
0.0
 41
0.997057456456289
 10
322.7897678105712
 20
225.1165359101401
 30
0.0
 41
1.0
  0
SPLINE
  5
99
330
1F
100
AcDbEntity
  8
LINEE VISIBILI 2D
100
AcDbSpline
210
0.0
220
0.0
230
1.0
 70
    12
 71
     3
 72
     8
 73
     4
 74
     0
 42
0.000000001
 43
0.0000000001
 40
-1.0
 40
-1.0
 40
-1.0
 40
-1.0
 40
0.0
 40
0.0
 40
0.0
 40
0.0
 10
322.7897678105712
 20
225.1165359101401
 30
0.0
 41
1.0
 10
322.6111556575207
 20
225.210348199953
 30
0.0
 41
1.0
 10
322.1309934723635
 20
225.2488811634385
 30
0.0
 41
1.0
 10
321.6359319458214
 20
225.1205220259129
 30
0.0
 41
1.0
  0
SPLINE
  5
9A
330
1F
100
AcDbEntity
  8
LINEE VISIBILI 2D
100
AcDbSpline
210
0.0
220
0.0
230
1.0
 70
    12
 71
     2
 72
     6
 73
     3
 74
     0
 42
0.000000001
 43
0.0000000001
 40
0.0
 40
0.0
 40
0.0
 40
0.2311605670232945
 40
0.2311605670232945
 40
0.2311605670232945
 10
321.6359319458214
 20
225.1205220259129
 30
0.0
 41
1.0
 10
321.5239745151683
 20
225.0913819820027
 30
0.0
 41
0.9986098113208335
 10
321.4095714911782
 20
225.0741902241102
 30
0.0
 41
1.0
  0
SPLINE
  5
9B
330
1F
100
AcDbEntity
  8
LINEE VISIBILI 2D
100
AcDbSpline
210
0.0
220
0.0
230
1.0
 70
    12
 71
     2
 72
     6
 73
     3
 74
     0
 42
0.000000001
 43
0.0000000001
 40
0.0
 40
0.0
 40
0.0
 40
1.58135542343821
 40
1.58135542343821
 40
1.58135542343821
 10
320.8938618831368
 20
225.0675179823419
 30
0.0
 41
1.0
 10
320.1035004124051
 20
225.0900537271435
 30
0.0
 41
0.9999905582209931
 10
319.3129729343856
 20
225.1057196362165
 30
0.0
 41
1.0
  0
SPLINE
  5
9C
330
1F
100
AcDbEntity
  8
LINEE VISIBILI 2D
100
AcDbSpline
210
0.0
220
0.0
230
1.0
 70
    12
 71
     2
 72
     6
 73
     3
 74
     0
 42
0.000000001
 43
0.0000000001
 40
0.0
 40
0.0
 40
0.0
 40
0.0933069240389398
 40
0.0933069240389398
 40
0.0933069240389398
 10
317.7616970971528
 20
225.119408122052
 30
0.0
 41
1.0
 10
317.715043797309
 20
225.1192804840617
 30
0.0
 41
0.9999996005034872
 10
317.6683908001985
 20
225.1190694428975
 30
0.0
 41
1.0
  0
SPLINE
  5
9D
330
1F
100
AcDbEntity
  8
LINEE VISIBILI 2D
100
AcDbSpline
210
0.0
220
0.0
230
1.0
 70
    12
 71
     3
 72
    10
 73
     6
 74
     0
 42
0.000000001
 43
0.0000000001
 40
-0.3045800384707877
 40
-0.3045800384707877
 40
-0.3045800384707877
 40
-0.3045800384707877
 40
-0.1604085411333294
 40
-0.1604085411333294
 40
0.0
 40
0.0
 40
0.0
 40
0.0
 10
316.1037221793987
 20
225.0571667710159
 30
0.0
 41
1.0
 10
316.0994983603014
 20
225.0507517033068
 30
0.0
 41
1.0
 10
316.2773854207251
 20
225.0695112863632
 30
0.0
 41
1.0
 10
316.86237770001
 20
225.1314482934997
 30
0.0
 41
1.0
 10
317.2960240566524
 20
225.1716188050727
 30
0.0
 41
1.0
 10
317.7611251035862
 20
225.1729882605233
 30
0.0
 41
1.0
  0
SPLINE
  5
9E
330
1F
100
AcDbEntity
  8
LINEE VISIBILI 2D
100
AcDbSpline
210
0.0
220
0.0
230
1.0
 70
     8
 71
     3
 72
    21
 73
    17
 74
     0
 42
0.000000001
 43
0.0000000001
 40
0.0
 40
0.0
 40
0.0
 40
0.0
 40
9.384814008935356
 40
13.89175417202858
 40
18.35061078397525
 40
27.5534090362707
 40
31.96352731567064
 40
36.10771761212504
 40
39.57480970801827
 40
42.80019871594972
 40
46.10067786138129
 40
49.57866790690215
 40
53.43566979463483
 40
57.76816777171787
 40
62.67321333155817
 40
68.0781301077719
 40
68.0781301077719
 40
68.0781301077719
 40
68.0781301077719
 10
548.7913286567997
 20
102.1117007743764
 30
0.0
 10
546.8297416303132
 20
104.5451026034562
 30
0.0
 10
544.5109119193062
 20
108.6425002737284
 30
0.0
 10
543.1116568927916
 20
114.6293479889163
 30
0.0
 10
542.8736217854034
 20
120.7059378319185
 30
0.0
 10
544.3811474126373
 20
126.6582297188107
 30
0.0
 10
547.4585931517121
 20
131.7504589989855
 30
0.0
 10
550.2680017334899
 20
134.6512532774686
 30
0.0
 10
553.3816819759253
 20
136.5426563400885
 30
0.0
 10
556.6253138250656
 20
137.4392310129882
 30
0.0
 10
559.9935104445299
 20
137.371812398811
 30
0.0
 10
563.4162311210546
 20
136.3475150815161
 30
0.0
 10
566.8181938048625
 20
134.4247512399966
 30
0.0
 10
570.2008134497846
 20
131.6470034139685
 30
0.0
 10
573.5336860804316
 20
128.0693156578065
 30
0.0
 10
575.5897506109316
 20
125.3101881300365
 30
0.0
 10
576.5979122992667
 20
123.8170222310123
 30
0.0
  0
SPLINE
  5
9F
330
1F
100
AcDbEntity
  8
LINEE VISIBILI 2D
100
AcDbSpline
210
0.0
220
0.0
230
1.0
 70
    12
 71
     3
 72
    27
 73
    23
 74
     0
 42
0.000000001
 43
0.0000000001
 40
0.0
 40
0.0
 40
0.0
 40
0.0
 40
1.9405691854223
 40
1.9405691854223
 40
1.9405691854223
 40
3.028189451144386
 40
3.028189451144386
 40
3.028189451144386
 40
4.693870057955441
 40
6.324511014705233
 40
9.614155918485928
 40
12.54506647227517
 40
14.62144583202347
 40
14.62144583202347
 40
14.62144583202347
 40
15.00151429643311
 40
15.00151429643311
 40
15.00151429643311
 40
15.28252310467496
 40
15.28252310467496
 40
15.28252310467496
 40
15.3344873591941
 40
15.3344873591941
 40
15.3344873591941
 40
15.3344873591941
 10
537.6937429227553
 20
222.8211020285426
 30
0.0
 41
1.0
 10
537.047450420448
 20
222.7940767490259
 30
0.0
 41
0.999997207771445
 10
536.4010824071905
 20
222.7689221131074
 30
0.0
 41
0.9999972077714445
 10
535.7546442974026
 20
222.745638331499
 30
0.0
 41
1.0
 10
535.3923363754451
 20
222.7326553096854
 30
0.0
 41
0.9999979203086324
 10
535.0299971545734
 20
222.7205773054179
 30
0.0
 41
0.9999979203086325
 10
534.6676288954495
 20
222.7094043940517
 30
0.0
 41
1.0
 10
534.1126650314802
 20
222.692516226682
 30
0.0
 41
1.0
 10
533.0142500187653
 20
222.6634595911067
 30
0.0
 41
1.0
 10
530.8193077558985
 20
222.6229963619438
 30
0.0
 41
1.0
 10
528.2021727712906
 20
222.6057226414221
 30
0.0
 41
1.0
 10
525.4366109360185
 20
222.6320616285116
 30
0.0
 41
1.0
 10
523.7680704562149
 20
222.6828342130578
 30
0.0
 41
1.0
 10
523.0771602470712
 20
222.7245445305364
 30
0.0
 41
1.0
 10
522.9507073269314
 20
222.7323510942056
 30
0.0
 41
0.9999341464800588
 10
522.824376621258
 20
222.7419342175184
 30
0.0
 41
0.9999341464800601
 10
522.6981930880172
 20
222.7532920072281
 30
0.0
 41
1.0
 10
522.6047304936951
 20
222.7602133679662
 30
0.0
 41
0.9989564284013697
 10
522.5118013196018
 20
222.7723513403799
 30
0.0
 41
0.9989564284013693
 10
522.4196965004784
 20
222.7896679239392
 30
0.0
 41
1.0
 10
522.4021180014915
 20
222.7909635439876
 30
0.0
 41
0.965893284137219
 10
522.3858479215485
 20
222.797743422791
 30
0.0
 41
0.9658932841372184
 10
522.3725510176303
 20
222.8093138421496
 30
0.0
 41
1.0
  0
SPLINE
  5
A0
330
1F
100
AcDbEntity
  8
LINEE VISIBILI 2D
100
AcDbSpline
210
0.0
220
0.0
230
1.0
 70
     8
 71
     3
 72
    13
 73
     9
 74
     0
 42
0.000000001
 43
0.0000000001
 40
0.0
 40
0.0
 40
0.0
 40
0.0
 40
0.0198585043159913
 40
0.0637523127386528
 40
0.2380556951298662
 40
0.9232558262713975
 40
3.212558142130807
 40
10.7957971135486
 40
10.7957971135486
 40
10.7957971135486
 40
10.7957971135486
 10
328.7141139709083
 20
222.8326040441557
 30
0.0
 10
328.7143739310698
 20
222.8251571275877
 30
0.0
 10
328.695823533751
 20
222.8128067556231
 30
0.0
 10
328.6191941429599
 20
222.7917962857337
 30
0.0
 10
328.3198117902403
 20
222.7553462551079
 30
0.0
 10
327.2710758519973
 20
222.7093120609488
 30
0.0
 10
323.7507633595582
 20
222.7100933939211
 30
0.0
 10
320.4636394839282
 20
222.888165657773
 30
0.0
 10
317.937049161621
 20
222.9614081423182
 30
0.0
  0
SPLINE
  5
A1
330
1F
100
AcDbEntity
  8
LINEE VISIBILI 2D
100
AcDbSpline
210
0.0
220
0.0
230
1.0
 70
     8
 71
     3
 72
    18
 73
    14
 74
     0
 42
0.000000001
 43
0.0000000001
 40
0.0
 40
0.0
 40
0.0
 40
0.0
 40
1.635873116146574
 40
2.041511523507409
 40
2.809644475372944
 40
4.393077960548643
 40
4.867222814092249
 40
7.149934489643625
 40
10.08400259645074
 40
14.11592367370829
 40
19.08904134349603
 40
24.93097707251861
 40
31.71182774566841
 40
31.71182774566841
 40
31.71182774566841
 40
31.71182774566841
 10
621.0079076149932
 20
253.6710528542469
 30
0.0
 10
621.007119548254
 20
253.1266913300063
 30
0.0
 10
621.0091471799509
 20
252.4436130195234
 30
0.0
 10
620.9321240175981
 20
251.511836503477
 30
0.0
 10
620.8065526519649
 20
250.5966446157378
 30
0.0
 10
620.4984321705485
 20
249.7017242590971
 30
0.0
 10
619.7349061458907
 20
248.4603148626352
 30
0.0
 10
618.289493900867
 20
247.1885774058182
 30
0.0
 10
615.4780694291528
 20
245.8807891647992
 30
0.0
 10
611.6323479466846
 20
244.8283640091007
 30
0.0
 10
606.7376065374012
 20
244.0586097149326
 30
0.0
 10
600.8884223327054
 20
243.5939152661255
 30
0.0
 10
596.679789342279
 20
243.5048818598599
 30
0.0
 10
594.4197399396971
 20
243.5045143651133
 30
0.0
  0
SPLINE
  5
A2
330
1F
100
AcDbEntity
  8
LINEE VISIBILI 2D
100
AcDbSpline
210
0.0
220
0.0
230
1.0
 70
    12
 71
     2
 72
     6
 73
     3
 74
     0
 42
0.000000001
 43
0.0000000001
 40
0.0
 40
0.0
 40
0.0
 40
3.189067027459945
 40
3.189067027459945
 40
3.189067027459945
 10
317.937049161621
 20
222.9614081423181
 30
0.0
 41
1.0
 10
316.3423172605905
 20
223.002957792119
 30
0.0
 41
0.9993047443594048
 10
314.748922759609
 20
222.9255615790045
 30
0.0
 41
1.0
  0
SPLINE
  5
A3
330
1F
100
AcDbEntity
  8
LINEE VISIBILI 2D
100
AcDbSpline
210
0.0
220
0.0
230
1.0
 70
    12
 71
     3
 72
    10
 73
     6
 74
     0
 42
0.000000001
 43
0.0000000001
 40
0.725857780795765
 40
0.725857780795765
 40
0.725857780795765
 40
0.725857780795765
 40
0.7566370246156061
 40
0.7566370246156061
 40
0.7594767265806235
 40
0.7594767265806235
 40
0.7594767265806235
 40
0.7594767265806235
 10
314.748922759609
 20
222.9255615790045
 30
0.0
 41
1.0
 10
314.4823051499935
 20
222.9097257700642
 30
0.0
 41
1.0
 10
314.1233715935992
 20
222.8819205214984
 30
0.0
 41
1.0
 10
314.0300312461945
 20
222.8444337888416
 30
0.0
 41
1.0
 10
314.0244325268599
 20
222.8412343097097
 30
0.0
 41
1.0
 10
314.0211118150866
 20
222.8380163116857
 30
0.0
 41
1.0
  0
SPLINE
  5
A4
330
1F
100
AcDbEntity
  8
LINEE VISIBILI 2D
100
AcDbSpline
210
0.0
220
0.0
230
1.0
 70
    12
 71
     2
 72
     6
 73
     3
 74
     0
 42
0.000000001
 43
0.0000000001
 40
0.0
 40
0.0
 40
0.0
 40
0.184001543292147
 40
0.184001543292147
 40
0.184001543292147
 10
317.7611251035862
 20
225.1729882605233
 30
0.0
 41
1.0
 10
317.6805947259701
 20
225.1284183030884
 30
0.0
 41
0.9993377000924568
 10
317.6035191850727
 20
225.0781094189816
 30
0.0
 41
1.0
  0
SPLINE
  5
A5
330
1F
100
AcDbEntity
  8
LINEE VISIBILI 2D
100
AcDbSpline
210
0.0
220
0.0
230
1.0
 70
    12
 71
     3
 72
     8
 73
     4
 74
     0
 42
0.000000001
 43
0.0000000001
 40
-1.0
 40
-1.0
 40
-1.0
 40
-1.0
 40
0.0
 40
0.0
 40
0.0
 40
0.0
 10
317.6035191850727
 20
225.0781094189816
 30
0.0
 41
1.0
 10
317.5925516683921
 20
225.0709383639526
 30
0.0
 41
1.0
 10
317.5929803300672
 20
225.0619247515797
 30
0.0
 41
1.0
 10
317.6222041531032
 20
225.0619014949718
 30
0.0
 41
1.0
  0
SPLINE
  5
A6
330
1F
100
AcDbEntity
  8
LINEE VISIBILI 2D
100
AcDbSpline
210
0.0
220
0.0
230
1.0
 70
    12
 71
     2
 72
     6
 73
     3
 74
     0
 42
0.000000001
 43
0.0000000001
 40
0.0
 40
0.0
 40
0.0
 40
0.0709682769282626
 40
0.0709682769282626
 40
0.0709682769282626
 10
317.6264337703881
 20
225.0618968095759
 30
0.0
 41
1.0
 10
317.6626364784524
 20
225.0614388149583
 30
0.0
 41
0.9703758922768808
 10
317.694827584149
 20
225.0780092266696
 30
0.0
 41
1.0
  0
SPLINE
  5
A7
330
1F
100
AcDbEntity
  8
LINEE VISIBILI 2D
100
AcDbSpline
210
0.0
220
0.0
230
1.0
 70
    12
 71
     2
 72
     6
 73
     3
 74
     0
 42
0.000000001
 43
0.0000000001
 40
0.0
 40
0.0
 40
0.0
 40
0.1863911376700687
 40
0.1863911376700687
 40
0.1863911376700687
 10
317.694827584149
 20
225.0780092266696
 30
0.0
 41
1.0
 10
317.773366685469
 20
225.1282503613604
 30
0.0
 41
0.9993832530773172
 10
317.855238422121
 20
225.1728550784734
 30
0.0
 41
1.0
  0
SPLINE
  5
A8
330
1F
100
AcDbEntity
  8
LINEE VISIBILI 2D
100
AcDbSpline
210
0.0
220
0.0
230
1.0
 70
     8
 71
     3
 72
    12
 73
     8
 74
     0
 42
0.000000001
 43
0.0000000001
 40
0.0
 40
0.0
 40
0.0
 40
0.0
 40
1.911888333418947
 40
3.45551434949092
 40
6.312147913679133
 40
9.23504185657419
 40
12.48075107731083
 40
12.48075107731083
 40
12.48075107731083
 40
12.48075107731083
 10
359.3651151274208
 20
40.1978292719097
 30
0.0
 10
359.3905064565661
 20
39.56170728549533
 30
0.0
 10
359.4176782576677
 20
38.40755698626467
 30
0.0
 10
359.2509311227286
 20
36.3094021379528
 30
0.0
 10
358.5717638963308
 20
33.93363235999179
 30
0.0
 10
356.8420492914389
 20
31.42626211724663
 30
0.0
 10
355.2356315124881
 20
30.11787893341301
 30
0.0
 10
354.3380531486605
 20
29.51501921099148
 30
0.0
  0
SPLINE
  5
A9
330
1F
100
AcDbEntity
  8
LINEE VISIBILI 2D
100
AcDbSpline
210
0.0
220
0.0
230
1.0
 70
     8
 71
     3
 72
    21
 73
    17
 74
     0
 42
0.000000001
 43
0.0000000001
 40
0.0
 40
0.0
 40
0.0
 40
0.0
 40
6.443601951484845
 40
13.06172811876819
 40
16.44253864723911
 40
19.46359012077291
 40
23.67312990348514
 40
25.09580400999374
 40
26.18906340546097
 40
28.2406321626097
 40
29.31524992772989
 40
30.20285431476174
 40
30.86990175211315
 40
31.0547859173987
 40
31.10248079332686
 40
32.02191936696148
 40
32.02191936696148
 40
32.02191936696148
 40
32.02191936696148
 10
292.1209668951145
 20
41.37131204969096
 30
0.0
 10
289.9800792933661
 20
41.54435169865166
 30
0.0
 10
285.6482821529821
 20
41.99368614965307
 30
0.0
 10
280.2267590446633
 20
42.80729774567621
 30
0.0
 10
275.9570759440581
 20
43.58627365583373
 30
0.0
 10
272.4917020201764
 20
44.29565341621925
 30
0.0
 10
269.696684660949
 20
45.02072274615628
 30
0.0
 10
267.5963117257689
 20
45.81417425766908
 30
0.0
 10
266.2347674685208
 20
46.49829595833204
 30
0.0
 10
265.1267132527472
 20
47.3962249450929
 30
0.0
 10
264.3677538642107
 20
48.50896036669341
 30
0.0
 10
263.9936259467863
 20
49.30328269980471
 30
0.0
 10
263.8909354505479
 20
49.88171648763411
 30
0.0
 10
263.889045812221
 20
50.18090616996102
 30
0.0
 10
263.9024207219946
 20
50.56477442852739
 30
0.0
 10
263.9134421752635
 20
50.88696531929871
 30
0.0
 10
263.9239392960952
 20
51.19326443160456
 30
0.0
  0
SPLINE
  5
AA
330
1F
100
AcDbEntity
  8
LINEE VISIBILI 2D
100
AcDbSpline
210
0.0
220
0.0
230
1.0
 70
     8
 71
     3
 72
    12
 73
     8
 74
     0
 42
0.000000001
 43
0.0000000001
 40
0.0
 40
0.0
 40
0.0
 40
0.0
 40
0.8909708385495684
 40
1.450460333411569
 40
2.67708647952079
 40
5.291290073732607
 40
11.21088565425085
 40
11.21088565425085
 40
11.21088565425085
 40
11.21088565425085
 10
372.7135179594933
 20
31.73237139924863
 30
0.0
 10
372.7147444679744
 20
31.43646624914831
 30
0.0
 10
372.7393890256338
 20
30.950550568295
 30
0.0
 10
372.7096839701061
 20
30.06185362814444
 30
0.0
 10
372.553824793696
 20
28.59462174328398
 30
0.0
 10
371.4912477445143
 20
25.49407789499925
 30
0.0
 10
369.6407682133913
 20
23.23167752357675
 30
0.0
 10
368.1143075731093
 20
21.9884862534788
 30
0.0
  0
SPLINE
  5
AB
330
1F
100
AcDbEntity
  8
LINEE VISIBILI 2D
100
AcDbSpline
210
0.0
220
0.0
230
1.0
 70
    12
 71
     2
 72
     6
 73
     3
 74
     0
 42
0.000000001
 43
0.0000000001
 40
0.0
 40
0.0
 40
0.0
 40
0.4954221430826188
 40
0.4954221430826188
 40
0.4954221430826188
 10
321.2811159814917
 20
11.58210036371705
 30
0.0
 41
1.0
 10
321.5268603116796
 20
11.55041572497289
 30
0.0
 41
0.9995917654207929
 10
321.7703936534231
 20
11.50474622080295
 30
0.0
 41
1.0
  0
SPLINE
  5
AC
330
1F
100
AcDbEntity
  8
LINEE VISIBILI 2D
100
AcDbSpline
210
0.0
220
0.0
230
1.0
 70
     8
 71
     3
 72
    22
 73
    18
 74
     0
 42
0.000000001
 43
0.0000000001
 40
0.0
 40
0.0
 40
0.0
 40
0.0
 40
4.96682343026652
 40
9.738271920770059
 40
17.79977363891771
 40
21.51870630389869
 40
24.75970736358883
 40
27.56495241573116
 40
28.79804708686245
 40
29.93393483201785
 40
31.77497402244016
 40
33.94002401358236
 40
35.20757937375716
 40
36.80075177197893
 40
41.05076765509506
 40
49.78930284872602
 40
59.99655919681906
 40
59.99655919681906
 40
59.99655919681906
 40
59.99655919681906
 10
519.3643398427407
 20
118.3423870457841
 30
0.0
 10
520.088164182205
 20
119.8311250581512
 30
0.0
 10
521.629133950212
 20
122.69224811459
 30
0.0
 10
524.886749394125
 20
127.6558418677315
 30
0.0
 10
528.621100477227
 20
131.7746567406147
 30
0.0
 10
532.8109347143467
 20
134.5746423355068
 30
0.0
 10
535.8287611645904
 20
135.8292701072774
 30
0.0
 10
538.2672394079788
 20
136.1537302502755
 30
0.0
 10
539.9800937846715
 20
135.860703951106
 30
0.0
 10
541.2839857561183
 20
135.3043568181743
 30
0.0
 10
542.4926546512511
 20
134.0154608278867
 30
0.0
 10
542.9875553091033
 20
132.2872319293194
 30
0.0
 10
543.1705482323741
 20
130.6311730231703
 30
0.0
 10
543.16878116158
 20
128.2542361270564
 30
0.0
 10
542.8675262585873
 20
123.399953353721
 30
0.0
 10
541.3361021227079
 20
115.7962755920687
 30
0.0
 10
539.233289126609
 20
109.8282696638963
 30
0.0
 10
537.9667443114727
 20
106.6712334958287
 30
0.0
  0
SPLINE
  5
AD
330
1F
100
AcDbEntity
  8
LINEE VISIBILI 2D
100
AcDbSpline
210
0.0
220
0.0
230
1.0
 70
     8
 71
     3
 72
    16
 73
    12
 74
     0
 42
0.000000001
 43
0.0000000001
 40
0.0
 40
0.0
 40
0.0
 40
0.0
 40
1.283677145657079
 40
2.62641023049684
 40
5.912669063640393
 40
7.973917957944082
 40
9.602684035247634
 40
10.15971714337251
 40
10.60911625471046
 40
10.89819832213251
 40
11.07497276758122
 40
11.07497276758122
 40
11.07497276758122
 40
11.07497276758122
 10
320.7818188463094
 20
10.10229195791127
 30
0.0
 10
320.3542153529213
 20
10.11143337505675
 30
0.0
 10
319.4776401758747
 20
10.09880994561739
 30
0.0
 10
317.5164391421106
 20
9.889274782614978
 30
0.0
 10
315.329908383463
 20
9.431910098648018
 30
0.0
 10
313.0907741233538
 20
8.805304182228417
 30
0.0
 10
311.7491417035182
 20
8.349408881025367
 30
0.0
 10
310.9395621960442
 20
8.00762815321047
 30
0.0
 10
310.5594461486565
 20
7.801377003986474
 30
0.0
 10
310.3139909286717
 20
7.616803291010337
 30
0.0
 10
310.2342310690404
 20
7.476988879803256
 30
0.0
 10
310.2346774737623
 20
7.416381911241529
 30
0.0
  0
SPLINE
  5
AE
330
1F
100
AcDbEntity
  8
LINEE VISIBILI 2D
100
AcDbSpline
210
0.0
220
0.0
230
1.0
 70
     8
 71
     3
 72
    13
 73
     9
 74
     0
 42
0.000000001
 43
0.0000000001
 40
0.0
 40
0.0
 40
0.0
 40
0.0
 40
1.110101556217984
 40
2.412880047072009
 40
4.425041968830219
 40
6.925285511879911
 40
13.1896428287334
 40
19.79612320468239
 40
19.79612320468239
 40
19.79612320468239
 40
19.79612320468239
 10
344.3025546172085
 20
19.5638642750276
 30
0.0
 10
344.0707757820551
 20
19.27894090432371
 30
0.0
 10
343.4253540259045
 20
18.76076080191682
 30
0.0
 10
342.007483900217
 20
18.32540587087771
 30
0.0
 10
340.0882158120331
 20
18.03205304840834
 30
0.0
 10
336.496548756228
 20
17.86879202265958
 30
0.0
 10
331.3715760366696
 20
18.14054139561217
 30
0.0
 10
327.126045655139
 20
18.78273112091227
 30
0.0
 10
324.9666433463833
 20
19.21734084050878
 30
0.0
  0
SPLINE
  5
AF
330
1F
100
AcDbEntity
  8
LINEE VISIBILI 2D
100
AcDbSpline
210
0.0
220
0.0
230
1.0
 70
     8
 71
     3
 72
    12
 73
     8
 74
     0
 42
0.000000001
 43
0.0000000001
 40
0.0
 40
0.0
 40
0.0
 40
0.0
 40
0.4387061197874428
 40
0.9100356953507287
 40
1.985573529044044
 40
3.397618409991281
 40
5.188697601773125
 40
5.188697601773125
 40
5.188697601773125
 40
5.188697601773125
 10
310.2388652784434
 20
7.484589685355729
 30
0.0
 10
310.2511661789407
 20
7.630996051719804
 30
0.0
 10
310.3139707275274
 20
7.928208273675906
 30
0.0
 10
310.6122832327849
 20
8.528454249740669
 30
0.0
 10
311.3237597010191
 20
9.229380193451917
 30
0.0
 10
312.5613797331868
 20
9.949545131700436
 30
0.0
 10
313.5521477077783
 20
10.35150698751605
 30
0.0
 10
314.1152015060579
 20
10.55036811845967
 30
0.0
  0
SPLINE
  5
B0
330
1F
100
AcDbEntity
  8
LINEE VISIBILI 2D
100
AcDbSpline
210
0.0
220
0.0
230
1.0
 70
    12
 71
     2
 72
     8
 73
     5
 74
     0
 42
0.000000001
 43
0.0000000001
 40
0.0
 40
0.0
 40
0.0
 40
0.7435258701938156
 40
0.7435258701938156
 40
1.487051740387631
 40
1.487051740387631
 40
1.487051740387631
 10
524.009857952321
 20
71.91831712024441
 30
0.0
 41
1.0
 10
523.6020734981029
 20
71.67983391835118
 30
0.0
 41
0.7090494932234892
 10
523.8383093098023
 20
71.27074341496841
 30
0.0
 41
1.0
 10
524.0745451215018
 20
70.86165291158562
 30
0.0
 41
0.7090494932234892
 10
524.4849292883108
 20
71.09563418075004
 30
0.0
 41
1.0
  0
SPLINE
  5
B1
330
1F
100
AcDbEntity
  8
LINEE VISIBILI 2D
100
AcDbSpline
210
0.0
220
0.0
230
1.0
 70
    12
 71
     2
 72
     8
 73
     5
 74
     0
 42
0.000000001
 43
0.0000000001
 40
0.0
 40
0.0
 40
0.0
 40
0.7431157236434275
 40
0.7431157236434275
 40
1.486231447286855
 40
1.486231447286855
 40
1.486231447286855
 10
524.4849292883109
 20
71.09563418075001
 30
0.0
 41
1.0
 10
524.8921527704416
 20
71.33426585889498
 30
0.0
 41
0.709356716430026
 10
524.6561215424312
 20
71.74300208388225
 30
0.0
 41
1.0
 10
524.4200903144206
 20
72.15173830886947
 30
0.0
 41
0.709356716430026
 10
524.009857952321
 20
71.9183171202444
 30
0.0
 41
1.0
  0
SPLINE
  5
B2
330
1F
100
AcDbEntity
  8
LINEE VISIBILI 2D
100
AcDbSpline
210
0.0
220
0.0
230
1.0
 70
     8
 71
     3
 72
    23
 73
    19
 74
     0
 42
0.000000001
 43
0.0000000001
 40
0.0
 40
0.0
 40
0.0
 40
0.0
 40
0.8670645301808685
 40
1.032171317749161
 40
1.527657888593402
 40
2.038800510337352
 40
2.736145911554442
 40
4.002642031982021
 40
5.207044346871244
 40
6.488672653455945
 40
7.212621601816069
 40
8.197731607471997
 40
9.97912521220554
 40
11.6924575819851
 40
13.7198021750129
 40
18.60507712221458
 40
25.48844472360561
 40
31.69139475005832
 40
31.69139475005832
 40
31.69139475005832
 40
31.69139475005832
 10
387.6952431146826
 20
253.6706137675069
 30
0.0
 10
387.6787445581972
 20
253.3820623104404
 30
0.0
 10
387.6600503376034
 20
253.0385159303905
 30
0.0
 10
387.6301908062896
 20
252.5301667234631
 30
0.0
 10
387.5922189088787
 20
252.1412733508701
 30
0.0
 10
387.5073933042725
 20
251.5794472072615
 30
0.0
 10
387.3269111498035
 20
250.7737963285203
 30
0.0
 10
386.9777474657976
 20
249.7736141363237
 30
0.0
 10
386.3711895116408
 20
248.6738588134001
 30
0.0
 10
385.6689797388073
 20
247.8568242355851
 30
0.0
 10
384.8789863340138
 20
247.2440865554386
 30
0.0
 10
383.8632765187867
 20
246.6714693792644
 30
0.0
 10
382.4877588322674
 20
246.0846441496473
 30
0.0
 10
380.7175480417012
 20
245.5704452514858
 30
0.0
 10
377.9028755041414
 20
244.9727665236915
 30
0.0
 10
373.331025470726
 20
244.4408080628518
 30
0.0
 10
367.3468969625598
 20
244.1238877290333
 30
0.0
 10
362.9838164990963
 20
244.0927828587673
 30
0.0
 10
360.9172041898767
 20
244.1787308308107
 30
0.0
  0
SPLINE
  5
B3
330
1F
100
AcDbEntity
  8
LINEE VISIBILI 2D
100
AcDbSpline
210
0.0
220
0.0
230
1.0
 70
     8
 71
     3
 72
    21
 73
    17
 74
     0
 42
0.000000001
 43
0.0000000001
 40
0.0
 40
0.0
 40
0.0
 40
0.0
 40
4.806917150270382
 40
8.897383943988986
 40
15.99511726107031
 40
19.43696684004586
 40
22.51014900112983
 40
25.30334306713983
 40
27.90529443050339
 40
30.14664105762811
 40
32.55018820321204
 40
35.20417154187694
 40
38.37014946436576
 40
42.14671840764037
 40
46.47482673048979
 40
56.07535523277411
 40
56.07535523277411
 40
56.07535523277411
 40
56.07535523277411
 10
537.9667443114727
 20
106.6712334958286
 30
0.0
 10
537.3707974502731
 20
105.1840030766808
 30
0.0
 10
536.1540740719979
 20
102.4753754776014
 30
0.0
 10
533.4720573097596
 20
97.85892300330754
 30
0.0
 10
530.1420287549325
 20
94.20606663727715
 30
0.0
 10
526.1902762298098
 20
91.89797675969075
 30
0.0
 10
523.1901823092147
 20
91.02288427309904
 30
0.0
 10
520.3285744981902
 20
91.03971914508477
 30
0.0
 10
517.9049566039087
 20
91.95640735025098
 30
0.0
 10
516.0838545232141
 20
93.60106795859014
 30
0.0
 10
514.9024802997022
 20
95.76253113262693
 30
0.0
 10
514.3238815378295
 20
98.46333153964423
 30
0.0
 10
514.3067251407676
 20
101.6727515849116
 30
0.0
 10
514.8104829839879
 20
105.4025389188717
 30
0.0
 10
516.241286814475
 20
111.1357059217377
 30
0.0
 10
517.9680901747158
 20
115.4639777774342
 30
0.0
 10
519.3643398427407
 20
118.342387045784
 30
0.0
  0
SPLINE
  5
B4
330
1F
100
AcDbEntity
  8
LINEE VISIBILI 2D
100
AcDbSpline
210
0.0
220
0.0
230
1.0
 70
     8
 71
     3
 72
    20
 73
    16
 74
     0
 42
0.000000001
 43
0.0000000001
 40
0.0
 40
0.0
 40
0.0
 40
0.0
 40
0.9556702688773865
 40
1.105631532558146
 40
1.54148091564039
 40
2.469577175790505
 40
4.150191676660101
 40
4.941294311837558
 40
5.836934844100845
 40
7.920544501820295
 40
10.82173108600875
 40
14.6574579661262
 40
19.69452205677491
 40
22.88511054190086
 40
25.55350155296001
 40
25.55350155296001
 40
25.55350155296001
 40
25.55350155296001
 10
545.9889603525621
 20
253.6706784545393
 30
0.0
 10
545.9760229166558
 20
253.3529359769441
 30
0.0
 10
545.962673115919
 20
252.9832015436
 30
0.0
 10
545.9421248595424
 20
252.4714991388282
 30
0.0
 10
545.9133102225746
 20
251.9644045838977
 30
0.0
 10
545.7963999068725
 20
250.9629182094922
 30
0.0
 10
545.4430831358982
 20
249.8579204628882
 30
0.0
 10
544.7254783759169
 20
248.9828867065809
 30
0.0
 10
543.7345303997774
 20
248.1971452056183
 30
0.0
 10
541.9191184823023
 20
247.4148356311896
 30
0.0
 10
539.034849730317
 20
246.8102221121109
 30
0.0
 10
535.1236487174349
 20
246.442069293325
 30
0.0
 10
531.1019735775848
 20
246.356866293459
 30
0.0
 10
527.4701385945922
 20
246.385191064824
 30
0.0
 10
525.517648729048
 20
246.4391295924702
 30
0.0
 10
524.629206128832
 20
246.4817385127907
 30
0.0
  0
SPLINE
  5
B5
330
1F
100
AcDbEntity
  8
LINEE VISIBILI 2D
100
AcDbSpline
210
0.0
220
0.0
230
1.0
 70
    24
 71
     2
 72
     6
 73
     3
 74
     0
 42
0.000000001
 43
0.0000000001
 40
0.0
 40
0.0
 40
0.0
 40
21.85811102547666
 40
21.85811102547666
 40
21.85811102547666
 10
500.8316072593968
 20
253.6710528542469
 30
0.0
 10
489.9025517466585
 20
253.6710528542469
 30
0.0
 10
478.9734962339202
 20
253.6710528542469
 30
0.0
  0
SPLINE
  5
B6
330
1F
100
AcDbEntity
  8
LINEE VISIBILI 2D
100
AcDbSpline
210
0.0
220
0.0
230
1.0
 70
     8
 71
     3
 72
    16
 73
    12
 74
     0
 42
0.000000001
 43
0.0000000001
 40
0.0
 40
0.0
 40
0.0
 40
0.0
 40
1.879516092229673
 40
3.337990556037739
 40
6.036724512792666
 40
8.941147541908135
 40
12.32848909516675
 40
16.70836670226583
 40
21.71101744509263
 40
26.99917388323738
 40
32.16356441614072
 40
32.16356441614072
 40
32.16356441614072
 40
32.16356441614072
 10
396.7326725793689
 20
52.83656302534702
 30
0.0
 10
396.7862587326933
 20
52.21305005771303
 30
0.0
 10
396.8615863123565
 20
51.10038089236009
 30
0.0
 10
396.7801085423096
 20
49.08805073195735
 30
0.0
 10
396.122531935596
 20
46.7876752284922
 30
0.0
 10
394.2893480354761
 20
44.36141227173543
 30
0.0
 10
391.425950935371
 20
42.21583163386391
 30
0.0
 10
387.569369580579
 20
40.37634822267741
 30
0.0
 10
382.8861463699692
 20
38.93590482490495
 30
0.0
 10
377.8060148763744
 20
38.02516530755523
 30
0.0
 10
374.3209085445168
 20
37.82716033905638
 30
0.0
 10
372.5992930379148
 20
37.84785843139801
 30
0.0
  0
SPLINE
  5
B7
330
1F
100
AcDbEntity
  8
LINEE VISIBILI 2D
100
AcDbSpline
210
0.0
220
0.0
230
1.0
 70
     8
 71
     3
 72
    12
 73
     8
 74
     0
 42
0.000000001
 43
0.0000000001
 40
0.0
 40
0.0
 40
0.0
 40
0.0
 40
0.3371705014585666
 40
0.6942145057235213
 40
1.426707265255974
 40
2.257262824865346
 40
3.230652407472514
 40
3.230652407472514
 40
3.230652407472514
 40
3.230652407472514
 10
314.016640301489
 20
222.8381661002657
 30
0.0
 10
314.02037775721
 20
222.9506454418997
 30
0.0
 10
314.0509971124607
 20
223.1806397385543
 30
0.0
 10
314.2048742417597
 20
223.6339616251078
 30
0.0
 10
314.5790910991336
 20
224.1642401877276
 30
0.0
 10
315.2538515896947
 20
224.6851316821228
 30
0.0
 10
315.8008793860004
 20
224.940892693766
 30
0.0
 10
316.1036014775526
 20
225.0574808455185
 30
0.0
  0
SPLINE
  5
B8
330
1F
100
AcDbEntity
  8
LINEE VISIBILI 2D
100
AcDbSpline
210
0.0
220
0.0
230
1.0
 70
     8
 71
     3
 72
    19
 73
    15
 74
     0
 42
0.000000001
 43
0.0000000001
 40
0.0
 40
0.0
 40
0.0
 40
0.0
 40
5.112396643584447
 40
10.78352025872686
 40
14.39357162503075
 40
19.36763614114044
 40
25.21899437023249
 40
28.21712990824865
 40
35.41907373657087
 40
39.92115972908124
 40
43.50056422734385
 40
46.49180026013764
 40
48.01262004124015
 40
49.95690870176374
 40
49.95690870176374
 40
49.95690870176374
 40
49.95690870176374
 10
372.5992930379148
 20
37.847858431398
 30
0.0
 10
370.8966167726138
 20
37.86793316015505
 30
0.0
 10
367.3017543505171
 20
38.16340503723952
 30
0.0
 10
362.6202068433781
 20
39.24681115815716
 30
0.0
 10
358.0586876518215
 20
40.57563976259936
 30
0.0
 10
353.4543620960937
 20
41.97034023441243
 30
0.0
 10
349.0235247389572
 20
43.24614941269395
 30
0.0
 10
343.9117022351031
 20
44.80889830703592
 30
0.0
 10
339.2797512598578
 20
46.45714008404918
 30
0.0
 10
334.8077529645911
 20
48.92683499416916
 30
0.0
 10
332.0244779495807
 20
51.41596914775695
 30
0.0
 10
330.7701500933463
 20
53.8633771413385
 30
0.0
 10
330.4338794417745
 20
56.00352552085748
 30
0.0
 10
330.4065087228585
 20
57.15366318883845
 30
0.0
 10
330.4120337317282
 20
57.80458033493336
 30
0.0
  0
SPLINE
  5
B9
330
1F
100
AcDbEntity
  8
LINEE VISIBILI 2D
100
AcDbSpline
210
0.0
220
0.0
230
1.0
 70
     8
 71
     3
 72
    13
 73
     9
 74
     0
 42
0.000000001
 43
0.0000000001
 40
0.0
 40
0.0
 40
0.0
 40
0.0
 40
3.791851165502812
 40
8.235660507518766
 40
13.41785011349541
 40
19.04556737740132
 40
30.61036597942568
 40
43.08538945122656
 40
43.08538945122656
 40
43.08538945122656
 40
43.08538945122656
 10
354.3380531486627
 20
29.51501921099293
 30
0.0
 10
353.2866692828752
 20
28.81163512156311
 30
0.0
 10
350.8430834696452
 20
27.54137418419463
 30
0.0
 10
346.6103481174697
 20
26.0680474288081
 30
0.0
 10
341.6551539769019
 20
24.91047524916588
 30
0.0
 10
334.2696194911688
 20
23.81918398317615
 30
0.0
 10
324.3619706366038
 20
23.50713862479387
 30
0.0
 10
316.3715018657272
 20
24.27859444933577
 30
0.0
 10
312.2595395496252
 20
24.89495461500085
 30
0.0
  0
SPLINE
  5
BA
330
1F
100
AcDbEntity
  8
LINEE VISIBILI 2D
100
AcDbSpline
210
0.0
220
0.0
230
1.0
 70
    24
 71
     3
 72
     9
 73
     5
 74
     0
 42
0.000000001
 43
0.0000000001
 40
0.0
 40
0.0
 40
0.0
 40
0.0
 40
0.0096393516074613
 40
17.3889606653612
 40
17.3889606653612
 40
17.3889606653612
 40
17.3889606653612
 10
545.9792952666344
 20
253.6710528542242
 30
0.0
 10
545.9950926447284
 20
253.6710528542241
 30
0.0
 10
540.1995131030592
 20
253.6710528542247
 30
0.0
 10
534.402437724506
 20
253.6710528542288
 30
0.0
 10
528.6096133044882
 20
253.6710528542311
 30
0.0
  0
SPLINE
  5
BB
330
1F
100
AcDbEntity
  8
LINEE VISIBILI 2D
100
AcDbSpline
210
0.0
220
0.0
230
1.0
 70
     8
 71
     3
 72
    13
 73
     9
 74
     0
 42
0.000000001
 43
0.0000000001
 40
0.0
 40
0.0
 40
0.0
 40
0.0
 40
2.432482068699668
 40
4.57460761516872
 40
8.145109014822935
 40
10.85062506161809
 40
11.99081076636315
 40
13.01206594898189
 40
13.01206594898189
 40
13.01206594898189
 40
13.01206594898189
 10
324.9666433463833
 20
19.21734084050879
 30
0.0
 10
324.1718564944285
 20
19.37681500421586
 30
0.0
 10
322.6797477204903
 20
19.69530170692794
 30
0.0
 10
320.0566424189553
 20
20.39625493763098
 30
0.0
 10
317.4040141406541
 20
21.33083222609609
 30
0.0
 10
315.2577862978236
 20
22.59598933086204
 30
0.0
 10
314.1188018017909
 20
23.77011006618106
 30
0.0
 10
313.7410293567651
 20
24.38653108262304
 30
0.0
 10
313.604145122749
 20
24.69937584694266
 30
0.0
  0
SPLINE
  5
BC
330
1F
100
AcDbEntity
  8
LINEE VISIBILI 2D
100
AcDbSpline
210
0.0
220
0.0
230
1.0
 70
    12
 71
     3
 72
    10
 73
     6
 74
     0
 42
0.000000001
 43
0.0000000001
 40
-1.0
 40
-1.0
 40
-1.0
 40
-1.0
 40
-0.7996368441467756
 40
-0.7996368441467756
 40
-0.6743752160783475
 40
-0.6743752160783475
 40
-0.6743752160783475
 40
-0.6743752160783475
 10
311.9543860442828
 20
25.72103678252962
 30
0.0
 41
342.9379780732276
 10
312.1511083654719
 20
25.69287072728063
 30
0.0
 41
342.962623889059
 10
312.2907091058179
 20
25.64969747687062
 30
0.0
 41
343.1171307595275
 10
312.3521861149024
 20
25.59249153301651
 30
0.0
 41
343.41585991107
 10
312.32869479325
 20
25.5750885246973
 30
0.0
 41
343.5395926729113
 10
312.2705096301916
 20
25.56556928196689
 30
0.0
 41
343.641817273876
  0
SPLINE
  5
BD
330
1F
100
AcDbEntity
  8
LINEE VISIBILI 2D
100
AcDbSpline
210
0.0
220
0.0
230
1.0
 70
    12
 71
     3
 72
    10
 73
     6
 74
     0
 42
0.000000001
 43
0.0000000001
 40
-0.3576732949793554
 40
-0.3576732949793554
 40
-0.3576732949793554
 40
-0.3576732949793554
 40
-0.2980023758910813
 40
-0.2980023758910813
 40
0.0
 40
0.0
 40
0.0
 40
0.0
 10
311.5418930593141
 20
25.65444243080116
 30
0.0
 41
343.6460121521934
 10
311.5142052033714
 20
25.66555470644284
 30
0.0
 41
343.5984898280595
 10
311.4944720554211
 20
25.67652086183922
 30
0.0
 41
343.5459659541695
 10
311.4310078769533
 20
25.73787383597285
 30
0.0
 41
343.2182994794052
 10
311.6411060069754
 20
25.76589118840418
 30
0.0
 41
342.8987369551686
 10
311.9543860442828
 20
25.72103678252962
 30
0.0
 41
342.9379780732276
  0
SPLINE
  5
BE
330
1F
100
AcDbEntity
  8
LINEE VISIBILI 2D
100
AcDbSpline
210
0.0
220
0.0
230
1.0
 70
    12
 71
     2
 72
     6
 73
     3
 74
     0
 42
0.000000001
 43
0.0000000001
 40
0.0
 40
0.0
 40
0.0
 40
0.9178114046844816
 40
0.9178114046844816
 40
0.9178114046844816
 10
294.9001414609841
 20
38.02774479983095
 30
0.0
 41
1.0
 10
295.1334871422569
 20
38.42440439028893
 30
0.0
 41
0.9957690290035459
 10
295.4354828876839
 20
38.77166165430921
 30
0.0
 41
1.0
  0
SPLINE
  5
BF
330
1F
100
AcDbEntity
  8
LINEE VISIBILI 2D
100
AcDbSpline
210
0.0
220
0.0
230
1.0
 70
    12
 71
     5
 72
    13
 73
     7
 74
     0
 42
0.000000001
 43
0.0000000001
 40
773.9307959646875
 40
773.9307959646875
 40
773.9307959646875
 40
773.9307959646875
 40
773.9307959646875
 40
773.9307959646875
 40
886.505741812372
 40
990.9122064355093
 40
990.9122064355093
 40
990.9122064355093
 40
990.9122064355093
 40
990.9122064355093
 40
990.9122064355093
 10
333.1325658961283
 20
50.49503001509822
 30
0.0
 41
301.1328006426962
 10
331.375138778165
 20
50.45893836334552
 30
0.0
 41
301.2237444160834
 10
327.8838928095957
 20
50.26365566888813
 30
0.0
 41
301.716772161202
 10
324.2205368564715
 20
49.82004793048969
 30
0.0
 41
302.8427626216361
 10
320.4603601338608
 20
49.13175087058269
 30
0.0
 41
304.6065706965298
 10
316.7490806750663
 20
48.2448547750831
 30
0.0
 41
306.9098242306122
 10
315.0000552367131
 20
47.78080404124824
 30
0.0
 41
308.1288913596663
  0
SPLINE
  5
C0
330
1F
100
AcDbEntity
  8
LINEE VISIBILI 2D
100
AcDbSpline
210
0.0
220
0.0
230
1.0
 70
    12
 71
     5
 72
    12
 73
     6
 74
     0
 42
0.000000001
 43
0.0000000001
 40
1240.734281822031
 40
1240.734281822031
 40
1240.734281822031
 40
1240.734281822031
 40
1240.734281822031
 40
1240.734281822031
 40
1329.75861271856
 40
1329.75861271856
 40
1329.75861271856
 40
1329.75861271856
 40
1329.75861271856
 40
1329.75861271856
 10
298.2991659733395
 20
41.10706298138553
 30
0.0
 41
326.7969298081842
 10
297.5379108382306
 20
40.62033890160738
 30
0.0
 41
328.2473068527986
 10
296.867293920253
 20
40.14072209282485
 30
0.0
 41
329.6891538323902
 10
296.2918460603943
 20
39.67123239395724
 30
0.0
 41
331.1128776314673
 10
295.8144245177352
 20
39.21434367867126
 30
0.0
 41
332.5102446194523
 10
295.4354828876839
 20
38.77166165430921
 30
0.0
 41
333.875457443797
  0
SPLINE
  5
C1
330
1F
100
AcDbEntity
  8
LINEE VISIBILI 2D
100
AcDbSpline
210
0.0
220
0.0
230
1.0
 70
    12
 71
     3
 72
    12
 73
     8
 74
     0
 42
0.000000001
 43
0.0000000001
 40
-0.6409980185282246
 40
-0.6409980185282246
 40
-0.6409980185282246
 40
-0.6409980185282246
 40
-0.6247875780126457
 40
-0.6247875780126457
 40
-0.5627835416719471
 40
-0.5627835416719471
 40
-0.5
 40
-0.5
 40
-0.5
 40
-0.5
 10
330.4113719546926
 20
57.80459904272212
 30
0.0
 41
283.7807158842645
 10
330.4096937056751
 20
58.19417548959537
 30
0.0
 41
282.9118641385495
 10
330.5079304520779
 20
58.59081205580397
 30
0.0
 41
282.0327154263649
 10
331.4981739434119
 20
60.5610242995024
 30
0.0
 41
277.745469158264
 10
333.7697362803986
 20
62.02333685331894
 30
0.0
 41
274.6467614023986
 10
339.8133915654632
 20
64.39949365510998
 30
0.0
 41
269.7564074545586
 10
343.6278218905164
 20
65.30511653049494
 30
0.0
 41
267.9380781558975
 10
347.7502114666815
 20
65.85867137148156
 30
0.0
 41
266.8386602950287
  0
SPLINE
  5
C2
330
1F
100
AcDbEntity
  8
LINEE VISIBILI 2D
100
AcDbSpline
210
0.0
220
0.0
230
1.0
 70
    12
 71
     2
 72
     6
 73
     3
 74
     0
 42
0.000000001
 43
0.0000000001
 40
0.0
 40
0.0
 40
0.0
 40
1.273285959749938
 40
1.273285959749938
 40
1.273285959749938
 10
294.5156102376167
 20
36.82742365263955
 30
0.0
 41
1.0
 10
294.5567439739808
 20
37.47600037306597
 30
0.0
 41
0.9697260216616429
 10
294.9001414609841
 20
38.02774479983095
 30
0.0
 41
1.0
  0
ENDSEC
  0
SECTION
  2
OBJECTS
  0
DICTIONARY
  5
C
330
0
100
AcDbDictionary
281
     1
  3
ACAD_GROUP
350
D
  3
ACAD_IMAGE_VARS
350
108
  3
ACAD_LAYOUT
350
1A
  3
ACAD_MLINESTYLE
350
17
  3
ACAD_PLOTSETTINGS
350
19
  3
ACAD_PLOTSTYLENAME
350
E
  3
ACAD_SCALELIST
350
DC
  3
APPDATA
350
106
  3
DWGPROPS
350
109
  0
DICTIONARY
  5
D
102
{ACAD_REACTORS
330
C
102
}
330
C
100
AcDbDictionary
281
     1
  0
RASTERVARIABLES
  5
108
102
{ACAD_REACTORS
330
C
102
}
330
C
100
AcDbRasterVariables
 90
        0
 70
     1
 71
     1
 72
     1
  0
DICTIONARY
  5
1A
102
{ACAD_REACTORS
330
C
102
}
330
C
100
AcDbDictionary
281
     1
  3
Layout1
350
1E
  3
Layout2
350
26
  3
Model
350
22
  0
DICTIONARY
  5
17
102
{ACAD_REACTORS
330
C
102
}
330
C
100
AcDbDictionary
281
     1
  3
Standard
350
18
  0
DICTIONARY
  5
19
102
{ACAD_REACTORS
330
C
102
}
330
C
100
AcDbDictionary
281
     1
  0
ACDBDICTIONARYWDFLT
  5
E
102
{ACAD_REACTORS
330
C
102
}
330
C
100
AcDbDictionary
281
     1
  3
Normal
350
F
100
AcDbDictionaryWithDefault
340
F
  0
DICTIONARY
  5
DC
102
{ACAD_REACTORS
330
C
102
}
330
C
100
AcDbDictionary
281
     1
  3
A0
350
DD
  3
A1
350
DE
  3
A2
350
DF
  3
A3
350
E0
  3
A4
350
E1
  3
A5
350
E2
  3
A6
350
E3
  3
A7
350
E4
  3
A8
350
E5
  3
A9
350
E6
  3
B0
350
E7
  3
B1
350
E8
  3
B2
350
E9
  3
B3
350
EA
  3
B4
350
EB
  3
B5
350
EC
  3
B6
350
ED
  3
B7
350
EE
  3
B8
350
EF
  3
B9
350
F0
  3
C0
350
F1
  3
C1
350
F2
  3
C2
350
F3
  3
C3
350
F4
  3
C4
350
F5
  3
C5
350
F6
  3
C6
350
F7
  3
C7
350
F8
  3
C8
350
F9
  3
C9
350
FA
  3
D0
350
FB
  3
D1
350
FC
  3
D2
350
FD
  0
DICTIONARY
  5
106
102
{ACAD_REACTORS
330
C
102
}
330
C
100
AcDbDictionary
281
     1
  0
XRECORD
  5
109
102
{ACAD_REACTORS
330
C
102
}
330
C
100
AcDbXrecord
280
     1
  1
DWGPROPS COOKIE
  2

  3

  4

  6

  7

  8
mouellette
  9

300
=
301
=
302
=
303
=
304
=
305
=
306
=
307
=
308
=
309
=
 40
0.0
 41
2455015.44228294
 42
2457800.930797303
  1

 90
        0
  0
LAYOUT
  5
1E
102
{ACAD_REACTORS
330
1A
102
}
330
1A
100
AcDbPlotSettings
  1

  2
none_device
  4

  6

 40
0.0
 41
0.0
 42
0.0
 43
0.0
 44
0.0
 45
0.0
 46
0.0
 47
0.0
 48
0.0
 49
0.0
140
0.0
141
0.0
142
1.0
143
1.0
 70
   688
 72
     0
 73
     0
 74
     5
  7

 75
    16
147
1.0
148
0.0
149
0.0
100
AcDbLayout
  1
Layout1
 70
     1
 71
     1
 10
0.0
 20
0.0
 11
12.0
 21
9.0
 12
0.0
 22
0.0
 32
0.0
 14
1.000000000000000E+20
 24
1.000000000000000E+20
 34
1.000000000000000E+20
 15
-1.000000000000000E+20
 25
-1.000000000000000E+20
 35
-1.000000000000000E+20
146
0.0
 13
0.0
 23
0.0
 33
0.0
 16
1.0
 26
0.0
 36
0.0
 17
0.0
 27
1.0
 37
0.0
 76
     0
330
1B
  0
LAYOUT
  5
26
102
{ACAD_REACTORS
330
1A
102
}
330
1A
100
AcDbPlotSettings
  1

  2
none_device
  4

  6

 40
0.0
 41
0.0
 42
0.0
 43
0.0
 44
0.0
 45
0.0
 46
0.0
 47
0.0
 48
0.0
 49
0.0
140
0.0
141
0.0
142
1.0
143
1.0
 70
   688
 72
     0
 73
     0
 74
     5
  7

 75
    16
147
1.0
148
0.0
149
0.0
100
AcDbLayout
  1
Layout2
 70
     1
 71
     2
 10
0.0
 20
0.0
 11
0.0
 21
0.0
 12
0.0
 22
0.0
 32
0.0
 14
0.0
 24
0.0
 34
0.0
 15
0.0
 25
0.0
 35
0.0
146
0.0
 13
0.0
 23
0.0
 33
0.0
 16
1.0
 26
0.0
 36
0.0
 17
0.0
 27
1.0
 37
0.0
 76
     0
330
23
  0
LAYOUT
  5
22
102
{ACAD_REACTORS
330
1A
102
}
330
1A
100
AcDbPlotSettings
  1

  2
none_device
  4

  6

 40
0.0
 41
0.0
 42
0.0
 43
0.0
 44
0.0
 45
0.0
 46
0.0
 47
0.0
 48
0.0
 49
0.0
140
0.0
141
0.0
142
1.0
143
1.0
 70
  1712
 72
     0
 73
     0
 74
     0
  7

 75
     0
147
1.0
148
0.0
149
0.0
100
AcDbLayout
  1
Model
 70
     1
 71
     0
 10
0.0
 20
0.0
 11
12.0
 21
9.0
 12
0.0
 22
0.0
 32
0.0
 14
254.7949494705709
 24
4.490861651634987
 34
0.0
 15
621.0092804497433
 25
253.6710528542477
 35
0.0
146
0.0
 13
0.0
 23
0.0
 33
0.0
 16
1.0
 26
0.0
 36
0.0
 17
0.0
 27
1.0
 37
0.0
 76
     0
330
1F
331
29
  0
MLINESTYLE
  5
18
102
{ACAD_REACTORS
330
17
102
}
330
17
100
AcDbMlineStyle
  2
Standard
 70
     0
  3

 62
   256
 51
90.0
 52
90.0
 71
     2
 49
0.5
 62
   256
  6
BYLAYER
 49
-0.5
 62
   256
  6
BYLAYER
  0
ACDBPLACEHOLDER
  5
F
102
{ACAD_REACTORS
330
E
102
}
330
E
  0
SCALE
  5
DD
102
{ACAD_REACTORS
330
DC
102
}
330
DC
100
AcDbScale
 70
     0
300
1:1
140
1.0
141
1.0
290
     1
  0
SCALE
  5
DE
102
{ACAD_REACTORS
330
DC
102
}
330
DC
100
AcDbScale
 70
     0
300
1:2
140
1.0
141
2.0
290
     0
  0
SCALE
  5
DF
102
{ACAD_REACTORS
330
DC
102
}
330
DC
100
AcDbScale
 70
     0
300
1:4
140
1.0
141
4.0
290
     0
  0
SCALE
  5
E0
102
{ACAD_REACTORS
330
DC
102
}
330
DC
100
AcDbScale
 70
     0
300
1:5
140
1.0
141
5.0
290
     0
  0
SCALE
  5
E1
102
{ACAD_REACTORS
330
DC
102
}
330
DC
100
AcDbScale
 70
     0
300
1:8
140
1.0
141
8.0
290
     0
  0
SCALE
  5
E2
102
{ACAD_REACTORS
330
DC
102
}
330
DC
100
AcDbScale
 70
     0
300
1:10
140
1.0
141
10.0
290
     0
  0
SCALE
  5
E3
102
{ACAD_REACTORS
330
DC
102
}
330
DC
100
AcDbScale
 70
     0
300
1:16
140
1.0
141
16.0
290
     0
  0
SCALE
  5
E4
102
{ACAD_REACTORS
330
DC
102
}
330
DC
100
AcDbScale
 70
     0
300
1:20
140
1.0
141
20.0
290
     0
  0
SCALE
  5
E5
102
{ACAD_REACTORS
330
DC
102
}
330
DC
100
AcDbScale
 70
     0
300
1:30
140
1.0
141
30.0
290
     0
  0
SCALE
  5
E6
102
{ACAD_REACTORS
330
DC
102
}
330
DC
100
AcDbScale
 70
     0
300
1:40
140
1.0
141
40.0
290
     0
  0
SCALE
  5
E7
102
{ACAD_REACTORS
330
DC
102
}
330
DC
100
AcDbScale
 70
     0
300
1:50
140
1.0
141
50.0
290
     0
  0
SCALE
  5
E8
102
{ACAD_REACTORS
330
DC
102
}
330
DC
100
AcDbScale
 70
     0
300
1:100
140
1.0
141
100.0
290
     0
  0
SCALE
  5
E9
102
{ACAD_REACTORS
330
DC
102
}
330
DC
100
AcDbScale
 70
     0
300
2:1
140
2.0
141
1.0
290
     0
  0
SCALE
  5
EA
102
{ACAD_REACTORS
330
DC
102
}
330
DC
100
AcDbScale
 70
     0
300
4:1
140
4.0
141
1.0
290
     0
  0
SCALE
  5
EB
102
{ACAD_REACTORS
330
DC
102
}
330
DC
100
AcDbScale
 70
     0
300
8:1
140
8.0
141
1.0
290
     0
  0
SCALE
  5
EC
102
{ACAD_REACTORS
330
DC
102
}
330
DC
100
AcDbScale
 70
     0
300
10:1
140
10.0
141
1.0
290
     0
  0
SCALE
  5
ED
102
{ACAD_REACTORS
330
DC
102
}
330
DC
100
AcDbScale
 70
     0
300
100:1
140
100.0
141
1.0
290
     0
  0
SCALE
  5
EE
102
{ACAD_REACTORS
330
DC
102
}
330
DC
100
AcDbScale
 70
     0
300
1/128" = 1'-0"
140
0.0078125
141
12.0
290
     0
  0
SCALE
  5
EF
102
{ACAD_REACTORS
330
DC
102
}
330
DC
100
AcDbScale
 70
     0
300
1/64" = 1'-0"
140
0.015625
141
12.0
290
     0
  0
SCALE
  5
F0
102
{ACAD_REACTORS
330
DC
102
}
330
DC
100
AcDbScale
 70
     0
300
1/32" = 1'-0"
140
0.03125
141
12.0
290
     0
  0
SCALE
  5
F1
102
{ACAD_REACTORS
330
DC
102
}
330
DC
100
AcDbScale
 70
     0
300
1/16" = 1'-0"
140
0.0625
141
12.0
290
     0
  0
SCALE
  5
F2
102
{ACAD_REACTORS
330
DC
102
}
330
DC
100
AcDbScale
 70
     0
300
3/32" = 1'-0"
140
0.09375
141
12.0
290
     0
  0
SCALE
  5
F3
102
{ACAD_REACTORS
330
DC
102
}
330
DC
100
AcDbScale
 70
     0
300
1/8" = 1'-0"
140
0.125
141
12.0
290
     0
  0
SCALE
  5
F4
102
{ACAD_REACTORS
330
DC
102
}
330
DC
100
AcDbScale
 70
     0
300
3/16" = 1'-0"
140
0.1875
141
12.0
290
     0
  0
SCALE
  5
F5
102
{ACAD_REACTORS
330
DC
102
}
330
DC
100
AcDbScale
 70
     0
300
1/4" = 1'-0"
140
0.25
141
12.0
290
     0
  0
SCALE
  5
F6
102
{ACAD_REACTORS
330
DC
102
}
330
DC
100
AcDbScale
 70
     0
300
3/8" = 1'-0"
140
0.375
141
12.0
290
     0
  0
SCALE
  5
F7
102
{ACAD_REACTORS
330
DC
102
}
330
DC
100
AcDbScale
 70
     0
300
1/2" = 1'-0"
140
0.5
141
12.0
290
     0
  0
SCALE
  5
F8
102
{ACAD_REACTORS
330
DC
102
}
330
DC
100
AcDbScale
 70
     0
300
3/4" = 1'-0"
140
0.75
141
12.0
290
     0
  0
SCALE
  5
F9
102
{ACAD_REACTORS
330
DC
102
}
330
DC
100
AcDbScale
 70
     0
300
1" = 1'-0"
140
1.0
141
12.0
290
     0
  0
SCALE
  5
FA
102
{ACAD_REACTORS
330
DC
102
}
330
DC
100
AcDbScale
 70
     0
300
1-1/2" = 1'-0"
140
1.5
141
12.0
290
     0
  0
SCALE
  5
FB
102
{ACAD_REACTORS
330
DC
102
}
330
DC
100
AcDbScale
 70
     0
300
3" = 1'-0"
140
3.0
141
12.0
290
     0
  0
SCALE
  5
FC
102
{ACAD_REACTORS
330
DC
102
}
330
DC
100
AcDbScale
 70
     0
300
6" = 1'-0"
140
6.0
141
12.0
290
     0
  0
SCALE
  5
FD
102
{ACAD_REACTORS
330
DC
102
}
330
DC
100
AcDbScale
 70
     0
300
1'-0" = 1'-0"
140
12.0
141
12.0
290
     0
  0
ENDSEC
  0
EOF
