  0
SECTION
  2
HEADER
  9
$ACADVER
  1
AC1015
  9
$ACADMAINTVER
 70
    20
  9
$DWGCODEPAGE
  3
ANSI_1252
  9
$INSBASE
 10
0.0
 20
0.0
 30
0.0
  9
$EXTMIN
 10
-96.0011045686827
 20
-472.877434897353
 30
0.0
  9
$EXTMAX
 10
640.6823045846228
 20
387.925
 30
0.0
  9
$LIMMIN
 10
0.0
 20
0.0
  9
$LIMMAX
 10
0.0
 20
0.0
  9
$ORTHOMODE
 70
     0
  9
$REGENMODE
 70
     1
  9
$FILLMODE
 70
     1
  9
$QTEXTMODE
 70
     0
  9
$MIRRTEXT
 70
     1
  9
$LTSCALE
 40
1.0
  9
$ATTMODE
 70
     1
  9
$TEXTSIZE
 40
0.0
  9
$TRACEWID
 40
0.05
  9
$TEXTSTYLE
  7
STANDARD
  9
$CLAYER
  8
0
  9
$CELTYPE
  6
CONTINUOUS
  9
$CECOLOR
 62
   256
  9
$CELTSCALE
 40
1.0
  9
$DISPSILH
 70
     0
  9
$DIMSCALE
 40
1.0
  9
$DIMASZ
 40
6.0
  9
$DIMEXO
 40
1.0
  9
$DIMDLI
 40
0.38
  9
$DIMRND
 40
0.0
  9
$DIMDLE
 40
1.0
  9
$DIMEXE
 40
0.18
  9
$DIMTP
 40
0.0
  9
$DIMTM
 40
0.0
  9
$DIMTXT
 40
3.5
  9
$DIMCEN
 40
0.09
  9
$DIMTSZ
 40
0.0
  9
$DIMTOL
 70
     0
  9
$DIMLIM
 70
     0
  9
$DIMTIH
 70
     1
  9
$DIMTOH
 70
     1
  9
$DIMSE1
 70
     0
  9
$DIMSE2
 70
     0
  9
$DIMTAD
 70
     1
  9
$DIMZIN
 70
     0
  9
$DIMBLK
  1

  9
$DIMASO
 70
     1
  9
$DIMSHO
 70
     1
  9
$DIMPOST
  1

  9
$DIMAPOST
  1

  9
$DIMALT
 70
     0
  9
$DIMALTD
 70
     2
  9
$DIMALTF
 40
0.0394
  9
$DIMLFAC
 40
1.0
  9
$DIMTOFL
 70
     0
  9
$DIMTVP
 40
0.0
  9
$DIMTIX
 70
     0
  9
$DIMSOXD
 70
     0
  9
$DIMSAH
 70
     0
  9
$DIMBLK1
  1

  9
$DIMBLK2
  1

  9
$DIMSTYLE
  2
STANDARD
  9
$DIMCLRD
 70
     0
  9
$DIMCLRE
 70
     0
  9
$DIMCLRT
 70
     0
  9
$DIMTFAC
 40
1.0
  9
$DIMGAP
 40
1.0
  9
$DIMJUST
 70
     0
  9
$DIMSD1
 70
     0
  9
$DIMSD2
 70
     0
  9
$DIMTOLJ
 70
     1
  9
$DIMTZIN
 70
     0
  9
$DIMALTZ
 70
     0
  9
$DIMALTTZ
 70
     0
  9
$DIMUPT
 70
     0
  9
$DIMDEC
 70
     4
  9
$DIMTDEC
 70
     4
  9
$DIMALTU
 70
     2
  9
$DIMALTTD
 70
     2
  9
$DIMTXSTY
  7
STANDARD
  9
$DIMAUNIT
 70
     0
  9
$DIMADEC
 70
     0
  9
$DIMALTRND
 40
0.0
  9
$DIMAZIN
 70
     0
  9
$DIMDSEP
 70
    46
  9
$DIMATFIT
 70
     3
  9
$DIMFRAC
 70
     0
  9
$DIMLDRBLK
  1

  9
$DIMLUNIT
 70
     2
  9
$DIMLWD
 70
    -2
  9
$DIMLWE
 70
    -2
  9
$DIMTMOVE
 70
     0
  9
$LUNITS
 70
     2
  9
$LUPREC
 70
     2
  9
$SKETCHINC
 40
0.1
  9
$FILLETRAD
 40
0.0
  9
$AUNITS
 70
     0
  9
$AUPREC
 70
     2
  9
$MENU
  1
acad
  9
$ELEVATION
 40
0.0
  9
$PELEVATION
 40
0.0
  9
$THICKNESS
 40
0.0
  9
$LIMCHECK
 70
     0
  9
$CHAMFERA
 40
0.0
  9
$CHAMFERB
 40
0.0
  9
$CHAMFERC
 40
0.0
  9
$CHAMFERD
 40
0.0
  9
$SKPOLY
 70
     0
  9
$TDCREATE
 40
2444972.041666667
  9
$TDUCREATE
 40
2444972.000000000
  9
$TDUPDATE
 40
2453768.891903207
  9
$TDUUPDATE
 40
2453768.850236539
  9
$TDINDWG
 40
0.0011027894
  9
$TDUSRTIMER
 40
0.0011027894
  9
$USRTIMER
 70
     1
  9
$ANGBASE
 50
0.0
  9
$ANGDIR
 70
     0
  9
$PDMODE
 70
     0
  9
$PDSIZE
 40
-1.0
  9
$PLINEWID
 40
0.0
  9
$SPLFRAME
 70
     0
  9
$SPLINETYPE
 70
     6
  9
$SPLINESEGS
 70
     8
  9
$HANDSEED
  5
469
  9
$SURFTAB1
 70
     6
  9
$SURFTAB2
 70
     6
  9
$SURFTYPE
 70
     6
  9
$SURFU
 70
     6
  9
$SURFV
 70
     6
  9
$UCSBASE
  2

  9
$UCSNAME
  2

  9
$UCSORG
 10
0.0
 20
0.0
 30
0.0
  9
$UCSXDIR
 10
1.0
 20
0.0
 30
0.0
  9
$UCSYDIR
 10
0.0
 20
1.0
 30
0.0
  9
$UCSORTHOREF
  2

  9
$UCSORTHOVIEW
 70
     1
  9
$UCSORGTOP
 10
0.0
 20
0.0
 30
0.0
  9
$UCSORGBOTTOM
 10
0.0
 20
0.0
 30
0.0
  9
$UCSORGLEFT
 10
0.0
 20
0.0
 30
0.0
  9
$UCSORGRIGHT
 10
0.0
 20
0.0
 30
0.0
  9
$UCSORGFRONT
 10
0.0
 20
0.0
 30
0.0
  9
$UCSORGBACK
 10
0.0
 20
0.0
 30
0.0
  9
$PUCSBASE
  2

  9
$PUCSNAME
  2

  9
$PUCSORG
 10
0.0
 20
0.0
 30
0.0
  9
$PUCSXDIR
 10
1.0
 20
0.0
 30
0.0
  9
$PUCSYDIR
 10
0.0
 20
1.0
 30
0.0
  9
$PUCSORTHOREF
  2

  9
$PUCSORTHOVIEW
 70
     0
  9
$PUCSORGTOP
 10
0.0
 20
0.0
 30
0.0
  9
$PUCSORGBOTTOM
 10
0.0
 20
0.0
 30
0.0
  9
$PUCSORGLEFT
 10
0.0
 20
0.0
 30
0.0
  9
$PUCSORGRIGHT
 10
0.0
 20
0.0
 30
0.0
  9
$PUCSORGFRONT
 10
0.0
 20
0.0
 30
0.0
  9
$PUCSORGBACK
 10
0.0
 20
0.0
 30
0.0
  9
$USERI1
 70
     0
  9
$USERI2
 70
     0
  9
$USERI3
 70
     0
  9
$USERI4
 70
     0
  9
$USERI5
 70
     0
  9
$USERR1
 40
0.0
  9
$USERR2
 40
0.0
  9
$USERR3
 40
0.0
  9
$USERR4
 40
0.0
  9
$USERR5
 40
0.0
  9
$WORLDVIEW
 70
     1
  9
$SHADEDGE
 70
     3
  9
$SHADEDIF
 70
    70
  9
$TILEMODE
 70
     1
  9
$MAXACTVP
 70
    16
  9
$PINSBASE
 10
0.0
 20
0.0
 30
0.0
  9
$PLIMCHECK
 70
     0
  9
$PEXTMIN
 10
1.000000000000000E+20
 20
1.000000000000000E+20
 30
1.000000000000000E+20
  9
$PEXTMAX
 10
-1.000000000000000E+20
 20
-1.000000000000000E+20
 30
-1.000000000000000E+20
  9
$PLIMMIN
 10
0.0
 20
0.0
  9
$PLIMMAX
 10
12.0
 20
9.0
  9
$UNITMODE
 70
     0
  9
$VISRETAIN
 70
     0
  9
$PLINEGEN
 70
     1
  9
$PSLTSCALE
 70
     1
  9
$TREEDEPTH
 70
  3020
  9
$CMLSTYLE
  2
STANDARD
  9
$CMLJUST
 70
     0
  9
$CMLSCALE
 40
1.0
  9
$PROXYGRAPHICS
 70
     0
  9
$MEASUREMENT
 70
     0
  9
$CELWEIGHT
370
    -1
  9
$ENDCAPS
280
     0
  9
$JOINSTYLE
280
     0
  9
$LWDISPLAY
290
     0
  9
$INSUNITS
 70
     0
  9
$HYPERLINKBASE
  1

  9
$STYLESHEET
  1

  9
$XEDIT
290
     1
  9
$CEPSNTYPE
380
     0
  9
$PSTYLEMODE
290
     1
  9
$FINGERPRINTGUID
  2
{D6CD5F0C-55D8-4329-95CA-42886EC0C9D6}
  9
$VERSIONGUID
  2
{80931439-0525-4826-A4FC-340B1B98E87C}
  9
$EXTNAMES
290
     1
  9
$PSVPSCALE
 40
0.0
  9
$OLESTARTUP
290
     0
  0
ENDSEC
  0
SECTION
  2
CLASSES
  0
CLASS
  1
IMAGE
  2
AcDbRasterImage
  3
ISM
 90
    32895
280
     0
281
     1
  0
CLASS
  1
DICTIONARYVAR
  2
AcDbDictionaryVar
  3
ObjectDBX Classes
 90
        0
280
     0
281
     0
  0
CLASS
  1
RASTERVARIABLES
  2
AcDbRasterVariables
  3
ISM
 90
    32768
280
     0
281
     0
  0
CLASS
  1
IMAGEDEF
  2
AcDbRasterImageDef
  3
ISM
 90
    32768
280
     0
281
     0
  0
CLASS
  1
IMAGEDEF_REACTOR
  2
AcDbRasterImageDefReactor
  3
ISM
 90
    32769
280
     0
281
     0
  0
CLASS
  1
IDBUFFER
  2
AcDbIdBuffer
  3
ObjectDBX Classes
 90
    32768
280
     0
281
     0
  0
CLASS
  1
SPATIAL_FILTER
  2
AcDbSpatialFilter
  3
ObjectDBX Classes
 90
    32768
280
     0
281
     0
  0
CLASS
  1
SORTENTSTABLE
  2
AcDbSortentsTable
  3
ObjectDBX Classes
 90
    32768
280
     0
281
     0
  0
CLASS
  1
LAYER_INDEX
  2
AcDbLayerIndex
  3
ObjectDBX Classes
 90
    32768
280
     0
281
     0
  0
CLASS
  1
SPATIAL_INDEX
  2
AcDbSpatialIndex
  3
ObjectDBX Classes
 90
    32768
280
     0
281
     0
  0
CLASS
  1
OBJECT_PTR
  2
CAseDLPNTableRecord
  3
ASE-LPNTableRecord
 90
    32769
280
     0
281
     0
  0
CLASS
  1
LAYOUT
  2
AcDbLayout
  3
ObjectDBX Classes
 90
        0
280
     0
281
     0
  0
CLASS
  1
PLOTSETTINGS
  2
AcDbPlotSettings
  3
ObjectDBX Classes
 90
    32768
280
     0
281
     0
  0
CLASS
  1
ACDBDICTIONARYWDFLT
  2
AcDbDictionaryWithDefault
  3
ObjectDBX Classes
 90
        0
280
     0
281
     0
  0
CLASS
  1
ACDBPLACEHOLDER
  2
AcDbPlaceHolder
  3
ObjectDBX Classes
 90
        0
280
     0
281
     0
  0
CLASS
  1
VBA_PROJECT
  2
AcDbVbaProject
  3
acad
 90
    32768
280
     0
281
     0
  0
CLASS
  1
WIPEOUT
  2
AcDbWipeout
  3
"WipeOut|Product Desc: Object Enabler for WipeOut entity^I^I^I^I^I^I|Company: Autodesk, Inc.^I^I^I^I^I^I|WEB Address: www.autodesk.com"
 90
    32895
280
     0
281
     1
  0
CLASS
  1
WIPEOUTVARIABLES
  2
AcDbWipeoutVariables
  3
"WipeOut|Product Desc:     WipeOut Dbx Application|Company:          Autodesk, Inc.|WEB Address:      www.autodesk.com"
 90
    32768
280
     0
281
     0
  0
CLASS
  1
RTEXT
  2
RText
  3
RText|AutoCAD Express Tool|expresstools@autodesk.com
 90
    32768
280
     0
281
     1
  0
CLASS
  1
ARCALIGNEDTEXT
  2
AcDbArcAlignedText
  3
ATEXT|AutoCAD Express Tool|expresstools@autodesk.com
 90
    32768
280
     0
281
     1
  0
ENDSEC
  0
SECTION
  2
TABLES
  0
TABLE
  2
VPORT
  5
7
330
0
100
AcDbSymbolTable
 70
     2
  0
VPORT
  5
461
330
7
100
AcDbSymbolTableRecord
100
AcDbViewportTableRecord
  2
*Active
 70
     0
 10
0.0
 20
0.0
 11
1.0
 21
1.0
 12
311.9278753014598
 22
-42.47342609287352
 13
0.0
 23
0.0
 14
1.0
 24
1.0
 15
0.0
 25
0.0
 16
0.0
 26
0.0
 36
1.0
 17
0.0
 27
0.0
 37
0.0
 40
867.9417076425878
 41
1.569570871261378
 42
50.0
 43
0.0
 44
0.0
 50
0.0
 51
0.0
 71
     0
 72
  2000
 73
     1
 74
     1
 75
     0
 76
     0
 77
     0
 78
     0
281
     0
 65
     1
110
0.0
120
0.0
130
0.0
111
1.0
121
0.0
131
0.0
112
0.0
122
1.0
132
0.0
 79
     1
146
0.0
  0
ENDTAB
  0
TABLE
  2
LTYPE
  5
4
330
0
100
AcDbSymbolTable
 70
     6
  0
LTYPE
  5
11
330
4
100
AcDbSymbolTableRecord
100
AcDbLinetypeTableRecord
  2
BYBLOCK
 70
     0
  3

 72
    65
 73
     0
 40
0.0
  0
LTYPE
  5
12
330
4
100
AcDbSymbolTableRecord
100
AcDbLinetypeTableRecord
  2
BYLAYER
 70
     0
  3

 72
    65
 73
     0
 40
0.0
  0
LTYPE
  5
13
330
4
100
AcDbSymbolTableRecord
100
AcDbLinetypeTableRecord
  2
CONTINUOUS
 70
     0
  3
Solid line
 72
    65
 73
     0
 40
0.0
  0
LTYPE
  5
1E
330
4
100
AcDbSymbolTableRecord
100
AcDbLinetypeTableRecord
  2
HIDDEN
 70
     0
  3
Hidden __ __ __ __ __ __ __ __ __ __ __ __ __ __
 72
    65
 73
     2
 40
1.905
 49
1.27
 74
     0
 49
-0.635
 74
     0
  0
LTYPE
  5
1F
330
4
100
AcDbSymbolTableRecord
100
AcDbLinetypeTableRecord
  2
PHANTOM
 70
     0
  3
Phantom ______  __  __  ______  __  __  ______
 72
    65
 73
     6
 40
12.7
 49
6.349999999999999
 74
     0
 49
-1.27
 74
     0
 49
1.27
 74
     0
 49
-1.27
 74
     0
 49
1.27
 74
     0
 49
-1.27
 74
     0
  0
LTYPE
  5
20
330
4
100
AcDbSymbolTableRecord
100
AcDbLinetypeTableRecord
  2
CENTER
 70
     0
  3
Center ____ _ ____ _ ____ _ ____ _ ____ _ ____
 72
    65
 73
     4
 40
10.16
 49
6.349999999999999
 74
     0
 49
-1.27
 74
     0
 49
1.27
 74
     0
 49
-1.27
 74
     0
  0
LTYPE
  5
21
330
4
100
AcDbSymbolTableRecord
100
AcDbLinetypeTableRecord
  2
CENTERX2
 70
     0
  3
Center (2x) ________  __  ________  __  _____
 72
    65
 73
     4
 40
20.32
 49
12.7
 74
     0
 49
-2.54
 74
     0
 49
2.54
 74
     0
 49
-2.54
 74
     0
  0
LTYPE
  5
22
330
4
100
AcDbSymbolTableRecord
100
AcDbLinetypeTableRecord
  2
DOT2
 70
     0
  3
Dot (.5x) ........................................
 72
    65
 73
     2
 40
0.635
 49
0.0
 74
     0
 49
-0.635
 74
     0
  0
ENDTAB
  0
TABLE
  2
LAYER
  5
2
330
0
100
AcDbSymbolTable
 70
     2
  0
LAYER
  5
14
330
2
100
AcDbSymbolTableRecord
100
AcDbLayerTableRecord
  2
0
 70
     0
 62
     7
  6
CONTINUOUS
370
    -3
390
446
  0
LAYER
  5
26
330
2
100
AcDbSymbolTableRecord
100
AcDbLayerTableRecord
  2
DEFPOINTS
 70
     0
 62
     7
  6
CONTINUOUS
290
     0
370
    -3
390
446
  0
ENDTAB
  0
TABLE
  2
STYLE
  5
3
330
0
100
AcDbSymbolTable
 70
     1
  0
STYLE
  5
17
330
3
100
AcDbSymbolTableRecord
100
AcDbTextStyleTableRecord
  2
STANDARD
 70
     0
 40
0.0
 41
1.0
 50
0.0
 71
     0
 42
0.0
  3
Century Gothic
  4

  0
ENDTAB
  0
TABLE
  2
VIEW
  5
5
330
0
100
AcDbSymbolTable
 70
     0
  0
ENDTAB
  0
TABLE
  2
UCS
  5
6
330
0
100
AcDbSymbolTable
 70
     0
  0
ENDTAB
  0
TABLE
  2
APPID
  5
8
330
0
100
AcDbSymbolTable
 70
     2
  0
APPID
  5
16
330
8
100
AcDbSymbolTableRecord
100
AcDbRegAppTableRecord
  2
ACAD
 70
     0
  0
APPID
  5
451
330
8
100
AcDbSymbolTableRecord
100
AcDbRegAppTableRecord
  2
DCO15
 70
     0
  0
ENDTAB
  0
TABLE
  2
DIMSTYLE
  5
9
330
0
100
AcDbSymbolTable
 70
     1
100
AcDbDimStyleTable
 71
     0
  0
DIMSTYLE
105
18
330
9
100
AcDbSymbolTableRecord
100
AcDbDimStyleTableRecord
  2
STANDARD
 70
     0
289
     0
340
17
  0
ENDTAB
  0
TABLE
  2
BLOCK_RECORD
  5
1
330
0
100
AcDbSymbolTable
 70
     0
  0
BLOCK_RECORD
  5
A
330
1
100
AcDbSymbolTableRecord
100
AcDbBlockTableRecord
  2
*MODEL_SPACE
340
44B
  0
BLOCK_RECORD
  5
B
330
1
100
AcDbSymbolTableRecord
100
AcDbBlockTableRecord
  2
*PAPER_SPACE
340
44C
  0
ENDTAB
  0
ENDSEC
  0
SECTION
  2
BLOCKS
  0
BLOCK
  5
D
330
A
100
AcDbEntity
  8
0
100
AcDbBlockBegin
  2
*MODEL_SPACE
 70
     0
 10
0.0
 20
0.0
 30
0.0
  3
*MODEL_SPACE
  1

  0
ENDBLK
  5
E
330
A
100
AcDbEntity
  8
0
100
AcDbBlockEnd
  0
BLOCK
  5
F
330
B
100
AcDbEntity
 67
     1
  8
0
100
AcDbBlockBegin
  2
*PAPER_SPACE
 70
     0
 10
0.0
 20
0.0
 30
0.0
  3
*PAPER_SPACE
  1

  0
ENDBLK
  5
10
330
B
100
AcDbEntity
 67
     1
  8
0
100
AcDbBlockEnd
  0
ENDSEC
  0
SECTION
  2
ENTITIES
  0
LWPOLYLINE
  5
27
330
A
100
AcDbEntity
  8
0
  6
Continuous
 62
     7
100
AcDbPolyline
 90
        9
 70
   128
 43
0.0
 10
85.34517400336524
 20
233.3738469052553
 10
85.36309732309311
 20
233.5113551048423
 10
85.18130317461208
 20
234.3846935962372
 10
84.78706421490031
 20
235.0825432284294
 10
84.23850322127899
 20
235.6509425859204
 10
83.49606653416634
 20
236.152629680032
 10
82.41840187534897
 20
236.6345779819559
 10
80.99702516166475
 20
237.0499826508742
 10
80.86470265684056
 20
237.0749680559571
  0
LWPOLYLINE
  5
32
330
A
100
AcDbEntity
  8
0
  6
Continuous
 62
     7
100
AcDbPolyline
 90
        8
 70
   128
 43
0.0
 10
69.86470265684056
 20
237.0754936195092
 10
69.74060405864226
 20
237.0519058225044
 10
68.41038334571115
 20
236.6700771925069
 10
67.21022120789214
 20
236.1397477441486
 10
66.38977907905939
 20
235.5637834929793
 10
65.83492715071393
 20
234.9320088357441
 10
65.47502154590842
 20
234.1722787951898
 10
65.37943012865557
 20
233.4210381425474
  0
LINE
  5
3C
330
A
100
AcDbEntity
  8
0
  6
Continuous
 62
     7
100
AcDbLine
 10
65.36470269210366
 20
233.4200754480107
 30
0.0
 11
65.36470265684056
 21
232.3043383436637
 31
0.0
  0
LINE
  5
3D
330
A
100
AcDbEntity
  8
0
  6
Continuous
 62
     7
100
AcDbLine
 10
85.36470265684055
 20
232.3043383436637
 30
0.0
 11
85.36470265684055
 21
233.4198437579471
 31
0.0
  0
ARC
  5
3E
330
A
100
AcDbEntity
  8
0
  6
Continuous
 62
     7
100
AcDbCircle
 10
75.36470265684034
 20
273.9249999999999
 30
0.0
 40
5.5
100
AcDbArc
 50
0.0
 51
180.0000000000004
  0
LINE
  5
3F
330
A
100
AcDbEntity
  8
0
  6
Continuous
 62
     7
100
AcDbLine
 10
69.86470265684033
 20
273.9249999999999
 30
0.0
 11
69.86470265684056
 21
235.395454385889
 31
0.0
  0
LINE
  5
40
330
A
100
AcDbEntity
  8
0
  6
Continuous
 62
     7
100
AcDbLine
 10
80.86470265684056
 20
235.391457331404
 30
0.0
 11
80.86470265684033
 21
273.9249999999999
 31
0.0
  0
ARC
  5
41
330
A
100
AcDbEntity
  8
0
  6
Continuous
 62
     7
100
AcDbCircle
 10
75.36470265684034
 20
85.92500000000008
 30
0.0
 40
150.0
100
AcDbArc
 50
174.3785475851932
 51
86.54501926364778
  0
ARC
  5
42
330
A
100
AcDbEntity
  8
0
  6
Continuous
 62
     7
100
AcDbCircle
 10
75.36470265684034
 20
85.92500000000008
 30
0.0
 40
150.0
100
AcDbArc
 50
93.42219593514068
 51
115.6216758012629
  0
LINE
  5
43
330
A
100
AcDbEntity
  8
0
  6
Continuous
 62
     7
100
AcDbLine
 10
10.76316030917883
 20
222.7830347380479
 30
0.0
 11
1.730927339019944
 21
221.190390214351
 31
0.0
  0
LINE
  5
44
330
A
100
AcDbEntity
  8
0
  6
Continuous
 62
     7
100
AcDbLine
 10
-76.94723555453681
 20
108.8258624986787
 30
0.0
 11
-75.35459103083997
 21
99.79362952851978
 31
0.0
  0
LINE
  5
45
330
A
100
AcDbEntity
  8
0
  6
Continuous
 62
     7
100
AcDbLine
 10
-75.35459103083997
 20
99.79362952851978
 30
0.0
 11
-74.36978361634195
 21
99.96727962598496
 31
0.0
  0
LINE
  5
46
330
A
100
AcDbEntity
  8
0
  6
Continuous
 62
     7
100
AcDbLine
 10
10.9368104066441
 20
221.79822732355
 30
0.0
 11
10.76316030917883
 21
222.7830347380479
 31
0.0
  0
ARC
  5
47
330
A
100
AcDbEntity
  8
0
  6
Continuous
 62
     7
100
AcDbCircle
 10
2.078227533950371
 20
219.220775385355
 30
0.0
 40
2.000000000000058
100
AcDbArc
 50
100.0001116932273
 51
145.0001116932267
  0
ARC
  5
48
330
A
100
AcDbEntity
  8
0
  6
Continuous
 62
     7
100
AcDbCircle
 10
-74.97762072554073
 20
109.1731626936091
 30
0.0
 40
1.999999999999997
100
AcDbArc
 50
145.0001116932277
 51
190.0001116932275
  0
LINE
  5
49
330
A
100
AcDbEntity
  8
0
  6
Continuous
 62
     7
100
AcDbLine
 10
-31.77867968633341
 20
174.3548035051307
 30
0.0
 11
-39.72463298764771
 21
178.6978238980521
 31
0.0
  0
LINE
  5
4A
330
A
100
AcDbEntity
  8
0
  6
Continuous
 62
     7
100
AcDbLine
 10
-51.19612977730814
 20
162.3147606495379
 30
0.0
 11
-44.39732615495983
 21
156.3334339317651
 31
0.0
  0
LINE
  5
4B
330
A
100
AcDbEntity
  8
0
  6
Continuous
 62
     7
100
AcDbLine
 10
-41.15857008635532
 20
176.6499409919878
 30
0.0
 11
-58.97557043357712
 21
186.0735548755841
 31
0.0
  0
LINE
  5
4C
330
A
100
AcDbEntity
  8
0
  6
Continuous
 62
     7
100
AcDbLine
 10
-64.71131882840733
 20
177.882023251327
 30
0.0
 11
-49.76219267860055
 21
164.3626435556023
 31
0.0
  0
ARC
  5
4D
330
A
100
AcDbEntity
  8
0
  6
Continuous
 62
     7
100
AcDbCircle
 10
5.902482709591288
 20
378.9250000000001
 30
0.0
 40
1.0
100
AcDbArc
 50
90.0
 51
230.4115930898245
  0
ARC
  5
4E
330
A
100
AcDbEntity
  8
0
  6
Continuous
 62
     7
100
AcDbCircle
 10
144.8269226040894
 20
378.9250000000001
 30
0.0
 40
1.0
100
AcDbArc
 50
309.5884069101767
 51
90.0
  0
ARC
  5
4F
330
A
100
AcDbEntity
  8
0
  6
Continuous
 62
     7
100
AcDbCircle
 10
75.36470265684032
 20
462.9249999999999
 30
0.0
 40
110.0
100
AcDbArc
 50
230.411593089824
 51
252.5271287912986
  0
ARC
  5
50
330
A
100
AcDbEntity
  8
0
  6
Continuous
 62
     7
100
AcDbCircle
 10
75.36470265684032
 20
462.9249999999999
 30
0.0
 40
109.9999999999999
100
AcDbArc
 50
255.1702823374446
 51
268.6977110648226
  0
ARC
  5
51
330
A
100
AcDbEntity
  8
0
  6
Continuous
 62
     7
100
AcDbCircle
 10
75.36470265684032
 20
462.9249999999999
 30
0.0
 40
109.9999999999999
100
AcDbArc
 50
271.302288935179
 51
309.5884069101777
  0
LINE
  5
52
330
A
100
AcDbEntity
  8
0
  6
Continuous
 62
     7
100
AcDbLine
 10
20.36470265684034
 20
387.925
 30
0.0
 11
20.36470265684034
 21
379.925
 31
0.0
  0
LINE
  5
53
330
A
100
AcDbEntity
  8
0
  6
Continuous
 62
     7
100
AcDbLine
 10
130.3647026568403
 20
379.925
 30
0.0
 11
130.3647026568402
 21
387.925
 31
0.0
  0
LINE
  5
54
330
A
100
AcDbEntity
  8
0
  6
Continuous
 62
     7
100
AcDbLine
 10
77.86470265684039
 20
340.6889492516683
 30
0.0
 11
77.86470265684039
 21
353.6616141022715
 31
0.0
  0
LINE
  5
55
330
A
100
AcDbEntity
  8
0
  6
Continuous
 62
     7
100
AcDbLine
 10
72.86470265684027
 20
353.6616141022715
 30
0.0
 11
72.86470265684027
 21
340.6889492516684
 31
0.0
  0
LINE
  5
56
330
A
100
AcDbEntity
  8
0
  6
Continuous
 62
     7
100
AcDbLine
 10
77.86470265684039
 20
335.8973750141689
 30
0.0
 11
77.86470265684039
 21
340.6889492516683
 31
0.0
  0
LINE
  5
57
330
A
100
AcDbEntity
  8
0
  6
Continuous
 62
     7
100
AcDbLine
 10
72.86470265684027
 20
340.6889492516684
 30
0.0
 11
72.86470265684027
 21
335.897375014169
 31
0.0
  0
LINE
  5
58
330
A
100
AcDbEntity
  8
0
  6
Continuous
 62
     7
100
AcDbLine
 10
72.86470265684027
 20
335.897375014169
 30
0.0
 11
72.86470265684034
 21
295.897375014169
 31
0.0
  0
LINE
  5
59
330
A
100
AcDbEntity
  8
0
  6
Continuous
 62
     7
100
AcDbLine
 10
77.86470265684034
 20
295.897375014169
 30
0.0
 11
77.86470265684039
 21
335.8973750141689
 31
0.0
  0
ARC
  5
5A
330
A
100
AcDbEntity
  8
0
  6
Continuous
 62
     7
100
AcDbCircle
 10
70.36470265684035
 20
295.8973750141688
 30
0.0
 40
2.50000000000001
100
AcDbArc
 50
284.1051766502269
 51
0.0
  0
ARC
  5
5B
330
A
100
AcDbEntity
  8
0
  6
Continuous
 62
     7
100
AcDbCircle
 10
70.36470265684035
 20
295.8973750141688
 30
0.0
 40
7.499999999999985
100
AcDbArc
 50
284.1051766502232
 51
0.0
  0
ARC
  5
5C
330
A
100
AcDbEntity
  8
0
  6
Continuous
 62
     7
100
AcDbCircle
 10
74.62949882763433
 20
278.925
 30
0.0
 40
10.00000000000001
100
AcDbArc
 50
308.5736697105317
 51
40.00000000000013
  0
ARC
  5
5D
330
A
100
AcDbEntity
  8
0
  6
Continuous
 62
     7
100
AcDbCircle
 10
74.62949882763433
 20
278.925
 30
0.0
 40
10.0
100
AcDbArc
 50
180.0000000000004
 51
241.5442684616102
  0
ARC
  5
5E
330
A
100
AcDbEntity
  8
0
  6
Continuous
 62
     7
100
AcDbCircle
 10
74.62949882763433
 20
278.925
 30
0.0
 40
10.00000000000003
100
AcDbArc
 50
104.1051766502204
 51
180.0000000000004
  0
ARC
  5
5F
330
A
100
AcDbEntity
  8
0
  6
Continuous
 62
     7
100
AcDbCircle
 10
74.62949882763433
 20
278.925
 30
0.0
 40
14.99999999999999
100
AcDbArc
 50
104.1051766502205
 51
251.4789477806832
  0
ARC
  5
60
330
A
100
AcDbEntity
  8
0
  6
Continuous
 62
     7
100
AcDbCircle
 10
74.62949882763433
 20
278.925
 30
0.0
 40
15.0
100
AcDbArc
 50
294.5621627037158
 51
0.0
  0
ARC
  5
61
330
A
100
AcDbEntity
  8
0
  6
Continuous
 62
     7
100
AcDbCircle
 10
74.62949882763433
 20
278.925
 30
0.0
 40
15.00000000000001
100
AcDbArc
 50
0.0
 51
40.00000000000028
  0
ARC
  5
62
330
A
100
AcDbEntity
  8
0
  6
Continuous
 62
     7
100
AcDbCircle
 10
-50.67883642371143
 20
367.9250000000001
 30
0.0
 40
93.54353908055175
100
AcDbArc
 50
276.8877197394022
 51
353.9097342214972
  0
ARC
  5
63
330
A
100
AcDbEntity
  8
0
  6
Continuous
 62
     7
100
AcDbCircle
 10
-50.67883642371143
 20
367.9250000000001
 30
0.0
 40
98.54353908055175
100
AcDbArc
 50
276.8877197394022
 51
353.3943396556226
  0
ARC
  5
64
330
A
100
AcDbEntity
  8
0
  6
Continuous
 62
     7
100
AcDbCircle
 10
-33.16470265684138
 20
222.9354471847408
 30
0.0
 40
47.50000000000006
100
AcDbArc
 50
180.0000000000004
 51
235.0001116932288
  0
ARC
  5
65
330
A
100
AcDbEntity
  8
0
  6
Continuous
 62
     7
100
AcDbCircle
 10
-33.16470265684138
 20
222.9354471847408
 30
0.0
 40
47.50000000000008
100
AcDbArc
 50
96.88771973940136
 51
180.0000000000004
  0
ARC
  5
66
330
A
100
AcDbEntity
  8
0
  6
Continuous
 62
     7
100
AcDbCircle
 10
-33.16470265684138
 20
222.9354471847408
 30
0.0
 40
52.50000000000008
100
AcDbArc
 50
96.8877197394014
 51
235.0001116932288
  0
LWPOLYLINE
  5
67
330
A
100
AcDbEntity
  8
0
  6
Continuous
 62
     7
100
AcDbPolyline
 90
        9
 70
   128
 43
0.0
 10
79.15266794620646
 20
234.2761644091027
 10
77.62276144351938
 20
233.9917676555145
 10
75.837664694255
 20
233.863202283012
 10
74.00181515918069
 20
233.9050371510764
 10
72.3204336766825
 20
234.112012874668
 10
70.97961811976123
 20
234.4610540464289
 10
70.12904854070258
 20
234.9138469077327
 10
69.86659522331139
 20
235.4204796339605
 10
69.87219950712071
 20
235.4283246273976
  0
LWPOLYLINE
  5
72
330
A
100
AcDbEntity
  8
0
  6
Continuous
 62
     7
100
AcDbPolyline
 90
        4
 70
   128
 43
0.0
 10
80.82208687127375
 20
235.4247195995564
 10
80.68113592617832
 20
234.9901572506667
 10
79.90977486778131
 20
234.5226976240204
 10
79.15266794620546
 20
234.2761644091031
  0
LINE
  5
78
330
A
100
AcDbEntity
  8
0
  6
Continuous
 62
     7
100
AcDbLine
 10
10.76316030917883
 20
222.7830347380479
 30
0.0
 11
-75.35459103083997
 21
99.79362952851978
 31
0.0
  0
LINE
  5
79
330
A
100
AcDbEntity
  8
0
  6
Continuous
 62
     7
100
AcDbLine
 10
10.9368104066441
 20
221.79822732355
 30
0.0
 11
-74.36978361634195
 21
99.96727962598496
 31
0.0
  0
LINE
  5
7A
330
A
100
AcDbEntity
  8
0
  6
Continuous
 62
     7
100
AcDbLine
 10
0.4399211982629991
 20
220.3679250488455
 30
0.0
 11
-76.61592705039216
 21
110.320312372575
 31
0.0
  0
LINE
  5
7B
330
A
100
AcDbEntity
  8
0
  6
Continuous
 62
     7
100
AcDbLine
 10
-39.72463298764771
 20
178.6978238980521
 30
0.0
 11
-51.19612977730814
 21
162.3147606495379
 31
0.0
  0
LINE
  5
7C
330
A
100
AcDbEntity
  8
0
  6
Continuous
 62
     7
100
AcDbLine
 10
-58.97557043357712
 20
186.0735548755841
 30
0.0
 11
-64.71131882840733
 21
177.882023251327
 31
0.0
  0
LINE
  5
7D
330
A
100
AcDbEntity
  8
0
  6
Continuous
 62
     7
100
AcDbLine
 10
5.902482709591288
 20
379.9250000000001
 30
0.0
 11
144.8269225908546
 21
379.9250000000001
 31
0.0
  0
LINE
  5
7E
330
A
100
AcDbEntity
  8
0
  6
Continuous
 62
     7
100
AcDbLine
 10
20.36470265684034
 20
387.925
 30
0.0
 11
130.3647026568402
 21
387.925
 31
0.0
  0
LINE
  5
7F
330
A
100
AcDbEntity
  8
0
  6
Continuous
 62
     7
100
AcDbLine
 10
82.28994325882409
 20
285.3528760968654
 30
0.0
 11
86.12016547441896
 21
288.5668141452982
 31
0.0
  0
LWPOLYLINE
  5
80
330
A
100
AcDbEntity
  8
0
  6
PHANTOM
 62
     7
100
AcDbPolyline
 90
       10
 70
   128
 43
0.0
 10
75.36470265684063
 20
230.6609680183021
 10
73.47219021323652
 20
230.7108244970078
 10
71.64807810023734
 20
230.8585919900847
 10
69.95829448228462
 20
231.0989297953285
 10
68.46391254201948
 20
231.4231514782637
 10
67.21894313633723
 20
231.8195388225177
 10
66.2683827032954
 20
232.2737653566918
 10
65.64658697360517
 20
232.7694141503656
 10
65.37602926501048
 20
233.2885711647351
 10
65.36470269210366
 20
233.4200754480107
  0
LWPOLYLINE
  5
8C
330
A
100
AcDbEntity
  8
0
  6
PHANTOM
 62
     7
100
AcDbPolyline
 90
       10
 70
   128
 43
0.0
 10
85.36456249173269
 20
233.40523660509
 10
85.35337604867061
 20
233.2885711647351
 10
85.08281834007595
 20
232.7694141503655
 10
84.46102261038571
 20
232.2737653566918
 10
83.51046217734387
 20
231.8195388225177
 10
82.26549277166162
 20
231.4231514782637
 10
80.77111083139646
 20
231.0989297953285
 10
79.08132721344377
 20
230.8585919900847
 10
77.25721510044458
 20
230.7108244970078
 10
75.36470265684063
 20
230.6609680183021
  0
LWPOLYLINE
  5
98
330
A
100
AcDbEntity
  8
0
  6
PHANTOM
 62
     7
100
AcDbPolyline
 90
       13
 70
   128
 43
0.0
 10
75.36470265684062
 20
233.1351229898163
 10
77.08446617852882
 20
233.1867237751425
 10
78.72381546932273
 20
233.3391133357496
 10
80.20609637839074
 20
233.5851661051524
 10
81.46199909786169
 20
233.9133769293215
 10
82.43279901240878
 20
234.308399034899
 10
83.07310259699438
 20
234.7517616272636
 10
83.35296996764958
 20
235.2227335643585
 10
83.25931483717276
 20
235.6992927218529
 10
82.79651641537487
 20
236.1591557231997
 10
81.98621464209564
 20
236.580819885557
 10
80.86629832766787
 20
236.944568661339
 10
80.86470265684052
 20
236.9449855506174
  0
LWPOLYLINE
  5
A7
330
A
100
AcDbEntity
  8
0
  6
PHANTOM
 62
     7
100
AcDbPolyline
 90
       13
 70
   128
 43
0.0
 10
69.86470265684052
 20
236.9449855506174
 10
69.86310698601307
 20
236.944568661339
 10
68.74319067158537
 20
236.580819885557
 10
67.93288889830617
 20
236.1591557231997
 10
67.47009047650833
 20
235.6992927218529
 10
67.37643534603157
 20
235.2227335643585
 10
67.65630271668681
 20
234.7517616272636
 10
68.29660630127245
 20
234.308399034899
 10
69.26740621581956
 20
233.9133769293215
 10
70.52330893529056
 20
233.5851661051523
 10
72.00558984435859
 20
233.3391133357496
 10
73.64493913515253
 20
233.1867237751425
 10
75.36470265684062
 20
233.1351229898163
  0
LINE
  5
B6
330
A
100
AcDbEntity
  8
0
  6
PHANTOM
 62
     7
100
AcDbLine
 10
1.730927339019944
 20
221.190390214351
 30
0.0
 11
-76.94723555453681
 21
108.8258624986787
 31
0.0
  0
LINE
  5
B7
330
A
100
AcDbEntity
  8
0
  6
PHANTOM
 62
     7
100
AcDbLine
 10
145.4641906769999
 20
378.1543577981652
 30
0.0
 11
5.265214636680753
 21
378.1543577981652
 31
0.0
  0
LWPOLYLINE
  5
B8
330
A
100
AcDbEntity
  8
0
  6
PHANTOM
 62
     7
100
AcDbPolyline
 90
       10
 70
   128
 43
0.0
 10
72.86470265684027
 20
340.6889492516684
 10
73.05500382556205
 20
339.7721212138491
 10
73.59693570387392
 20
338.994871933721
 10
74.40799407592759
 20
338.4755305684012
 10
75.36470265684034
 20
338.2931621329186
 10
76.32141123775308
 20
338.4755305684012
 10
77.13246960980676
 20
338.994871933721
 10
77.67440148811862
 20
339.7721212138491
 10
77.86470265684039
 20
340.6889492516684
 10
77.86470265684039
 20
340.6889492516683
  0
LINE
  5
C4
330
A
100
AcDbEntity
  8
0
  6
PHANTOM
 62
     7
100
AcDbLine
 10
72.86470265684027
 20
335.897375014169
 30
0.0
 11
77.86470265684039
 21
335.8973750141689
 31
0.0
  0
LINE
  5
C5
330
A
100
AcDbEntity
  8
0
  6
PHANTOM
 62
     7
100
AcDbLine
 10
77.86470265684034
 20
295.897375014169
 30
0.0
 11
72.86470265684034
 21
295.897375014169
 31
0.0
  0
LINE
  5
C6
330
A
100
AcDbEntity
  8
0
  6
PHANTOM
 62
     7
100
AcDbLine
 10
72.19247244432363
 20
288.6235000080965
 30
0.0
 11
70.97395925266827
 21
293.4727500121447
 31
0.0
  0
LINE
  5
C7
330
A
100
AcDbEntity
  8
0
  6
PHANTOM
 62
     7
100
AcDbLine
 10
-39.46071567151863
 20
275.0565582638326
 30
0.0
 11
-38.86109538440649
 21
270.0926429229667
 31
0.0
  0
ARC
  5
C8
330
A
100
AcDbEntity
  8
0
  6
Continuous
 62
     7
100
AcDbCircle
 10
75.36470265684034
 20
-322.877434897353
 30
0.0
 40
150.0
100
AcDbArc
 50
90.0000000000004
 51
163.5517605203839
  0
ARC
  5
C9
330
A
100
AcDbEntity
  8
0
  6
Continuous
 62
     7
100
AcDbCircle
 10
75.36470265684034
 20
-322.877434897353
 30
0.0
 40
150.0
100
AcDbArc
 50
196.4482394796179
 51
90.0000000000004
  0
LINE
  5
CA
330
A
100
AcDbEntity
  8
0
  6
Continuous
 62
     7
100
AcDbLine
 10
-62.44573959758098
 20
-269.2810312216253
 30
0.0
 11
-65.15356119552338
 21
-273.9111473051671
 31
0.0
  0
LINE
  5
CB
330
A
100
AcDbEntity
  8
0
  6
Continuous
 62
     7
100
AcDbLine
 10
-65.15356119552248
 20
-371.8437224895415
 30
0.0
 11
-62.44573959758001
 21
-376.4738385730832
 31
0.0
  0
LINE
  5
CC
330
A
100
AcDbEntity
  8
0
  6
Continuous
 62
     7
100
AcDbLine
 10
-2.14569112408107
 20
-376.4738385730844
 30
0.0
 11
-1.850450423846461
 21
-375.9690051986439
 31
0.0
  0
LINE
  5
CD
330
A
100
AcDbEntity
  8
0
  6
Continuous
 62
     7
100
AcDbLine
 10
-1.850450423847446
 20
-269.7858645960636
 30
0.0
 11
-2.145691124082055
 21
-269.281031221623
 31
0.0
  0
LINE
  5
CE
330
A
100
AcDbEntity
  8
0
  6
Continuous
 62
     7
100
AcDbLine
 10
-45.83689990746804
 20
-315.4062178541837
 30
0.0
 11
-62.09445698098565
 21
-317.8966235352406
 31
0.0
  0
LINE
  5
CF
330
A
100
AcDbEntity
  8
0
  6
Continuous
 62
     7
100
AcDbLine
 10
-62.09445698098556
 20
-327.858246259468
 30
0.0
 11
-45.83689990746792
 21
-330.3486519405246
 31
0.0
  0
LINE
  5
D0
330
A
100
AcDbEntity
  8
0
  6
Continuous
 62
     7
100
AcDbLine
 10
-38.57887151618933
 20
-311.9107764879799
 30
0.0
 11
-45.90662556024404
 21
-312.9077454342866
 31
0.0
  0
LINE
  5
D1
330
A
100
AcDbEntity
  8
0
  6
Continuous
 62
     7
100
AcDbLine
 10
-45.90662556024383
 20
-332.8471243604216
 30
0.0
 11
-38.57887151618911
 21
-333.8440933067283
 31
0.0
  0
CIRCLE
  5
D2
330
A
100
AcDbEntity
  8
0
  6
Continuous
 62
     7
100
AcDbCircle
 10
75.36470265684034
 20
-322.877434897354
 30
0.0
 40
70.46221994724908
  0
LINE
  5
D3
330
A
100
AcDbEntity
  8
0
  6
Continuous
 62
     7
100
AcDbLine
 10
4.94684668341197
 20
-320.3774348973537
 30
0.0
 11
-39.16090552796255
 21
-320.3774348973537
 31
0.0
  0
LINE
  5
D4
330
A
100
AcDbEntity
  8
0
  6
Continuous
 62
     7
100
AcDbLine
 10
-39.16090552796255
 20
-325.3774348973537
 30
0.0
 11
4.94684668341197
 21
-325.3774348973538
 31
0.0
  0
ARC
  5
D5
330
A
100
AcDbEntity
  8
0
  6
Continuous
 62
     7
100
AcDbCircle
 10
-83.16470265684145
 20
-322.8774348973535
 30
0.0
 40
2.5
100
AcDbArc
 50
90.0
 51
270.0000000000008
  0
LINE
  5
D6
330
A
100
AcDbEntity
  8
0
  6
Continuous
 62
     7
100
AcDbLine
 10
-39.16090552796255
 20
-320.3774348973537
 30
0.0
 11
-83.16470265684145
 21
-320.3774348973535
 31
0.0
  0
LINE
  5
D7
330
A
100
AcDbEntity
  8
0
  6
Continuous
 62
     7
100
AcDbLine
 10
-83.16470265684145
 20
-325.3774348973535
 30
0.0
 11
-39.16090552796255
 21
-325.3774348973537
 31
0.0
  0
LWPOLYLINE
  5
D8
330
A
100
AcDbEntity
  8
0
  6
Continuous
 62
     7
100
AcDbPolyline
 90
       16
 70
   128
 43
0.0
 10
-76.92109286172611
 20
-320.3774348973531
 10
-76.84468767690855
 20
-317.9284384681947
 10
-76.53757868117439
 20
-313.0052438148537
 10
-76.0275096914356
 20
-308.1335181946382
 10
-75.31713997122435
 20
-303.3386605291478
 10
-74.41017305933519
 20
-298.6456689860592
 10
-73.31133746128846
 20
-294.0790106502547
 10
-72.02636199709202
 20
-289.6624939637702
 10
-70.56194593382651
 20
-285.4191445996034
 10
-68.92572405876848
 20
-281.3710854165159
 10
-67.12622687514508
 20
-277.5394211206917
 10
-65.17283612803989
 20
-273.9441282355709
 10
-63.0757358923183
 20
-270.603950953507
 10
-60.84585947757667
 20
-267.5363034122268
 10
-58.4948324269286
 20
-264.7571789055793
 10
-58.05794471637057
 20
-264.2868390512792
  0
LWPOLYLINE
  5
EA
330
A
100
AcDbEntity
  8
0
  6
Continuous
 62
     7
100
AcDbPolyline
 90
       16
 70
   128
 43
0.0
 10
-58.02218524734803
 20
-381.5059230929583
 10
-58.49483242692821
 20
-380.9976908891284
 10
-60.84585947757631
 20
-378.2185663824809
 10
-63.07573589231797
 20
-375.1509188412005
 10
-65.17283612803959
 20
-371.8107415591366
 10
-67.12622687514479
 20
-368.2154486740158
 10
-68.92572405876821
 20
-364.3837843781915
 10
-70.56194593382625
 20
-360.335725195104
 10
-72.02636199709181
 20
-356.0923758309371
 10
-73.31133746128823
 20
-351.6758591444526
 10
-74.41017305933498
 20
-347.109200808648
 10
-75.31713997122416
 20
-342.4162092655596
 10
-76.02750969143542
 20
-337.6213516000691
 10
-76.5375786811743
 20
-332.7496259798536
 10
-76.84468767690849
 20
-327.8264313265126
 10
-76.92109286172611
 20
-325.3774348973531
  0
LWPOLYLINE
  5
FC
330
A
100
AcDbEntity
  8
0
  6
Continuous
 62
     7
100
AcDbPolyline
 90
       32
 70
   128
 43
0.0
 10
-62.44573959758098
 20
-269.2810312216253
 10
-61.68568629285701
 20
-268.0127986636808
 10
-59.4696526924082
 20
-264.6439599904527
 10
-57.12692165211591
 20
-261.5466326589145
 10
-54.66841606553899
 20
-258.7352578388707
 10
-52.10559862061476
 20
-256.2229434575162
 10
-49.45041835531647
 20
-254.0214030842287
 10
-46.71525494572237
 20
-252.1409013165011
 10
-43.91286098625118
 20
-250.5902059216498
 10
-41.05630253118007
 20
-249.3765469574359
 10
-38.15889817466797
 20
-248.5055830621985
 10
-35.23415695332166
 20
-247.9813750716707
 10
-32.2957153608309
 20
-247.8063670854885
 10
-29.35727376834013
 20
-247.9813750716707
 10
-26.43253254699379
 20
-248.5055830621985
 10
-23.53512819048169
 20
-249.376546957436
 10
-20.67856973541056
 20
-250.5902059216499
 10
-17.87617577593939
 20
-252.1409013165012
 10
-15.14101236634528
 20
-254.0214030842289
 10
-12.48583210104695
 20
-256.2229434575165
 10
-9.923014656122678
 20
-258.735257838871
 10
-7.464509069545751
 20
-261.5466326589149
 10
-5.12177802925344
 20
-264.643959990453
 10
-2.905744428804618
 20
-268.0127986636811
 10
-0.8267404398075578
 20
-271.6374415975848
 10
1.10554066143341
 20
-275.5009890336024
 10
2.882089688446804
 20
-279.5854273301007
 10
4.494623549580023
 20
-283.8717129502874
 10
5.935623867596357
 20
-288.3398612519707
 10
7.198372033820163
 20
-292.9690396651862
 10
8.276980533392055
 20
-297.7376648232551
 10
8.716686126198524
 20
-300.0089777472575
  0
LWPOLYLINE
  5
11E
330
A
100
AcDbEntity
  8
0
  6
Continuous
 62
     7
100
AcDbPolyline
 90
       32
 70
   128
 43
0.0
 10
8.71668612619872
 20
-345.745892047451
 10
8.276980533392194
 20
-348.0172049714538
 10
7.198372033820302
 20
-352.7858301295228
 10
5.935623867596509
 20
-357.4150085427382
 10
4.494623549580217
 20
-361.8831568444214
 10
2.882089688447026
 20
-366.169442464608
 10
1.105540661433646
 20
-370.2538807611063
 10
-0.826740439807294
 20
-374.1174281971239
 10
-2.905744428804327
 20
-377.7420711310275
 10
-5.121778029253162
 20
-381.1109098042555
 10
-7.464509069545433
 20
-384.2082371357936
 10
-9.923014656122358
 20
-387.0196119558374
 10
-12.48583210104659
 20
-389.5319263371919
 10
-15.1410123663449
 20
-391.7334667104794
 10
-17.876175775939
 20
-393.613968478207
 10
-20.67856973541019
 20
-395.1646638730583
 10
-23.5351281904813
 20
-396.3783228372721
 10
-26.43253254699339
 20
-397.2492867325094
 10
-29.3572737683397
 20
-397.7734947230372
 10
-32.29571536083046
 20
-397.9485027092193
 10
-35.23415695332122
 20
-397.7734947230371
 10
-38.15889817466756
 20
-397.2492867325092
 10
-41.05630253117963
 20
-396.3783228372718
 10
-43.91286098625076
 20
-395.1646638730578
 10
-46.71525494572192
 20
-393.6139684782065
 10
-49.45041835531601
 20
-391.7334667104788
 10
-52.10559862061431
 20
-389.5319263371912
 10
-54.66841606553857
 20
-387.0196119558366
 10
-57.12692165211553
 20
-384.2082371357928
 10
-59.46965269240778
 20
-381.1109098042546
 10
-61.68568629285662
 20
-377.7420711310264
 10
-62.44573959758001
 20
-376.4738385730832
  0
LWPOLYLINE
  5
140
330
A
100
AcDbEntity
  8
0
  6
Continuous
 62
     7
100
AcDbPolyline
 90
        9
 70
   128
 43
0.0
 10
-1.850450423847446
 20
-269.7858645960636
 10
-1.817478282716167
 20
-269.8423049270069
 10
0.2099646531876775
 20
-273.5650073813756
 10
2.085263509620724
 20
-277.5227060096143
 10
3.799481633525683
 20
-281.6965405754335
 10
5.344449994891434
 20
-286.0666208563732
 10
6.712806115901415
 20
-290.612121429771
 10
7.898029156492958
 20
-295.311380915385
 10
8.816157225303753
 20
-299.7211065864752
  0
LWPOLYLINE
  5
14B
330
A
100
AcDbEntity
  8
0
  6
Continuous
 62
     7
100
AcDbPolyline
 90
        9
 70
   128
 43
0.0
 10
8.816157225303946
 20
-346.0337632082334
 10
7.898029156493125
 20
-350.4434888793237
 10
6.712806115901582
 20
-355.1427483649377
 10
5.34444999489167
 20
-359.6882489383355
 10
3.799481633525905
 20
-364.0583292192752
 10
2.085263509621002
 20
-368.2321637850944
 10
0.2099646531879689
 20
-372.1898624133331
 10
-1.817478282715848
 20
-375.9125648677017
 10
-1.850450423846461
 20
-375.9690051986439
  0
LWPOLYLINE
  5
156
330
A
100
AcDbEntity
  8
0
  6
Continuous
 62
     7
100
AcDbPolyline
 90
       10
 70
   128
 43
0.0
 10
-38.57887151618933
 20
-311.9107764879799
 10
-37.80493620411263
 20
-311.8885111653995
 10
-36.68404642191499
 20
-312.153227863354
 10
-35.60828095676586
 20
-312.7626293992881
 10
-34.61221579585788
 20
-313.6971291064197
 10
-33.72786529302776
 20
-314.9266913952528
 10
-32.98365320108253
 20
-316.4117971221369
 10
-32.40349910899701
 20
-318.1047137670609
 10
-32.00604964664322
 20
-319.9510295961207
 10
-31.94378742377531
 20
-320.3774348973533
  0
LWPOLYLINE
  5
162
330
A
100
AcDbEntity
  8
0
  6
Continuous
 62
     7
100
AcDbPolyline
 90
       10
 70
   128
 43
0.0
 10
-31.94378742377507
 20
-325.3774348973534
 10
-32.00604964664322
 20
-325.8038401985875
 10
-32.403499108997
 20
-327.6501560276473
 10
-32.98365320108248
 20
-329.3430726725713
 10
-33.72786529302773
 20
-330.8281783994555
 10
-34.61221579585782
 20
-332.0577406882884
 10
-35.6082809567658
 20
-332.9922403954201
 10
-36.68404642191493
 20
-333.6016419313541
 10
-37.80493620411256
 20
-333.8663586293086
 10
-38.57887151618911
 20
-333.8440933067283
  0
LWPOLYLINE
  5
16E
330
A
100
AcDbEntity
  8
0
  6
Continuous
 62
     7
100
AcDbPolyline
 90
       10
 70
   128
 43
0.0
 10
-64.32709654081134
 20
-320.3774348973533
 10
-64.2938119950619
 20
-320.2795151471771
 10
-63.8009211787936
 20
-319.2232550759637
 10
-63.16285328183422
 20
-318.4380088053424
 10
-62.42693088113485
 20
-317.9820144589426
 10
-61.64773397453438
 20
-317.8890910514016
 10
-60.88305203200669
 20
-318.1661302867602
 10
-60.18959801504198
 20
-318.792585432302
 10
-59.61880223573748
 20
-319.7219951757241
 10
-59.35979272117317
 20
-320.3774348973533
  0
LWPOLYLINE
  5
17A
330
A
100
AcDbEntity
  8
0
  6
Continuous
 62
     7
100
AcDbPolyline
 90
       10
 70
   128
 43
0.0
 10
-59.35979272117247
 20
-325.3774348973534
 10
-59.61880223573746
 20
-326.0328746189846
 10
-60.18959801504195
 20
-326.9622843624065
 10
-60.88305203200667
 20
-327.5887395079485
 10
-61.64773397453435
 20
-327.865778743307
 10
-62.42693088113482
 20
-327.7728553357659
 10
-63.16285328183422
 20
-327.3168609893662
 10
-63.80092117879357
 20
-326.531614718745
 10
-64.29381199506187
 20
-325.4753546475314
 10
-64.32709654081192
 20
-325.3774348973534
  0
LWPOLYLINE
  5
186
330
A
100
AcDbEntity
  8
0
  6
Continuous
 62
     7
100
AcDbPolyline
 90
        8
 70
   128
 43
0.0
 10
-45.83689990746804
 20
-315.4062178541837
 10
-45.69327675099049
 20
-315.3884342934707
 10
-44.76442576219805
 20
-315.4762359782927
 10
-43.86811688471076
 20
-315.9101094987282
 10
-43.04626052546419
 20
-316.6697674111774
 10
-42.33728577438897
 20
-317.7196889559535
 10
-41.77434350287651
 20
-319.0107809685265
 10
-41.40459479731386
 20
-320.3774348973533
  0
LWPOLYLINE
  5
190
330
A
100
AcDbEntity
  8
0
  6
Continuous
 62
     7
100
AcDbPolyline
 90
        8
 70
   128
 43
0.0
 10
-41.4045947973135
 20
-325.3774348973534
 10
-41.7743435028765
 20
-326.7440888261819
 10
-42.33728577438893
 20
-328.0351808387548
 10
-43.04626052546416
 20
-329.0851023835309
 10
-43.86811688471071
 20
-329.8447602959801
 10
-44.76442576219799
 20
-330.2786338164157
 10
-45.69327675099044
 20
-330.3664355012376
 10
-45.83689990746792
 20
-330.3486519405246
  0
LWPOLYLINE
  5
19A
330
A
100
AcDbEntity
  8
0
  6
Continuous
 62
     7
100
AcDbPolyline
 90
       14
 70
   128
 43
0.0
 10
-49.616181138286
 20
-315.9851451435039
 10
-49.6115377298231
 20
-315.976644782533
 10
-48.78744187046115
 20
-314.7316753768507
 10
-47.84309737649191
 20
-313.7811149438089
 10
-46.81263531839305
 20
-313.1593192141187
 10
-45.73329927978696
 20
-312.888761505524
 10
-44.64409927729145
 20
-312.9792204785447
 10
-43.58440183687968
 20
-313.4274267102074
 10
-42.59250718506286
 20
-314.2171808595096
 10
-41.70426497891397
 20
-315.3199391538115
 10
-40.95177860605569
 20
-316.6958450351481
 10
-40.36224488458728
 20
-318.2951696800801
 10
-39.95697109921773
 20
-320.0601093289399
 10
-39.90676687967475
 20
-320.3774348973533
  0
LWPOLYLINE
  5
1AA
330
A
100
AcDbEntity
  8
0
  6
Continuous
 62
     7
100
AcDbPolyline
 90
       14
 70
   128
 43
0.0
 10
-39.90676687967449
 20
-325.3774348973534
 10
-39.95697109921771
 20
-325.6947604657685
 10
-40.36224488458727
 20
-327.4597001146283
 10
-40.95177860605565
 20
-329.0590247595603
 10
-41.70426497891391
 20
-330.4349306408968
 10
-42.59250718506282
 20
-331.5376889351986
 10
-43.58440183687963
 20
-332.3274430845009
 10
-44.6440992772914
 20
-332.7756493161635
 10
-45.7332992797869
 20
-332.8661082891843
 10
-46.812635318393
 20
-332.5955505805896
 10
-47.84309737649187
 20
-331.9737548508994
 10
-48.78744187046111
 20
-331.0231944178575
 10
-49.61153772982307
 20
-329.7782250121752
 10
-49.61618113828588
 20
-329.7697246512044
  0
CIRCLE
  5
1BA
330
A
100
AcDbEntity
  8
0
  6
Continuous
 62
     7
100
AcDbCircle
 10
75.36470265684034
 20
-322.877434897354
 30
0.0
 40
55.0
  0
LWPOLYLINE
  5
1BB
330
A
100
AcDbEntity
  8
0
  6
PHANTOM
 62
     7
100
AcDbPolyline
 90
       30
 70
   128
 43
0.0
 10
-58.05794471637057
 20
-264.2868390512792
 10
-56.03491190680626
 20
-262.2810665019078
 10
-53.47892280377006
 20
-260.1208755047564
 10
-50.84019086148853
 20
-258.287868149738
 10
-48.13247320648108
 20
-256.7916008884535
 10
-45.36988662483046
 20
-255.6398745655778
 10
-42.56683396379661
 20
-254.8386937488678
 10
-39.73792904204018
 20
-254.3922354241263
 10
-36.89792045993868
 20
-254.3028272183321
 10
-34.06161470721318
 20
-254.5709352644713
 10
-31.2437989687471
 20
-255.1951617713348
 10
-28.45916403105092
 20
-256.1722523109552
 10
-25.72222769130382
 20
-257.4971127856868
 10
-23.04725906828149
 20
-259.1628359864724
 10
-20.44820420977786
 20
-261.1607376038327
 10
-17.93861338436947
 20
-263.480401503835
 10
-15.53157043658934
 20
-266.1097340329923
 10
-13.2396245738199
 20
-269.0350270689728
 10
-11.07472494053642
 20
-272.2410294884029
 10
-9.048158321000615
 20
-275.7110266791617
 10
-7.170490295193607
 20
-279.4269276826299
 10
-5.451510154774255
 20
-283.369359511571
 10
-3.900179866245218
 20
-287.5177681519162
 10
-2.524587347409235
 20
-291.8505257218772
 10
-1.331904300710826
 20
-296.3450432297062
 10
-0.3283488233004062
 20
-300.9778883422405
 10
0.4808470112450253
 20
-305.7249075502369
 10
1.091464430530902
 20
-310.5613520935853
 10
1.500319958070789
 20
-315.4620069898841
 10
1.704784646209267
 20
-320.3774348973535
  0
LWPOLYLINE
  5
1DB
330
A
100
AcDbEntity
  8
0
  6
PHANTOM
 62
     7
100
AcDbPolyline
 90
       30
 70
   128
 43
0.0
 10
1.704784646209309
 20
-325.3774348973535
 10
1.500319958070844
 20
-330.2928628048248
 10
1.091464430530958
 20
-335.1935177011236
 10
0.4808470112451363
 20
-340.0299622444719
 10
-0.3283488233002813
 20
-344.7769814524683
 10
-1.331904300710687
 20
-349.4098265650026
 10
-2.524587347409054
 20
-353.9043440728317
 10
-3.900179866244996
 20
-358.2371016427925
 10
-5.45151015477402
 20
-362.3855102831378
 10
-7.170490295193343
 20
-366.3279421120789
 10
-9.048158321000338
 20
-370.043843115547
 10
-11.07472494053614
 20
-373.5138403063057
 10
-13.23962457381959
 20
-376.7198427257357
 10
-15.53157043658901
 20
-379.6451357617164
 10
-17.93861338436914
 20
-382.2744682908735
 10
-20.44820420977751
 20
-384.5941321908757
 10
-23.04725906828113
 20
-386.5920338082359
 10
-25.72222769130345
 20
-388.2577570090215
 10
-28.45916403105052
 20
-389.5826174837531
 10
-31.24379896874671
 20
-390.5597080233734
 10
-34.06161470721281
 20
-391.1839345302368
 10
-36.89792045993826
 20
-391.4520425763759
 10
-39.7379290420398
 20
-391.3626343705818
 10
-42.56683396379622
 20
-390.9161760458402
 10
-45.36988662483006
 20
-390.1149952291301
 10
-48.13247320648069
 20
-388.9632689062543
 10
-50.84019086148813
 20
-387.4670016449698
 10
-53.47892280376967
 20
-385.6339942899514
 10
-56.0349119068059
 20
-383.4738032927999
 10
-58.02218524734803
 20
-381.5059230929583
  0
LWPOLYLINE
  5
1FB
330
A
100
AcDbEntity
  8
0
  6
PHANTOM
 62
     7
100
AcDbPolyline
 90
       44
 70
   128
 43
0.0
 10
-76.58923357817728
 20
-320.3774348973531
 10
-76.51549367209195
 20
-318.0304849450783
 10
-76.21471715032143
 20
-313.2088047455417
 10
-75.71516559459488
 20
-308.4375323066939
 10
-75.01944343541345
 20
-303.7415428337605
 10
-74.13117784597075
 20
-299.1453190414416
 10
-73.0549998317514
 20
-294.6728235123739
 10
-71.79652008661242
 20
-290.3473737673198
 10
-70.36229974122362
 20
-286.1915206984116
 10
-68.75981615637044
 20
-282.2269309992415
 10
-66.99742393945682
 20
-278.4742742047534
 10
-65.08431138745088
 20
-274.953114929859
 10
-63.03045258335902
 20
-271.6818108685947
 10
-60.84655539597538
 20
-268.6774170856044
 10
-58.54400565401219
 20
-265.9555970989306
 10
-56.13480778566088
 20
-263.5305412176834
 10
-53.63152223306189
 20
-261.4148925603398
 10
-51.04719996797544
 20
-259.6196811393777
 10
-48.39531445005768
 20
-258.1542663558987
 10
-45.68969138248081
 20
-257.0262882040443
 10
-42.94443663111862
 20
-256.2416274396039
 10
-40.17386268309317
 20
-255.8043749204772
 10
-37.39241402809427
 20
-255.7168102788352
 10
-34.61459185149851
 20
-255.979390036174
 10
-31.85487843190327
 20
-256.5907452232226
 10
-29.12766163723194
 20
-257.5476885171151
 10
-26.44715991305265
 20
-258.8452308586163
 10
-23.82734815418672
 20
-260.4766074627662
 10
-21.28188484607802
 20
-262.4333130873369
 10
-18.82404085577412
 20
-264.7051463752266
 10
-16.46663024377045
 20
-267.2802630396127
 10
-14.22194345743227
 20
-270.1452376145787
 10
-12.10168325429298
 20
-273.2851334492766
 10
-10.11690368929514
 20
-276.6835805807088
 10
-8.277952484066485
 20
-280.3228610791352
 10
-6.594417078690629
 20
-284.1840014211545
 10
-5.075074647233876
 20
-288.2468714088698
 10
-3.727846337623769
 20
-292.4902891194199
 10
-2.55975597445153
 20
-296.8921313377169
 10
-1.57689344000296
 20
-301.4294488966454
 10
-0.7843829244320172
 20
-306.078586323394
 10
-0.1863562106061145
 20
-310.8153051681374
 10
0.2140688670967117
 20
-315.6149103720897
 10
0.4132277368840004
 20
-320.3774348973535
  0
LWPOLYLINE
  5
229
330
A
100
AcDbEntity
  8
0
  6
PHANTOM
 62
     7
100
AcDbPolyline
 90
       44
 70
   128
 43
0.0
 10
0.413227736884056
 20
-325.3774348973535
 10
0.2140688670967672
 20
-330.1399594226192
 10
-0.186356210606059
 20
-334.9395646265716
 10
-0.784382924431934
 20
-339.6762834713149
 10
-1.576893440002821
 20
-344.3254208980635
 10
-2.559755974451377
 20
-348.862738456992
 10
-3.727846337623602
 20
-353.2645806752889
 10
-5.075074647233695
 20
-357.507998385839
 10
-6.59441707869042
 20
-361.5708683735543
 10
-8.277952484066251
 20
-365.4320087155735
 10
-10.11690368929488
 20
-369.0712892139998
 10
-12.1016832542927
 20
-372.4697363454321
 10
-14.22194345743197
 20
-375.60963218013
 10
-16.46663024377014
 20
-378.4746067550958
 10
-18.82404085577378
 20
-381.049723419482
 10
-21.28188484607768
 20
-383.3215567073716
 10
-23.82734815418637
 20
-385.2782623319422
 10
-26.44715991305229
 20
-386.9096389360921
 10
-29.12766163723157
 20
-388.2071812775932
 10
-31.85487843190291
 20
-389.1641245714856
 10
-34.61459185149812
 20
-389.7754797585341
 10
-37.39241402809387
 20
-390.0380595158728
 10
-40.17386268309276
 20
-389.9504948742309
 10
-42.94443663111821
 20
-389.513242355104
 10
-45.68969138248042
 20
-388.7285815906636
 10
-48.39531445005728
 20
-387.6006034388091
 10
-51.04719996797505
 20
-386.1351886553302
 10
-53.63152223306156
 20
-384.339977234368
 10
-56.13480778566052
 20
-382.2243285770243
 10
-58.54400565401185
 20
-379.799272695777
 10
-60.84655539597502
 20
-377.0774527091032
 10
-63.03045258335868
 20
-374.0730589261129
 10
-65.08431138745058
 20
-370.8017548648484
 10
-66.99742393945654
 20
-367.2805955899541
 10
-68.75981615637016
 20
-363.527938795466
 10
-70.36229974122338
 20
-359.5633490962958
 10
-71.79652008661216
 20
-355.4074960273876
 10
-73.05499983175117
 20
-351.0820462823335
 10
-74.13117784597059
 20
-346.6095507532657
 10
-75.01944343541325
 20
-342.0133269609469
 10
-75.71516559459471
 20
-337.3173374880134
 10
-76.21471715032135
 20
-332.5460650491656
 10
-76.51549367209188
 20
-327.724384849629
 10
-76.58923357817726
 20
-325.3774348973531
  0
CIRCLE
  5
257
330
A
100
AcDbEntity
  8
0
  6
PHANTOM
 62
     7
100
AcDbCircle
 10
75.36470265684034
 20
-322.877434897354
 30
0.0
 40
69.46221994724905
  0
LWPOLYLINE
  5
258
330
A
100
AcDbEntity
  8
0
  6
PHANTOM
 62
     7
100
AcDbPolyline
 90
        5
 70
   128
 43
0.0
 10
-39.46071567151863
 20
-322.8774348973537
 10
-39.43789398323327
 20
-323.8341434782664
 10
-39.37290331353957
 20
-324.64520185032
 10
-39.27563790275647
 20
-325.1871337286319
 10
-39.16090552796255
 20
-325.3774348973537
  0
LWPOLYLINE
  5
25F
330
A
100
AcDbEntity
  8
0
  6
PHANTOM
 62
     7
100
AcDbPolyline
 90
        5
 70
   128
 43
0.0
 10
-39.16090552796255
 20
-320.3774348973537
 10
-39.27563790275647
 20
-320.5677360660755
 10
-39.37290331353957
 20
-321.1096679443874
 10
-39.43789398323327
 20
-321.920726316441
 10
-39.46071567151863
 20
-322.8774348973537
  0
ARC
  5
266
330
A
100
AcDbEntity
  8
0
  6
Continuous
 62
     7
100
AcDbCircle
 10
442.6698015625833
 20
235.6269443496621
 30
0.0
 40
2.000000000000005
100
AcDbArc
 50
16.01491475121546
 51
106.0149147512188
  0
ARC
  5
267
330
A
100
AcDbEntity
  8
0
  6
Continuous
 62
     7
100
AcDbCircle
 10
427.2907629739007
 20
231.2127431662298
 30
0.0
 40
2.000000000000005
100
AcDbArc
 50
106.0149147512171
 51
196.0149147512162
  0
LINE
  5
268
330
A
100
AcDbEntity
  8
0
  6
Continuous
 62
     7
100
AcDbLine
 10
425.3683831503153
 20
230.6609680183009
 30
0.0
 11
425.4968270244678
 21
230.2134706762034
 31
0.0
  0
LINE
  5
269
330
A
100
AcDbEntity
  8
0
  6
Continuous
 62
     7
100
AcDbLine
 10
445.1049948045533
 20
234.3920820013816
 30
0.0
 11
444.5921813861686
 21
236.178719497591
 31
0.0
  0
LINE
  5
26A
330
A
100
AcDbEntity
  8
0
  6
Continuous
 62
     7
100
AcDbLine
 10
488.3975025647672
 20
236.178719497592
 30
0.0
 11
487.8846891463823
 21
234.3920820013815
 31
0.0
  0
LINE
  5
26B
330
A
100
AcDbEntity
  8
0
  6
Continuous
 62
     7
100
AcDbLine
 10
507.4928569264677
 20
230.2134706762034
 30
0.0
 11
507.6213008006205
 21
230.6609680183021
 31
0.0
  0
ARC
  5
26C
330
A
100
AcDbEntity
  8
0
  6
Continuous
 62
     7
100
AcDbCircle
 10
505.6989209770351
 20
231.2127431662311
 30
0.0
 40
2.000000000000036
100
AcDbArc
 50
343.9850852487822
 51
73.98508524878309
  0
ARC
  5
26D
330
A
100
AcDbEntity
  8
0
  6
Continuous
 62
     7
100
AcDbCircle
 10
490.3198823883525
 20
235.6269443496631
 30
0.0
 40
2.000000000000009
100
AcDbArc
 50
73.98508524878117
 51
163.9850852487782
  0
ARC
  5
26E
330
A
100
AcDbEntity
  8
0
  6
Continuous
 62
     7
100
AcDbCircle
 10
466.4948419754677
 20
241.425
 30
0.0
 40
26.99999999999995
100
AcDbArc
 50
95.3127747052714
 51
189.635948443394
  0
ARC
  5
26F
330
A
100
AcDbEntity
  8
0
  6
Continuous
 62
     7
100
AcDbCircle
 10
466.4948419754677
 20
241.425
 30
0.0
 40
26.9999999999999
100
AcDbArc
 50
350.3445943527521
 51
84.68722529472861
  0
ARC
  5
270
330
A
100
AcDbEntity
  8
0
  6
Continuous
 62
     7
100
AcDbCircle
 10
466.4948419754677
 20
241.425
 30
0.0
 40
37.9999999999999
100
AcDbArc
 50
348.5198497922811
 51
86.22781631494289
  0
ARC
  5
271
330
A
100
AcDbEntity
  8
0
  6
Continuous
 62
     7
100
AcDbCircle
 10
466.4948419754677
 20
241.425
 30
0.0
 40
37.99999999999994
100
AcDbArc
 50
93.7721836850571
 51
191.4814640525441
  0
ARC
  5
272
330
A
100
AcDbEntity
  8
0
  6
Continuous
 62
     7
100
AcDbCircle
 10
466.4948419754677
 20
85.92500000000008
 30
0.0
 40
150.0
100
AcDbArc
 50
0.0
 51
74.13807194243593
  0
ARC
  5
273
330
A
100
AcDbEntity
  8
0
  6
Continuous
 62
     7
100
AcDbCircle
 10
466.4948419754677
 20
85.92500000000008
 30
0.0
 40
150.0
100
AcDbArc
 50
81.80173387865538
 51
89.04502612621509
  0
ARC
  5
274
330
A
100
AcDbEntity
  8
0
  6
Continuous
 62
     7
100
AcDbCircle
 10
466.4948419754677
 20
85.92500000000008
 30
0.0
 40
150.0
100
AcDbArc
 50
90.95497387378491
 51
98.19826612134455
  0
ARC
  5
275
330
A
100
AcDbEntity
  8
0
  6
Continuous
 62
     7
100
AcDbCircle
 10
466.4948419754677
 20
85.92500000000008
 30
0.0
 40
150.0
100
AcDbArc
 50
105.861928057564
 51
0.0
  0
LINE
  5
276
330
A
100
AcDbEntity
  8
0
  6
Continuous
 62
     7
100
AcDbLine
 10
473.8743651323383
 20
171.6030517831722
 30
0.0
 11
471.4145240800488
 21
182.7089620697069
 31
0.0
  0
LINE
  5
277
330
A
100
AcDbEntity
  8
0
  6
Continuous
 62
     7
100
AcDbLine
 10
461.5751598708896
 20
182.7089620697071
 30
0.0
 11
459.1153188185998
 21
171.6030517831724
 31
0.0
  0
LINE
  5
278
330
A
100
AcDbEntity
  8
0
  6
Continuous
 62
     7
100
AcDbLine
 10
477.3554660269833
 20
166.7739681528951
 30
0.0
 11
476.3681365677548
 21
171.8061553960198
 31
0.0
  0
LINE
  5
279
330
A
100
AcDbEntity
  8
0
  6
Continuous
 62
     7
100
AcDbLine
 10
456.6215473831833
 20
171.80615539602
 30
0.0
 11
455.6342179239546
 21
166.7739681528954
 31
0.0
  0
ARC
  5
27A
330
A
100
AcDbEntity
  8
0
  6
Continuous
 62
     7
100
AcDbCircle
 10
397.0326220282188
 20
378.9250000000001
 30
0.0
 40
1.0
100
AcDbArc
 50
90.0
 51
230.4115930898228
  0
ARC
  5
27B
330
A
100
AcDbEntity
  8
0
  6
Continuous
 62
     7
100
AcDbCircle
 10
535.9570619227168
 20
378.9250000000001
 30
0.0
 40
1.0
100
AcDbArc
 50
309.5884069101746
 51
90.0
  0
ARC
  5
27C
330
A
100
AcDbEntity
  8
0
  6
Continuous
 62
     7
100
AcDbCircle
 10
466.4948419754677
 20
462.9249999999999
 30
0.0
 40
110.0
100
AcDbArc
 50
230.411593089824
 51
262.1911585830401
  0
ARC
  5
27D
330
A
100
AcDbEntity
  8
0
  6
Continuous
 62
     7
100
AcDbCircle
 10
466.4948419754677
 20
462.9249999999999
 30
0.0
 40
110.0
100
AcDbArc
 50
264.7973022844263
 51
268.6977110648227
  0
ARC
  5
27E
330
A
100
AcDbEntity
  8
0
  6
Continuous
 62
     7
100
AcDbCircle
 10
466.4948419754677
 20
462.9249999999999
 30
0.0
 40
110.0
100
AcDbArc
 50
271.302288935179
 51
275.2026977155753
  0
ARC
  5
27F
330
A
100
AcDbEntity
  8
0
  6
Continuous
 62
     7
100
AcDbCircle
 10
466.4948419754677
 20
462.9249999999999
 30
0.0
 40
110.0
100
AcDbArc
 50
277.8088414169616
 51
309.5884069101777
  0
LINE
  5
280
330
A
100
AcDbEntity
  8
0
  6
Continuous
 62
     7
100
AcDbLine
 10
411.4948419754678
 20
387.925
 30
0.0
 11
411.4948419754678
 21
379.925
 31
0.0
  0
LINE
  5
281
330
A
100
AcDbEntity
  8
0
  6
Continuous
 62
     7
100
AcDbLine
 10
521.4948419754677
 20
379.925
 30
0.0
 11
521.4948419754677
 21
387.925
 31
0.0
  0
ARC
  5
282
330
A
100
AcDbEntity
  8
0
  6
Continuous
 62
     7
100
AcDbCircle
 10
466.4948419754677
 20
352.6678848454172
 30
0.0
 40
9.999999999999946
100
AcDbArc
 50
175.9268460517898
 51
220.0000000000025
  0
ARC
  5
283
330
A
100
AcDbEntity
  8
0
  6
Continuous
 62
     7
100
AcDbCircle
 10
466.4948419754677
 20
352.6678848454172
 30
0.0
 40
9.999999999999953
100
AcDbArc
 50
286.601549599022
 51
4.073153948215322
  0
ARC
  5
284
330
A
100
AcDbEntity
  8
0
  6
Continuous
 62
     7
100
AcDbCircle
 10
466.4948419754677
 20
352.6678848454172
 30
0.0
 40
15.00000000000009
100
AcDbArc
 50
286.6015495990215
 51
4.884296576600473
  0
ARC
  5
285
330
A
100
AcDbEntity
  8
0
  6
Continuous
 62
     7
100
AcDbCircle
 10
466.4948419754677
 20
352.6678848454172
 30
0.0
 40
15.00000000000011
100
AcDbArc
 50
175.1157034233987
 51
220.0000000000022
  0
ARC
  5
286
330
A
100
AcDbEntity
  8
0
  6
Continuous
 62
     7
100
AcDbCircle
 10
471.4948419754677
 20
335.8973750141688
 30
0.0
 40
2.499999999999943
100
AcDbArc
 50
106.6015495990167
 51
180.0000000000004
  0
ARC
  5
287
330
A
100
AcDbEntity
  8
0
  6
Continuous
 62
     7
100
AcDbCircle
 10
471.4948419754677
 20
335.8973750141688
 30
0.0
 40
7.500000000000001
100
AcDbArc
 50
106.601549599019
 51
109.4712206344907
  0
LINE
  5
288
330
A
100
AcDbEntity
  8
0
  6
Continuous
 62
     7
100
AcDbLine
 10
463.9948419754682
 20
272.5746005933997
 30
0.0
 11
463.9948419754682
 21
181.9777890634556
 31
0.0
  0
LINE
  5
289
330
A
100
AcDbEntity
  8
0
  6
Continuous
 62
     7
100
AcDbLine
 10
468.9948419754682
 20
181.9777890634556
 30
0.0
 11
468.9948419754681
 21
272.5746005933997
 31
0.0
  0
LINE
  5
28A
330
A
100
AcDbEntity
  8
0
  6
Continuous
 62
     7
100
AcDbLine
 10
463.9948419754679
 20
357.293621419844
 30
0.0
 11
463.9948419754682
 21
272.5746005933997
 31
0.0
  0
LINE
  5
28B
330
A
100
AcDbEntity
  8
0
  6
Continuous
 62
     7
100
AcDbLine
 10
468.9948419754681
 20
272.5746005933997
 30
0.0
 11
468.9948419754679
 21
357.293621419844
 31
0.0
  0
LINE
  5
28C
330
A
100
AcDbEntity
  8
0
  6
Continuous
 62
     7
100
AcDbLine
 10
426.7389887522002
 20
233.1351232556678
 30
0.0
 11
442.1180264146542
 21
237.5493241732473
 31
0.0
  0
LINE
  5
28D
330
A
100
AcDbEntity
  8
0
  6
Continuous
 62
     7
100
AcDbLine
 10
490.87165846251
 20
237.5493239073955
 30
0.0
 11
506.2506961249641
 21
233.1351229898163
 31
0.0
  0
LWPOLYLINE
  5
28E
330
A
100
AcDbEntity
  8
0
  6
Continuous
 62
     7
100
AcDbPolyline
 90
        3
 70
   128
 43
0.0
 10
456.8804670238804
 20
220.6356463250055
 10
459.0794140679987
 20
220.8610473764514
 10
463.994841975468
 20
221.1530544248148
  0
LWPOLYLINE
  5
293
330
A
100
AcDbEntity
  8
0
  6
Continuous
 62
     7
100
AcDbPolyline
 90
        3
 70
   128
 43
0.0
 10
468.994841975468
 20
221.1530544248148
 10
473.9102698829393
 20
220.8610473764513
 10
476.6712751136944
 20
220.5685161987905
  0
LWPOLYLINE
  5
298
330
A
100
AcDbEntity
  8
0
  6
Continuous
 62
     7
100
AcDbPolyline
 90
       47
 70
   128
 43
0.0
 10
466.4948419754693
 20
99.79362952851978
 10
461.3718111341248
 20
99.93698787385064
 10
456.2726662274505
 20
100.3663945070603
 10
451.2211818228632
 20
101.0798473362026
 10
446.2409102725179
 20
102.0740199148448
 10
441.3550719013699
 20
103.3442769514962
 10
436.5864467433009
 20
104.8846959214774
 10
431.9572683300854
 20
106.6880946804638
 10
427.4891200284022
 20
108.746064950958
 10
423.2028344082155
 20
111.0490115255609
 10
419.1183961117172
 20
113.586197004258
 10
415.2548486756996
 20
116.3457918571347
 10
411.6302057417959
 20
119.3149295791059
 10
408.2613670685678
 20
122.4797666795015
 10
405.1640397370296
 20
125.8255472268107
 10
402.3526649169858
 20
129.3366716476464
 10
399.8403505356313
 20
132.9967694591573
 10
397.6388101623437
 20
136.7887755957756
 10
395.7583083946161
 20
140.6950099744305
 10
394.2076129997648
 20
144.6972599272573
 10
392.9939540355508
 20
148.7768651174613
 10
392.1229901403135
 20
152.9148045424232
 10
391.5987821497856
 20
157.0917852183923
 10
391.4237741636034
 20
161.2883321332841
 10
391.5987821497856
 20
165.4848790481759
 10
392.1229901403135
 20
169.6618597241451
 10
392.9939540355508
 20
173.7997991491068
 10
394.2076129997647
 20
177.8794043393109
 10
395.758308394616
 20
181.8816542921377
 10
397.6388101623436
 20
185.7878886707927
 10
399.8403505356312
 20
189.5798948074109
 10
402.3526649169857
 20
193.2399926189217
 10
405.1640397370294
 20
196.7511170397574
 10
408.2613670685677
 20
200.0968975870667
 10
411.6302057417957
 20
203.2617346874622
 10
415.2548486756994
 20
206.2308724094334
 10
419.118396111717
 20
208.9904672623101
 10
423.2028344082153
 20
211.5276527410072
 10
427.4891200284019
 20
213.83059931561
 10
431.9572683300852
 20
215.8885695861041
 10
436.5864467433006
 20
217.6919683450905
 10
441.3550719013697
 20
219.2323873150716
 10
446.2409102725176
 20
220.502644351723
 10
451.2211818228628
 20
221.4968169303651
 10
456.2726662274501
 20
222.2102697595074
 10
461.3718111341245
 20
222.6396763927171
 10
463.994841975468
 20
222.7489262082799
  0
LWPOLYLINE
  5
2C9
330
A
100
AcDbEntity
  8
0
  6
Continuous
 62
     7
100
AcDbPolyline
 90
       47
 70
   128
 43
0.0
 10
468.994841975468
 20
222.74892620828
 10
471.6178728168135
 20
222.639676392717
 10
476.7170177234878
 20
222.2102697595073
 10
481.7685021280751
 20
221.4968169303649
 10
486.7487736784203
 20
220.5026443517228
 10
491.6346120495683
 20
219.2323873150713
 10
496.4032372076373
 20
217.6919683450901
 10
501.0324156208527
 20
215.8885695861037
 10
505.5005639225359
 20
213.8305993156095
 10
509.7868495427227
 20
211.5276527410066
 10
513.8712878392208
 20
208.9904672623095
 10
517.7348352752385
 20
206.2308724094327
 10
521.3594782091421
 20
203.2617346874615
 10
524.7283168823702
 20
200.0968975870659
 10
527.8256442139082
 20
196.7511170397566
 10
530.6370190339521
 20
193.2399926189209
 10
533.1493334153067
 20
189.5798948074101
 10
535.3508737885942
 20
185.7878886707918
 10
537.2313755563217
 20
181.8816542921368
 10
538.782070951173
 20
177.87940433931
 10
539.9957299153869
 20
173.799799149106
 10
540.8666938106243
 20
169.6618597241442
 10
541.3909018011521
 20
165.4848790481751
 10
541.5659097873342
 20
161.2883321332832
 10
541.390901801152
 20
157.0917852183914
 10
540.8666938106242
 20
152.9148045424223
 10
539.9957299153868
 20
148.7768651174605
 10
538.7820709511728
 20
144.6972599272565
 10
537.2313755563214
 20
140.6950099744298
 10
535.3508737885938
 20
136.7887755957748
 10
533.1493334153062
 20
132.9967694591565
 10
530.6370190339516
 20
129.3366716476457
 10
527.8256442139078
 20
125.8255472268101
 10
524.7283168823696
 20
122.4797666795009
 10
521.3594782091417
 20
119.3149295791054
 10
517.7348352752378
 20
116.3457918571343
 10
513.8712878392202
 20
113.5861970042575
 10
509.786849542722
 20
111.0490115255605
 10
505.5005639225353
 20
108.7460649509577
 10
501.032415620852
 20
106.6880946804636
 10
496.4032372076366
 20
104.8846959214773
 10
491.6346120495675
 20
103.3442769514961
 10
486.7487736784196
 20
102.0740199148447
 10
481.7685021280743
 20
101.0798473362027
 10
476.717017723487
 20
100.3663945070605
 10
471.6178728168128
 20
99.93698787385079
 10
466.4948419754693
 20
99.79362952851978
  0
LWPOLYLINE
  5
2FA
330
A
100
AcDbEntity
  8
0
  6
Continuous
 62
     7
100
AcDbPolyline
 90
       11
 70
   128
 43
0.0
 10
466.494841975469
 20
156.3334339317652
 10
464.530716132684
 20
156.4782393432952
 10
462.6297189105742
 20
156.9080014128125
 10
460.8529499240041
 20
157.6089072337934
 10
459.2575159901321
 20
158.5584291164443
 10
457.8946956683206
 20
159.7260486461876
 10
456.8082911250448
 20
161.0742375706168
 10
456.0332202962222
 20
162.5596639884072
 10
455.5943945960216
 20
164.1345850722781
 10
455.5059182435145
 20
165.7483815627444
 10
455.6342179239546
 20
166.7739681528954
  0
LWPOLYLINE
  5
307
330
A
100
AcDbEntity
  8
0
  6
Continuous
 62
     7
100
AcDbPolyline
 90
       11
 70
   128
 43
0.0
 10
477.3554660269833
 20
166.7739681528951
 10
477.4837657074234
 20
165.7483815627443
 10
477.3952893549163
 20
164.1345850722779
 10
476.9564636547157
 20
162.5596639884071
 10
476.1813928258931
 20
161.0742375706167
 10
475.0949882826173
 20
159.7260486461875
 10
473.7321679608057
 20
158.5584291164442
 10
472.1367340269338
 20
157.6089072337934
 10
470.3599650403637
 20
156.9080014128125
 10
468.4589678182539
 20
156.4782393432952
 10
466.494841975469
 20
156.3334339317652
  0
LWPOLYLINE
  5
314
330
A
100
AcDbEntity
  8
0
  6
Continuous
 62
     7
100
AcDbPolyline
 90
       11
 70
   128
 43
0.0
 10
466.4948419754692
 20
177.882023251327
 10
465.1458581196841
 20
178.0339053580289
 10
463.896922225292
 20
178.4782872770948
 10
462.8406621540785
 20
179.1822112344997
 10
462.0554158834573
 20
180.0934704105607
 10
461.5994215370576
 20
181.1444808809226
 10
461.5064981295165
 20
182.2572940070518
 10
461.7835373648751
 20
183.3493775301644
 10
462.409992510417
 20
184.3397366113009
 10
463.3394022538388
 20
185.1549208480048
 10
463.9948419754682
 20
185.5248263047102
  0
LWPOLYLINE
  5
321
330
A
100
AcDbEntity
  8
0
  6
Continuous
 62
     7
100
AcDbPolyline
 90
       11
 70
   128
 43
0.0
 10
468.9948419754682
 20
185.5248263047112
 10
469.6502816970995
 20
185.1549208480048
 10
470.5796914405214
 20
184.3397366113009
 10
471.2061465860633
 20
183.3493775301643
 10
471.4831858214219
 20
182.2572940070517
 10
471.3902624138809
 20
181.1444808809225
 10
470.9342680674811
 20
180.0934704105606
 10
470.1490217968598
 20
179.1822112344997
 10
469.0927617256464
 20
178.4782872770948
 10
467.8438258312543
 20
178.0339053580289
 10
466.4948419754692
 20
177.882023251327
  0
LWPOLYLINE
  5
32E
330
A
100
AcDbEntity
  8
0
  6
Continuous
 62
     7
100
AcDbPolyline
 90
       10
 70
   128
 43
0.0
 10
466.4948419754691
 20
164.3626435556022
 10
464.8825636738863
 20
164.506278648546
 10
463.345673713767
 20
164.9304677100702
 10
461.9560353615158
 20
165.6153761311103
 10
460.7786265620118
 20
166.5289783551195
 10
459.8685016421238
 20
167.6285553574991
 10
459.2682170315748
 20
168.8626921397097
 10
459.0058413715856
 20
170.1736818374599
 10
459.0936430564075
 20
171.5002240295431
 10
459.1153188185998
 20
171.6030517831724
  0
LWPOLYLINE
  5
33A
330
A
100
AcDbEntity
  8
0
  6
Continuous
 62
     7
100
AcDbPolyline
 90
       10
 70
   128
 43
0.0
 10
473.8743651323383
 20
171.6030517831722
 10
473.8960408945305
 20
171.500224029543
 10
473.9838425793524
 20
170.1736818374598
 10
473.7214669193632
 20
168.8626921397097
 10
473.1211823088142
 20
167.628555357499
 10
472.2110573889263
 20
166.5289783551195
 10
471.0336485894223
 20
165.6153761311103
 10
469.644010237171
 20
164.9304677100702
 10
468.1071202770517
 20
164.506278648546
 10
466.4948419754691
 20
164.3626435556022
  0
LWPOLYLINE
  5
346
330
A
100
AcDbEntity
  8
0
  6
Continuous
 62
     7
100
AcDbPolyline
 90
       14
 70
   128
 43
0.0
 10
466.4948419754692
 20
162.3147606495379
 10
464.6023295318649
 20
162.462792297402
 10
462.7782174188658
 20
162.9015369915476
 10
461.0884338009131
 20
163.6151373555904
 10
459.5940518606479
 20
164.5778020131061
 10
458.3490824549656
 20
165.7547377551737
 10
457.3985220219238
 20
167.1034070575989
 10
456.7767262922335
 20
168.5750654978684
 10
456.5061685836389
 20
170.1165235055821
 10
456.5966275566596
 20
171.6720687721117
 10
457.0448337883223
 20
173.1854798385911
 10
457.8345879376246
 20
174.6020580859236
 10
458.9373462319263
 20
175.8706046853921
 10
460.2961126118976
 20
176.9342051611739
  0
LWPOLYLINE
  5
356
330
A
100
AcDbEntity
  8
0
  6
Continuous
 62
     7
100
AcDbPolyline
 90
       14
 70
   128
 43
0.0
 10
472.6935713390407
 20
176.9342051611738
 10
474.0523377190117
 20
175.870604685392
 10
475.1550960133135
 20
174.6020580859235
 10
475.9448501626159
 20
173.185479838591
 10
476.3930563942785
 20
171.6720687721116
 10
476.4835153672992
 20
170.116523505582
 10
476.2129576587045
 20
168.5750654978683
 10
475.5911619290142
 20
167.1034070575988
 10
474.6406014959724
 20
165.7547377551736
 10
473.3956320902901
 20
164.577802013106
 10
471.901250150025
 20
163.6151373555903
 10
470.2114665320722
 20
162.9015369915476
 10
468.387354419073
 20
162.462792297402
 10
466.4948419754692
 20
162.3147606495379
  0
LINE
  5
366
330
A
100
AcDbEntity
  8
0
  6
Continuous
 62
     7
100
AcDbLine
 10
466.494841975468
 20
379.9250000000001
 30
0.0
 11
535.9570619227168
 21
379.9250000000001
 31
0.0
  0
LINE
  5
367
330
A
100
AcDbEntity
  8
0
  6
Continuous
 62
     7
100
AcDbLine
 10
397.0326220282188
 20
379.9250000000001
 30
0.0
 11
466.494841975468
 21
379.9250000000001
 31
0.0
  0
LINE
  5
368
330
A
100
AcDbEntity
  8
0
  6
Continuous
 62
     7
100
AcDbLine
 10
466.4948419754679
 20
387.925
 30
0.0
 11
521.4948419754677
 21
387.925
 31
0.0
  0
LINE
  5
369
330
A
100
AcDbEntity
  8
0
  6
Continuous
 62
     7
100
AcDbLine
 10
411.4948419754678
 20
387.925
 30
0.0
 11
466.4948419754679
 21
387.925
 31
0.0
  0
LINE
  5
36A
330
A
100
AcDbEntity
  8
0
  6
Continuous
 62
     7
100
AcDbLine
 10
456.9192864364808
 20
344.6330397243352
 30
0.0
 11
455.0041753286833
 21
343.0260707001188
 31
0.0
  0
LINE
  5
36B
330
A
100
AcDbEntity
  8
0
  6
Continuous
 62
     7
100
AcDbLine
 10
458.8343975442782
 20
346.2400087485516
 30
0.0
 11
456.9192864364808
 21
344.6330397243352
 31
0.0
  0
LWPOLYLINE
  5
36C
330
A
100
AcDbEntity
  8
0
  6
Continuous
 62
     7
100
AcDbPolyline
 90
        5
 70
   128
 43
0.0
 10
466.4948419754682
 20
179.9299061573913
 10
467.4515505563809
 20
180.0857919615631
 10
468.2626089284346
 20
180.5297171735015
 10
468.8045408067464
 20
181.1940982038811
 10
468.9948419754682
 20
181.9777890634556
  0
LWPOLYLINE
  5
373
330
A
100
AcDbEntity
  8
0
  6
Continuous
 62
     7
100
AcDbPolyline
 90
        5
 70
   128
 43
0.0
 10
463.9948419754682
 20
181.9777890634556
 10
464.18514314419
 20
181.1940982038811
 10
464.7270750225019
 20
180.5297171735015
 10
465.5381333945555
 20
180.0857919615631
 10
466.4948419754682
 20
179.9299061573913
  0
LINE
  5
37A
330
A
100
AcDbEntity
  8
0
  6
PHANTOM
 62
     7
100
AcDbLine
 10
444.5921813861686
 20
236.178719497591
 30
0.0
 11
425.3683831503153
 21
230.6609680183009
 31
0.0
  0
LINE
  5
37B
330
A
100
AcDbEntity
  8
0
  6
PHANTOM
 62
     7
100
AcDbLine
 10
507.6213008006205
 20
230.6609680183021
 30
0.0
 11
488.3975025647672
 21
236.178719497592
 31
0.0
  0
LWPOLYLINE
  5
37C
330
A
100
AcDbEntity
  8
0
  6
PHANTOM
 62
     7
100
AcDbPolyline
 90
       44
 70
   128
 43
0.0
 10
466.4948419754693
 20
110.320312372575
 10
461.6478920231934
 20
110.4637466967199
 10
456.8262118236569
 20
110.8933018690036
 10
452.0549393848091
 20
111.6067383876574
 10
447.3589499118757
 20
112.6003367250196
 10
442.7627261195568
 20
113.868916719431
 10
438.290230590489
 20
115.4058645821989
 10
433.9647808454349
 20
117.2031673788287
 10
429.8089277765267
 20
119.2514548047546
 10
425.8443380773566
 20
121.5400480377684
 10
422.0916812828685
 20
124.0570154124539
 10
418.5705220079742
 20
126.7892346263659
 10
415.2992179467098
 20
129.7224611536386
 10
412.2948241637195
 20
132.8414025093479
 10
409.5730041770456
 20
136.1297979774471
 10
407.1479482957984
 20
139.5705033866105
 10
405.0322996384547
 20
143.145580492005
 10
403.2370882174927
 20
146.836390496992
 10
401.7716734340137
 20
150.6236912271831
 10
400.6436952821593
 20
154.4877374502273
 10
399.859034517719
 20
158.4083838183097
 10
399.4217819985921
 20
162.3651898966672
 10
399.3342173569502
 20
166.3375267305505
 10
399.5967971142889
 20
170.3046843950422
 10
400.2081523013374
 20
174.2459799670161
 10
401.1650955952299
 20
178.1408653563214
 10
402.462637936731
 20
181.9690344340099
 10
404.094014540881
 20
185.7105288990902
 10
406.0507201654516
 20
189.3458423318677
 10
408.3225534533413
 20
192.8560218913846
 10
410.8976701177274
 20
196.2227671267566
 10
413.7626446926933
 20
199.4285253872504
 10
416.9025405273912
 20
202.456583333677
 10
420.3009876588235
 20
205.2911540740032
 10
423.9402681572498
 20
207.917459468897
 10
427.801408499269
 20
210.3218071781031
 10
431.8642784869844
 20
212.491662045965
 10
436.1076961975346
 20
214.4157114539224
 10
440.5095384158314
 20
216.083924299266
 10
445.04685597476
 20
217.4876032926629
 10
449.6959934015086
 20
218.619430301795
 10
454.4327122462519
 20
219.4735045047135
 10
459.2323174502043
 20
220.0453731539911
 10
463.994841975468
 20
220.3298026770128
  0
LWPOLYLINE
  5
3AA
330
A
100
AcDbEntity
  8
0
  6
PHANTOM
 62
     7
100
AcDbPolyline
 90
       44
 70
   128
 43
0.0
 10
468.994841975468
 20
220.3298026770128
 10
473.7573665007338
 20
220.045373153991
 10
478.5569717046861
 20
219.4735045047133
 10
483.2936905494295
 20
218.6194303017948
 10
487.9428279761781
 20
217.4876032926626
 10
492.4801455351065
 20
216.0839242992658
 10
496.8819877534035
 20
214.415711453922
 10
501.1254054639536
 20
212.4916620459646
 10
505.1882754516689
 20
210.3218071781026
 10
509.049415793688
 20
207.9174594688965
 10
512.6886962921144
 20
205.2911540740026
 10
516.0871434235467
 20
202.4565833336764
 10
519.2270392582446
 20
199.4285253872497
 10
522.0920138332105
 20
196.2227671267559
 10
524.6671304975968
 20
192.8560218913839
 10
526.9389637854864
 20
189.345842331867
 10
528.8956694100569
 20
185.7105288990895
 10
530.5270460142069
 20
181.9690344340091
 10
531.824588355708
 20
178.1408653563206
 10
532.7815316496005
 20
174.2459799670154
 10
533.3928868366489
 20
170.3046843950414
 10
533.6554665939877
 20
166.3375267305497
 10
533.5679019523456
 20
162.3651898966664
 10
533.1306494332189
 20
158.4083838183089
 10
532.3459886687785
 20
154.4877374502265
 10
531.2180105169241
 20
150.6236912271823
 10
529.7525957334451
 20
146.8363904969913
 10
527.9573843124831
 20
143.1455804920043
 10
525.8417356551393
 20
139.5705033866098
 10
523.416679773892
 20
136.1297979774464
 10
520.6948597872183
 20
132.8414025093474
 10
517.6904660042279
 20
129.722461153638
 10
514.4191619429635
 20
126.7892346263654
 10
510.8980026680692
 20
124.0570154124535
 10
507.1453458735811
 20
121.5400480377679
 10
503.1807561744109
 20
119.2514548047542
 10
499.0249031055027
 20
117.2031673788284
 10
494.6994533604486
 20
115.4058645821986
 10
490.2269578313808
 20
113.8689167194309
 10
485.630734039062
 20
112.6003367250195
 10
480.9347445661286
 20
111.6067383876572
 10
476.1634721272807
 20
110.8933018690036
 10
471.3417919277443
 20
110.4637466967199
 10
466.4948419754693
 20
110.320312372575
  0
LWPOLYLINE
  5
3D8
330
A
100
AcDbEntity
  8
0
  6
PHANTOM
 62
     7
100
AcDbPolyline
 90
       43
 70
   128
 43
0.0
 10
466.4948419754693
 20
108.8258624986787
 10
461.5458455463099
 20
108.9723166533536
 10
456.6226508929689
 20
109.4109155732292
 10
451.7509252727533
 20
110.1393726066242
 10
446.956067607263
 20
111.1538899158685
 10
442.2630760641744
 20
112.4491782774695
 10
437.6964177283698
 20
114.0184846576748
 10
433.2799010418853
 20
115.8536274196633
 10
429.0365516777185
 20
117.9450389788109
 10
424.9884924946311
 20
120.2818156836467
 10
421.1568281988068
 20
122.8517746624435
 10
417.561535313686
 20
125.6415173390689
 10
414.2213580316221
 20
128.6364992869581
 10
411.1537104903418
 20
131.8211060570188
 10
408.3745859836943
 20
135.1787345841393
 10
405.8984735800228
 20
138.6918797478818
 10
403.7382825828713
 20
142.3422256360747
 10
401.905275227853
 20
146.1107410354983
 10
400.4090079665685
 20
149.9777786518178
 10
399.2572816436928
 20
153.9231775414791
 10
398.4561008269827
 20
157.9263682215327
 10
398.0096425022411
 20
161.9664799093938
 10
397.920234296447
 20
166.0224493334388
 10
398.1883423425862
 20
170.07313054715
 10
398.8125688494497
 20
174.09740517429
 10
399.7896593890701
 20
178.0742925103366
 10
401.1145198638017
 20
181.9830589061611
 10
402.7802430645872
 20
185.8033258636749
 10
404.7781446819474
 20
189.5151762798823
 10
407.0978085819497
 20
193.0992582854332
 10
409.7271411111069
 20
196.5368861363092
 10
412.6524341470876
 20
199.810137632641
 10
415.8584365665175
 20
202.9019475567598
 10
419.3284337572763
 20
205.79619664334
 10
423.0443347607446
 20
208.4777956177855
 10
426.9867665896856
 20
210.9327638647202
 10
431.1351752300309
 20
213.1483023164429
 10
435.4679327999917
 20
215.1128601813403
 10
439.9624503078207
 20
216.8161951643655
 10
444.595295420355
 20
218.2494268656224
 10
449.3423146283515
 20
219.4050830786582
 10
454.1787591716999
 20
220.2771387470885
 10
456.8804670238804
 20
220.6356463250055
  0
LWPOLYLINE
  5
405
330
A
100
AcDbEntity
  8
0
  6
PHANTOM
 62
     7
100
AcDbPolyline
 90
       43
 70
   128
 43
0.0
 10
476.6712751136944
 20
220.5685161987905
 10
478.8109247792381
 20
220.2771387470884
 10
483.6473693225864
 20
219.405083078658
 10
488.3943885305829
 20
218.2494268656221
 10
493.0272336431172
 20
216.8161951643652
 10
497.5217511509463
 20
215.1128601813399
 10
501.8545087209071
 20
213.1483023164425
 10
506.0029173612524
 20
210.9327638647197
 10
509.9453491901934
 20
208.477795617785
 10
513.6612501936615
 20
205.7961966433394
 10
517.1312473844203
 20
202.9019475567591
 10
520.3372498038504
 20
199.8101376326404
 10
523.262542839831
 20
196.5368861363085
 10
525.8918753689882
 20
193.0992582854324
 10
528.2115392689905
 20
189.5151762798816
 10
530.2094408863507
 20
185.8033258636742
 10
531.8751640871363
 20
181.9830589061603
 10
533.2000245618679
 20
178.0742925103358
 10
534.1771151014881
 20
174.0974051742893
 10
534.8013416083516
 20
170.0731305471492
 10
535.0694496544908
 20
166.022449333438
 10
534.9800414486967
 20
161.966479909393
 10
534.5335831239551
 20
157.9263682215319
 10
533.732402307245
 20
153.9231775414783
 10
532.5806759843693
 20
149.9777786518171
 10
531.0844087230848
 20
146.1107410354976
 10
529.2514013680663
 20
142.342225636074
 10
527.0912103709148
 20
138.6918797478811
 10
524.6150979672434
 20
135.1787345841387
 10
521.8359734605959
 20
131.8211060570182
 10
518.7683259193156
 20
128.6364992869575
 10
515.4281486372517
 20
125.6415173390684
 10
511.8328557521309
 20
122.851774662443
 10
508.0011914563066
 20
120.2818156836463
 10
503.9531322732191
 20
117.9450389788105
 10
499.7097829090523
 20
115.853627419663
 10
495.2932662225678
 20
114.0184846576746
 10
490.7266078867633
 20
112.4491782774693
 10
486.0336163436747
 20
111.1538899158684
 10
481.2387586781844
 20
110.1393726066241
 10
476.3670330579688
 20
109.4109155732291
 10
471.4438384046279
 20
108.9723166533536
 10
466.4948419754693
 20
108.8258624986787
  0
LINE
  5
432
330
A
100
AcDbEntity
  8
0
  6
PHANTOM
 62
     7
100
AcDbLine
 10
466.494841975468
 20
378.1543577981652
 30
0.0
 11
396.3953539553082
 21
378.1543577981652
 31
0.0
  0
LINE
  5
433
330
A
100
AcDbEntity
  8
0
  6
PHANTOM
 62
     7
100
AcDbLine
 10
536.5943299956273
 20
378.1543577981652
 30
0.0
 11
466.494841975468
 21
378.1543577981652
 31
0.0
  0
LINE
  5
434
330
A
100
AcDbEntity
  8
0
  6
PHANTOM
 62
     7
100
AcDbLine
 10
470.0662705468966
 20
340.6889492516684
 30
0.0
 11
470.7805562611822
 21
338.2931621329186
 31
0.0
  0
LINE
  5
435
330
A
100
AcDbEntity
  8
0
  6
PHANTOM
 62
     7
100
AcDbLine
 10
469.3519848326108
 20
343.0847363704182
 30
0.0
 11
470.0662705468966
 21
340.6889492516684
 31
0.0
  0
LWPOLYLINE
  5
436
330
A
100
AcDbEntity
  8
0
  6
PHANTOM
 62
     7
100
AcDbPolyline
 90
        5
 70
   128
 43
0.0
 10
466.4948419754682
 20
275.0565582638326
 10
467.4515505563809
 20
274.867630485672
 10
468.2626089284346
 20
274.3296096927807
 10
468.8045408067464
 20
273.5244046737058
 10
468.9948419754681
 20
272.5746005933996
  0
LWPOLYLINE
  5
43D
330
A
100
AcDbEntity
  8
0
  6
PHANTOM
 62
     7
100
AcDbPolyline
 90
        5
 70
   128
 43
0.0
 10
463.9948419754682
 20
272.5746005933997
 10
464.1851431441899
 20
273.5244046737058
 10
464.7270750225017
 20
274.3296096927807
 10
465.5381333945554
 20
274.867630485672
 10
466.4948419754682
 20
275.0565582638326
  0
ENDSEC
  0
SECTION
  2
OBJECTS
  0
DICTIONARY
  5
19
330
0
100
AcDbDictionary
281
     1
  3
ACAD_COLOR
350
448
  3
ACAD_GROUP
350
1A
  3
ACAD_LAYOUT
350
449
  3
ACAD_MATERIAL
350
447
  3
ACAD_MLINESTYLE
350
1B
  3
ACAD_PLOTSETTINGS
350
44A
  3
ACAD_PLOTSTYLENAME
350
445
  3
ACDBHEADERROUNDTRIPXREC
350
462
  3
AcDbVariableDictionary
350
45B
  3
ASE_INDEX_DICTIONARY
350
450
  0
DICTIONARY
  5
448
102
{ACAD_REACTORS
330
19
102
}
330
19
100
AcDbDictionary
281
     1
  0
DICTIONARY
  5
1A
102
{ACAD_REACTORS
330
19
102
}
330
19
100
AcDbDictionary
281
     1
  0
DICTIONARY
  5
449
102
{ACAD_REACTORS
330
19
102
}
330
19
100
AcDbDictionary
281
     1
  3
Layout1
350
44C
  3
Model
350
44B
  0
DICTIONARY
  5
447
102
{ACAD_REACTORS
330
19
102
}
330
19
100
AcDbDictionary
281
     1
  0
DICTIONARY
  5
1B
102
{ACAD_REACTORS
330
19
102
}
330
19
100
AcDbDictionary
281
     1
  3
STANDARD
350
1C
  0
DICTIONARY
  5
44A
102
{ACAD_REACTORS
330
19
102
}
330
19
100
AcDbDictionary
281
     1
  0
ACDBDICTIONARYWDFLT
  5
445
102
{ACAD_REACTORS
330
19
102
}
330
19
100
AcDbDictionary
281
     1
  3
Normal
350
446
100
AcDbDictionaryWithDefault
340
446
  0
DICTIONARY
  5
462
102
{ACAD_REACTORS
330
19
102
}
330
19
100
AcDbDictionary
281
     1
  3
COLORDICT
350
464
  3
MATERIALDICT
350
463
  0
DICTIONARY
  5
45B
102
{ACAD_REACTORS
330
19
102
}
330
19
100
AcDbDictionary
281
     1
  3
DIMASSOC
350
45C
  3
PROJECTNAME
350
45D
  0
DICTIONARY
  5
450
102
{ACAD_REACTORS
330
19
102
}
330
19
100
AcDbDictionary
281
     1
  3
ASEBlockHierarchyIndexRecord
350
452
1001
DCO15
1040
1522042218.015
  0
LAYOUT
  5
44C
102
{ACAD_XDICTIONARY
360
467
102
}
102
{ACAD_REACTORS
330
449
102
}
330
449
100
AcDbPlotSettings
  1

  2
ProgeSOFT PDF Wizard
  4

  6

 40
0.0
 41
0.0
 42
0.0
 43
0.0
 44
0.0
 45
0.0
 46
0.0
 47
0.0
 48
0.0
 49
0.0
140
0.0
141
0.0
142
1.0
143
1.0
 70
   688
 72
     0
 73
     0
 74
     5
  7

 75
    16
147
1.0
148
0.0
149
0.0
100
AcDbLayout
  1
Layout1
 70
     1
 71
     1
 10
0.0
 20
0.0
 11
12.0
 21
9.0
 12
0.0
 22
0.0
 32
0.0
 14
1.000000000000000E+20
 24
1.000000000000000E+20
 34
1.000000000000000E+20
 15
-1.000000000000000E+20
 25
-1.000000000000000E+20
 35
-1.000000000000000E+20
146
0.0
 13
0.0
 23
0.0
 33
0.0
 16
1.0
 26
0.0
 36
0.0
 17
0.0
 27
1.0
 37
0.0
 76
     0
330
B
  0
LAYOUT
  5
44B
102
{ACAD_XDICTIONARY
360
465
102
}
102
{ACAD_REACTORS
330
449
102
}
330
449
100
AcDbPlotSettings
  1

  2
ProgeSOFT PDF Wizard
  4

  6

 40
0.0
 41
0.0
 42
0.0
 43
0.0
 44
0.0
 45
0.0
 46
0.0
 47
0.0
 48
0.0
 49
0.0
140
0.0
141
0.0
142
1.0
143
1.0
 70
  1712
 72
     0
 73
     0
 74
     0
  7

 75
     0
147
1.0
148
0.0
149
0.0
100
AcDbLayout
  1
Model
 70
     1
 71
     0
 10
0.0
 20
0.0
 11
12.0
 21
9.0
 12
0.0
 22
0.0
 32
0.0
 14
0.0
 24
0.0
 34
0.0
 15
0.0
 25
0.0
 35
0.0
146
0.0
 13
0.0
 23
0.0
 33
0.0
 16
1.0
 26
0.0
 36
0.0
 17
0.0
 27
1.0
 37
0.0
 76
     0
330
A
  0
MLINESTYLE
  5
1C
102
{ACAD_REACTORS
330
1B
102
}
330
1B
100
AcDbMlineStyle
  2
STANDARD
 70
     0
  3

 62
     0
 51
90.0
 52
90.0
 71
     2
 49
0.5
 62
   256
  6
BYLAYER
 49
-0.5
 62
   256
  6
BYLAYER
  0
ACDBPLACEHOLDER
  5
446
102
{ACAD_REACTORS
330
445
102
}
330
445
  0
XRECORD
  5
464
102
{ACAD_REACTORS
330
462
102
}
330
462
100
AcDbXrecord
280
     1
340
448
  0
XRECORD
  5
463
102
{ACAD_REACTORS
330
462
102
}
330
462
100
AcDbXrecord
280
     1
340
447
  0
DICTIONARYVAR
  5
45C
102
{ACAD_REACTORS
330
45B
102
}
330
45B
100
DictionaryVariables
280
     0
  1
1
  0
DICTIONARYVAR
  5
45D
102
{ACAD_REACTORS
330
45B
102
}
330
45B
100
DictionaryVariables
280
     0
  1

  0
XRECORD
  5
452
102
{ACAD_REACTORS
330
450
102
}
330
450
100
AcDbXrecord
280
     1
  0
DICTIONARY
  5
467
330
44C
100
AcDbDictionary
280
     1
281
     1
  3
ACAD_XREC_ROUNDTRIP
360
468
  0
DICTIONARY
  5
465
330
44B
100
AcDbDictionary
280
     1
281
     1
  3
ACAD_XREC_ROUNDTRIP
360
466
  0
XRECORD
  5
468
102
{ACAD_REACTORS
330
467
102
}
330
467
100
AcDbXrecord
280
     1
102
SHADEPLOT
 70
     0
102
SHADEPLOTRESLEVEL
 70
     2
102
SHADEPLOTCUSTOMDPI
 70
   300
  0
XRECORD
  5
466
102
{ACAD_REACTORS
330
465
102
}
330
465
100
AcDbXrecord
280
     1
102
SHADEPLOT
 70
     0
102
SHADEPLOTRESLEVEL
 70
     2
102
SHADEPLOTCUSTOMDPI
 70
   300
  0
ENDSEC
  0
EOF
