  0
SECTION
  2
HEADER
  9
$ACADVER
  1
AC1015
  9
$ACADMAINTVER
 70
    20
  9
$DWGCODEPAGE
  3
ANSI_1252
  9
$INSBASE
 10
0.0
 20
0.0
 30
0.0
  9
$EXTMIN
 10
-318.8640568877375
 20
-890.2153059536464
 30
0.0
  9
$EXTMAX
 10
1382.416934921618
 20
340.7082863378335
 30
0.0
  9
$LIMMIN
 10
0.0
 20
0.0
  9
$LIMMAX
 10
0.0
 20
0.0
  9
$ORTHOMODE
 70
     0
  9
$REGENMODE
 70
     1
  9
$FILLMODE
 70
     1
  9
$QTEXTMODE
 70
     0
  9
$MIRRTEXT
 70
     1
  9
$LTSCALE
 40
1.0
  9
$ATTMODE
 70
     1
  9
$TEXTSIZE
 40
0.0
  9
$TRACEWID
 40
0.05
  9
$TEXTSTYLE
  7
STANDARD
  9
$CLAYER
  8
0
  9
$CELTYPE
  6
CONTINUOUS
  9
$CECOLOR
 62
   256
  9
$CELTSCALE
 40
1.0
  9
$DISPSILH
 70
     0
  9
$DIMSCALE
 40
1.0
  9
$DIMASZ
 40
6.0
  9
$DIMEXO
 40
1.0
  9
$DIMDLI
 40
0.38
  9
$DIMRND
 40
0.0
  9
$DIMDLE
 40
1.0
  9
$DIMEXE
 40
0.18
  9
$DIMTP
 40
0.0
  9
$DIMTM
 40
0.0
  9
$DIMTXT
 40
3.5
  9
$DIMCEN
 40
0.09
  9
$DIMTSZ
 40
0.0
  9
$DIMTOL
 70
     0
  9
$DIMLIM
 70
     0
  9
$DIMTIH
 70
     1
  9
$DIMTOH
 70
     1
  9
$DIMSE1
 70
     0
  9
$DIMSE2
 70
     0
  9
$DIMTAD
 70
     1
  9
$DIMZIN
 70
     0
  9
$DIMBLK
  1

  9
$DIMASO
 70
     1
  9
$DIMSHO
 70
     1
  9
$DIMPOST
  1

  9
$DIMAPOST
  1

  9
$DIMALT
 70
     0
  9
$DIMALTD
 70
     2
  9
$DIMALTF
 40
0.0394
  9
$DIMLFAC
 40
1.0
  9
$DIMTOFL
 70
     0
  9
$DIMTVP
 40
0.0
  9
$DIMTIX
 70
     0
  9
$DIMSOXD
 70
     0
  9
$DIMSAH
 70
     0
  9
$DIMBLK1
  1

  9
$DIMBLK2
  1

  9
$DIMSTYLE
  2
STANDARD
  9
$DIMCLRD
 70
     0
  9
$DIMCLRE
 70
     0
  9
$DIMCLRT
 70
     0
  9
$DIMTFAC
 40
1.0
  9
$DIMGAP
 40
1.0
  9
$DIMJUST
 70
     0
  9
$DIMSD1
 70
     0
  9
$DIMSD2
 70
     0
  9
$DIMTOLJ
 70
     1
  9
$DIMTZIN
 70
     0
  9
$DIMALTZ
 70
     0
  9
$DIMALTTZ
 70
     0
  9
$DIMUPT
 70
     0
  9
$DIMDEC
 70
     4
  9
$DIMTDEC
 70
     4
  9
$DIMALTU
 70
     2
  9
$DIMALTTD
 70
     2
  9
$DIMTXSTY
  7
STANDARD
  9
$DIMAUNIT
 70
     0
  9
$DIMADEC
 70
     0
  9
$DIMALTRND
 40
0.0
  9
$DIMAZIN
 70
     0
  9
$DIMDSEP
 70
    46
  9
$DIMATFIT
 70
     3
  9
$DIMFRAC
 70
     0
  9
$DIMLDRBLK
  1

  9
$DIMLUNIT
 70
     2
  9
$DIMLWD
 70
    -2
  9
$DIMLWE
 70
    -2
  9
$DIMTMOVE
 70
     0
  9
$LUNITS
 70
     2
  9
$LUPREC
 70
     2
  9
$SKETCHINC
 40
0.1
  9
$FILLETRAD
 40
0.0
  9
$AUNITS
 70
     0
  9
$AUPREC
 70
     2
  9
$MENU
  1
acad
  9
$ELEVATION
 40
0.0
  9
$PELEVATION
 40
0.0
  9
$THICKNESS
 40
0.0
  9
$LIMCHECK
 70
     0
  9
$CHAMFERA
 40
0.0
  9
$CHAMFERB
 40
0.0
  9
$CHAMFERC
 40
0.0
  9
$CHAMFERD
 40
0.0
  9
$SKPOLY
 70
     0
  9
$TDCREATE
 40
2444972.041666667
  9
$TDUCREATE
 40
2444972.000000000
  9
$TDUPDATE
 40
2453768.769775753
  9
$TDUUPDATE
 40
2453768.728109086
  9
$TDINDWG
 40
0.0122614583
  9
$TDUSRTIMER
 40
0.0122614583
  9
$USRTIMER
 70
     1
  9
$ANGBASE
 50
0.0
  9
$ANGDIR
 70
     0
  9
$PDMODE
 70
     0
  9
$PDSIZE
 40
-1.0
  9
$PLINEWID
 40
0.0
  9
$SPLFRAME
 70
     0
  9
$SPLINETYPE
 70
     6
  9
$SPLINESEGS
 70
     8
  9
$HANDSEED
  5
CAD
  9
$SURFTAB1
 70
     6
  9
$SURFTAB2
 70
     6
  9
$SURFTYPE
 70
     6
  9
$SURFU
 70
     6
  9
$SURFV
 70
     6
  9
$UCSBASE
  2

  9
$UCSNAME
  2

  9
$UCSORG
 10
0.0
 20
0.0
 30
0.0
  9
$UCSXDIR
 10
1.0
 20
0.0
 30
0.0
  9
$UCSYDIR
 10
0.0
 20
1.0
 30
0.0
  9
$UCSORTHOREF
  2

  9
$UCSORTHOVIEW
 70
     1
  9
$UCSORGTOP
 10
0.0
 20
0.0
 30
0.0
  9
$UCSORGBOTTOM
 10
0.0
 20
0.0
 30
0.0
  9
$UCSORGLEFT
 10
0.0
 20
0.0
 30
0.0
  9
$UCSORGRIGHT
 10
0.0
 20
0.0
 30
0.0
  9
$UCSORGFRONT
 10
0.0
 20
0.0
 30
0.0
  9
$UCSORGBACK
 10
0.0
 20
0.0
 30
0.0
  9
$PUCSBASE
  2

  9
$PUCSNAME
  2

  9
$PUCSORG
 10
0.0
 20
0.0
 30
0.0
  9
$PUCSXDIR
 10
1.0
 20
0.0
 30
0.0
  9
$PUCSYDIR
 10
0.0
 20
1.0
 30
0.0
  9
$PUCSORTHOREF
  2

  9
$PUCSORTHOVIEW
 70
     0
  9
$PUCSORGTOP
 10
0.0
 20
0.0
 30
0.0
  9
$PUCSORGBOTTOM
 10
0.0
 20
0.0
 30
0.0
  9
$PUCSORGLEFT
 10
0.0
 20
0.0
 30
0.0
  9
$PUCSORGRIGHT
 10
0.0
 20
0.0
 30
0.0
  9
$PUCSORGFRONT
 10
0.0
 20
0.0
 30
0.0
  9
$PUCSORGBACK
 10
0.0
 20
0.0
 30
0.0
  9
$USERI1
 70
     0
  9
$USERI2
 70
     0
  9
$USERI3
 70
     0
  9
$USERI4
 70
     0
  9
$USERI5
 70
     0
  9
$USERR1
 40
0.0
  9
$USERR2
 40
0.0
  9
$USERR3
 40
0.0
  9
$USERR4
 40
0.0
  9
$USERR5
 40
0.0
  9
$WORLDVIEW
 70
     1
  9
$SHADEDGE
 70
     3
  9
$SHADEDIF
 70
    70
  9
$TILEMODE
 70
     1
  9
$MAXACTVP
 70
    16
  9
$PINSBASE
 10
0.0
 20
0.0
 30
0.0
  9
$PLIMCHECK
 70
     0
  9
$PEXTMIN
 10
1.000000000000000E+20
 20
1.000000000000000E+20
 30
1.000000000000000E+20
  9
$PEXTMAX
 10
-1.000000000000000E+20
 20
-1.000000000000000E+20
 30
-1.000000000000000E+20
  9
$PLIMMIN
 10
0.0
 20
0.0
  9
$PLIMMAX
 10
12.0
 20
9.0
  9
$UNITMODE
 70
     0
  9
$VISRETAIN
 70
     0
  9
$PLINEGEN
 70
     1
  9
$PSLTSCALE
 70
     1
  9
$TREEDEPTH
 70
  3020
  9
$CMLSTYLE
  2
STANDARD
  9
$CMLJUST
 70
     0
  9
$CMLSCALE
 40
1.0
  9
$PROXYGRAPHICS
 70
     0
  9
$MEASUREMENT
 70
     0
  9
$CELWEIGHT
370
    -1
  9
$ENDCAPS
280
     0
  9
$JOINSTYLE
280
     0
  9
$LWDISPLAY
290
     0
  9
$INSUNITS
 70
     0
  9
$HYPERLINKBASE
  1

  9
$STYLESHEET
  1

  9
$XEDIT
290
     1
  9
$CEPSNTYPE
380
     0
  9
$PSTYLEMODE
290
     1
  9
$FINGERPRINTGUID
  2
{3D4788D9-D921-4895-94F5-674F03BABF37}
  9
$VERSIONGUID
  2
{FD5D4930-6B6B-4DFD-A035-2A705ACF5F51}
  9
$EXTNAMES
290
     1
  9
$PSVPSCALE
 40
0.0
  9
$OLESTARTUP
290
     0
  0
ENDSEC
  0
SECTION
  2
CLASSES
  0
CLASS
  1
IMAGE
  2
AcDbRasterImage
  3
ISM
 90
    32895
280
     0
281
     1
  0
CLASS
  1
DICTIONARYVAR
  2
AcDbDictionaryVar
  3
ObjectDBX Classes
 90
        0
280
     0
281
     0
  0
CLASS
  1
RASTERVARIABLES
  2
AcDbRasterVariables
  3
ISM
 90
    32768
280
     0
281
     0
  0
CLASS
  1
IMAGEDEF
  2
AcDbRasterImageDef
  3
ISM
 90
    32768
280
     0
281
     0
  0
CLASS
  1
IMAGEDEF_REACTOR
  2
AcDbRasterImageDefReactor
  3
ISM
 90
    32769
280
     0
281
     0
  0
CLASS
  1
IDBUFFER
  2
AcDbIdBuffer
  3
ObjectDBX Classes
 90
    32768
280
     0
281
     0
  0
CLASS
  1
SPATIAL_FILTER
  2
AcDbSpatialFilter
  3
ObjectDBX Classes
 90
    32768
280
     0
281
     0
  0
CLASS
  1
SORTENTSTABLE
  2
AcDbSortentsTable
  3
ObjectDBX Classes
 90
    32768
280
     0
281
     0
  0
CLASS
  1
LAYER_INDEX
  2
AcDbLayerIndex
  3
ObjectDBX Classes
 90
    32768
280
     0
281
     0
  0
CLASS
  1
SPATIAL_INDEX
  2
AcDbSpatialIndex
  3
ObjectDBX Classes
 90
    32768
280
     0
281
     0
  0
CLASS
  1
OBJECT_PTR
  2
CAseDLPNTableRecord
  3
ASE-LPNTableRecord
 90
    32769
280
     0
281
     0
  0
CLASS
  1
LAYOUT
  2
AcDbLayout
  3
ObjectDBX Classes
 90
        0
280
     0
281
     0
  0
CLASS
  1
PLOTSETTINGS
  2
AcDbPlotSettings
  3
ObjectDBX Classes
 90
    32768
280
     0
281
     0
  0
CLASS
  1
ACDBDICTIONARYWDFLT
  2
AcDbDictionaryWithDefault
  3
ObjectDBX Classes
 90
        0
280
     0
281
     0
  0
CLASS
  1
ACDBPLACEHOLDER
  2
AcDbPlaceHolder
  3
ObjectDBX Classes
 90
        0
280
     0
281
     0
  0
CLASS
  1
VBA_PROJECT
  2
AcDbVbaProject
  3
acad
 90
    32768
280
     0
281
     0
  0
CLASS
  1
WIPEOUT
  2
AcDbWipeout
  3
"WipeOut|Product Desc: Object Enabler for WipeOut entity^I^I^I^I^I^I|Company: Autodesk, Inc.^I^I^I^I^I^I|WEB Address: www.autodesk.com"
 90
    32895
280
     0
281
     1
  0
CLASS
  1
WIPEOUTVARIABLES
  2
AcDbWipeoutVariables
  3
"WipeOut|Product Desc:     WipeOut Dbx Application|Company:          Autodesk, Inc.|WEB Address:      www.autodesk.com"
 90
    32768
280
     0
281
     0
  0
CLASS
  1
RTEXT
  2
RText
  3
RText|AutoCAD Express Tool|expresstools@autodesk.com
 90
    32768
280
     0
281
     1
  0
CLASS
  1
ARCALIGNEDTEXT
  2
AcDbArcAlignedText
  3
ATEXT|AutoCAD Express Tool|expresstools@autodesk.com
 90
    32768
280
     0
281
     1
  0
ENDSEC
  0
SECTION
  2
TABLES
  0
TABLE
  2
VPORT
  5
7
330
0
100
AcDbSymbolTable
 70
     2
  0
VPORT
  5
CA5
330
7
100
AcDbSymbolTableRecord
100
AcDbViewportTableRecord
  2
*Active
 70
     0
 10
0.0
 20
0.0
 11
1.0
 21
1.0
 12
598.2888915929544
 22
-274.7535098079065
 13
0.0
 23
0.0
 14
1.0
 24
1.0
 15
0.0
 25
0.0
 16
0.0
 26
0.0
 36
1.0
 17
0.0
 27
0.0
 37
0.0
 40
1241.556191498728
 41
1.569570871261378
 42
50.0
 43
0.0
 44
0.0
 50
0.0
 51
0.0
 71
     0
 72
  2000
 73
     1
 74
     1
 75
     0
 76
     0
 77
     0
 78
     0
281
     0
 65
     1
110
0.0
120
0.0
130
0.0
111
1.0
121
0.0
131
0.0
112
0.0
122
1.0
132
0.0
 79
     1
146
0.0
  0
ENDTAB
  0
TABLE
  2
LTYPE
  5
4
330
0
100
AcDbSymbolTable
 70
     6
  0
LTYPE
  5
11
330
4
100
AcDbSymbolTableRecord
100
AcDbLinetypeTableRecord
  2
BYBLOCK
 70
     0
  3

 72
    65
 73
     0
 40
0.0
  0
LTYPE
  5
12
330
4
100
AcDbSymbolTableRecord
100
AcDbLinetypeTableRecord
  2
BYLAYER
 70
     0
  3

 72
    65
 73
     0
 40
0.0
  0
LTYPE
  5
13
330
4
100
AcDbSymbolTableRecord
100
AcDbLinetypeTableRecord
  2
CONTINUOUS
 70
     0
  3
Solid line
 72
    65
 73
     0
 40
0.0
  0
LTYPE
  5
1E
330
4
100
AcDbSymbolTableRecord
100
AcDbLinetypeTableRecord
  2
HIDDEN
 70
     0
  3
Hidden __ __ __ __ __ __ __ __ __ __ __ __ __ __
 72
    65
 73
     2
 40
1.905
 49
1.27
 74
     0
 49
-0.635
 74
     0
  0
LTYPE
  5
1F
330
4
100
AcDbSymbolTableRecord
100
AcDbLinetypeTableRecord
  2
PHANTOM
 70
     0
  3
Phantom ______  __  __  ______  __  __  ______
 72
    65
 73
     6
 40
12.7
 49
6.349999999999999
 74
     0
 49
-1.27
 74
     0
 49
1.27
 74
     0
 49
-1.27
 74
     0
 49
1.27
 74
     0
 49
-1.27
 74
     0
  0
LTYPE
  5
20
330
4
100
AcDbSymbolTableRecord
100
AcDbLinetypeTableRecord
  2
CENTER
 70
     0
  3
Center ____ _ ____ _ ____ _ ____ _ ____ _ ____
 72
    65
 73
     4
 40
10.16
 49
6.349999999999999
 74
     0
 49
-1.27
 74
     0
 49
1.27
 74
     0
 49
-1.27
 74
     0
  0
LTYPE
  5
21
330
4
100
AcDbSymbolTableRecord
100
AcDbLinetypeTableRecord
  2
CENTERX2
 70
     0
  3
Center (2x) ________  __  ________  __  _____
 72
    65
 73
     4
 40
20.32
 49
12.7
 74
     0
 49
-2.54
 74
     0
 49
2.54
 74
     0
 49
-2.54
 74
     0
  0
LTYPE
  5
22
330
4
100
AcDbSymbolTableRecord
100
AcDbLinetypeTableRecord
  2
DOT2
 70
     0
  3
Dot (.5x) ........................................
 72
    65
 73
     2
 40
0.635
 49
0.0
 74
     0
 49
-0.635
 74
     0
  0
ENDTAB
  0
TABLE
  2
LAYER
  5
2
330
0
100
AcDbSymbolTable
 70
     2
  0
LAYER
  5
14
330
2
100
AcDbSymbolTableRecord
100
AcDbLayerTableRecord
  2
0
 70
     0
 62
     7
  6
CONTINUOUS
370
    -3
390
C8A
  0
LAYER
  5
26
330
2
100
AcDbSymbolTableRecord
100
AcDbLayerTableRecord
  2
DEFPOINTS
 70
     0
 62
     7
  6
CONTINUOUS
290
     0
370
    -3
390
C8A
  0
ENDTAB
  0
TABLE
  2
STYLE
  5
3
330
0
100
AcDbSymbolTable
 70
     1
  0
STYLE
  5
17
330
3
100
AcDbSymbolTableRecord
100
AcDbTextStyleTableRecord
  2
STANDARD
 70
     0
 40
0.0
 41
1.0
 50
0.0
 71
     0
 42
0.0
  3
Century Gothic
  4

  0
ENDTAB
  0
TABLE
  2
VIEW
  5
5
330
0
100
AcDbSymbolTable
 70
     0
  0
ENDTAB
  0
TABLE
  2
UCS
  5
6
330
0
100
AcDbSymbolTable
 70
     0
  0
ENDTAB
  0
TABLE
  2
APPID
  5
8
330
0
100
AcDbSymbolTable
 70
     2
  0
APPID
  5
16
330
8
100
AcDbSymbolTableRecord
100
AcDbRegAppTableRecord
  2
ACAD
 70
     0
  0
APPID
  5
C95
330
8
100
AcDbSymbolTableRecord
100
AcDbRegAppTableRecord
  2
DCO15
 70
     0
  0
ENDTAB
  0
TABLE
  2
DIMSTYLE
  5
9
330
0
100
AcDbSymbolTable
 70
     1
100
AcDbDimStyleTable
 71
     0
  0
DIMSTYLE
105
18
330
9
100
AcDbSymbolTableRecord
100
AcDbDimStyleTableRecord
  2
STANDARD
 70
     0
289
     0
340
17
  0
ENDTAB
  0
TABLE
  2
BLOCK_RECORD
  5
1
330
0
100
AcDbSymbolTable
 70
     0
  0
BLOCK_RECORD
  5
A
330
1
100
AcDbSymbolTableRecord
100
AcDbBlockTableRecord
  2
*MODEL_SPACE
340
C8F
  0
BLOCK_RECORD
  5
B
330
1
100
AcDbSymbolTableRecord
100
AcDbBlockTableRecord
  2
*PAPER_SPACE
340
C90
  0
ENDTAB
  0
ENDSEC
  0
SECTION
  2
BLOCKS
  0
BLOCK
  5
D
330
A
100
AcDbEntity
  8
0
100
AcDbBlockBegin
  2
*MODEL_SPACE
 70
     0
 10
0.0
 20
0.0
 30
0.0
  3
*MODEL_SPACE
  1

  0
ENDBLK
  5
E
330
A
100
AcDbEntity
  8
0
100
AcDbBlockEnd
  0
BLOCK
  5
F
330
B
100
AcDbEntity
 67
     1
  8
0
100
AcDbBlockBegin
  2
*PAPER_SPACE
 70
     0
 10
0.0
 20
0.0
 30
0.0
  3
*PAPER_SPACE
  1

  0
ENDBLK
  5
10
330
B
100
AcDbEntity
 67
     1
  8
0
100
AcDbBlockEnd
  0
ENDSEC
  0
SECTION
  2
ENTITIES
  0
LINE
  5
27
330
A
100
AcDbEntity
  8
0
  6
Continuous
 62
     7
100
AcDbLine
 10
221.5608217820919
 20
295.7082863378335
 30
0.0
 11
221.5608217820919
 21
305.7082863378336
 31
0.0
  0
LINE
  5
28
330
A
100
AcDbEntity
  8
0
  6
Continuous
 62
     7
100
AcDbLine
 10
156.5608217820918
 20
305.7082863378336
 30
0.0
 11
156.5608217820918
 21
295.7082863378335
 31
0.0
  0
LINE
  5
29
330
A
100
AcDbEntity
  8
0
  6
Continuous
 62
     7
100
AcDbLine
 10
-81.54806954246129
 20
295.7082863378335
 30
0.0
 11
-81.54806954246129
 21
305.7082863378336
 31
0.0
  0
LINE
  5
2A
330
A
100
AcDbEntity
  8
0
  6
Continuous
 62
     7
100
AcDbLine
 10
-146.5480695424613
 20
305.7082863378336
 30
0.0
 11
-146.5480695424613
 21
295.7082863378335
 31
0.0
  0
LINE
  5
2B
330
A
100
AcDbEntity
  8
0
  6
Continuous
 62
     7
100
AcDbLine
 10
168.0608217820918
 20
295.7082863378335
 30
0.0
 11
168.0608217820918
 21
294.7082863378331
 31
0.0
  0
LINE
  5
2C
330
A
100
AcDbEntity
  8
0
  6
Continuous
 62
     7
100
AcDbLine
 10
210.0608217820918
 20
294.7082863378332
 30
0.0
 11
210.0608217820918
 21
295.7082863378335
 31
0.0
  0
LINE
  5
2D
330
A
100
AcDbEntity
  8
0
  6
Continuous
 62
     7
100
AcDbLine
 10
-135.0480695424613
 20
295.7082863378335
 30
0.0
 11
-135.0480695424613
 21
294.7082863378335
 31
0.0
  0
LINE
  5
2E
330
A
100
AcDbEntity
  8
0
  6
Continuous
 62
     7
100
AcDbLine
 10
-93.0480695424613
 20
294.7082863378335
 30
0.0
 11
-93.0480695424613
 21
295.7082863378335
 31
0.0
  0
LINE
  5
2F
330
A
100
AcDbEntity
  8
0
  6
Continuous
 62
     7
100
AcDbLine
 10
107.5063761198155
 20
315.4671640078294
 30
0.0
 11
105.6532762694187
 21
315.7082863378335
 31
0.0
  0
LINE
  5
30
330
A
100
AcDbEntity
  8
0
  6
Continuous
 62
     7
100
AcDbLine
 10
-30.64052402978783
 20
315.7082863378335
 30
0.0
 11
-32.49362388018454
 21
315.4671640078294
 31
0.0
  0
LINE
  5
31
330
A
100
AcDbEntity
  8
0
  6
Continuous
 62
     7
100
AcDbLine
 10
102.5063761198155
 20
315.7082863378335
 30
0.0
 11
102.5063761198155
 21
340.7082863378335
 31
0.0
  0
LINE
  5
32
330
A
100
AcDbEntity
  8
0
  6
Continuous
 62
     7
100
AcDbLine
 10
-27.49362388018453
 20
340.7082863378335
 30
0.0
 11
-27.49362388018453
 21
315.7082863378335
 31
0.0
  0
LINE
  5
33
330
A
100
AcDbEntity
  8
0
  6
Continuous
 62
     7
100
AcDbLine
 10
107.5063761198155
 20
315.0147729206906
 30
0.0
 11
107.5063761198155
 21
315.4671640078294
 31
0.0
  0
LINE
  5
34
330
A
100
AcDbEntity
  8
0
  6
Continuous
 62
     7
100
AcDbLine
 10
-32.49362388018454
 20
315.4671640078294
 30
0.0
 11
-32.49362388018454
 21
315.0147729206907
 31
0.0
  0
LINE
  5
35
330
A
100
AcDbEntity
  8
0
  6
Continuous
 62
     7
100
AcDbLine
 10
16.50637611981548
 20
295.7082863378335
 30
0.0
 11
16.50637611981548
 21
294.7082863378339
 31
0.0
  0
LINE
  5
36
330
A
100
AcDbEntity
  8
0
  6
Continuous
 62
     7
100
AcDbLine
 10
58.50637611981547
 20
294.7082863378335
 30
0.0
 11
58.50637611981547
 21
295.7082863378335
 31
0.0
  0
LWPOLYLINE
  5
37
330
A
100
AcDbEntity
  8
0
  6
Continuous
 62
     7
100
AcDbPolyline
 90
        9
 70
   128
 43
0.0
 10
30.56249177336603
 20
-15.29171366216478
 10
33.01512151317398
 20
103.6653166926388
 10
33.63662792133271
 20
133.1005069862656
 10
33.79005602964539
 20
140.3072709120023
 10
33.84580039065335
 20
142.9194306709009
 10
33.92467868808011
 20
146.6096975085088
 10
34.0807576331123
 20
153.8915785484915
 10
34.67377492773952
 20
181.3030845205203
 10
37.0536528805788
 20
284.4586402985886
  0
LWPOLYLINE
  5
42
330
A
100
AcDbEntity
  8
0
  6
Continuous
 62
     7
100
AcDbPolyline
 90
        9
 70
   128
 43
0.0
 10
27.05159016210165
 20
294.7082863358684
 10
29.03142709074564
 20
294.5103772046453
 10
30.93440775513933
 20
293.9237674657087
 10
32.68342360116559
 20
292.9717188920638
 10
34.20911760841618
 20
291.6919848594176
 10
35.45098855808392
 20
290.1353130723267
 10
36.35979020177361
 20
288.363433169863
 10
36.89948411576736
 20
286.4466088439396
 10
37.04866880053498
 20
284.4608515407616
  0
LWPOLYLINE
  5
4D
330
A
100
AcDbEntity
  8
0
  6
Continuous
 62
     7
100
AcDbPolyline
 90
       64
 70
   128
 43
0.0
 10
-286.8706849903485
 20
285.0886722694053
 10
-287.0790805934626
 20
279.5971164481078
 10
-287.3507524278151
 20
272.5511075406525
 10
-287.5789744567581
 20
266.7163788209392
 10
-287.7206195428206
 20
263.1352349043601
 10
-287.836245170545
 20
260.2354360933859
 10
-287.9252879463034
 20
258.0169823880167
 10
-287.9872892135739
 20
256.4798737882525
 10
-288.0391479315235
 20
255.1989801697923
 10
-288.0979671621746
 20
253.7514073343443
 10
-288.1786155701444
 20
251.7758719375963
 10
-288.2814633240507
 20
249.272373979548
 10
-288.4070090820119
 20
246.2409134601997
 10
-288.5559012920702
 20
242.6814903795512
 10
-288.7624861642452
 20
237.8086571595666
 10
-288.9963427334144
 20
232.3865888980513
 10
-289.229094891124
 20
227.0905763610376
 10
-289.4579583694038
 20
221.9830239882651
 10
-289.7251586840988
 20
216.1483292008117
 10
-289.9863940774019
 20
210.5807264828612
 10
-290.2413539695043
 20
205.2802158344135
 10
-290.4896773965545
 20
200.2467972554686
 10
-290.7260946381901
 20
195.5751068179283
 10
-290.9200282142176
 20
191.8315257751324
 10
-291.0463460123976
 20
189.4363834857265
 10
-291.1376031250246
 20
187.7273284352699
 10
-291.2537876991953
 20
185.5764494958321
 10
-291.4184919087022
 20
182.5736796848917
 10
-291.6345096147174
 20
178.7190190024487
 10
-291.9061075302181
 20
174.0124674485033
 10
-292.2212969087383
 20
168.7516873547237
 10
-293.1085537841135
 20
155.091691935147
 10
-294.0182497276495
 20
142.7319365828373
 10
-294.3484938244931
 20
138.6159360778739
 10
-294.6344909652101
 20
135.197036716738
 10
-294.8679992529479
 20
132.5011116358054
 10
-295.0463172242397
 20
130.4983761542761
 10
-295.2630871460323
 20
128.1270469065435
 10
-295.5660580110936
 20
124.9237708350251
 10
-295.9689104703768
 20
120.8540792789875
 10
-296.4407052631433
 20
116.3438702746581
 10
-296.9173400054203
 20
112.0415937618094
 10
-297.7697638573998
 20
104.8931219154582
 10
-298.6071543806023
 20
98.4292422063811
 10
-299.512120773085
 20
91.92970149052815
 10
-300.5839396871966
 20
84.72461590853994
 10
-301.1971544513254
 20
80.78554981574301
 10
-301.8564955933739
 20
76.66362515268168
 10
-302.5045772532678
 20
72.70547730278528
 10
-303.0171373188546
 20
69.62945506339865
 10
-303.3832114398215
 20
67.45760387760033
 10
-303.5651073703736
 20
66.38545304727081
 10
-303.6950310420464
 20
65.62228024193348
 10
-303.9224558811947
 20
64.291420959709
 10
-304.2618497572432
 20
62.31666605792971
 10
-304.7153145613495
 20
59.69801553659568
 10
-305.5607812836618
 20
54.87143803530456
 10
-306.6507808604458
 20
48.74567806299804
 10
-307.9954794275634
 20
41.32073561967617
 10
-309.6054198820445
 20
32.59661070533856
 10
-311.4905348487276
 20
22.57330331998572
 10
-313.6589476210244
 20
11.25081346361731
 10
-316.1156915570829
 20
-1.37085886376656
 10
-318.8640568877375
 20
-15.29171366216589
  0
LWPOLYLINE
  5
8F
330
A
100
AcDbEntity
  8
0
  6
Continuous
 62
     7
100
AcDbPolyline
 90
        9
 70
   128
 43
0.0
 10
-286.689677868173
 20
285.1079880906793
 10
-286.4317840444643
 20
287.0149890522425
 10
-285.818597326088
 20
288.836523592171
 10
-284.8728371013231
 20
290.5051014187863
 10
-283.6295450518004
 20
291.9588994912738
 10
-282.1347868113164
 20
293.1440526460567
 10
-280.4439451724715
 20
294.0166493731709
 10
-278.6196680801095
 20
294.5443587964567
 10
-276.746526564579
 20
294.7078113510863
  0
LWPOLYLINE
  5
9A
330
A
100
AcDbEntity
  8
0
  6
Continuous
 62
     7
100
AcDbPolyline
 90
       31
 70
   128
 43
0.0
 10
347.6543849112369
 20
-15.29171366216622
 10
347.2682639519613
 20
6.795728676779217
 10
346.9012546841662
 20
27.84487858488746
 10
346.5562714509701
 20
47.8557360621584
 10
346.2364319980573
 20
66.8283011085918
 10
345.9443581112229
 20
84.7625737241878
 10
345.681750836653
 20
101.6585539089465
 10
345.4616708098377
 20
116.6380584036377
 10
345.2678431665199
 20
130.694542116956
 10
345.0989507090253
 20
143.8280050489013
 10
344.9529495876255
 20
156.0384471994736
 10
344.8265819110014
 20
167.3228136146586
 10
344.7214368552169
 20
177.1468194506079
 10
344.6293855957831
 20
186.1318228143152
 10
344.5495682106426
 20
194.2778237057803
 10
344.4811451880519
 20
201.5848221250034
 10
344.4233031596718
 20
208.0528180719843
 10
344.3736191517046
 20
213.8787331509552
 10
344.348853947297
 20
216.8929452321772
 10
344.3238394164858
 20
220.016775847018
 10
344.2984520456785
 20
223.2730914710128
 10
344.2721226909863
 20
226.7511823890652
 10
344.2449511775479
 20
230.4600584230842
 10
344.2161027896948
 20
234.5435742554471
 10
344.1855129760329
 20
239.0396939231689
 10
344.1495489972489
 20
244.575718048691
 10
344.1093034666443
 20
251.1516466320134
 10
344.0660975149486
 20
258.7674796731361
 10
344.0215007045261
 20
267.423217172059
 10
343.9773546111714
 20
277.1188591287822
 10
343.947726693302
 20
284.7732451017482
  0
LWPOLYLINE
  5
BB
330
A
100
AcDbEntity
  8
0
  6
Continuous
 62
     7
100
AcDbPolyline
 90
        9
 70
   128
 43
0.0
 10
334.1191913158743
 20
294.7082859497074
 10
336.0706643354496
 20
294.515469383746
 10
337.9469871600152
 20
293.9455218098011
 10
339.6760066019716
 20
293.0203603168114
 10
341.1912339619735
 20
291.775561592269
 10
342.4344018232785
 20
290.2589938359948
 10
343.3577047002104
 20
288.5289760090934
 10
343.9256373775589
 20
286.6520352033743
 10
344.1163602483673
 20
284.7003483706364
  0
LINE
  5
C6
330
A
100
AcDbEntity
  8
0
  6
Continuous
 62
     7
100
AcDbLine
 10
156.5608217820918
 20
295.7082863378335
 30
0.0
 11
221.5608217820919
 21
295.7082863378335
 31
0.0
  0
LINE
  5
C7
330
A
100
AcDbEntity
  8
0
  6
Continuous
 62
     7
100
AcDbLine
 10
221.5608217820919
 20
305.7082863378336
 30
0.0
 11
156.5608217820918
 21
305.7082863378336
 31
0.0
  0
LINE
  5
C8
330
A
100
AcDbEntity
  8
0
  6
Continuous
 62
     7
100
AcDbLine
 10
-81.54806954246129
 20
305.7082863378336
 30
0.0
 11
-146.5480695424613
 21
305.7082863378336
 31
0.0
  0
LINE
  5
C9
330
A
100
AcDbEntity
  8
0
  6
Continuous
 62
     7
100
AcDbLine
 10
-146.5480695424613
 20
295.7082863378335
 30
0.0
 11
-81.54806954246129
 21
295.7082863378335
 31
0.0
  0
LINE
  5
CA
330
A
100
AcDbEntity
  8
0
  6
Continuous
 62
     7
100
AcDbLine
 10
88.52332283853327
 20
315.4671640078294
 30
0.0
 11
88.52332283853327
 21
295.7082863378335
 31
0.0
  0
LINE
  5
CB
330
A
100
AcDbEntity
  8
0
  6
Continuous
 62
     7
100
AcDbLine
 10
156.3483894344629
 20
305.7082863378336
 30
0.0
 11
88.52332283853327
 21
315.4671640078294
 31
0.0
  0
LINE
  5
CC
330
A
100
AcDbEntity
  8
0
  6
Continuous
 62
     7
100
AcDbLine
 10
88.52332283853327
 20
295.7082863378335
 30
0.0
 11
156.5608217820918
 21
295.7082863378335
 31
0.0
  0
LINE
  5
CD
330
A
100
AcDbEntity
  8
0
  6
Continuous
 62
     7
100
AcDbLine
 10
156.5608217820918
 20
305.7082863378336
 30
0.0
 11
156.3483894344629
 21
305.7082863378336
 31
0.0
  0
LINE
  5
CE
330
A
100
AcDbEntity
  8
0
  6
Continuous
 62
     7
100
AcDbLine
 10
-13.51057059890298
 20
315.4671640078294
 30
0.0
 11
-13.51057059890298
 21
295.7082863378335
 31
0.0
  0
LWPOLYLINE
  5
CF
330
A
100
AcDbEntity
  8
0
  6
Continuous
 62
     7
100
AcDbPolyline
 90
        3
 70
   128
 43
0.0
 10
-13.51057059890298
 20
315.4671640078294
 10
-47.42659162736255
 20
310.61910298138
 10
-81.33563719483314
 20
305.7082863378336
  0
LINE
  5
D4
330
A
100
AcDbEntity
  8
0
  6
Continuous
 62
     7
100
AcDbLine
 10
-81.33563719483314
 20
305.7082863378336
 30
0.0
 11
-81.54806954246129
 21
305.7082863378336
 31
0.0
  0
LINE
  5
D5
330
A
100
AcDbEntity
  8
0
  6
Continuous
 62
     7
100
AcDbLine
 10
-81.54806954246129
 20
295.7082863378335
 30
0.0
 11
-13.51057059890298
 21
295.7082863378335
 31
0.0
  0
LINE
  5
D6
330
A
100
AcDbEntity
  8
0
  6
Continuous
 62
     7
100
AcDbLine
 10
107.5063761198155
 20
315.4671640078294
 30
0.0
 11
104.5233228385334
 21
315.4671640078294
 31
0.0
  0
LINE
  5
D7
330
A
100
AcDbEntity
  8
0
  6
Continuous
 62
     7
100
AcDbLine
 10
104.5233228385334
 20
315.4671640078294
 30
0.0
 11
168.8730699549735
 21
305.7082863378336
 31
0.0
  0
LINE
  5
D8
330
A
100
AcDbEntity
  8
0
  6
Continuous
 62
     7
100
AcDbLine
 10
88.52332283853327
 20
315.4671640078294
 30
0.0
 11
-13.51057059890298
 21
315.4671640078294
 31
0.0
  0
LINE
  5
D9
330
A
100
AcDbEntity
  8
0
  6
Continuous
 62
     7
100
AcDbLine
 10
-93.86031771534337
 20
305.7082863378336
 30
0.0
 11
-29.51057059890273
 21
315.4671640078294
 31
0.0
  0
LINE
  5
DA
330
A
100
AcDbEntity
  8
0
  6
Continuous
 62
     7
100
AcDbLine
 10
-29.51057059890273
 20
315.4671640078294
 30
0.0
 11
-32.49362388018454
 21
315.4671640078294
 31
0.0
  0
LINE
  5
DB
330
A
100
AcDbEntity
  8
0
  6
Continuous
 62
     7
100
AcDbLine
 10
105.6532762694187
 20
315.7082863378335
 30
0.0
 11
-30.64052402978783
 21
315.7082863378335
 31
0.0
  0
LINE
  5
DC
330
A
100
AcDbEntity
  8
0
  6
Continuous
 62
     7
100
AcDbLine
 10
-13.51057059890298
 20
295.7082863378335
 30
0.0
 11
88.52332283853327
 21
295.7082863378335
 31
0.0
  0
LINE
  5
DD
330
A
100
AcDbEntity
  8
0
  6
Continuous
 62
     7
100
AcDbLine
 10
37.50637611981547
 20
340.7082863378335
 30
0.0
 11
102.5063761198155
 21
340.7082863378335
 31
0.0
  0
LINE
  5
DE
330
A
100
AcDbEntity
  8
0
  6
Continuous
 62
     7
100
AcDbLine
 10
-27.49362388018453
 20
340.7082863378335
 30
0.0
 11
37.50637611981547
 21
340.7082863378335
 31
0.0
  0
LINE
  5
DF
330
A
100
AcDbEntity
  8
0
  6
Continuous
 62
     7
100
AcDbLine
 10
-121.3440560822088
 20
-15.291713662166
 30
0.0
 11
-119.4712453438431
 21
283.9152302445044
 31
0.0
  0
LINE
  5
E0
330
A
100
AcDbEntity
  8
0
  6
Continuous
 62
     7
100
AcDbLine
 10
-119.4712824212514
 20
283.9167069931677
 30
0.0
 11
-119.4712453438431
 21
283.9152302445044
 31
0.0
  0
LINE
  5
E1
330
A
100
AcDbEntity
  8
0
  6
Continuous
 62
     7
100
AcDbLine
 10
30.46973349168491
 20
-15.29171366216544
 30
0.0
 11
-121.3440560822075
 21
-15.29171366216544
 31
0.0
  0
LWPOLYLINE
  5
E2
330
A
100
AcDbEntity
  8
0
  6
Continuous
 62
     7
100
AcDbPolyline
 90
        7
 70
   128
 43
0.0
 10
-119.4712824212514
 20
283.9167069931677
 10
-119.2579106212786
 20
287.260997546954
 10
-118.2690453128177
 20
290.3174892745816
 10
-116.6161734532134
 20
292.7415864085146
 10
-114.4856432173922
 20
294.2599907163198
 10
-112.7277620727854
 20
294.6962936516992
 10
-112.3794518194283
 20
294.7082863378335
  0
LINE
  5
EB
330
A
100
AcDbEntity
  8
0
  6
Continuous
 62
     7
100
AcDbLine
 10
-112.3794518194283
 20
294.7082863378335
 30
0.0
 11
27.0159366577386
 21
294.7082863378341
 31
0.0
  0
LWPOLYLINE
  5
EC
330
A
100
AcDbEntity
  8
0
  6
Continuous
 62
     7
100
AcDbPolyline
 90
        3
 70
   128
 43
0.0
 10
-286.5764318589743
 20
285.0993581592267
 10
-286.8329721642287
 20
285.0958452942597
 10
-286.7683263845985
 20
285.0848519147931
  0
LINE
  5
F1
330
A
100
AcDbEntity
  8
0
  6
Continuous
 62
     7
100
AcDbLine
 10
-121.3440560822075
 20
-15.29171366216544
 30
0.0
 11
-318.7683205135554
 21
-15.29171366216667
 31
0.0
  0
LINE
  5
F2
330
A
100
AcDbEntity
  8
0
  6
Continuous
 62
     7
100
AcDbLine
 10
-276.8132185287748
 20
294.708286337833
 30
0.0
 11
-112.3794518194282
 21
294.7082863378335
 31
0.0
  0
LINE
  5
F3
330
A
100
AcDbEntity
  8
0
  6
Continuous
 62
     7
100
AcDbLine
 10
96.81169382806693
 20
283.8716367396481
 30
0.0
 11
127.7490598991697
 21
-15.29171366216611
 31
0.0
  0
LINE
  5
F4
330
A
100
AcDbEntity
  8
0
  6
Continuous
 62
     7
100
AcDbLine
 10
261.4952841778634
 20
286.0463769993363
 30
0.0
 11
261.4952471085016
 21
286.0466621961094
 31
0.0
  0
LINE
  5
F5
330
A
100
AcDbEntity
  8
0
  6
Continuous
 62
     7
100
AcDbLine
 10
261.4952841778629
 20
286.0463769993364
 30
0.0
 11
300.662665366516
 21
-15.29171366216667
 31
0.0
  0
LINE
  5
F6
330
A
100
AcDbEntity
  8
0
  6
Continuous
 62
     7
100
AcDbLine
 10
300.6626653665163
 20
-15.29171366216633
 30
0.0
 11
165.9440672367382
 21
-15.29171366216622
 31
0.0
  0
LINE
  5
F7
330
A
100
AcDbEntity
  8
0
  6
Continuous
 62
     7
100
AcDbLine
 10
127.7490598991749
 20
-15.291713662166
 30
0.0
 11
166.5820736864538
 21
-15.29171366216611
 31
0.0
  0
LWPOLYLINE
  5
F8
330
A
100
AcDbEntity
  8
0
  6
Continuous
 62
     7
100
AcDbPolyline
 90
        7
 70
   128
 43
0.0
 10
98.51844718988264
 20
294.7082863378335
 10
98.43791958899315
 20
294.6972284837096
 10
98.00422476606669
 20
294.2469928183793
 10
97.49240898373779
 20
292.7155467203239
 10
97.09627126168259
 20
290.2813437206686
 10
96.86047296220893
 20
287.218821348012
 10
96.81152645925216
 20
283.8732551907865
  0
LWPOLYLINE
  5
101
330
A
100
AcDbEntity
  8
0
  6
Continuous
 62
     7
100
AcDbPolyline
 90
       11
 70
   128
 43
0.0
 10
265.2939594022443
 20
294.7082863378333
 10
264.8914477830907
 20
294.6530016821489
 10
264.372532429755
 20
294.4150716946122
 10
263.9870226517209
 20
294.1090916537044
 10
263.5076666170714
 20
293.556097184424
 10
263.0888254956698
 20
292.8878955374116
 10
262.7855524761184
 20
292.269848510038
 10
262.4595477240744
 20
291.4405217745147
 10
262.1690838676863
 20
290.4998690045006
 10
261.9242125621742
 20
289.4747153505579
 10
261.4952471085015
 20
286.0466621961098
  0
LINE
  5
10E
330
A
100
AcDbEntity
  8
0
  6
Continuous
 62
     7
100
AcDbLine
 10
96.81169382806736
 20
283.8716367396482
 30
0.0
 11
96.81152645925276
 21
283.8732551907865
 31
0.0
  0
LINE
  5
10F
330
A
100
AcDbEntity
  8
0
  6
Continuous
 62
     7
100
AcDbLine
 10
98.51844718988264
 20
294.7082863378335
 30
0.0
 11
265.2939594022465
 21
294.7082863378333
 31
0.0
  0
LWPOLYLINE
  5
110
330
A
100
AcDbEntity
  8
0
  6
Continuous
 62
     7
100
AcDbPolyline
 90
        3
 70
   128
 43
0.0
 10
344.0335773063895
 20
284.7057568434612
 10
344.0331406014453
 20
284.755367504119
 10
343.9163055046586
 20
284.7730071461947
  0
LINE
  5
115
330
A
100
AcDbEntity
  8
0
  6
Continuous
 62
     7
100
AcDbLine
 10
300.6626653665163
 20
-15.29171366216633
 30
0.0
 11
347.531574903431
 21
-15.29171366216622
 31
0.0
  0
LINE
  5
116
330
A
100
AcDbEntity
  8
0
  6
Continuous
 62
     7
100
AcDbLine
 10
323.3138991589511
 20
283.9167069931677
 30
0.0
 11
323.3137685525414
 21
283.9152302445044
 31
0.0
  0
LWPOLYLINE
  5
117
330
A
100
AcDbEntity
  8
0
  6
Continuous
 62
     7
100
AcDbPolyline
 90
        7
 70
   128
 43
0.0
 10
323.3138991589511
 20
283.9167069931677
 10
323.0246728711516
 20
287.260997546954
 10
321.6842621789347
 20
290.3174892745816
 10
319.443788080991
 20
292.7415864085146
 10
316.5558462423974
 20
294.2599907163198
 10
314.1730316700279
 20
294.6962936516992
 10
313.7008957984797
 20
294.7082863378335
  0
LINE
  5
120
330
A
100
AcDbEntity
  8
0
  6
Continuous
 62
     7
100
AcDbLine
 10
265.2939594022465
 20
294.7082863378333
 30
0.0
 11
334.0449796486416
 21
294.7082863378332
 31
0.0
  0
LINE
  5
121
330
A
100
AcDbEntity
  8
0
  6
Continuous
 62
     7
100
AcDbLine
 10
127.7490598991749
 20
-15.291713662166
 30
0.0
 11
30.93167759101714
 21
-15.29171366216578
 31
0.0
  0
LINE
  5
122
330
A
100
AcDbEntity
  8
0
  6
Continuous
 62
     7
100
AcDbLine
 10
27.36593665773862
 20
294.7082863378339
 30
0.0
 11
98.51844718988264
 21
294.7082863378335
 31
0.0
  0
LINE
  5
123
330
A
100
AcDbEntity
  8
0
  6
PHANTOM
 62
     7
100
AcDbLine
 10
-119.4712360979115
 20
283.9167074076176
 30
0.0
 11
-119.4712824212514
 21
283.9167069931677
 31
0.0
  0
LWPOLYLINE
  5
124
330
A
100
AcDbEntity
  8
0
  6
PHANTOM
 62
     7
100
AcDbPolyline
 90
       48
 70
   128
 43
0.0
 10
36.99252325692775
 20
284.4599153805246
 10
36.91475236113836
 20
284.5406671574732
 10
36.23900071240874
 20
284.640783857697
 10
35.37682410908111
 20
284.7077741045004
 10
34.17433488218166
 20
284.7824426602495
 10
32.43951620612454
 20
284.8873492862928
 10
30.2939096295452
 20
285.0040374026061
 10
27.16514692632946
 20
285.1357507657068
 10
23.77375171275165
 20
285.2439157427572
 10
20.28626146434342
 20
285.3280567058238
 10
14.01982317012071
 20
285.43074205727
 10
8.098458446271051
 20
285.4813057835713
 10
2.830547570066871
 20
285.4866251696685
 10
-0.4190305170467534
 20
285.4536632472449
 10
-3.026283866595369
 20
285.3632813134031
 10
-4.838430979860711
 20
285.2277060473981
 10
-5.927726479614661
 20
285.0910496847011
 10
-6.49999812636022
 20
284.9763108423953
 10
-6.964309294628767
 20
284.8237050720253
 10
-7.469251251589787
 20
284.7725902618651
 10
-8.312539793187315
 20
284.8044935887395
 10
-9.953284614571206
 20
284.9291432769158
 10
-11.49871547235333
 20
285.0634224406666
 10
-13.49631194341472
 20
285.2051671938958
 10
-16.14030921516899
 20
285.3171540017165
 10
-19.09477910798039
 20
285.388603216666
 10
-23.67058188483298
 20
285.4555039846696
 10
-28.48969651153402
 20
285.5015069715421
 10
-35.16514756948674
 20
285.5620611486262
 10
-41.89686854227227
 20
285.6109262848022
 10
-48.64882409010826
 20
285.6122958636902
 10
-55.38497887321231
 20
285.5303633689111
 10
-62.65652100863359
 20
285.3099438578706
 10
-69.90682401069048
 20
284.9931015591776
 10
-77.05452770664759
 20
284.6572883675982
 10
-82.75692584098646
 20
284.4194285551198
 10
-88.48939044025291
 20
284.2290856349624
 10
-92.96820811187265
 20
284.1203117725897
 10
-95.61822359278064
 20
284.085868345075
 10
-98.19162498024148
 20
284.0895454779119
 10
-100.5026430702958
 20
284.1148673330877
 10
-102.6338475301315
 20
284.1336314374336
 10
-106.6973331832699
 20
284.1281928303224
 10
-110.5056254814101
 20
284.0545464899567
 10
-114.9939796141552
 20
283.9476826869979
 10
-119.4711939545519
 20
283.9167071783393
 10
-119.4712360979115
 20
283.9167074076176
 10
-119.4712360979115
 20
283.9167074076176
  0
LWPOLYLINE
  5
156
330
A
100
AcDbEntity
  8
0
  6
PHANTOM
 62
     7
100
AcDbPolyline
 90
       37
 70
   128
 43
0.0
 10
-119.4712453438431
 20
283.9152302445044
 10
-119.4712875649345
 20
283.9152305967912
 10
-123.6578834494268
 20
284.0045842356762
 10
-127.2404549994487
 20
284.1618004899964
 10
-130.4210737852629
 20
284.3346569748846
 10
-133.4018113771317
 20
284.4709313054738
 10
-136.4075301156705
 20
284.5477237810871
 10
-139.8524656584881
 20
284.5981184556956
 10
-143.8638817955864
 20
284.641625862344
 10
-148.8899786934115
 20
284.695588707654
 10
-154.5617132539067
 20
284.747754619912
 10
-158.9677263473827
 20
284.7743653689108
 10
-163.6130238764789
 20
284.7795472157663
 10
-168.374665667889
 20
284.7637559497118
 10
-173.1010909071881
 20
284.7383808034556
 10
-178.776570221793
 20
284.6972379800464
 10
-184.2706744610609
 20
284.6477809807952
 10
-189.6310346387261
 20
284.5927777926851
 10
-194.9052817685231
 20
284.5349964026986
 10
-201.3904824722218
 20
284.473011478918
 10
-205.5937921360873
 20
284.4512349962376
 10
-209.9715438608877
 20
284.4623037853572
 10
-213.3302564460011
 20
284.5069714447667
 10
-216.6411753395511
 20
284.5696462483523
 10
-219.5838338137074
 20
284.6245979875347
 10
-222.4134795982171
 20
284.6723274896847
 10
-229.0184760346544
 20
284.755367504119
 10
-239.320652291376
 20
284.8387414403397
 10
-249.3800337525963
 20
284.9034226427022
 10
-259.0392905836212
 20
284.9562372917816
 10
-268.1410929497562
 20
285.0040115681535
 10
-273.1899717372943
 20
285.0311398021794
 10
-277.9947500761904
 20
285.0577892978496
 10
-282.3553948108873
 20
285.0848395546418
 10
-284.3528422062407
 20
285.0992336137053
 10
-285.9274791593217
 20
285.1082444166963
 10
-286.5764318589743
 20
285.0993581592267
  0
LWPOLYLINE
  5
17D
330
A
100
AcDbEntity
  8
0
  6
PHANTOM
 62
     7
100
AcDbPolyline
 90
       52
 70
   128
 43
0.0
 10
261.4952471085011
 20
286.0466621961094
 10
261.495191788355
 20
286.0466637397854
 10
256.3094622391774
 20
286.1942571036741
 10
250.9774656216802
 20
286.3463857408167
 10
245.5311278565085
 20
286.4941735446363
 10
240.1236202811301
 20
286.6193972823913
 10
234.7381261228873
 20
286.7029151211623
 10
229.3355547787313
 20
286.7369404535006
 10
224.287492148254
 20
286.7122787955572
 10
219.6743792570235
 20
286.6172006103239
 10
215.6567787988868
 20
286.477882246368
 10
212.1496612234809
 20
286.3202585127332
 10
209.1266926642163
 20
286.1563789591618
 10
206.5219534772773
 20
285.9920695259982
 10
202.6565928600402
 20
285.6964501612864
 10
199.2561980086172
 20
285.4178459799859
 10
195.6583989857321
 20
285.1973591926955
 10
193.1731416401274
 20
285.1124726709674
 10
190.2507155647422
 20
285.0420989467843
 10
186.7233903124006
 20
284.9465402466213
 10
182.7749064290675
 20
284.80358528482
 10
178.1231675736757
 20
284.6378640477482
 10
173.541775490368
 20
284.5105795515477
 10
168.7208865126762
 20
284.3992599118619
 10
161.3881430397558
 20
284.2377989336932
 10
153.9733917586559
 20
284.0622186078664
 10
149.1350359102801
 20
283.9272795692714
 10
144.3097539814734
 20
283.7666962497924
 10
138.3815550251936
 20
283.5274901776896
 10
132.6901436862948
 20
283.2491923738843
 10
129.6001828629061
 20
283.0811782751277
 10
126.8277895925415
 20
282.9438525185811
 10
124.5272708523398
 20
282.870727706293
 10
122.6714149000559
 20
282.8502109360354
 10
120.8042094026363
 20
282.862890399419
 10
119.4659266490943
 20
282.8937617930578
 10
118.3856706611208
 20
282.9329352964838
 10
117.6716854592939
 20
282.9706796850861
 10
116.7982755982143
 20
283.0415859302424
 10
116.5606356426569
 20
283.0920750019242
 10
116.4099247313338
 20
283.1416916851278
 10
116.0701752525821
 20
283.1880859692837
 10
115.2654195947389
 20
283.2289078438224
 10
113.7196901461415
 20
283.2618072981743
 10
112.3046446548872
 20
283.2812152480185
 10
110.2117293824391
 20
283.3245662712536
 10
108.5981299311681
 20
283.3744763634311
 10
106.6430636085868
 20
283.4587273974319
 10
104.3720282139055
 20
283.5744463089063
 10
101.8789595125311
 20
283.6932856817044
 10
96.81175293367878
 20
283.8716351124896
 10
96.81169382806693
 20
283.8716367396482
  0
LWPOLYLINE
  5
1B3
330
A
100
AcDbEntity
  8
0
  6
PHANTOM
 62
     7
100
AcDbPolyline
 90
       23
 70
   128
 43
0.0
 10
343.9163055046586
 20
284.7730071461947
 10
343.480918404076
 20
284.8387414403397
 10
342.4663860275743
 20
284.9034226427022
 10
340.8069002559689
 20
284.9562372917816
 10
338.3198178732889
 20
285.0040115681535
 10
336.5006195121591
 20
285.0311398021794
 10
334.3559201658087
 20
285.0577892978496
 10
331.6840872053892
 20
285.0848395546418
 10
329.9536645015194
 20
285.0992336137053
 10
327.8202734534983
 20
285.1082444166963
 10
324.8887534052225
 20
285.0958452942597
 10
321.6809100263719
 20
285.0479218572195
 10
320.3614555248977
 20
285.0313924472509
 10
316.257131094371
 20
285.0050003841035
 10
312.1659578067055
 20
285.0095725950433
 10
307.1726873019235
 20
285.0461738783706
 10
302.3222696059535
 20
285.1097972316233
 10
292.0017779352277
 20
285.2951130000278
 10
281.9071148139182
 20
285.5153064874187
 10
271.8132965608658
 20
285.766889904078
 10
261.4953394949115
 20
286.0463754602875
 10
261.495284177863
 20
286.0463769993364
 10
261.495284177863
 20
286.0463769993364
  0
LWPOLYLINE
  5
1CC
330
A
100
AcDbEntity
  8
0
  6
PHANTOM
 62
     7
100
AcDbPolyline
 90
       11
 70
   128
 43
0.0
 10
96.81152645925216
 20
283.8732551907865
 10
96.81146733656238
 20
283.8732569103827
 10
90.41583720309608
 20
284.0158980188821
 10
83.97516879342406
 20
284.0977651806675
 10
74.64871785984012
 20
284.1709372779362
 10
65.42074417601046
 20
284.2437258500832
 10
58.34056159927345
 20
284.3173053268465
 10
51.62131922075988
 20
284.3891050020046
 10
46.00326745551369
 20
284.4443792968877
 10
41.15407383037053
 20
284.5181794153559
 10
36.93206601880766
 20
284.6196746696492
  0
LWPOLYLINE
  5
1D9
330
A
100
AcDbEntity
  8
0
  6
Continuous
 62
     7
100
AcDbPolyline
 90
       11
 70
   128
 43
0.0
 10
-95.427714558699
 20
-530.3131111150044
 10
-94.41500963886362
 20
-530.7542860089941
 10
-91.662862979974
 20
-531.6307994225492
 10
-88.86686761576948
 20
-532.2228647640055
 10
-86.1325580014358
 20
-532.5713418045806
 10
-82.89300098728492
 20
-532.7373622457173
 10
-79.50790380626758
 20
-532.6707287377657
 10
-75.82797766242926
 20
-532.3915444782198
 10
-71.49326613994664
 20
-531.9233045260217
 10
-63.95285867687036
 20
-531.0482251098462
 10
-62.12191809574299
 20
-530.8542224707088
  0
LWPOLYLINE
  5
1E6
330
A
100
AcDbEntity
  8
0
  6
Continuous
 62
     7
100
AcDbPolyline
 90
       15
 70
   128
 43
0.0
 10
-91.32905351387575
 20
-352.2141286188934
 10
-101.3815993885635
 20
-355.062817750347
 10
-107.1482492974707
 20
-356.636412417512
 10
-110.1803173529498
 20
-357.4778518413758
 10
-112.5784091075626
 20
-358.3032639532053
 10
-114.2458160308498
 20
-359.0078236566083
 10
-115.9989639409083
 20
-359.9440280504251
 10
-117.6667540143305
 20
-361.1530235434678
 10
-119.1146155365269
 20
-362.535063753201
 10
-120.3665404246672
 20
-364.075017725293
 10
-121.4378754537438
 20
-365.7593820831471
 10
-122.3486155701216
 20
-367.5839149786747
 10
-123.1245498150448
 20
-369.5433862979534
 10
-123.826043358274
 20
-371.6566896622402
 10
-124.3789483007279
 20
-373.524011454856
  0
LWPOLYLINE
  5
1F7
330
A
100
AcDbEntity
  8
0
  6
Continuous
 62
     7
100
AcDbPolyline
 90
       12
 70
   128
 43
0.0
 10
165.0609041672808
 20
-515.7799152123573
 10
164.9411701005852
 20
-514.1276794935023
 10
164.4078924133574
 20
-510.6335718968352
 10
163.6064299206417
 20
-507.0863331441997
 10
162.4677777382984
 20
-503.2533821744737
 10
161.015578543018
 20
-499.2863545279525
 10
159.2152590618533
 20
-495.0894630267657
 10
157.0060172483878
 20
-490.5083495096839
 10
154.250587826618
 20
-485.195645024671
 10
151.8745336212876
 20
-480.4502256125174
 10
149.7200186376378
 20
-475.5017100241018
 10
149.4411666004269
 20
-474.7876631763377
  0
LWPOLYLINE
  5
205
330
A
100
AcDbEntity
  8
0
  6
Continuous
 62
     7
100
AcDbPolyline
 90
        9
 70
   128
 43
0.0
 10
-20.63879473818342
 20
-532.0222745968769
 10
-16.67108283097655
 20
-533.1660253089624
 10
-12.42674076174328
 20
-534.6328298342784
 10
-8.742580209900097
 20
-536.1682325547299
 10
-4.955216638581283
 20
-538.0788356222716
 10
-1.342868963045584
 20
-540.2495515474897
 10
2.061117415572175
 20
-542.6643746971635
 10
5.217830258435848
 20
-545.2943692699758
 10
5.607188406519234
 20
-545.6745770037186
  0
LWPOLYLINE
  5
210
330
A
100
AcDbEntity
  8
0
  6
Continuous
 62
     7
100
AcDbPolyline
 90
        8
 70
   128
 43
0.0
 10
-69.00529396604612
 20
-350.746652455642
 10
-69.98448218000267
 20
-350.680206613831
 10
-75.33563105967508
 20
-350.4225465722646
 10
-79.45433788886937
 20
-350.4338381156468
 10
-83.25187886732152
 20
-350.6847956588364
 10
-86.93642758838507
 20
-351.2050218660184
 10
-90.36021406298228
 20
-351.9188481495214
 10
-91.33861703659507
 20
-352.1665187658068
  0
LWPOLYLINE
  5
21A
330
A
100
AcDbEntity
  8
0
  6
Continuous
 62
     7
100
AcDbPolyline
 90
       41
 70
   128
 43
0.0
 10
149.3318753480089
 20
-474.8337972291101
 10
148.8888491666028
 20
-473.5663912800051
 10
148.1693877980719
 20
-470.8609389268074
 10
147.8106561235793
 20
-468.6228759421742
 10
147.7419188477938
 20
-466.3417626186032
 10
147.9813491244504
 20
-464.0828968739307
 10
148.5187171790316
 20
-461.9506574769467
 10
149.3744889480881
 20
-459.8887901161729
 10
150.5680450673932
 20
-457.7857343918578
 10
152.1747132872837
 20
-455.5497004211444
 10
154.1969300661877
 20
-453.2300596572802
 10
156.6985614641183
 20
-450.7821143561847
 10
159.7023403133534
 20
-448.1883068810124
 10
163.3934151014038
 20
-445.3509140693506
 10
167.6943680939324
 20
-442.3680080158247
 10
172.9122116658003
 20
-439.0208177804155
 10
179.7959717594347
 20
-434.7711115270637
 10
187.8655138393183
 20
-429.8335860394939
 10
194.8472422805411
 20
-425.3564041643559
 10
199.7403698874522
 20
-421.9390159607755
 10
203.996007874644
 20
-418.6722600568152
 10
207.1008222266768
 20
-416.0364278924813
 10
209.7300286761015
 20
-413.5069754373635
 10
212.0162264235553
 20
-410.9555264619414
 10
213.6587341219252
 20
-408.813769739194
 10
214.9996062176347
 20
-406.6933404067778
 10
216.0627206614988
 20
-404.5431751005164
 10
216.8471343829398
 20
-402.3605322953546
 10
217.3617438068823
 20
-400.0972328407288
 10
217.5974850422452
 20
-397.8650386372961
 10
217.586237730627
 20
-395.5263062591321
 10
217.329487620237
 20
-393.1603611662406
 10
216.8393590653832
 20
-390.7420619398294
 10
216.1297239823356
 20
-388.2372824361897
 10
215.0430497333389
 20
-385.1874190848138
 10
213.6049507593859
 20
-381.8734367370471
 10
211.8598586166836
 20
-378.3958067465217
 10
209.5194705333494
 20
-374.1979787082645
 10
206.8549703408665
 20
-369.9427098148411
 10
204.0903431027536
 20
-366.0357195190897
 10
201.796225409226
 20
-363.1655104275318
  0
LWPOLYLINE
  5
245
330
A
100
AcDbEntity
  8
0
  6
Continuous
 62
     7
100
AcDbPolyline
 90
        3
 70
   128
 43
0.0
 10
-115.239773562876
 20
-510.4454139671728
 10
-110.9169250233478
 20
-515.9362771459509
 10
-105.4532659911792
 20
-522.8760223424857
  0
LWPOLYLINE
  5
24A
330
A
100
AcDbEntity
  8
0
  6
Continuous
 62
     7
100
AcDbPolyline
 90
        3
 70
   128
 43
0.0
 10
191.1480573668599
 20
-354.4013272204393
 10
181.6753488242109
 20
-349.6218795541123
 10
169.9202262190325
 20
-343.6856706403238
  0
LWPOLYLINE
  5
24F
330
A
100
AcDbEntity
  8
0
  6
Continuous
 62
     7
100
AcDbPolyline
 90
        3
 70
   128
 43
0.0
 10
6.090226713573287
 20
-270.2419423954542
 10
0.7487418882575203
 20
-274.5069591076201
 10
-6.714655294622174
 20
-279.3513730254723
  0
LWPOLYLINE
  5
254
330
A
100
AcDbEntity
  8
0
  6
Continuous
 62
     7
100
AcDbPolyline
 90
       40
 70
   128
 43
0.0
 10
-21.79219697938911
 20
-323.5526719097103
 10
-21.79204928386924
 20
-323.5512250605789
 10
-21.80982252490624
 20
-323.6013678295886
 10
-21.85059525550578
 20
-323.7480635881766
 10
-21.9149454463346
 20
-323.9908103101009
 10
-21.99457112079318
 20
-324.2944232883135
 10
-22.09515979585058
 20
-324.6766082351415
 10
-22.21782061387254
 20
-325.1368975616296
 10
-22.36403459848922
 20
-325.6747108829974
 10
-22.53570839807781
 20
-326.2891517069623
 10
-22.6547536687884
 20
-326.7040474844498
 10
-22.71725345000625
 20
-326.9181403373451
 10
-22.78184923601784
 20
-327.1366582763579
 10
-22.81496084353856
 20
-327.2475744675186
 10
-22.84863028296985
 20
-327.3595939397349
 10
-22.8828694271842
 20
-327.4727153140267
 10
-22.91769043163423
 20
-327.5869370288751
 10
-22.9891280440382
 20
-327.8186743246383
 10
-23.06304593989873
 20
-328.0547897043577
 10
-23.27311520581259
 20
-328.7056810465622
 10
-23.50378189555241
 20
-329.3871002903002
 10
-23.75208093307203
 20
-330.0836499457089
 10
-24.68874226350495
 20
-332.4100133171445
 10
-25.81144582704824
 20
-334.6995732441393
 10
-26.20968149859096
 20
-335.4096944506932
 10
-26.69744937002763
 20
-336.2204531257102
 10
-27.32981737010282
 20
-337.1880492929357
 10
-28.13034542228749
 20
-338.2988065668022
 10
-29.12747944859734
 20
-339.5351994125174
 10
-29.6775828126884
 20
-340.1582940304205
 10
-30.23813812993636
 20
-340.7556789013753
 10
-30.752395406829
 20
-341.2736429436957
 10
-31.10359060264385
 20
-341.6122516830059
 10
-31.422389075246
 20
-341.9098055169672
 10
-31.70653347640232
 20
-342.1676960227508
 10
-31.95403902153648
 20
-342.3871838658899
 10
-32.25998884663181
 20
-342.6526734709294
 10
-32.56576049842799
 20
-342.9107429030702
 10
-32.89243109631217
 20
-343.1779996802084
 10
-33.26738010140369
 20
-343.4736571474605
  0
LWPOLYLINE
  5
27E
330
A
100
AcDbEntity
  8
0
  6
Continuous
 62
     7
100
AcDbPolyline
 90
        7
 70
   128
 43
0.0
 10
-34.90260753405497
 20
-344.6456439214249
 10
-35.54001694202014
 20
-345.0555474784784
 10
-36.2374291075076
 20
-345.4777776898353
 10
-36.99001287595495
 20
-345.9056348723412
 10
-37.80047169691195
 20
-346.3372169398748
 10
-38.67148405050888
 20
-346.7705643964653
 10
-39.29394974220956
 20
-347.059137364963
  0
LWPOLYLINE
  5
287
330
A
100
AcDbEntity
  8
0
  6
Continuous
 62
     7
100
AcDbPolyline
 90
       20
 70
   128
 43
0.0
 10
149.0838999787018
 20
-565.0341585972292
 10
149.5882172464755
 20
-563.9573039256287
 10
150.1810287722961
 20
-562.8125464023132
 10
150.7726613325301
 20
-561.7642178485905
 10
151.3535884031314
 20
-560.8077868563871
 10
151.915189007636
 20
-559.9392833735688
 10
152.4497827806397
 20
-559.1553093681569
 10
152.9506274071538
 20
-558.453021397817
 10
153.3166405081005
 20
-557.9569962997494
 10
153.6557424589487
 20
-557.5090287054925
 10
153.9657838038826
 20
-557.1083519093565
 10
154.2449018509716
 20
-556.7543384967684
 10
154.4914993415096
 20
-556.4464809100782
 10
154.7093606696587
 20
-556.1780839726196
 10
154.9371652014318
 20
-555.9008404427348
 10
155.3096725440973
 20
-555.4545204535986
 10
155.7244110121591
 20
-554.967086427285
 10
156.1828734812919
 20
-554.4388481872295
 10
156.6865775048967
 20
-553.870067489946
 10
156.7723477280027
 20
-553.7751571322127
  0
LWPOLYLINE
  5
29D
330
A
100
AcDbEntity
  8
0
  6
Continuous
 62
     7
100
AcDbPolyline
 90
       12
 70
   128
 43
0.0
 10
-106.0237928059132
 20
-543.450536896984
 10
-107.394803878134
 20
-544.3803474998684
 10
-110.1541509767901
 20
-546.5892333226126
 10
-112.8254186035032
 20
-549.0569395778026
 10
-115.5755254235743
 20
-551.9595167786495
 10
-118.2849725453367
 20
-555.2006719963783
 10
-121.0194274617091
 20
-558.8582401525883
 10
-123.8821672383895
 20
-563.0620564446932
 10
-127.1053895743252
 20
-568.1046805647874
 10
-130.0270162341969
 20
-572.5351135734491
 10
-133.2352989529631
 20
-576.8752360763317
 10
-133.7142556440136
 20
-577.4737524483356
  0
LWPOLYLINE
  5
2AB
330
A
100
AcDbEntity
  8
0
  6
Continuous
 62
     7
100
AcDbPolyline
 90
        9
 70
   128
 43
0.0
 10
0.8923524912100299
 20
-696.1500139319771
 10
-0.1009862901309444
 20
-692.1419992693953
 10
-0.9528673434378021
 20
-687.7328889524301
 10
-1.46524985840879
 20
-683.7746109626878
 10
-1.704300851028545
 20
-679.5393563627871
 10
-1.630579553158123
 20
-675.3256135458624
 10
-1.241274549202836
 20
-671.1702632930062
 10
-0.5419888587639976
 20
-667.1214724922276
 10
-0.4073983766691159
 20
-666.5941745779457
  0
LWPOLYLINE
  5
2B6
330
A
100
AcDbEntity
  8
0
  6
Continuous
 62
     7
100
AcDbPolyline
 90
       11
 70
   128
 43
0.0
 10
36.80663340694587
 20
-761.7737001590771
 10
36.68234961273515
 20
-760.6760845249674
 10
36.06535916618681
 20
-757.8543988966511
 10
35.18010511048597
 20
-755.1369632116582
 10
34.11474027309281
 20
-752.5947431035457
 10
32.63873968558928
 20
-749.7061942117146
 10
30.88848478445122
 20
-746.8079308126503
 10
28.8067410514285
 20
-743.7606134178088
 10
26.23387759651685
 20
-740.2407630973608
 10
21.70583286024189
 20
-734.1481183875387
 10
20.62235135578388
 20
-732.6594786510313
  0
LWPOLYLINE
  5
2C3
330
A
100
AcDbEntity
  8
0
  6
Continuous
 62
     7
100
AcDbPolyline
 90
       15
 70
   128
 43
0.0
 10
-119.4809403452575
 20
-847.2736468208148
 10
-111.9876302525902
 20
-854.5550623552763
 10
-107.7415323411119
 20
-858.7623303375384
 10
-105.4967903965606
 20
-860.9674585876545
 10
-103.5829166618185
 20
-862.6315609118407
 10
-102.1390465985451
 20
-863.7232978141518
 10
-100.4516958553359
 20
-864.7734662439457
 10
-98.57078000858885
 20
-865.6133170691875
 10
-96.64996731681021
 20
-866.1761818237049
 10
-94.69036561224955
 20
-866.4904035944184
 10
-92.69599577458057
 20
-866.5760247666359
 10
-90.66053387882446
 20
-866.4524823959007
 10
-88.57561481588044
 20
-866.1447255040311
 10
-86.39469364489036
 20
-865.6955850509151
 10
-84.50109306421785
 20
-865.2407538806501
  0
LWPOLYLINE
  5
2D4
330
A
100
AcDbEntity
  8
0
  6
Continuous
 62
     7
100
AcDbPolyline
 90
        8
 70
   128
 43
0.0
 10
-131.9136917559962
 20
-828.6744420260445
 10
-131.4816414360022
 20
-829.5556668153228
 10
-129.0292071377026
 20
-834.3187277053351
 10
-126.9600749596885
 20
-837.8799866784666
 10
-124.8439688627889
 20
-841.0432748661238
 10
-122.551165391123
 20
-843.9740745564552
 10
-120.2210804584219
 20
-846.5822474788385
 10
-119.5173899261414
 20
-847.3057340009829
  0
LWPOLYLINE
  5
2DE
330
A
100
AcDbEntity
  8
0
  6
Continuous
 62
     7
100
AcDbPolyline
 90
       41
 70
   128
 43
0.0
 10
-133.6196567561242
 20
-577.5453344229548
 10
-134.4957494142536
 20
-578.5627093251467
 10
-136.4790091965857
 20
-580.5385073239347
 10
-138.2378627593014
 20
-581.968209559504
 10
-140.1789962085323
 20
-583.1682944483067
 10
-142.2549464654854
 20
-584.0903746186232
 10
-144.3702039775141
 20
-584.6911199306657
 10
-146.5837193757065
 20
-584.9809335192081
 10
-149.0017971181902
 20
-584.9988114612052
 10
-151.7415934504982
 20
-584.7254129526835
 10
-154.7615696691105
 20
-584.1339422321257
 10
-158.1323681858993
 20
-583.1914385411607
 10
-161.8805607765421
 20
-581.886993487959
 10
-166.1833524259818
 20
-580.1091253600699
 10
-170.9171013417019
 20
-577.8758438348204
 10
-176.4247749027994
 20
-575.0306538663141
 10
-183.5470085236409
 20
-571.1939958783451
 10
-191.8578020676514
 20
-566.6743301840434
 10
-199.2260195294954
 20
-562.8665669291892
 10
-204.6321283318449
 20
-560.3376882194354
 10
-209.5890409262332
 20
-558.2855755651975
 10
-213.4241457166749
 20
-556.9146435444695
 10
-216.9293190251842
 20
-555.9024101950327
 10
-220.2820375280864
 20
-555.198229355374
 10
-222.9581071078967
 20
-554.8466543240478
 10
-225.4648888245536
 20
-554.7456396921457
 10
-227.858543824044
 20
-554.9000382297601
 10
-230.1409748014219
 20
-555.3120374224961
 10
-232.3583543374706
 20
-555.9980223156478
 10
-234.4093618415052
 20
-556.9099615188203
 10
-236.4291398378393
 20
-558.0890681654881
 10
-238.3497333370474
 20
-559.4943928299561
 10
-240.1989776236448
 20
-561.1280062227852
 10
-242.0133627631517
 20
-562.9949579839411
 10
-244.111284779016
 20
-565.4609771648985
 10
-246.2622281928986
 20
-568.3633985833814
 10
-248.401398038305
 20
-571.6135077061688
 10
-250.8666297184873
 20
-575.7392572601793
 10
-253.2195505838842
 20
-580.1744165619699
 10
-255.2207898132878
 20
-584.5221491300456
 10
-256.5594049539861
 20
-587.9440178776909
  0
LWPOLYLINE
  5
309
330
A
100
AcDbEntity
  8
0
  6
Continuous
 62
     7
100
AcDbPolyline
 90
        3
 70
   128
 43
0.0
 10
29.50673246431767
 20
-788.8652951318849
 10
32.10053519607941
 20
-782.3761668905527
 10
35.37664329273749
 20
-774.1797756760734
  0
LINE
  5
30E
330
A
100
AcDbEntity
  8
0
  6
Continuous
 62
     7
100
AcDbLine
 10
35.37696226205192
 20
-774.1789776568355
 30
0.0
 11
35.37870131598483
 21
-774.1746267728117
 31
0.0
  0
LWPOLYLINE
  5
30F
330
A
100
AcDbEntity
  8
0
  6
Continuous
 62
     7
100
AcDbPolyline
 90
        3
 70
   128
 43
0.0
 10
-258.8253262335661
 20
-601.5476935096918
 10
-258.2280950573385
 20
-612.1410235834344
 10
-257.4914414762612
 20
-625.2893628410131
  0
LWPOLYLINE
  5
314
330
A
100
AcDbEntity
  8
0
  6
Continuous
 62
     7
100
AcDbPolyline
 90
        3
 70
   128
 43
0.0
 10
-239.1805761322285
 20
-803.8921684371674
 10
-232.8162208992702
 20
-806.3855216337376
 10
-224.8891367885239
 20
-810.4268062337194
  0
LWPOLYLINE
  5
319
330
A
100
AcDbEntity
  8
0
  6
Continuous
 62
     7
100
AcDbPolyline
 90
       40
 70
   128
 43
0.0
 10
-179.0709182321213
 20
-801.3836909172269
 10
-179.0722450879845
 20
-801.3842864337203
 10
-179.0199335556875
 20
-801.374607127461
 10
-178.872504936823
 20
-801.3365694686479
 10
-178.6301050135368
 20
-801.270925007682
 10
-178.3273556242567
 20
-801.1880763754501
 10
-177.9460794138309
 20
-801.0840962499687
 10
-177.4861267549904
 20
-800.9601789711807
 10
-176.9472597638839
 20
-800.8178973355633
 10
-176.3293015014138
 20
-800.6593507951889
 10
-175.9104685828313
 20
-800.5549991350807
 10
-175.6938088428464
 20
-800.5020791068988
 10
-175.4722688634729
 20
-800.4487617290559
 10
-175.3596568204763
 20
-800.4219791267486
 10
-175.245810392103
 20
-800.3951279805191
 10
-175.130724836148
 20
-800.3682192620667
 10
-175.0143954272004
 20
-800.3412642790815
 10
-174.7779862358632
 20
-800.2872624183275
 10
-174.5365453708717
 20
-800.2332195040771
 10
-173.8678223004624
 20
-800.0896991538107
 10
-173.1623625798878
 20
-799.9487527450633
 10
-172.4349833645468
 20
-799.8155111915862
 10
-169.9519629212335
 20
-799.463502012766
 10
-167.4077940791976
 20
-799.2910118562164
 10
-166.5936932387845
 20
-799.2808334611886
 10
-165.6476716941628
 20
-799.2978734914942
 10
-164.4935248327035
 20
-799.3617221604869
 10
-163.1313167900045
 20
-799.4996211531877
 10
-161.5620021634028
 20
-799.7449681280922
 10
-160.7473347132918
 20
-799.9098243071507
 10
-159.9497065805845
 20
-800.0965870166366
 10
-159.244007923242
 20
-800.2829648613465
 10
-158.7751665551485
 20
-800.4178044529542
 10
-158.3580781396434
 20
-800.5451151119345
 10
-157.9926662096619
 20
-800.6622461287873
 10
-157.6788313891144
 20
-800.7668482968814
 10
-157.2959357341619
 20
-800.8990638151777
 10
-156.9195552240897
 20
-801.0348351173199
 10
-156.5247687668123
 20
-801.1841117651879
 10
-156.0812473868249
 20
-801.360998395088
  0
LWPOLYLINE
  5
343
330
A
100
AcDbEntity
  8
0
  6
Continuous
 62
     7
100
AcDbPolyline
 90
       20
 70
   128
 43
0.0
 10
-55.37986469614323
 20
-532.6599067082277
 10
-56.56460683181999
 20
-532.7615824785687
 10
-57.85240169109485
 20
-532.8205713992096
 10
-59.05609713024826
 20
-532.832366849202
 10
-60.1748542017638
 20
-532.8074847444169
 10
-61.20780058341188
 20
-532.7553760955441
 10
-62.1540388745071
 20
-532.6843913101241
 10
-63.0126604108506
 20
-532.6017911253838
 10
-63.62523729716516
 20
-532.5328270308797
 10
-64.18273958928804
 20
-532.4631399241009
 10
-64.68475654591549
 20
-532.3949746412325
 10
-65.13090017804185
 20
-532.3302580280928
 10
-65.52081141413215
 20
-532.2706271301225
 10
-65.86218064434382
 20
-532.2161521541723
 10
-66.2161828501455
 20
-532.157489407502
 10
-66.7889609702869
 20
-532.0580485802255
 10
-67.41846045377434
 20
-531.942591544114
 10
-68.10515942347919
 20
-531.809670519191
 10
-68.84958996831127
 20
-531.6578403874025
 10
-68.97466986074494
 20
-531.6310163741708
  0
LWPOLYLINE
  5
359
330
A
100
AcDbEntity
  8
0
  6
Continuous
 62
     7
100
AcDbPolyline
 90
       11
 70
   128
 43
0.0
 10
171.1402095111994
 20
-531.5251010459206
 10
170.2517883855748
 20
-532.1815417860407
 10
168.1166321732335
 20
-534.126714000802
 10
166.2058908647298
 20
-536.2520843443385
 10
164.5369460877893
 20
-538.445827411876
 10
162.773389661142
 20
-541.1683558625703
 10
161.1385473812627
 20
-544.1332527695863
 10
159.5403649704471
 20
-547.4597544239738
 10
157.7785169028762
 20
-551.4478446966198
 10
154.7661541760749
 20
-558.4155688226176
 10
154.0186950994056
 20
-560.0982111982624
  0
LWPOLYLINE
  5
366
330
A
100
AcDbEntity
  8
0
  6
Continuous
 62
     7
100
AcDbPolyline
 90
       15
 70
   128
 43
0.0
 10
323.3291222185809
 20
-624.1241368802932
 10
325.8883580006013
 20
-613.9940322143784
 10
327.4089099980302
 20
-608.213169564951
 10
328.196236108958
 20
-605.1666018909709
 10
328.6804541288286
 20
-602.6770874549555
 10
328.9039909888424
 20
-600.8807908492412
 10
328.9697881556917
 20
-598.8944180256305
 10
328.7566623823669
 20
-596.845571707346
 10
328.2837112127846
 20
-594.9006667430954
 10
327.5760343963642
 20
-593.0464910002899
 10
326.6529995877717
 20
-591.2765054702184
 10
325.5282778083934
 20
-589.5755149454259
 10
324.2192929903727
 20
-587.9238005180167
 10
322.7398653626118
 20
-586.2596376068461
 10
321.3991697243931
 20
-584.8471469844951
  0
LWPOLYLINE
  5
377
330
A
100
AcDbEntity
  8
0
  6
Continuous
 62
     7
100
AcDbPolyline
 90
       12
 70
   128
 43
0.0
 10
53.48201699807992
 20
-764.3814602106626
 10
54.97276213699639
 20
-765.1038853266332
 10
58.26538692288016
 20
-766.3891071005561
 10
61.73811704230899
 20
-767.4686395980017
 10
65.62687604472353
 20
-768.3990133668808
 10
69.7885223617663
 20
-769.1248857956732
 10
74.3232967593034
 20
-769.6642091406499
 10
79.39527834944932
 20
-770.0415063656269
 10
85.37393010715486
 20
-770.3115867305454
 10
90.67161097235697
 20
-770.6265731340372
 10
96.03440867477303
 20
-771.2349662195699
 10
96.79221740303443
 20
-771.3504966953304
  0
LWPOLYLINE
  5
385
330
A
100
AcDbEntity
  8
0
  6
Continuous
 62
     7
100
AcDbPolyline
 90
        9
 70
   128
 43
0.0
 10
132.26557060642
 20
-595.4396237911487
 10
129.2911974805542
 20
-598.3038877416452
 10
125.8987364646277
 20
-601.2461935332942
 10
122.7269584277555
 20
-603.6690688025852
 10
119.1786458490565
 20
-605.9937203349441
 10
115.4925768756503
 20
-608.0367472266508
 10
111.6992854930773
 20
-609.777274329833
 10
107.8432869597748
 20
-611.1960705577995
 10
107.3193383295966
 20
-611.3431607383387
  0
LWPOLYLINE
  5
390
330
A
100
AcDbEntity
  8
0
  6
Continuous
 62
     7
100
AcDbPolyline
 90
        8
 70
   128
 43
0.0
 10
313.4381140814901
 20
-644.1908178383148
 10
313.9852519754526
 20
-643.3760388908478
 10
316.8839665568254
 20
-638.870638042402
 10
318.9335412080055
 20
-635.2980875258882
 10
320.6149760895581
 20
-631.8838417950415
 10
322.0067213389558
 20
-628.4328158975279
 10
323.1004228808519
 20
-625.1108166916417
 10
323.3751353221841
 20
-624.139659553212
  0
LWPOLYLINE
  5
39A
330
A
100
AcDbEntity
  8
0
  6
Continuous
 62
     7
100
AcDbPolyline
 90
       41
 70
   128
 43
0.0
 10
96.80690976756302
 20
-771.2327806679389
 10
98.12602860709858
 20
-771.482811714852
 10
100.8287497579615
 20
-772.2124660692615
 10
102.9463349951698
 20
-773.0208268183254
 10
104.9562057201862
 20
-774.1018552530938
 10
106.7927257004828
 20
-775.4386408274496
 10
108.3706151579304
 20
-776.9701349123912
 10
109.7283587870663
 20
-778.7421886846226
 10
110.9528804102448
 20
-780.8273664669407
 10
112.0860085226623
 20
-783.3367989461756
 10
113.0837679623707
 20
-786.2479104305976
 10
113.9529350812289
 20
-789.6383594226582
 10
114.6973488226366
 20
-793.5366119510323
 10
115.3090656840259
 20
-798.1518728905832
 10
115.7418616072175
 20
-803.3680604693584
 10
116.0316915964472
 20
-809.5604406732741
 10
116.2701651236544
 20
-817.6468049145949
 10
116.5114165877813
 20
-827.1039960964666
 10
116.8979056084026
 20
-835.3889412264587
 10
117.410886803841
 20
-841.3352081397929
 10
118.1121614110376
 20
-846.6540766979912
 10
118.8424518494465
 20
-850.6608408830532
 10
119.7184187085311
 20
-854.2025266876077
 10
120.7849394639796
 20
-857.4581565026885
 10
121.81850134542
 20
-859.9514882567619
 10
122.9844109663673
 20
-862.1729322210802
 10
124.3149515219937
 20
-864.1686989897275
 10
125.8129687779307
 20
-865.9393426021534
 10
127.5157388900368
 20
-867.5166571636271
 10
129.3310051587084
 20
-868.8369121638874
 10
131.3620304666608
 20
-869.9965378953837
 10
133.5393740762591
 20
-870.9571583238071
 10
135.8787469177102
 20
-871.7418441573892
 10
138.4027671402647
 20
-872.3796718998732
 10
141.5873634051257
 20
-872.9635160702915
 10
145.1764057929613
 20
-873.3750769995754
 10
149.06066778107
 20
-873.6025978673131
 10
153.8662875445865
 20
-873.6746763515599
 10
158.8837086024664
 20
-873.4947859431928
 10
163.6495750699828
 20
-873.0540436708684
 10
167.2823079042088
 20
-872.5023840147811
  0
LWPOLYLINE
  5
3C5
330
A
100
AcDbEntity
  8
0
  6
Continuous
 62
     7
100
AcDbPolyline
 90
        3
 70
   128
 43
0.0
 10
198.2521694580047
 20
-524.301203220941
 10
191.3355181867148
 20
-525.2994682834967
 10
182.599181127291
 20
-526.5604710534875
  0
LINE
  5
3CA
330
A
100
AcDbEntity
  8
0
  6
Continuous
 62
     7
100
AcDbLine
 10
182.5983305377
 20
-526.5605938275772
 30
0.0
 11
182.5936930346407
 21
-526.5612632047045
 31
0.0
  0
LWPOLYLINE
  5
3CB
330
A
100
AcDbEntity
  8
0
  6
Continuous
 62
     7
100
AcDbPolyline
 90
        3
 70
   128
 43
0.0
 10
180.1963972261549
 20
-867.6628915898724
 10
189.0718745925763
 20
-861.8490091824552
 10
200.0903436166775
 20
-854.6368788386633
  0
LWPOLYLINE
  5
3D0
330
A
100
AcDbEntity
  8
0
  6
Continuous
 62
     7
100
AcDbPolyline
 90
        3
 70
   128
 43
0.0
 10
345.6094777781038
 20
-749.477801487377
 10
344.5866073704612
 20
-742.7194315786423
 10
344.1229204425945
 20
-733.83373306081
  0
LWPOLYLINE
  5
3D5
330
A
100
AcDbEntity
  8
0
  6
Continuous
 62
     7
100
AcDbPolyline
 90
       40
 70
   128
 43
0.0
 10
313.3822435709586
 20
-698.6755494930638
 10
313.3834227313018
 20
-698.6764008257018
 10
313.3488844400418
 20
-698.6359373629514
 10
313.242228551777
 20
-698.5272792631763
 10
313.0641788193196
 20
-698.3501770022181
 10
312.841055104498
 20
-698.1294126562371
 10
312.5603675691297
 20
-697.8512078348903
 10
312.2230757283111
 20
-697.5148357871903
 10
311.8304227218213
 20
-697.1193041014398
 10
311.3841382589397
 20
-696.6634098178494
 10
311.0843506110677
 20
-696.3528657004697
 10
310.9301906523008
 20
-696.1916928757566
 10
310.7732464589389
 20
-696.0264923145867
 10
310.693746023463
 20
-695.9423587257333
 10
310.6135690345209
 20
-695.8571903997466
 10
310.5327226227803
 20
-695.7709777439072
 10
310.4512142182827
 20
-695.683711012044
 10
310.2862426393496
 20
-695.5059755770347
 10
310.1187196702185
 20
-695.3239031115655
 10
309.660065865723
 20
-694.8165321196276
 10
309.1852728348883
 20
-694.276059284637
 10
308.7061926570669
 20
-693.7127511827055
 10
307.1598335441866
 20
-691.7383969900903
 10
305.7383682656939
 20
-689.6213272196452
 10
305.3225030968234
 20
-688.9213844081191
 10
304.8642494236386
 20
-688.0935857027966
 10
304.3424705622544
 20
-687.0621408665784
 10
303.78079057174
 20
-685.8134846000112
 10
303.2086099714482
 20
-684.3317447793915
 10
302.9440458854282
 20
-683.5437939824299
 10
302.7069730699689
 20
-682.7596464019892
 10
302.5155316895189
 20
-682.0553045149591
 10
302.3978855172404
 20
-681.5818561840412
 10
302.2995955743374
 20
-681.1569916910995
 10
302.2183280455122
 20
-680.7819701684633
 10
302.1519987700989
 20
-680.4578801572299
 10
302.0750529402416
 20
-680.0601750338942
 10
302.0044440819656
 20
-679.6663342996112
 10
301.9363282225725
 20
-679.2498008746049
 10
301.8677558476605
 20
-678.7772567774538
  0
LWPOLYLINE
  5
3FF
330
A
100
AcDbEntity
  8
0
  6
Continuous
 62
     7
100
AcDbPolyline
 90
        7
 70
   128
 43
0.0
 10
301.6703992448325
 20
-676.7751148928245
 10
301.6341170553051
 20
-676.0181503743869
 10
301.6171610487686
 20
-675.203058616488
 10
301.6229177437505
 20
-674.3373733632839
 10
301.6543861199271
 20
-673.4197044018472
 10
301.7146023906527
 20
-672.448711848327
 10
301.7759237149387
 20
-671.7653542620811
  0
LWPOLYLINE
  5
408
330
A
100
AcDbEntity
  8
0
  6
Continuous
 62
     7
100
AcDbPolyline
 90
       20
 70
   128
 43
0.0
 10
18.81509307688844
 20
-725.9178470145472
 10
19.4955179447916
 20
-726.8930259158065
 10
20.19050127824584
 20
-727.978794518481
 10
20.80256415716522
 20
-729.015327622211
 10
21.34039415807951
 20
-729.9966407191995
 10
21.81173993522298
 20
-730.9172528508901
 10
22.22338445331454
 20
-731.7722116417222
 10
22.58116136314398
 20
-732.5570997968022
 10
22.82772514851181
 20
-733.1220889893736
 10
23.04612548978652
 20
-733.6397436904096
 10
23.23810110148011
 20
-734.1085857694135
 10
23.4051266865174
 20
-734.5273157951416
 10
23.54844043206977
 20
-734.8948042798018
 10
23.6719483341323
 20
-735.2176761932105
 10
23.79814600816085
 20
-735.5535824697656
 10
23.9984167856368
 20
-736.0993432861781
 10
24.21317780106241
 20
-736.7022343486032
 10
24.44141430163444
 20
-737.3633936135817
 10
24.68214082286174
 20
-738.0840044426535
 10
24.72145049218949
 20
-738.2057388136226
  0
CIRCLE
  5
41E
330
A
100
AcDbEntity
  8
0
  6
Continuous
 62
     7
100
AcDbCircle
 10
37.50637611981547
 20
-607.8706374400013
 30
0.0
 40
65.00000000000011
  0
LINE
  5
41F
330
A
100
AcDbEntity
  8
0
  6
Continuous
 62
     7
100
AcDbLine
 10
21.50637611981549
 20
-539.723737290398
 30
0.0
 11
24.98169559930502
 21
-463.4125730134725
 31
0.0
  0
ARC
  5
420
330
A
100
AcDbEntity
  8
0
  6
Continuous
 62
     7
100
AcDbCircle
 10
37.50637611981547
 20
-607.8706374400012
 30
0.0
 40
145.0
100
AcDbArc
 50
85.04478142608594
 51
94.95521857391407
  0
LINE
  5
421
330
A
100
AcDbEntity
  8
0
  6
Continuous
 62
     7
100
AcDbLine
 10
50.03105664032592
 20
-463.4125730134725
 30
0.0
 11
53.50637611981548
 21
-539.723737290398
 31
0.0
  0
ARC
  5
422
330
A
100
AcDbEntity
  8
0
  6
Continuous
 62
     7
100
AcDbCircle
 10
37.50637611981547
 20
-607.8706374400012
 30
0.0
 40
70.0
100
AcDbArc
 50
343.2129803601592
 51
76.7870196398414
  0
LINE
  5
423
330
A
100
AcDbEntity
  8
0
  6
Continuous
 62
     7
100
AcDbLine
 10
104.5233228385334
 20
-628.0876810542521
 30
0.0
 11
168.8730699549735
 21
-669.25297814822
 31
0.0
  0
ARC
  5
424
330
A
100
AcDbEntity
  8
0
  6
Continuous
 62
     7
100
AcDbCircle
 10
37.50637611981547
 20
-607.8706374400012
 30
0.0
 40
145.0
100
AcDbArc
 50
325.0447814260865
 51
334.9552185739146
  0
LINE
  5
425
330
A
100
AcDbEntity
  8
0
  6
Continuous
 62
     7
100
AcDbLine
 10
156.3483894344629
 20
-690.9463611583123
 30
0.0
 11
88.52332283853327
 21
-655.8004939753542
 31
0.0
  0
ARC
  5
426
330
A
100
AcDbEntity
  8
0
  6
Continuous
 62
     7
100
AcDbCircle
 10
37.50637611981547
 20
-607.8706374400012
 30
0.0
 40
70.00000000000007
100
AcDbArc
 50
223.2129803601589
 51
316.7870196398419
  0
LINE
  5
427
330
A
100
AcDbEntity
  8
0
  6
Continuous
 62
     7
100
AcDbLine
 10
-13.51057059890298
 20
-655.8004939753534
 30
0.0
 11
-81.33563719483314
 21
-690.9463611583106
 31
0.0
  0
ARC
  5
428
330
A
100
AcDbEntity
  8
0
  6
Continuous
 62
     7
100
AcDbCircle
 10
37.50637611981547
 20
-607.8706374400012
 30
0.0
 40
145.0
100
AcDbArc
 50
205.0447814260862
 51
214.9552185739143
  0
LINE
  5
429
330
A
100
AcDbEntity
  8
0
  6
Continuous
 62
     7
100
AcDbLine
 10
-93.86031771534337
 20
-669.2529781482183
 30
0.0
 11
-29.51057059890273
 21
-628.0876810542513
 31
0.0
  0
ARC
  5
42A
330
A
100
AcDbEntity
  8
0
  6
Continuous
 62
     7
100
AcDbCircle
 10
37.50637611981547
 20
-607.8706374400012
 30
0.0
 40
70.00000000000003
100
AcDbArc
 50
103.2129803601586
 51
196.7870196398417
  0
CIRCLE
  5
42B
330
A
100
AcDbEntity
  8
0
  6
Continuous
 62
     7
100
AcDbCircle
 10
37.50637611981547
 20
-607.8706374400012
 30
0.0
 40
68.14690014960319
  0
ARC
  5
42C
330
A
100
AcDbEntity
  8
0
  6
Continuous
 62
     7
100
AcDbCircle
 10
37.50637611981547
 20
-432.8706374400012
 30
0.0
 40
32.50000000000006
100
AcDbArc
 50
292.6198649480412
 51
247.3801350519604
  0
LINE
  5
42D
330
A
100
AcDbEntity
  8
0
  6
Continuous
 62
     7
100
AcDbLine
 10
24.98169559930502
 20
-463.4125730134725
 30
0.0
 11
25.00637611981547
 21
-462.8706374400013
 31
0.0
  0
LINE
  5
42E
330
A
100
AcDbEntity
  8
0
  6
Continuous
 62
     7
100
AcDbLine
 10
50.00637611981548
 20
-462.8706374400013
 30
0.0
 11
50.03105664032592
 21
-463.4125730134725
 31
0.0
  0
ARC
  5
42F
330
A
100
AcDbEntity
  8
0
  6
Continuous
 62
     7
100
AcDbCircle
 10
189.0608217820918
 20
-695.3706374400019
 30
0.0
 40
32.5
100
AcDbArc
 50
172.61986494804
 51
127.3801350519593
  0
LINE
  5
430
330
A
100
AcDbEntity
  8
0
  6
Continuous
 62
     7
100
AcDbLine
 10
156.8300596685587
 20
-691.1959549873072
 30
0.0
 11
156.3483894344629
 21
-690.9463611583123
 31
0.0
  0
LINE
  5
431
330
A
100
AcDbEntity
  8
0
  6
Continuous
 62
     7
100
AcDbLine
 10
168.8730699549735
 20
-669.25297814822
 30
0.0
 11
169.3300596685588
 21
-669.5453198926964
 31
0.0
  0
ARC
  5
432
330
A
100
AcDbEntity
  8
0
  6
Continuous
 62
     7
100
AcDbCircle
 10
-114.0480695424613
 20
-695.3706374400012
 30
0.0
 40
32.50000000000003
100
AcDbArc
 50
52.61986494804246
 51
7.380135051970379
  0
LINE
  5
433
330
A
100
AcDbEntity
  8
0
  6
Continuous
 62
     7
100
AcDbLine
 10
-81.33563719483314
 20
-690.9463611583106
 30
0.0
 11
-81.8173074289289
 21
-691.1959549873056
 31
0.0
  0
LINE
  5
434
330
A
100
AcDbEntity
  8
0
  6
Continuous
 62
     7
100
AcDbLine
 10
-94.31730742892904
 20
-669.545319892695
 30
0.0
 11
-93.86031771534337
 21
-669.2529781482183
 31
0.0
  0
LINE
  5
435
330
A
100
AcDbEntity
  8
0
  6
Continuous
 62
     7
100
AcDbLine
 10
-20.62986829513014
 20
-531.969441479719
 30
0.0
 11
-20.62986771902216
 21
-531.9694403490433
 31
0.0
  0
LWPOLYLINE
  5
436
330
A
100
AcDbEntity
  8
0
  6
Continuous
 62
     7
100
AcDbPolyline
 90
        8
 70
   128
 43
0.0
 10
-20.62986771902216
 20
-531.9694403490433
 10
-20.62992580955627
 20
-531.9694253717663
 10
-28.21771539392916
 20
-530.4526284504616
 10
-35.94609137946262
 20
-529.6782338120682
 10
-43.74853205908808
 20
-529.512767604241
 10
-51.55851572573699
 20
-529.8227559746346
 10
-59.30952067234069
 20
-530.4747250709036
 10
-62.11735856494113
 20
-530.81680318756
  0
LWPOLYLINE
  5
440
330
A
100
AcDbEntity
  8
0
  6
Continuous
 62
     7
100
AcDbPolyline
 90
        9
 70
   128
 43
0.0
 10
-95.42721777499483
 20
-530.2841354037557
 10
-97.38500362494507
 20
-529.433972813637
 10
-100.6621268632093
 20
-527.415866776561
 10
-103.6040567425468
 20
-524.9370519761897
 10
-105.4564612648625
 20
-522.8720099385423
 10
-107.0179314119513
 20
-520.5819797710928
 10
-108.2799530939905
 20
-517.8501551540108
 10
-109.0350896763409
 20
-514.9366437757898
 10
-109.125589190459
 20
-513.8168382647872
  0
LWPOLYLINE
  5
44B
330
A
100
AcDbEntity
  8
0
  6
Continuous
 62
     7
100
AcDbPolyline
 90
        7
 70
   128
 43
0.0
 10
-122.195302092427
 20
-465.324295283723
 10
-125.1349493031493
 20
-463.155440391516
 10
-134.1693628932302
 20
-457.403278917337
 10
-140.6748768842091
 20
-453.0642619138753
 10
-144.695899294694
 20
-449.7689778097726
 10
-148.1253134719878
 20
-445.8944356827543
 10
-149.5193981670142
 20
-443.5207875428583
  0
LWPOLYLINE
  5
454
330
A
100
AcDbEntity
  8
0
  6
Continuous
 62
     7
100
AcDbPolyline
 90
        5
 70
   128
 43
0.0
 10
-129.3883245577194
 20
-389.0663714552458
 10
-128.8277363743812
 20
-387.8075127963245
 10
-126.4447513636325
 20
-380.929872527858
 10
-124.8603466256907
 20
-375.2600668340401
 10
-124.3379570495858
 20
-373.5482486639389
  0
LINE
  5
45B
330
A
100
AcDbEntity
  8
0
  6
Continuous
 62
     7
100
AcDbLine
 10
-91.30570808520619
 20
-352.2965107188123
 30
0.0
 11
-88.80231561960384
 21
-361.8730340463921
 31
0.0
  0
LWPOLYLINE
  5
45C
330
A
100
AcDbEntity
  8
0
  6
Continuous
 62
     7
100
AcDbPolyline
 90
        7
 70
   128
 43
0.0
 10
-20.62986816159224
 20
-531.9694415140023
 10
-20.50862799443875
 20
-531.4990476629177
 10
-20.11974630541683
 20
-529.9902443710053
 10
-19.50706657203962
 20
-527.6131376650316
 10
-18.73966375172187
 20
-524.6357279849836
 10
-18.30200868280079
 20
-522.9376907794518
 10
-18.13470726869984
 20
-522.2885859111968
  0
LWPOLYLINE
  5
465
330
A
100
AcDbEntity
  8
0
  6
Continuous
 62
     7
100
AcDbPolyline
 90
        5
 70
   128
 43
0.0
 10
164.9763439484808
 20
-515.7928217068496
 10
165.2081925148762
 20
-517.8434269704574
 10
164.7611089509204
 20
-524.5887181844298
 10
163.1041070827823
 20
-531.144755148705
 10
159.7081288591643
 20
-540.2820742690746
  0
LWPOLYLINE
  5
46C
330
A
100
AcDbEntity
  8
0
  6
Continuous
 62
     7
100
AcDbPolyline
 90
       10
 70
   128
 43
0.0
 10
152.3107620717673
 20
-558.1220186046261
 10
147.6790232934298
 20
-567.9959392180279
 10
144.1842000837775
 20
-574.2838980873777
 10
140.1268793099897
 20
-580.2444276252438
 10
135.547616020584
 20
-585.7938486401095
 10
131.0326570348377
 20
-590.3057281609006
 10
126.0536598613234
 20
-594.3220433454266
 10
120.6436589484193
 20
-597.6786595320029
 10
114.1975960975538
 20
-600.4823425557885
 10
108.6592819932664
 20
-602.0559908814631
  0
LWPOLYLINE
  5
478
330
A
100
AcDbEntity
  8
0
  6
Continuous
 62
     7
100
AcDbPolyline
 90
        7
 70
   128
 43
0.0
 10
139.9574479004259
 20
-478.2698122564619
 10
140.3988509779351
 20
-478.1079533349425
 10
142.7761008389142
 20
-477.2362351333007
 10
145.581562004448
 20
-476.2074953335849
 10
147.7529467510738
 20
-475.4112662065358
 10
149.0454488234183
 20
-474.9373162104906
 10
149.2479182283777
 20
-474.8631311969618
  0
LWPOLYLINE
  5
481
330
A
100
AcDbEntity
  8
0
  6
Continuous
 62
     7
100
AcDbPolyline
 90
       39
 70
   128
 43
0.0
 10
-69.00643226910863
 20
-350.9058307648603
 10
-65.45715992469689
 20
-351.0768360718381
 10
-59.21949501939169
 20
-351.2074485384235
 10
-52.9870542754005
 20
-350.8278809537018
 10
-46.87170826635294
 20
-349.7265932450425
 10
-40.50484130586845
 20
-347.5988688047078
 10
-34.57532969472772
 20
-344.4731189790151
 10
-30.78282322250421
 20
-341.5750979205139
 10
-27.54458969981374
 20
-338.080765358759
 10
-25.05059409616198
 20
-334.0224040517747
 10
-23.26917451143803
 20
-329.5933013601267
 10
-21.84373128449031
 20
-323.8628023707849
 10
-21.0280050326567
 20
-317.9897170188717
 10
-20.5993520670988
 20
-312.0475891408687
 10
-20.33512869897809
 20
-306.1099625732576
 10
-19.85345848272607
 20
-298.8995902582129
 10
-19.13797282920125
 20
-294.4591121610366
 10
-17.77609945717798
 20
-290.1903978454585
 10
-16.1386592049637
 20
-287.2574671855649
 10
-13.98098321507365
 20
-284.6800821702396
 10
-11.64041042185347
 20
-282.6335231780886
 10
-9.101263615397259
 20
-280.8321067595123
 10
-2.495536207342302
 20
-277.019132315599
 10
8.358862246748602
 20
-271.3899937148454
 10
19.43277608447074
 20
-266.1679476610037
 10
30.75151868710095
 20
-261.5492776863925
 10
42.34040343591603
 20
-257.7302673233309
 10
49.20848058458407
 20
-255.8656104597478
 10
56.1579582698306
 20
-254.3298131373358
 10
63.19043596494712
 20
-253.3547772048461
 10
66.91830606417032
 20
-253.200610427338
 10
70.62633406527246
 20
-253.5232072544625
 10
74.46334711845524
 20
-254.6929345133368
 10
77.38938016232721
 20
-256.7076870243947
 10
78.31905696554894
 20
-257.6945126950144
 10
80.5515176728004
 20
-261.14486653434
 10
82.08291532997298
 20
-264.9847936826051
 10
83.35826670357233
 20
-270.0142013638912
 10
83.50190536462083
 20
-270.9224015702775
  0
LINE
  5
4AA
330
A
100
AcDbEntity
  8
0
  6
Continuous
 62
     7
100
AcDbLine
 10
87.05671397313853
 20
-320.6226238163416
 30
0.0
 11
87.05668307352054
 21
-320.6226844602564
 31
0.0
  0
LWPOLYLINE
  5
4AB
330
A
100
AcDbEntity
  8
0
  6
Continuous
 62
     7
100
AcDbPolyline
 90
       11
 70
   128
 43
0.0
 10
77.23054311046268
 20
-321.9094338822902
 10
78.27171906075753
 20
-321.7730910504542
 10
79.61400665951547
 20
-321.5973127818515
 10
80.61120452229905
 20
-321.4667286755847
 10
81.85116198132735
 20
-321.3043515741162
 10
82.93458086036261
 20
-321.1624754610377
 10
83.71905687623396
 20
-321.0597475410536
 10
84.56233579803605
 20
-320.9493180912486
 10
85.31368196146797
 20
-320.8509269528875
 10
85.94709277905485
 20
-320.7679800751547
 10
87.05668307352052
 20
-320.6226844602564
  0
LWPOLYLINE
  5
4B8
330
A
100
AcDbEntity
  8
0
  6
Continuous
 62
     7
100
AcDbPolyline
 90
        8
 70
   128
 43
0.0
 10
175.636918880681
 20
-351.2445076722691
 10
176.5579379616268
 20
-351.215209787956
 10
182.6918209256144
 20
-351.7468151754378
 10
188.16375527739
 20
-353.1469088703187
 10
193.2478703009292
 20
-355.582959053608
 10
197.2594320271296
 20
-358.5570187162373
 10
200.8260358230559
 20
-362.0645221525738
 10
201.7292611328497
 20
-363.2089033275237
  0
LWPOLYLINE
  5
4C2
330
A
100
AcDbEntity
  8
0
  6
Continuous
 62
     7
100
AcDbPolyline
 90
       32
 70
   128
 43
0.0
 10
-115.1618860095371
 20
-510.3880690911177
 10
-116.2384351761583
 20
-509.0425726568317
 10
-118.2595385127757
 20
-505.4602633676218
 10
-120.0385427761418
 20
-501.5358439023194
 10
-123.4992802673275
 20
-493.1518353170464
 10
-126.9871755033316
 20
-485.3672742081733
 10
-130.9541290630801
 20
-478.0597171040061
 10
-135.7609547581326
 20
-471.1286520080278
 10
-141.4214682465805
 20
-464.6543647976007
 10
-147.861292595828
 20
-458.7612825826022
 10
-154.8307690508166
 20
-453.3770556212084
 10
-159.6977128217413
 20
-449.6552967902391
 10
-164.2958355286268
 20
-445.7629356496763
 10
-168.3983422350089
 20
-441.5166833836504
 10
-171.7784380044239
 20
-436.7332511762921
 10
-174.2198060641255
 20
-431.2648369031485
 10
-175.604354269681
 20
-425.2962985478276
 10
-175.8677067772044
 20
-419.1944165980071
 10
-174.9492653191194
 20
-413.3232077841996
 10
-172.9248712169334
 20
-407.8517735695317
 10
-170.0541459304968
 20
-402.6866702493691
 10
-165.1322950123177
 20
-395.7569849596323
 10
-159.8338724223993
 20
-388.9010367607907
 10
-154.8768858485818
 20
-381.8321658796467
 10
-152.1187333599273
 20
-377.648096150812
 10
-149.2141312698725
 20
-373.6857362118853
 10
-145.928154549067
 20
-370.1485027642517
 10
-142.0745343092329
 20
-367.2085521772493
 10
-136.3301279469045
 20
-364.298989133193
 10
-130.0238719743078
 20
-362.3461665553721
 10
-123.4525337489097
 20
-361.274379664626
 10
-117.4977295701516
 20
-361.0304962575205
  0
LWPOLYLINE
  5
4E4
330
A
100
AcDbEntity
  8
0
  6
Continuous
 62
     7
100
AcDbPolyline
 90
       23
 70
   128
 43
0.0
 10
119.7051615075394
 20
-256.5464376982886
 10
120.5700795143517
 20
-259.4666910769405
 10
122.1836202718801
 20
-267.1778963496641
 10
122.9671536117303
 20
-274.7210978871024
 10
123.1928846455128
 20
-282.151234899178
 10
123.1334275321623
 20
-289.5243127590893
 10
123.0637230903505
 20
-295.4193280682497
 10
123.1255497454666
 20
-301.3423437099498
 10
123.4591941500035
 20
-307.320362623536
 10
124.2352298128608
 20
-313.3088914211633
 10
125.6652466634235
 20
-319.166611762942
 10
127.5112518942363
 20
-323.8412015650012
 10
130.082521395351
 20
-328.2356128078329
 10
133.3969783131568
 20
-332.2290329253586
 10
137.3190870665858
 20
-335.6500119618982
 10
141.7010135788589
 20
-338.3230417779903
 10
146.3949237731969
 20
-340.0726142341735
 10
150.7675961086496
 20
-340.7414253529927
 10
155.221194466853
 20
-340.839158303291
 10
159.7349765876764
 20
-340.9358814628845
 10
164.2869103938036
 20
-341.6016285791426
 10
168.7648716151311
 20
-343.1359925168703
 10
169.8953935172819
 20
-343.74625581016
  0
LINE
  5
4FD
330
A
100
AcDbEntity
  8
0
  6
Continuous
 62
     7
100
AcDbLine
 10
87.05671397313816
 20
-320.6226238163424
 30
0.0
 11
119.7051615075393
 21
-256.546437698289
 31
0.0
  0
LWPOLYLINE
  5
4FE
330
A
100
AcDbEntity
  8
0
  6
Continuous
 62
     7
100
AcDbPolyline
 90
       20
 70
   128
 43
0.0
 10
6.161425373958362
 20
-270.3384209369746
 10
10.90266989703115
 20
-266.2925377836776
 10
19.03571435789091
 20
-260.5718594039042
 10
29.85054641888908
 20
-254.3044688321264
 10
40.92126390423464
 20
-249.0426996545924
 10
52.36670190746277
 20
-244.5085768778655
 10
64.37680238868328
 20
-240.3996517450555
 10
71.76175768110552
 20
-238.0656068715764
 10
79.41928555613422
 20
-235.761317643496
 10
87.14339199135237
 20
-233.8912331412223
 10
91.59805550312533
 20
-233.241671226052
 10
95.90049587411511
 20
-233.08356796015
 10
99.9855846061277
 20
-233.5434585896595
 10
103.7881932009692
 20
-234.7478783607232
 10
107.386585075976
 20
-236.8791125686033
 10
110.6078776922472
 20
-239.806578340449
 10
113.451226346661
 20
-243.3836597078003
 10
115.9157863360954
 20
-247.4637407021973
 10
118.0007129574287
 20
-251.9002053551798
 10
119.7051615075394
 20
-256.5464376982886
  0
LWPOLYLINE
  5
514
330
A
100
AcDbEntity
  8
0
  6
Continuous
 62
     7
100
AcDbPolyline
 90
        5
 70
   128
 43
0.0
 10
165.1287796121217
 20
-519.0415545654112
 10
166.1222581063666
 20
-524.0192294347941
 10
166.5806591393216
 20
-528.4831558405415
 10
166.7125184672172
 20
-533.014480530413
 10
166.5150992634228
 20
-535.9081433002894
  0
LWPOLYLINE
  5
51B
330
A
100
AcDbEntity
  8
0
  6
Continuous
 62
     7
100
AcDbPolyline
 90
        4
 70
   128
 43
0.0
 10
119.455838267483
 20
-598.1952962380809
 10
119.1180004447002
 20
-599.1408024048182
 10
117.0851056431374
 20
-606.4056146379542
 10
116.8429452168322
 20
-607.2882970878585
  0
LWPOLYLINE
  5
521
330
A
100
AcDbEntity
  8
0
  6
Continuous
 62
     7
100
AcDbPolyline
 90
        5
 70
   128
 43
0.0
 10
-105.9703353444092
 20
-543.5173149473683
 10
-104.3103833761885
 20
-542.291225567235
 10
-98.24524804698661
 20
-539.3057656842491
 10
-91.73905255370534
 20
-537.4627529140371
 10
-82.12791296117094
 20
-535.8350967662041
  0
LWPOLYLINE
  5
528
330
A
100
AcDbEntity
  8
0
  6
Continuous
 62
     7
100
AcDbPolyline
 90
       10
 70
   128
 43
0.0
 10
-62.97938457078473
 20
-533.3214321574255
 10
-52.11244909545912
 20
-532.3956752964585
 10
-44.91950537182433
 20
-532.2783015430778
 10
-37.72887498513084
 20
-532.8117796355472
 10
-30.63330376525915
 20
-534.0028274673572
 10
-24.46842198856606
 20
-535.6569568856627
 10
-18.50069242240417
 20
-537.960737331034
 10
-12.88877707762298
 20
-540.9676274628179
 10
-7.23768492943276
 20
-545.1482401341656
 10
-3.105708450632072
 20
-549.1577366797789
  0
LWPOLYLINE
  5
534
330
A
100
AcDbEntity
  8
0
  6
Continuous
 62
     7
100
AcDbPolyline
 90
        7
 70
   128
 43
0.0
 10
-125.9567667308609
 20
-583.94581922482
 10
-126.3176422074805
 20
-583.644482407148
 10
-128.2611972455332
 20
-582.021582737218
 10
-130.554842628738
 20
-580.106351998393
 10
-132.3300896533086
 20
-578.6239922099496
 10
-133.3867934261795
 20
-577.7416275788777
 10
-133.5522742349552
 20
-577.6033764374582
  0
LINE
  5
53D
330
A
100
AcDbEntity
  8
0
  6
Continuous
 62
     7
100
AcDbLine
 10
0.8421344480634973
 20
-696.1686999641065
 30
0.0
 11
0.8421331808156073
 21
-696.1687000305202
 31
0.0
  0
LWPOLYLINE
  5
53E
330
A
100
AcDbEntity
  8
0
  6
Continuous
 62
     7
100
AcDbPolyline
 90
        8
 70
   128
 43
0.0
 10
0.8421331808156073
 20
-696.1687000305202
 10
0.8421492553803144
 20
-696.1687578270369
 10
3.322459381334796
 20
-703.4983748263272
 10
6.516001944698479
 20
-710.5785420789934
 10
10.27392434506507
 20
-717.4183870229837
 10
14.44737398202819
 20
-724.0270370962465
 10
18.88749825518135
 20
-730.4136197367297
 10
20.58766554058472
 20
-732.6742396231018
  0
LWPOLYLINE
  5
548
330
A
100
AcDbEntity
  8
0
  6
Continuous
 62
     7
100
AcDbPolyline
 90
        9
 70
   128
 43
0.0
 10
36.7812913130596
 20
-761.7877577873936
 10
37.02392183764475
 20
-763.9083313636795
 10
36.91475236113842
 20
-767.7554563578868
 10
36.23900071240879
 20
-771.542649769731
 10
35.37682410908113
 20
-774.1794001629654
 10
34.17433488218172
 20
-776.67668806132
 10
32.43951620612462
 20
-779.1355432066337
 10
30.29390962954526
 20
-781.2462663593866
 10
29.36937936677836
 20
-781.8845439931444
  0
LWPOLYLINE
  5
553
330
A
100
AcDbEntity
  8
0
  6
Continuous
 62
     7
100
AcDbPolyline
 90
        7
 70
   128
 43
0.0
 10
-6.091538297947854
 20
-817.4495188769503
 10
-6.499998126360193
 20
-821.0797554857032
 10
-6.96430929462874
 20
-831.7798679000983
 10
-7.469251251589717
 20
-839.5833167826918
 10
-8.312539793187287
 20
-844.7132663914098
 10
-9.953284614571192
 20
-849.6204972525537
 10
-11.31188185585362
 20
-852.0146340834218
  0
LWPOLYLINE
  5
55C
330
A
100
AcDbEntity
  8
0
  6
Continuous
 62
     7
100
AcDbPolyline
 90
        5
 70
   128
 43
0.0
 10
-68.53632634062143
 20
-861.8078209761247
 10
-69.90682401069046
 20
-861.9517666977529
 10
-77.05452770664753
 20
-863.3268612758403
 10
-82.75692584098642
 20
-864.7896293698151
 10
-84.50059865100628
 20
-865.1931358112868
  0
LINE
  5
563
330
A
100
AcDbEntity
  8
0
  6
Continuous
 62
     7
100
AcDbLine
 10
-119.4212680682454
 20
-847.2122380365652
 30
0.0
 11
-112.3794518194283
 21
-840.2559749019212
 31
0.0
  0
LWPOLYLINE
  5
564
330
A
100
AcDbEntity
  8
0
  6
Continuous
 62
     7
100
AcDbPolyline
 90
        7
 70
   128
 43
0.0
 10
0.8421344109847407
 20
-696.1686998313176
 10
0.3741413025848128
 20
-696.2988996921459
 10
-1.126961522035951
 20
-696.7165199163425
 10
-3.491936183604091
 20
-697.3744770558409
 10
-6.454150014158346
 20
-698.198591558534
 10
-8.143520905180473
 20
-698.6685897535192
 10
-8.789312917859865
 20
-698.8482549129462
  0
LWPOLYLINE
  5
56D
330
A
100
AcDbEntity
  8
0
  6
Continuous
 62
     7
100
AcDbPolyline
 90
       39
 70
   128
 43
0.0
 10
-131.7752701449505
 20
-828.5958386708051
 10
-133.4018113771316
 20
-825.4365760021059
 10
-136.4075301156705
 20
-819.9692935005241
 10
-139.8524656584881
 20
-814.7616252810076
 10
-143.8638817955864
 20
-810.0162241385701
 10
-148.8899786934115
 20
-805.5662178284423
 10
-154.5617132539067
 20
-801.993985054006
 10
-158.9677263473827
 20
-800.158588634294
 10
-163.6130238764789
 20
-799.1013624211354
 10
-168.374665667889
 20
-798.9706795249384
 10
-173.1010909071881
 20
-799.6424762555922
 10
-178.776570221793
 20
-801.273255704074
 10
-184.2706744610609
 20
-803.5033587234089
 10
-189.6310346387261
 20
-806.1031983048296
 10
-194.9052817685231
 20
-808.8431874395693
 10
-201.3904824722218
 20
-812.031234953571
 10
-205.5937921360873
 20
-813.6318452501635
 10
-209.9715438608878
 20
-814.5867854710427
 10
-213.3302564460012
 20
-814.6351859453929
 10
-216.6411753395511
 20
-814.0552762326748
 10
-219.5838338137074
 20
-813.0515602304152
 10
-222.4134795982171
 20
-811.7533028013742
 10
-229.0184760346544
 20
-807.93906227748
 10
-239.320652291376
 20
-801.3534467738155
 10
-249.3800337525963
 20
-794.374179097949
 10
-259.0392905836212
 20
-786.8811954524796
 10
-268.1410929497562
 20
-778.7544320400066
 10
-273.1899717372943
 20
-773.7388311859003
 10
-277.9947500761904
 20
-768.4883056286497
 10
-282.3553948108875
 20
-762.8855192593764
 10
-284.3528422062408
 20
-759.7341724401948
 10
-285.9274791593217
 20
-756.361627579734
 10
-286.8329721642287
 20
-752.453813171588
 10
-286.5511618292501
 20
-748.9124179677532
 10
-286.1613841309977
 20
-747.6138814035443
 10
-284.2895204077223
 20
-743.9553367984512
 10
-281.7297447772295
 20
-740.7091439499112
 10
-278.011825646047
 20
-737.0899534209796
 10
-277.2971205261183
 20
-736.511458588353
  0
LINE
  5
596
330
A
100
AcDbEntity
  8
0
  6
Continuous
 62
     7
100
AcDbLine
 10
-236.0328697915534
 20
-708.5827929047527
 30
0.0
 11
-236.0328018225736
 21
-708.5827893426495
 31
0.0
  0
LWPOLYLINE
  5
597
330
A
100
AcDbEntity
  8
0
  6
Continuous
 62
     7
100
AcDbPolyline
 90
       11
 70
   128
 43
0.0
 10
-230.0053741532584
 20
-716.4491014607823
 10
-230.6440384843996
 20
-715.6155880539354
 10
-231.4674107298218
 20
-714.5410220285277
 10
-232.0790988145713
 20
-713.7427153998909
 10
-232.83970023895
 20
-712.7500692914948
 10
-233.5042779965838
 20
-711.8827390758497
 10
-233.9854809929036
 20
-711.2547268774376
 10
-234.5027551626617
 20
-710.5796406335835
 10
-234.9636374697056
 20
-709.978151338196
 10
-235.3521769817802
 20
-709.4710749180003
 10
-236.0328018225735
 20
-708.5827893426495
  0
LWPOLYLINE
  5
5A4
330
A
100
AcDbEntity
  8
0
  6
Continuous
 62
     7
100
AcDbPolyline
 90
        8
 70
   128
 43
0.0
 10
-253.8036429143552
 20
-616.5591432544263
 10
-254.2895251669204
 20
-615.7761662751136
 10
-256.8960828785662
 20
-610.1982651107188
 10
-258.4195333470088
 20
-604.7593841068
 10
-258.8519095151561
 20
-599.1383862490082
 10
-258.2820791580489
 20
-594.1772420539548
 10
-257.0277939762834
 20
-589.3347208432803
 10
-256.4883434620611
 20
-587.9803141921828
  0
LWPOLYLINE
  5
5AE
330
A
100
AcDbEntity
  8
0
  6
Continuous
 62
     7
100
AcDbPolyline
 90
       32
 70
   128
 43
0.0
 10
29.41812656820764
 20
-788.8265149700823
 10
28.79116705872512
 20
-790.4315821139422
 10
26.69934787836509
 20
-793.9730635917315
 10
24.19020305799016
 20
-797.4759362098986
 10
18.65980738318978
 20
-804.6650270857309
 10
13.66212732359537
 20
-811.577913520286
 10
9.317074011655378
 20
-818.667174630745
 10
5.718008410780905
 20
-826.2955403422131
 10
2.941367959378244
 20
-834.4348324268873
 10
1.057721229223179
 20
-842.9584250167446
 10
-0.1204178715906723
 20
-851.6862821585389
 10
-0.9100836805067958
 20
-857.7620585184348
 10
-1.9819059554948
 20
-863.6903301625972
 10
-3.608014935559316
 20
-869.366331322533
 10
-6.06054085970481
 20
-874.6852962297499
 10
-9.575642508813695
 20
-879.5337901260111
 10
-14.05227424520572
 20
-883.7171132224469
 10
-19.2049827708822
 20
-886.9961241590228
 10
-24.74881948360514
 20
-889.1363349313362
 10
-30.49941755973585
 20
-890.1188753189057
 10
-36.40789089138631
 20
-890.2153059536464
 10
-44.87009985161932
 20
-889.417700669732
 10
-53.45673645380548
 20
-888.2571062062982
 10
-62.0570514998571
 20
-887.4986653477261
 10
-67.05963842056059
 20
-887.2020700894573
 10
-71.94344383163635
 20
-886.6677908610478
 10
-76.64976621680583
 20
-885.5906682684029
 10
-81.12264823093793
 20
-883.7233105376698
 10
-86.51460692216714
 20
-880.2032902202606
 10
-91.35892886994225
 20
-875.7183236341349
 10
-95.57279265747066
 20
-870.5632712394535
 10
-98.7614039729628
 20
-865.528201249643
  0
LWPOLYLINE
  5
5D0
330
A
100
AcDbEntity
  8
0
  6
Continuous
 62
     7
100
AcDbPolyline
 90
       23
 70
   128
 43
0.0
 10
-307.8486985146066
 20
-712.3465010048635
 10
-305.7521439066128
 20
-710.1373333494474
 10
-299.880814625402
 20
-704.8843634270244
 10
-293.7399771380396
 20
-700.4342028812828
 10
-287.4181552488745
 20
-696.523645565567
 10
-281.0031539614353
 20
-692.8885980062085
 10
-275.8630687270984
 20
-690.0014561689938
 10
-270.7645000419316
 20
-686.9864048941823
 10
-265.7542060007305
 20
-683.7084509072297
 10
-260.9560057621193
 20
-680.0421199101387
 10
-256.5980795631555
 20
-675.8748288188224
 10
-253.472768657707
 20
-671.9388464923898
 10
-250.9527316372961
 20
-667.5148561630326
 10
-249.1515568264379
 20
-662.6477422137007
 10
-248.1499564516951
 20
-657.5406068785562
 10
-248.0260079820227
 20
-652.409232293365
 10
-248.8577888863756
 20
-647.4694005938939
 10
-250.464917634871
 20
-643.348149709557
 10
-252.6070775962276
 20
-639.4423539179509
 10
-254.7802039432971
 20
-635.4849423543732
 10
-256.4796169311849
 20
-631.2099784837928
 10
-257.3897993931258
 20
-626.5647683400977
 10
-257.4265568292151
 20
-625.2805760066555
  0
LINE
  5
5E9
330
A
100
AcDbEntity
  8
0
  6
Continuous
 62
     7
100
AcDbLine
 10
-236.0328697915524
 20
-708.5827929047527
 30
0.0
 11
-307.8486985146061
 21
-712.3465010048633
 31
0.0
  0
LWPOLYLINE
  5
5EA
330
A
100
AcDbEntity
  8
0
  6
Continuous
 62
     7
100
AcDbPolyline
 90
       20
 70
   128
 43
0.0
 10
-239.1326225945443
 20
-803.7822693177984
 10
-245.0070824475795
 20
-801.6991726919121
 10
-254.0278574817736
 20
-797.5160887685859
 10
-264.8629929628713
 20
-791.2838647519881
 10
-274.9551774821386
 20
-784.3272267603253
 10
-284.6045619922757
 20
-776.6822480804534
 10
-294.1680457801478
 20
-768.3356585281178
 10
-299.8818655803646
 20
-763.1071220758073
 10
-305.7062025270635
 20
-757.6276530198853
 10
-311.1877964308653
 20
-751.8734228765882
 10
-313.9776653066201
 20
-748.3403520676666
 10
-316.2658069368074
 20
-744.6933810410726
 10
-317.9100743346961
 20
-740.9256451076815
 10
-318.7683205135554
 20
-737.0302795783678
 10
-318.7218134856203
 20
-732.8483636979004
 10
-317.7972000666281
 20
-728.5949095732632
 10
-316.1210310583048
 20
-724.3439567230491
 10
-313.8198572623762
 20
-720.1695446658495
 10
-311.0202294805684
 20
-716.1457129202573
 10
-307.8486985146066
 20
-712.3465010048635
  0
LWPOLYLINE
  5
600
330
A
100
AcDbEntity
  8
0
  6
Continuous
 62
     7
100
AcDbPolyline
 90
        5
 70
   128
 43
0.0
 10
-103.233067990608
 20
-541.7609353609326
 10
-99.41901434906277
 20
-538.4117203121092
 10
-95.78234119753878
 20
-535.7827701695753
 10
-91.9240285672622
 20
-533.402914296956
 10
-89.31933349666634
 20
-532.1270529576983
  0
LWPOLYLINE
  5
607
330
A
100
AcDbEntity
  8
0
  6
Continuous
 62
     7
100
AcDbPolyline
 90
        4
 70
   128
 43
0.0
 10
-11.84744622516538
 20
-541.737991994609
 10
-10.85969495394218
 20
-541.5578150481291
 10
-3.551735605541103
 20
-539.6859474729357
 10
-2.666229967297789
 20
-539.4543233289555
  0
LINE
  5
60D
330
A
100
AcDbEntity
  8
0
  6
Continuous
 62
     7
100
AcDbLine
 10
132.3068622065132
 20
-595.4737708761772
 30
0.0
 11
132.3068628976531
 21
-595.4737719404392
 31
0.0
  0
LWPOLYLINE
  5
60E
330
A
100
AcDbEntity
  8
0
  6
Continuous
 62
     7
100
AcDbPolyline
 90
        8
 70
   128
 43
0.0
 10
132.3068628976531
 20
-595.4737719404392
 10
132.3069049136226
 20
-595.4737291211995
 10
137.414384372041
 20
-589.660909043214
 10
141.9492177942107
 20
-583.355136428941
 10
145.9937360734695
 20
-576.6807576927777
 10
149.6302701031553
 20
-569.7621192491214
 10
152.9411507766058
 20
-562.7235675123692
 10
154.0488213838029
 20
-560.1208695093405
  0
LWPOLYLINE
  5
618
330
A
100
AcDbEntity
  8
0
  6
Continuous
 62
     7
100
AcDbPolyline
 90
        9
 70
   128
 43
0.0
 10
171.1650548213815
 20
-531.5400191288529
 10
172.8802101467466
 20
-530.2696081426858
 10
176.2665028615172
 20
-528.4405891855544
 10
179.8841843895844
 20
-527.1322105740813
 10
182.5987655152277
 20
-526.5605022184944
 10
185.362724889216
 20
-526.3532444875891
 10
188.3595652473123
 20
-526.6262139593574
 10
191.260308406242
 20
-527.4290021848255
 10
192.275338183127
 20
-527.9105300620703
  0
LWPOLYLINE
  5
623
330
A
100
AcDbEntity
  8
0
  6
Continuous
 62
     7
100
AcDbPolyline
 90
        7
 70
   128
 43
0.0
 10
240.8059687498216
 20
-540.8380981593285
 10
244.1540757889562
 20
-539.3767164427824
 10
253.6528005473056
 20
-534.4287655025663
 10
260.6632564952456
 20
-530.9643336234342
 10
265.527567447328
 20
-529.1296681188192
 10
270.5977264460058
 20
-528.0969793846933
 10
273.3504083823147
 20
-528.0764906937214
  0
LWPOLYLINE
  5
62C
330
A
100
AcDbEntity
  8
0
  6
Continuous
 62
     7
100
AcDbPolyline
 90
        5
 70
   128
 43
0.0
 10
310.4437792577882
 20
-572.737719888631
 10
311.2536887445188
 20
-573.8526328259241
 10
316.0184074297274
 20
-579.3551785163031
 10
320.1364008261244
 20
-583.5622161161461
 10
321.3576840600394
 20
-584.8705278447758
  0
LINE
  5
633
330
A
100
AcDbEntity
  8
0
  6
Continuous
 62
     7
100
AcDbLine
 10
323.2461045128993
 20
-624.103163564624
 30
0.0
 11
313.7008957984798
 21
-621.4829033716884
 31
0.0
  0
LWPOLYLINE
  5
634
330
A
100
AcDbEntity
  8
0
  6
Continuous
 62
     7
100
AcDbPolyline
 90
        7
 70
   128
 43
0.0
 10
132.3068621100541
 20
-595.4737709746829
 10
132.6536150513006
 20
-595.8139649649391
 10
133.7658361868994
 20
-596.9051480326548
 10
135.5181311150904
 20
-598.6242975991302
 10
137.7129421253269
 20
-600.7775927764853
 10
138.964657947428
 20
-602.0056317870319
 10
139.4431485460064
 20
-602.4750714958598
  0
LWPOLYLINE
  5
63D
330
A
100
AcDbEntity
  8
0
  6
Continuous
 62
     7
100
AcDbPolyline
 90
        5
 70
   128
 43
0.0
 10
53.51311975537595
 20
-764.3017756657862
 10
51.62131922075977
 20
-763.4772597823116
 10
46.00326745551364
 20
-759.7174284513252
 10
41.15407383037045
 20
-755.0044042572618
 10
34.93891246145389
 20
-747.4947412847252
  0
LWPOLYLINE
  5
644
330
A
100
AcDbEntity
  8
0
  6
Continuous
 62
     7
100
AcDbPolyline
 90
       10
 70
   128
 43
0.0
 10
23.18775085846456
 20
-732.1684615579524
 10
16.95255416147639
 20
-723.2202978055178
 10
13.25443364749384
 20
-717.0497126895485
 10
10.12112403458809
 20
-710.5557050592131
 10
7.60481610412203
 20
-703.8152362125373
 10
5.954893313175252
 20
-697.6492272734406
 10
4.966160920527512
 20
-691.3291316435435
 10
4.76424648865048
 20
-684.9656253251833
 10
5.559217191325627
 20
-677.9813296300499
 10
6.965554816812325
 20
-672.3981847587619
  0
LWPOLYLINE
  5
650
330
A
100
AcDbEntity
  8
0
  6
Continuous
 62
     7
100
AcDbPolyline
 90
        7
 70
   128
 43
0.0
 10
98.51844718988264
 20
-761.396280838722
 10
98.43791958899309
 20
-761.8594765779131
 10
98.00422476606666
 20
-764.354094449485
 10
97.49240898373775
 20
-767.2980649880258
 10
97.09627126168257
 20
-769.5766539035185
 10
96.86047296220893
 20
-770.9329685306354
 10
96.82348436602529
 20
-771.1454046855838
  0
LWPOLYLINE
  5
659
330
A
100
AcDbEntity
  8
0
  6
Continuous
 62
     7
100
AcDbPolyline
 90
       39
 70
   128
 43
0.0
 10
313.3008307735069
 20
-644.1102428843365
 10
311.3780996612763
 20
-647.0985002460576
 10
308.1461534945099
 20
-652.435170281054
 10
305.3586482933364
 20
-658.0224060852923
 10
303.2547184213872
 20
-663.8690949363891
 10
301.9139483587279
 20
-670.4468256868518
 10
301.6561713080823
 20
-677.1448082869808
 10
302.2696779293349
 20
-681.8782257651939
 10
303.6767419357405
 20
-686.4297845401076
 10
305.944388123499
 20
-690.618828743289
 10
308.8893937780742
 20
-694.3761347042829
 10
313.1394298657314
 20
-698.475854245143
 10
317.8178078531658
 20
-702.1188365777213
 10
322.7495150652732
 20
-705.4611248743034
 10
327.7595388269495
 20
-708.6587623071749
 10
333.7630693143962
 20
-712.6810871082178
 10
337.2508933247369
 20
-715.5209549088017
 10
340.2667716775142
 20
-718.8347290035006
 10
341.9880440104133
 20
-721.7192591890441
 10
343.1412869140732
 20
-724.8765539170871
 10
343.7433725950094
 20
-727.9268289114981
 10
344.0338715730629
 20
-731.0265027591155
 10
344.0331406014453
 20
-738.653717726923
 10
343.480918404076
 20
-750.868471831341
 10
342.4663860275743
 20
-763.0697855610492
 10
340.8069002559689
 20
-775.1814391811298
 10
338.3198178732889
 20
-787.1272129566643
 10
336.5006195121591
 20
-794.0074706743541
 10
334.3559201658087
 20
-800.7937935540166
 10
331.6840872053892
 20
-807.3716158557797
 10
329.9536645015194
 20
-810.6771294524696
 10
327.8202734534983
 20
-813.7270774858057
 10
324.8887534052225
 20
-816.4651646350776
 10
321.6809100263719
 20
-817.9918073278544
 10
320.3614555248977
 20
-818.3035182214435
 10
316.257131094371
 20
-818.5117089872113
 10
312.1659578067055
 20
-817.9179746874861
 10
307.1726873019235
 20
-816.5077575351316
 10
306.3143435209465
 20
-816.1780521613719
  0
LINE
  5
682
330
A
100
AcDbEntity
  8
0
  6
Continuous
 62
     7
100
AcDbLine
 10
261.4952841778635
 20
-794.4064955989083
 30
0.0
 11
261.4952471085016
 21
-794.4064385170968
 31
0.0
  0
LWPOLYLINE
  5
683
330
A
100
AcDbEntity
  8
0
  6
Continuous
 62
     7
100
AcDbPolyline
 90
       11
 70
   128
 43
0.0
 10
265.2939594022442
 20
-785.2533769769303
 10
264.8914477830907
 20
-786.223233215613
 10
264.3725324297549
 20
-787.4735775096235
 10
263.9870226517208
 20
-788.4024682445271
 10
263.5076666170712
 20
-789.5574914543918
 10
263.0888254956698
 20
-790.5666977831153
 10
262.7855524761183
 20
-791.2974379015117
 10
262.4595477240742
 20
-792.0829535951705
 10
262.1690838676862
 20
-792.7828340289192
 10
261.9242125621739
 20
-793.3728573268476
 10
261.4952471085016
 20
-794.4064385170968
  0
LWPOLYLINE
  5
690
330
A
100
AcDbEntity
  8
0
  6
Continuous
 62
     7
100
AcDbPolyline
 90
        8
 70
   128
 43
0.0
 10
190.6858523931228
 20
-855.8082613933081
 10
190.2507155647422
 20
-856.6205362569338
 10
186.7233903124006
 20
-861.6668320338467
 10
182.7749064290675
 20
-865.7056193428847
 10
178.1231675736757
 20
-868.8905670173872
 10
173.541775490368
 20
-870.8776515498115
 10
168.7208865126762
 20
-872.2126693241493
 10
167.27821068866
 20
-872.4226948002971
  0
LWPOLYLINE
  5
69A
330
A
100
AcDbEntity
  8
0
  6
Continuous
 62
     7
100
AcDbPolyline
 90
       32
 70
   128
 43
0.0
 10
198.2628878007759
 20
-524.3973282587985
 10
199.9663964768796
 20
-524.1377575492247
 10
204.0793189938571
 20
-524.1785853606455
 10
208.3674680775982
 20
-524.6001322077808
 10
217.3586012435842
 20
-525.7950499172211
 10
225.8441765391828
 20
-526.6667245915393
 10
234.1561834108713
 20
-526.8850205852475
 10
242.5620747067983
 20
-526.1877199697575
 10
250.9992286466489
 20
-524.5227150955106
 10
259.3226997260516
 20
-521.8922047206516
 10
267.470315281854
 20
-518.5485745402509
 10
273.1269248616948
 20
-516.1945570113243
 10
278.7968698435683
 20
-514.1586465077248
 10
284.5254855300149
 20
-512.7288976138147
 10
290.3581072235755
 20
-512.1933649139561
 10
296.3145769323859
 20
-512.8132852908383
 10
302.1757568743335
 20
-514.5985005497236
 10
307.5918179075334
 20
-517.4213715629681
 10
312.2172131621714
 20
-521.1523696044623
 10
315.9434171361162
 20
-525.6412634315607
 10
318.98116518133
 20
-530.7099361169823
 10
322.521523223384
 20
-538.4372266906336
 10
325.8097372356519
 20
-546.4537693529091
 10
329.453065707886
 20
-554.2810810926254
 10
331.6975001399351
 20
-558.7617460797288
 10
333.6767034609561
 20
-563.2583852470649
 10
335.0970491253201
 20
-567.8727412873436
 10
335.7163108996182
 20
-572.680049605079
 10
335.363863228519
 20
-579.1096329665444
 10
333.9019292036975
 20
-585.5474221304911
 10
331.5444547658278
 20
-591.7742614159187
 10
328.7782619025644
 20
-597.0532148128365
  0
LWPOLYLINE
  5
6BC
330
A
100
AcDbEntity
  8
0
  6
Continuous
 62
     7
100
AcDbPolyline
 90
       23
 70
   128
 43
0.0
 10
300.6626653665163
 20
-854.7189736168474
 10
297.7011927517101
 20
-854.0078878936117
 10
290.2163227129709
 20
-851.549652543311
 10
283.2919518857584
 20
-848.4566115516143
 10
276.7443989628107
 20
-844.9370318552547
 10
270.388854788722
 20
-841.1990015547019
 10
265.3184739961969
 20
-838.191128082756
 10
260.1580786559138
 20
-835.2831637158677
 10
254.8141402101759
 20
-832.5830987892341
 10
249.2399043087072
 20
-830.2609009886976
 10
243.4519612591807
 20
-828.5704717382355
 10
238.4806451229194
 20
-827.8318642626087
 10
233.3893386013939
 20
-827.8614433491345
 10
228.2737068727298
 20
-828.7351371809405
 10
223.3499977445581
 20
-830.4212934795456
 10
218.8441227626125
 20
-832.8796382486446
 10
214.9819934726273
 20
-836.0698974919326
 10
212.2164498856701
 20
-839.5223372574504
 10
209.9050114888233
 20
-843.3304000987581
 10
207.5643557150693
 20
-847.1910885027424
 10
204.7118348968301
 20
-850.8003052570648
 10
201.1440561374434
 20
-853.9111514630322
 10
200.0502916713819
 20
-854.5850805031847
  0
LINE
  5
6D5
330
A
100
AcDbEntity
  8
0
  6
Continuous
 62
     7
100
AcDbLine
 10
261.4952841778629
 20
-794.4064955989077
 30
0.0
 11
300.662665366516
 21
-854.7189736168473
 31
0.0
  0
LWPOLYLINE
  5
6D6
330
A
100
AcDbEntity
  8
0
  6
Continuous
 62
     7
100
AcDbPolyline
 90
       20
 70
   128
 43
0.0
 10
345.4903255800346
 20
-749.4912220652257
 10
346.623540909997
 20
-755.6202018444091
 10
347.5112714833314
 20
-765.5239641475086
 10
347.531574903431
 20
-778.0235787358845
 10
346.5530419373528
 20
-790.2419859050813
 10
344.7569884442618
 20
-802.4210873616802
 10
342.3103717509135
 20
-814.8766020468258
 10
340.6392362587083
 20
-822.4391833726155
 10
338.8060453303785
 20
-830.2229416566179
 10
336.563532798962
 20
-837.8472563021885
 10
334.898738162944
 20
-842.0298890262808
 10
332.8844394221415
 20
-845.8349633187767
 10
330.4436180880176
 20
-849.1428086226584
 10
327.4992556720354
 20
-851.8337543809083
 10
323.8543567690935
 20
-853.8844360534959
 10
319.7084507338301
 20
-855.2104244062871
 10
315.1889330710931
 20
-855.8842958891501
 10
310.4231992857301
 20
-855.9786269519525
 10
305.5386448825887
 20
-855.5659940445623
 10
300.6626653665163
 20
-854.7189736168474
  0
LWPOLYLINE
  5
6EC
330
A
100
AcDbEntity
  8
0
  6
Continuous
 62
     7
100
AcDbPolyline
 90
        5
 70
   128
 43
0.0
 10
50.62341673792794
 20
-762.8094223936585
 10
45.81588460214361
 20
-761.1809625730977
 10
41.72081041766453
 20
-759.3459863098841
 10
37.73063845949248
 20
-757.1945174926318
 10
35.32336259268912
 20
-755.5767160620115
  0
LWPOLYLINE
  5
6F3
330
A
100
AcDbEntity
  8
0
  6
Continuous
 62
     7
100
AcDbPolyline
 90
        4
 70
   128
 43
0.0
 10
4.910736317127629
 20
-683.6786240873125
 10
4.260822868688729
 20
-682.9132948670536
 10
-1.014241678149646
 20
-677.5203502091109
 10
-1.657586890088935
 20
-676.869291903187
  0
LWPOLYLINE
  5
6F9
330
A
100
AcDbEntity
  8
0
  6
PHANTOM
 62
     7
100
AcDbPolyline
 90
       12
 70
   128
 43
0.0
 10
-109.125589190459
 20
-513.8168382647872
 10
-109.3413549397239
 20
-511.147037465668
 10
-109.1820468911918
 20
-507.322968131397
 10
-108.808450393998
 20
-503.5116573021907
 10
-108.3502819327083
 20
-496.5403213145911
 10
-108.6160750571485
 20
-489.5494625480777
 10
-109.897903887298
 20
-482.7265388030489
 10
-111.6026283174776
 20
-477.990026127695
 10
-114.0201443359597
 20
-473.5836757572393
 10
-117.2255922181949
 20
-469.6405223122476
 10
-121.0163637456174
 20
-466.1941092504338
 10
-122.195302092427
 20
-465.324295283723
  0
LWPOLYLINE
  5
707
330
A
100
AcDbEntity
  8
0
  6
PHANTOM
 62
     7
100
AcDbPolyline
 90
       13
 70
   128
 43
0.0
 10
-149.5193981670142
 20
-443.5207875428583
 10
-149.711112000492
 20
-443.194364631933
 10
-150.7973850834171
 20
-440.2605788544936
 10
-151.3899372738883
 20
-436.8654436146483
 10
-151.4607087910777
 20
-433.4130556842934
 10
-150.8099087613522
 20
-428.5051133266951
 10
-149.4039096148221
 20
-423.7522330584615
 10
-146.5672293367054
 20
-417.6818442500948
 10
-143.0386941694521
 20
-411.9459231472592
 10
-139.1905606755902
 20
-406.371157349619
 10
-135.3950854176477
 20
-400.7842344568384
 10
-131.7933993429077
 20
-394.4672152630078
 10
-129.3883245577194
 20
-389.0663714552458
  0
LWPOLYLINE
  5
716
330
A
100
AcDbEntity
  8
0
  6
PHANTOM
 62
     7
100
AcDbPolyline
 90
       54
 70
   128
 43
0.0
 10
-88.80231561957508
 20
-361.8730340464087
 10
-94.7698828816236
 20
-363.5747682291371
 10
-100.7319948320306
 20
-365.2971510937744
 10
-105.2917299130222
 20
-366.4656946378792
 10
-109.7423344713756
 20
-367.9498511951424
 10
-111.5879290636941
 20
-368.9852781647684
 10
-112.5910572201774
 20
-370.3381951860148
 10
-113.7293903303897
 20
-372.9722793364081
 10
-115.3647730420087
 20
-378.3826490001712
 10
-116.8758453258629
 20
-383.8339104834242
 10
-119.5761505525009
 20
-391.5874558723989
 10
-122.9475583498361
 20
-399.0880947031161
 10
-127.0291490688993
 20
-406.2004414657768
 10
-130.5517824399744
 20
-411.3266390309129
 10
-134.1448508487079
 20
-416.4274808557076
 10
-137.4404656956035
 20
-421.6782048998296
 10
-140.0707383811647
 20
-427.254049122948
 10
-141.04116847272
 20
-430.5047766984577
 10
-141.4939602316669
 20
-433.8614886200337
 10
-141.4681656389562
 20
-435.7818101714125
 10
-141.1514524081473
 20
-437.6703873096372
 10
-139.9692853157065
 20
-440.1125305532665
 10
-137.5672292825734
 20
-442.7578428269809
 10
-134.7581239262045
 20
-445.0027546454239
 10
-128.8505949420384
 20
-448.9358480202368
 10
-119.4952475945932
 20
-454.9018395104782
 10
-114.3778541657399
 20
-458.7275031689342
 10
-109.6926148253624
 20
-463.0868387074861
 10
-105.7200256510245
 20
-468.0448120291837
 10
-102.5466521127477
 20
-473.8161618405983
 10
-100.3036866050526
 20
-480.0163389203984
 10
-99.02365304536102
 20
-486.0271507830344
 10
-98.44114654983535
 20
-492.1788590182062
 10
-98.43418568959918
 20
-498.3802146878548
 10
-98.88078903577616
 20
-504.5399688539213
 10
-99.19773535955037
 20
-507.4592307336906
 10
-99.37979310564442
 20
-510.3877417231479
 10
-99.17589435927457
 20
-513.2908008283521
 10
-98.36853879391538
 20
-515.5637621414046
 10
-96.57988451908416
 20
-517.8197176444114
 10
-94.77079053339652
 20
-519.3380140257069
 10
-92.75602601060626
 20
-520.5743102686462
 10
-90.59353848625429
 20
-521.5119201704903
 10
-88.32349825399381
 20
-522.1515511799911
 10
-82.79408992203876
 20
-522.8268721870453
 10
-77.19694252826776
 20
-522.7008072707522
 10
-71.56443202534543
 20
-522.0749249101138
 10
-65.92893436593641
 20
-521.2507935841322
 10
-60.32282550270523
 20
-520.5299817718089
 10
-51.86661343353329
 20
-519.8271828737317
 10
-43.3484053481949
 20
-519.5191932283596
 10
-34.83949147403913
 20
-519.738463445973
 10
-26.41116203841494
 20
-520.6174441368526
 10
-18.13470726867139
 20
-522.2885859112787
  0
LWPOLYLINE
  5
74E
330
A
100
AcDbEntity
  8
0
  6
PHANTOM
 62
     7
100
AcDbPolyline
 90
        4
 70
   128
 43
0.0
 10
159.7081288591643
 20
-540.2820742690746
 10
158.4621404924749
 20
-543.6345672996633
 10
153.3349038799402
 20
-555.9387575455049
 10
152.3107620717673
 20
-558.1220186046261
  0
LWPOLYLINE
  5
754
330
A
100
AcDbEntity
  8
0
  6
PHANTOM
 62
     7
100
AcDbPolyline
 90
        3
 70
   128
 43
0.0
 10
108.6592819932664
 20
-602.0559908814631
 10
107.3975781463988
 20
-602.4144895344345
 10
107.2467737708534
 20
-602.4403495726691
  0
LWPOLYLINE
  5
759
330
A
100
AcDbEntity
  8
0
  6
PHANTOM
 62
     7
100
AcDbPolyline
 90
        6
 70
   128
 43
0.0
 10
-18.13470726867139
 20
-522.2885859112787
 10
-9.936653309196602
 20
-524.8531516657028
 10
-2.067794675587805
 20
-528.2902624508258
 10
4.402802659190102
 20
-532.0503742103603
 10
10.41678366395768
 20
-536.5440429958002
 10
15.55094467245629
 20
-541.4578519799881
  0
LWPOLYLINE
  5
761
330
A
100
AcDbEntity
  8
0
  6
PHANTOM
 62
     7
100
AcDbPolyline
 90
       19
 70
   128
 43
0.0
 10
105.7405617921312
 20
-592.5087766756823
 10
110.6171738920185
 20
-591.1487336402769
 10
115.9671545248131
 20
-588.8398391353184
 10
120.3930948884974
 20
-586.082642183095
 10
124.4596939434447
 20
-582.7783017342344
 10
128.1517039138758
 20
-579.0754548991071
 10
133.9722094864449
 20
-571.672065434668
 10
138.7271556907926
 20
-563.5402594471838
 10
144.20604437919
 20
-551.8522638373274
 10
149.1726161041075
 20
-539.9298752798162
 10
153.6721517753099
 20
-527.8278170371525
 10
154.8862260741089
 20
-523.0427607088227
 10
155.2170999302767
 20
-518.1194563906688
 10
154.5386507617074
 20
-512.2604784418738
 10
153.0307640020482
 20
-506.5447547291383
 10
149.8947071917189
 20
-498.6923546673702
 10
146.0805817495549
 20
-491.1279712493889
 10
142.797317077237
 20
-484.7980657188355
 10
139.9574479004259
 20
-478.2698122564619
  0
LWPOLYLINE
  5
776
330
A
100
AcDbEntity
  8
0
  6
PHANTOM
 62
     7
100
AcDbPolyline
 90
        8
 70
   128
 43
0.0
 10
83.50190536462083
 20
-270.9224015702775
 10
84.16995488587838
 20
-275.1463528982394
 10
85.16233879306017
 20
-286.4904770708142
 10
85.61483367601612
 20
-297.885541969266
 10
86.06657704130638
 20
-309.2800651868129
 10
87.05670639549115
 20
-320.622564316673
 10
87.0567139731383
 20
-320.6226238163421
 10
87.0567139731383
 20
-320.6226238163421
  0
LWPOLYLINE
  5
780
330
A
100
AcDbEntity
  8
0
  6
PHANTOM
 62
     7
100
AcDbPolyline
 90
       45
 70
   128
 43
0.0
 10
77.23054311046228
 20
-321.9094338822878
 10
76.2060170415852
 20
-310.5640717591048
 10
75.72991637370129
 20
-299.1650851999716
 10
75.26127427564855
 20
-287.7651324824979
 10
74.259123916265
 20
-276.4168718842938
 10
73.60267840723401
 20
-272.1850300243561
 10
72.56518109127515
 20
-268.0379824341784
 10
71.81492026367854
 20
-265.9970049637301
 10
70.69724450256335
 20
-264.1600812872687
 10
70.49169070087235
 20
-263.9400122250004
 10
70.17803883378646
 20
-263.7198903103172
 10
68.93342415203544
 20
-263.3707495651521
 10
66.50351318232487
 20
-263.1839869204159
 10
64.06061696791957
 20
-263.3097253562418
 10
57.66083609472806
 20
-264.209961125907
 10
51.33879194629649
 20
-265.6306325571415
 10
45.08876288840226
 20
-267.3406297987052
 10
34.00950376281097
 20
-271.0003838589506
 10
23.19192326312206
 20
-275.4323842972245
 10
12.60837215924346
 20
-280.4411954251588
 10
2.231201221083112
 20
-285.8313815543854
 10
-3.631926214544195
 20
-289.2037885115181
 10
-6.935322424978032
 20
-291.7751116244767
 10
-8.607100759729007
 20
-294.1739836007878
 10
-9.477194589116443
 20
-297.026148838101
 10
-9.916185560500654
 20
-299.9928663486718
 10
-10.34593709475054
 20
-306.5412648946152
 10
-10.66048625724078
 20
-313.1428154299322
 10
-11.18418303121854
 20
-319.7460512119742
 10
-12.13870421945881
 20
-326.2724248642038
 10
-13.74572662473652
 20
-332.6433890100839
 10
-16.18081926391341
 20
-338.6379355759085
 10
-19.58192311082678
 20
-344.1298035203105
 10
-23.9750232084774
 20
-348.898185976559
 10
-29.12223566431002
 20
-352.8553745078172
 10
-33.95585570550731
 20
-355.5963285486115
 10
-39.0875390174113
 20
-357.7800374215052
 10
-44.40481561888534
 20
-359.4173103003943
 10
-51.50030764759385
 20
-360.7156918054075
 10
-58.73042973662126
 20
-361.1937716251194
 10
-65.96816984457295
 20
-361.0609500260358
 10
-71.70890527000523
 20
-360.7518613968317
 10
-77.47496483807989
 20
-360.5963659078633
 10
-83.19616335315163
 20
-360.8761834830746
 10
-88.80231561957513
 20
-361.8730340464089
  0
LWPOLYLINE
  5
7AF
330
A
100
AcDbEntity
  8
0
  6
PHANTOM
 62
     7
100
AcDbPolyline
 90
       51
 70
   128
 43
0.0
 10
139.9574479004259
 20
-478.2698122564619
 10
138.8720492132875
 20
-474.8994945345745
 10
138.1007686338421
 20
-471.4461050540109
 10
137.7042295285952
 20
-467.0847477148824
 10
138.0273303204484
 20
-462.7228323842684
 10
139.1334869062653
 20
-458.4802615496662
 10
140.9204357830494
 20
-454.471134493616
 10
144.4227407571977
 20
-449.2350451344755
 10
148.6939676539096
 20
-444.5833556232079
 10
155.2774767668484
 20
-438.9025892864604
 10
162.3494034552346
 20
-433.8145367873476
 10
169.7272352968179
 20
-429.1057704703023
 10
177.2284598693479
 20
-424.5628626797576
 10
184.6705647505742
 20
-419.9723857601463
 10
194.4311641500667
 20
-413.396292306477
 10
198.137533258262
 20
-410.5509365242459
 10
201.6351077817931
 20
-407.4575259000741
 10
203.9615859353093
 20
-405.0039572979959
 10
205.961501519284
 20
-402.2879320732642
 10
206.8213283067609
 20
-400.6799195702702
 10
207.4020700602886
 20
-398.9586409673621
 10
207.6092485870864
 20
-397.1395455848043
 10
207.5103804720002
 20
-395.3050610451685
 10
206.5138044097222
 20
-390.9581666282164
 10
204.8606754756471
 20
-386.7942169378549
 10
200.8478485399658
 20
-379.248704200727
 10
197.3873922420014
 20
-373.8228144488775
 10
193.4173956507966
 20
-368.7739597941374
 10
190.8548296930913
 20
-366.2337757733212
 10
187.9718707131145
 20
-364.0775967180665
 10
184.6614546987038
 20
-362.5108820336873
 10
181.0996539987663
 20
-361.6163764398504
 10
175.9441707520605
 20
-361.1904402764393
 10
170.7456360580504
 20
-361.3964928814798
 10
165.5779411096817
 20
-361.9876014931461
 10
155.1920849010487
 20
-363.7488928872761
 10
144.8360189862087
 20
-365.7071365706874
 10
134.4144086034595
 20
-367.1545662483323
 10
127.6796829657456
 20
-367.5245848830691
 10
120.9290807907371
 20
-367.3337172993211
 10
114.254195130967
 20
-366.4622194071843
 10
107.1881689834372
 20
-364.5879609103956
 10
100.518886801234
 20
-361.6193271738199
 10
96.40373882618195
 20
-358.9637957793252
 10
92.62921098960712
 20
-355.8114476358326
 10
89.25622118687659
 20
-352.2543029623415
 10
85.25102806359759
 20
-346.7055684683866
 10
82.08970689723368
 20
-340.6327901637857
 10
79.87459059610272
 20
-334.5707372441061
 10
78.29189508210873
 20
-328.2907872048816
 10
77.23054311046228
 20
-321.9094338822878
  0
LWPOLYLINE
  5
7E4
330
A
100
AcDbEntity
  8
0
  6
PHANTOM
 62
     7
100
AcDbPolyline
 90
       19
 70
   128
 43
0.0
 10
87.05668307352029
 20
-320.6226844602571
 10
87.05669065938556
 20
-320.6227439587582
 10
87.93533808896762
 20
-326.1034213310908
 10
89.24935292833701
 20
-331.501633874722
 10
91.11469006519957
 20
-336.713570126264
 10
93.58984989801033
 20
-341.5285878390827
 10
96.73993198107091
 20
-345.9285201044195
 10
100.6926871869945
 20
-349.8847478619681
 10
105.2874081277635
 20
-353.0609851271483
 10
110.5319436903699
 20
-355.359815047411
 10
116.0863889399672
 20
-356.7920799993603
 10
121.8590418671846
 20
-357.5089078303737
 10
127.6943827675
 20
-357.6304956136497
 10
133.5139148759427
 20
-357.2782809257787
 10
143.7831969333869
 20
-355.8126421512829
 10
153.9872016149697
 20
-353.8477950671991
 10
164.22444452209
 20
-352.0917005877194
 10
170.3722740450602
 20
-351.4119775526814
 10
175.636918880681
 20
-351.2445076722691
  0
LWPOLYLINE
  5
7F9
330
A
100
AcDbEntity
  8
0
  6
PHANTOM
 62
     7
100
AcDbPolyline
 90
        4
 70
   128
 43
0.0
 10
-82.12791296117094
 20
-535.8350967662041
 10
-78.60157464732623
 20
-535.2379078292828
 10
-65.38221501516336
 20
-533.5261298640307
 10
-62.97938457078473
 20
-533.3214321574255
  0
LWPOLYLINE
  5
7FF
330
A
100
AcDbEntity
  8
0
  6
PHANTOM
 62
     7
100
AcDbPolyline
 90
        3
 70
   128
 43
0.0
 10
-3.105708450632072
 20
-549.1577366797789
 10
-2.164387586502475
 20
-550.0711549367331
 10
-2.066589948675659
 20
-550.1888253378399
  0
LWPOLYLINE
  5
804
330
A
100
AcDbEntity
  8
0
  6
PHANTOM
 62
     7
100
AcDbPolyline
 90
        6
 70
   128
 43
0.0
 10
-8.789312917803174
 20
-698.8482549128806
 10
-10.66736080453376
 20
-690.4662490451678
 10
-11.62516486580026
 20
-681.9330621771126
 10
-11.60411122836372
 20
-674.4493046277677
 10
-10.71947040636344
 20
-666.9942099070421
 10
-9.031067500961887
 20
-660.0909915544689
  0
LWPOLYLINE
  5
80C
330
A
100
AcDbEntity
  8
0
  6
PHANTOM
 62
     7
100
AcDbPolyline
 90
       19
 70
   128
 43
0.0
 10
-9.914478387642159
 20
-556.4590296233912
 10
-13.53061625648702
 20
-552.915781178189
 10
-18.20516786883672
 20
-549.4370092929134
 10
-22.80594065454137
 20
-546.9826309784395
 10
-27.70088295348092
 20
-545.1130231142798
 10
-32.75364736423945
 20
-543.7670721064247
 10
-42.07542350083834
 20
-542.4280611499304
 10
-51.49524716681987
 20
-542.3760599370791
 10
-64.35679262847523
 20
-543.4752009533481
 10
-77.16516985552768
 20
-545.1352179486077
 10
-89.89562756735439
 20
-547.289534873444
 10
-94.64664505562707
 20
-548.6306438527673
 10
-99.07578859379382
 20
-550.8057508469547
 10
-103.8105877533784
 20
-554.3227940365098
 10
-108.0066063097908
 20
-558.4865241327725
 10
-113.2389558387958
 20
-565.1286290291131
 10
-117.8828413216514
 20
-572.2139502642384
 10
-121.7230679785072
 20
-578.2222936430903
 10
-125.9567667308609
 20
-583.94581922482
  0
LWPOLYLINE
  5
821
330
A
100
AcDbEntity
  8
0
  6
PHANTOM
 62
     7
100
AcDbPolyline
 90
       12
 70
   128
 43
0.0
 10
29.36937936677836
 20
-781.8845439931444
 10
27.16514692632951
 20
-783.4063030128341
 10
23.7737517127517
 20
-785.1803728629134
 10
20.28626146434348
 20
-786.7624842201819
 10
14.01982317012073
 20
-789.851366687292
 10
8.098458446271077
 20
-793.5769796684653
 10
2.830547570066899
 20
-798.0985378711924
 10
-0.4190305170467257
 20
-801.9431288718568
 10
-3.026283866595327
 20
-806.2399343431462
 10
-4.838430979860655
 20
-810.9875103621646
 10
-5.927726479614634
 20
-815.9936213357621
 10
-6.091538297947854
 20
-817.4495188769503
  0
LWPOLYLINE
  5
82F
330
A
100
AcDbEntity
  8
0
  6
PHANTOM
 62
     7
100
AcDbPolyline
 90
       13
 70
   128
 43
0.0
 10
-11.31188185585362
 20
-852.0146340834218
 10
-11.49871547235331
 20
-852.3438745889331
 10
-13.49631194341469
 20
-854.7515075629133
 10
-16.14030921516897
 20
-856.9622404328521
 10
-19.09477910798037
 20
-858.74972432978
 10
-23.67058188483293
 20
-860.6400861500532
 10
-28.48969651153396
 20
-861.7988953055757
 10
-35.16514756948668
 20
-862.3774525264956
 10
-41.89686854227223
 20
-862.1896119849253
 10
-48.64882409010824
 20
-861.6444135209073
 10
-55.38497887321228
 20
-861.1508969744841
 10
-62.65652100863359
 20
-861.1902549342181
 10
-68.53632634062143
 20
-861.8078209761247
  0
LWPOLYLINE
  5
83E
330
A
100
AcDbEntity
  8
0
  6
PHANTOM
 62
     7
100
AcDbPolyline
 90
       54
 70
   128
 43
0.0
 10
-112.3794518194283
 20
-840.255974901888
 10
-107.9219231556729
 20
-844.5731726582502
 10
-103.4492398646504
 20
-848.8753216351907
 10
-100.1573839295316
 20
-852.2398962778041
 10
-96.64676436857163
 20
-855.3521546089054
 10
-94.82726101295277
 20
-856.4327729261274
 10
-93.15403642509933
 20
-856.6250488822701
 10
-90.30368608004669
 20
-856.2938321984864
 10
-84.80047715155372
 20
-855.0049303397766
 10
-79.32401008245787
 20
-853.5879265829224
 10
-71.25909019289103
 20
-852.0496868126754
 10
-63.07764252221032
 20
-851.2190921963261
 10
-54.87737418569055
 20
-851.1976800655553
 10
-48.67664018392725
 20
-851.6852712705569
 10
-42.46264737860214
 20
-852.2465388776581
 10
-36.26757954468285
 20
-852.4752630340978
 10
-30.12362045713704
 20
-851.9652238871149
 10
-26.82319275018541
 20
-851.1802772112439
 10
-23.689799073441
 20
-849.8940504163281
 10
-22.03964912286768
 20
-848.9115508680708
 10
-20.5624499595629
 20
-847.6929805953634
 10
-19.03857541711994
 20
-845.448122239977
 10
-17.94869580370702
 20
-842.045224557113
 10
-17.40909781786391
 20
-838.4900120473689
 10
-16.95670353190276
 20
-831.4073951860818
 10
-16.46767701631456
 20
-820.3224309768462
 10
-15.71325181618342
 20
-813.9778064370718
 10
-14.28057616636598
 20
-807.7406023762186
 10
-11.9731399056593
 20
-801.8212525715942
 10
-8.561691123986165
 20
-796.1873555660417
 10
-4.313663018764818
 20
-791.1448019166655
 10
0.2518359718009788
 20
-787.0308544049579
 10
5.288118332366837
 20
-783.4505348643773
 10
10.65516945006711
 20
-780.3438287477562
 10
16.21297471203623
 20
-777.6507215079273
 10
18.89960282210295
 20
-776.4655741360672
 10
21.52679660728191
 20
-775.1589852744118
 10
23.93897016789165
 20
-773.5308742276536
 10
25.50373462413475
 20
-771.6952031416395
 10
26.56312226213015
 20
-769.0182053495447
 10
26.97345850596228
 20
-766.6923358094577
 10
27.03674019755587
 20
-764.3293504286082
 10
26.76749042921675
 20
-761.9877763462303
 10
26.18640701636243
 20
-759.7020483327296
 10
24.00654799820312
 20
-754.5757797458321
 10
21.0987988812818
 20
-749.7915403722471
 10
17.7405136057272
 20
-745.226584369953
 10
14.20904611166793
 20
-740.7581658969278
 10
10.78175033923259
 20
-736.2635391111502
 10
5.945002605160038
 20
-729.2916440884973
 10
1.419171705495936
 20
-722.0686543145584
 10
-2.645391652835421
 20
-714.590083632119
 10
-6.098336762909884
 20
-706.8514458839644
 10
-8.789312917803174
 20
-698.8482549128806
  0
LWPOLYLINE
  5
876
330
A
100
AcDbEntity
  8
0
  6
PHANTOM
 62
     7
100
AcDbPolyline
 90
        8
 70
   128
 43
0.0
 10
-277.2971205261183
 20
-736.511458588353
 10
-273.9730961323831
 20
-733.8209350679769
 10
-264.6449883688392
 20
-727.2894433077632
 10
-255.0028201304857
 20
-721.2000387948149
 10
-245.3607452427235
 20
-715.111555955709
 10
-236.0329175309541
 20
-708.5828292170222
 10
-236.0328697915528
 20
-708.5827929047527
 10
-236.0328697915528
 20
-708.5827929047527
  0
LWPOLYLINE
  5
880
330
A
100
AcDbEntity
  8
0
  6
PHANTOM
 62
     7
100
AcDbPolyline
 90
       45
 70
   128
 43
0.0
 10
-230.0053741532603
 20
-716.4491014607838
 10
-239.3184829326319
 20
-723.0090481248623
 10
-248.9522445362966
 20
-729.1208566775751
 10
-258.5905721425439
 20
-735.2266889985084
 10
-267.9173789296628
 20
-741.7687069672484
 10
-271.2540387306518
 20
-744.4531263842384
 10
-274.3267386364693
 20
-747.4251492113057
 10
-275.7191465606309
 20
-749.0953828826929
 10
-276.751131248702
 20
-750.9817803232436
 10
-276.8389397463679
 20
-751.2698296684865
 10
-276.8727449828702
 20
-751.6515211106689
 10
-276.5528023968039
 20
-752.9039594155709
 10
-275.4995881067682
 20
-755.1017053666429
 10
-274.1692473199081
 20
-757.1544463292136
 10
-270.1897298373868
 20
-762.2467012592186
 10
-265.7983702132912
 20
-767.0114163799898
 10
-261.1924546327486
 20
-771.5691016977354
 10
-252.483385082177
 20
-779.3341445254853
 10
-243.2363698632036
 20
-786.486443826562
 10
-233.6068366317149
 20
-793.1476623808046
 10
-223.7502130435981
 20
-799.4394629680516
 10
-217.898059229008
 20
-802.830876794364
 10
-214.0195299866309
 20
-804.4060402748858
 10
-211.1061567473435
 20
-804.6544067941209
 10
-208.2010622813457
 20
-803.9818475353898
 10
-205.4123140656471
 20
-802.8786661133553
 10
-199.5263588036301
 20
-799.9766425863592
 10
-193.6519737544337
 20
-796.9482748841564
 10
-187.671555433018
 20
-794.1001917032801
 10
-181.5422894614776
 20
-791.6636444746317
 10
-175.2213614619069
 20
-789.869884629113
 10
-168.8123855321455
 20
-788.9814634322963
 10
-162.3557364546073
 20
-789.1809717924312
 10
-156.0296460637107
 20
-790.6013168502403
 10
-150.0290140401603
 20
-793.0803393300378
 10
-145.2384681896282
 20
-795.8959000575592
 10
-140.7814791752808
 20
-799.2482137333978
 10
-136.7049209684985
 20
-803.0344739097783
 10
-132.0327435869989
 20
-808.5301595064832
 10
-128.003653273578
 20
-814.5525889981881
 10
-124.4998100985798
 20
-820.8870665972057
 10
-121.8971209907753
 20
-826.0132336266371
 10
-119.1487542503584
 20
-831.0845354368083
 10
-116.0458258642643
 20
-835.8993299033487
 10
-112.3794518194282
 20
-840.255974901888
  0
LWPOLYLINE
  5
8AF
330
A
100
AcDbEntity
  8
0
  6
PHANTOM
 62
     7
100
AcDbPolyline
 90
       51
 70
   128
 43
0.0
 10
-125.9567667308609
 20
-583.94581922482
 10
-128.3328481532711
 20
-586.5709609220598
 10
-130.9379308828783
 20
-588.9656042375869
 10
-134.5167075809219
 20
-591.4896958458889
 10
-138.455787462317
 20
-593.3908400174681
 10
-142.683039875346
 20
-594.5541657308885
 10
-147.048520191277
 20
-595.0111861363543
 10
-153.3342590798521
 20
-594.5961457365117
 10
-159.4983538154835
 20
-593.2229994942656
 10
-167.7097963325397
 20
-590.3618965247881
 10
-175.6521423967534
 20
-586.781454608501
 10
-183.4189695685908
 20
-582.7464479673627
 10
-191.1038554085178
 20
-578.521650823332
 10
-198.8003774770005
 20
-574.3718373983675
 10
-209.3757411652849
 20
-569.2069570890787
 10
-213.6930761095997
 20
-567.4198251766951
 10
-218.1208355562347
 20
-565.937542099774
 10
-221.4089273723203
 20
-565.1495372185186
 10
-224.7610320062446
 20
-564.7755721297378
 10
-226.5835250771789
 20
-564.8349465404256
 10
-228.3645669510518
 20
-565.1926487302863
 10
-230.0435390276528
 20
-565.9227745542398
 10
-231.582815184284
 20
-566.9256391233466
 10
-234.8490481457943
 20
-569.9621465185589
 10
-237.6285698906901
 20
-573.4757730163797
 10
-242.1567621377812
 20
-580.7237394522342
 10
-245.1254923520344
 20
-586.4335273908819
 10
-247.5129304474521
 20
-592.396072619173
 10
-248.4315113609136
 20
-595.8854118478272
 10
-248.8573377078837
 20
-599.4602170901828
 10
-248.5589444178329
 20
-603.1104787979469
 10
-247.5527086359541
 20
-606.6423414842285
 10
-245.3438385505057
 20
-611.3200890263662
 10
-242.5661244130196
 20
-615.7191258313134
 10
-239.4703618647365
 20
-619.8989266297761
 10
-232.7521106696365
 20
-628.0126962494397
 10
-225.8781889355819
 20
-636.0021905732516
 10
-219.4138728731752
 20
-644.3038550742336
 10
-215.7260645167625
 20
-649.9512892466436
 10
-212.5160596055428
 20
-655.8929160129175
 10
-209.9333560895929
 20
-662.1092855077034
 10
-208.0234984873058
 20
-669.1657729036635
 10
-207.2597696266103
 20
-676.4258575667462
 10
-207.5019532872637
 20
-681.3174459507209
 10
-208.3447029428135
 20
-686.1624570162323
 10
-209.7387856936282
 20
-690.8621242088485
 10
-212.5415341626085
 20
-697.1050904476483
 10
-216.2200538627619
 20
-702.8792640395413
 10
-220.3623875397246
 20
-707.8286374884976
 10
-225.0096360511931
 20
-712.3392670296843
 10
-230.0053741532603
 20
-716.4491014607838
  0
LWPOLYLINE
  5
8E4
330
A
100
AcDbEntity
  8
0
  6
PHANTOM
 62
     7
100
AcDbPolyline
 90
       19
 70
   128
 43
0.0
 10
-236.0328018225729
 20
-708.5827893426495
 10
-236.0327540882921
 20
-708.5827530238468
 10
-231.7256719686965
 20
-705.0814833426926
 10
-227.7076901905688
 20
-701.2444068390333
 10
-224.1266895622596
 20
-697.0230093661167
 10
-221.194341819692
 20
-692.4719492160664
 10
-218.9589297445099
 20
-687.5439319754613
 10
-217.5091136062774
 20
-682.1426316734161
 10
-217.0557719165691
 20
-676.5753679828196
 10
-217.687194587945
 20
-670.8840519944202
 10
-219.2240393794056
 20
-665.3576288283645
 10
-221.489574731217
 20
-659.9999508306569
 10
-224.3019470722678
 20
-654.8856034796036
 10
-227.5167399937715
 20
-650.0218481794884
 10
-233.9206614339786
 20
-641.8612084263619
 10
-240.7242712641384
 20
-634.0067046938179
 10
-247.3637151483736
 20
-626.0190395112795
 10
-251.0262873257389
 20
-621.0347244837703
 10
-253.8036429143552
 20
-616.5591432544263
  0
LWPOLYLINE
  5
8F9
330
A
100
AcDbEntity
  8
0
  6
PHANTOM
 62
     7
100
AcDbPolyline
 90
       12
 70
   128
 43
0.0
 10
192.275338183127
 20
-527.9105300620703
 10
194.6953363728408
 20
-529.0585718415001
 10
197.9274235378865
 20
-531.1085713256916
 10
201.0413172891011
 20
-533.3377707976294
 10
206.8495871220342
 20
-537.2202243181188
 10
213.036744970324
 20
-540.485470103459
 10
219.5864846766778
 20
-542.7868356457606
 10
224.540787193971
 20
-543.67875732045
 10
229.5655565620017
 20
-543.7883022196166
 10
234.5831515575024
 20
-542.9838796455896
 10
239.4632185846787
 20
-541.4241817338059
 10
240.8059687498216
 20
-540.8380981593285
  0
LWPOLYLINE
  5
907
330
A
100
AcDbEntity
  8
0
  6
PHANTOM
 62
     7
100
AcDbPolyline
 90
       13
 70
   128
 43
0.0
 10
273.3504083823147
 20
-528.0764906937214
 10
273.728955832292
 20
-528.0736730991354
 10
276.8128253862786
 20
-528.5998259025947
 10
280.049374848504
 20
-529.7842282725012
 10
283.0746162585049
 20
-531.4491323059281
 10
286.999619005632
 20
-534.4667128432532
 10
290.412734485803
 20
-538.0607839559642
 10
294.251505265639
 20
-543.552615543411
 10
297.4546910711714
 20
-549.476377187817
 10
300.3585131251455
 20
-555.596341449475
 10
303.299192650307
 20
-561.6767808886788
 10
306.9690487109884
 20
-567.9544421227758
 10
310.4437792577882
 20
-572.737719888631
  0
LWPOLYLINE
  5
916
330
A
100
AcDbEntity
  8
0
  6
PHANTOM
 62
     7
100
AcDbPolyline
 90
       54
 70
   128
 43
0.0
 10
313.700895798451
 20
-621.482903371705
 10
315.2109343967441
 20
-615.4639714326144
 10
316.7003630561285
 20
-609.4394395910365
 10
317.9682422020014
 20
-604.9063214043181
 10
318.9082271993947
 20
-600.3099065159537
 10
318.9343184360943
 20
-598.1938612291058
 10
318.2642220047242
 20
-596.6486682517166
 10
316.5522047698837
 20
-594.3458007851071
 10
312.6843785530098
 20
-590.2243329800537
 10
308.718983767768
 20
-586.1900752536549
 10
303.3543691048393
 20
-579.9747696349272
 10
298.5443292314936
 20
-573.3047254205594
 10
294.425651614037
 20
-566.2137907886696
 10
291.7475509833487
 20
-560.6000020185318
 10
289.1266265867571
 20
-554.9378925866358
 10
286.2271735997333
 20
-549.4584443860741
 10
282.7134871977486
 20
-544.3926393099387
 10
280.3834895823523
 20
-541.9268584103
 10
277.7028876645547
 20
-539.8563732836398
 10
276.0269431212707
 20
-538.9185512805182
 10
274.2330307271571
 20
-538.2485444150009
 10
271.5269890922733
 20
-538.0512595267581
 10
268.0350534457273
 20
-538.8088449359078
 10
264.6863501035152
 20
-540.1191456272088
 10
258.3264268333879
 20
-543.2686691136832
 10
248.4820529703546
 20
-548.3876418326774
 10
242.6102343413702
 20
-550.906602713996
 10
236.4923193511752
 20
-552.7844712362972
 10
230.2122939161306
 20
-553.7458477192242
 10
223.6274715961807
 20
-553.6083949133619
 10
217.1364779832642
 20
-552.4507714829382
 10
211.2909454330067
 20
-550.5539071320098
 10
205.6721565769151
 20
-547.9825184374186
 10
200.2981445989787
 20
-544.8878688843911
 10
195.1869426831864
 20
-541.4212219581535
 10
192.8172608968939
 20
-539.6871074502444
 10
190.3721248578089
 20
-538.0651853224426
 10
187.7560525508294
 20
-536.7902372639965
 10
185.383932529227
 20
-536.3529470369581
 10
182.5358906164004
 20
-536.7739893260462
 10
180.3164603868807
 20
-537.5815624848377
 10
178.2384141724968
 20
-538.708251622748
 10
176.3451764164839
 20
-540.1122158032816
 10
174.6562195970778
 20
-541.7583128072816
 10
171.306670283282
 20
-546.2092603871249
 10
168.6172720064324
 20
-551.119564677003
 10
166.3430467790647
 20
-556.3104030399356
 10
164.239016613715
 20
-561.6029528389425
 10
162.0602035229192
 20
-566.8183914370433
 10
158.4407391878198
 20
-574.4930853577734
 10
154.4483620021456
 20
-582.0240647770847
 10
150.0040114863212
 20
-589.2833652419108
 10
145.0286271607715
 20
-596.1430222991857
 10
139.4431485459213
 20
-602.4750714958435
  0
LWPOLYLINE
  5
94E
330
A
100
AcDbEntity
  8
0
  6
PHANTOM
 62
     7
100
AcDbPolyline
 90
        4
 70
   128
 43
0.0
 10
34.93891246145389
 20
-747.4947412847252
 10
32.65856251429861
 20
-744.7394371910579
 10
24.56643949467027
 20
-734.1470249104684
 10
23.18775085846456
 20
-732.1684615579524
  0
LWPOLYLINE
  5
954
330
A
100
AcDbEntity
  8
0
  6
PHANTOM
 62
     7
100
AcDbPolyline
 90
        3
 70
   128
 43
0.0
 10
6.965554816812325
 20
-672.3981847587619
 10
7.285937799550278
 20
-671.1262678488363
 10
7.338944537268965
 20
-670.982737409495
  0
LWPOLYLINE
  5
959
330
A
100
AcDbEntity
  8
0
  6
PHANTOM
 62
     7
100
AcDbPolyline
 90
        6
 70
   128
 43
0.0
 10
139.4431485459213
 20
-602.4750714958435
 10
133.1231424731771
 20
-608.2925116091323
 10
126.2120879008348
 20
-613.3885876920645
 10
119.7204369286203
 20
-617.1122334818749
 10
112.8218151018525
 20
-620.0736594171608
 10
105.9992511879524
 20
-622.0630687855463
  0
LWPOLYLINE
  5
961
330
A
100
AcDbEntity
  8
0
  6
PHANTOM
 62
     7
100
AcDbPolyline
 90
       19
 70
   128
 43
0.0
 10
16.69304495495768
 20
-674.6441060209305
 10
15.43257072391529
 20
-679.547397501538
 10
14.75714170347042
 20
-685.3350638917723
 10
14.93197412549074
 20
-690.5466391584694
 10
15.76031736948308
 20
-695.72058747149
 10
17.12107180981054
 20
-700.7693853144722
 10
20.62234237384036
 20
-709.5117857354056
 10
25.28721983547436
 20
-717.6955929357411
 10
32.66987660873233
 20
-728.2844475293286
 10
40.51168211086742
 20
-738.5468190915802
 10
48.74260415149183
 20
-748.4945604094075
 10
52.27954734096554
 20
-751.9385077584141
 10
56.37781702296451
 20
-754.6867050823804
 10
61.79106535111856
 20
-757.0286398416203
 10
67.49497066719013
 20
-758.580633458093
 10
75.86337700652446
 20
-759.7909286235207
 10
84.32138793154411
 20
-760.2699908063765
 10
91.44487926071791
 20
-760.5915529580779
 10
98.51844718988264
 20
-761.396280838722
  0
LWPOLYLINE
  5
976
330
A
100
AcDbEntity
  8
0
  6
PHANTOM
 62
     7
100
AcDbPolyline
 90
        8
 70
   128
 43
0.0
 10
306.3143435209465
 20
-816.1780521613719
 10
302.3222696059535
 20
-814.6446243537862
 10
292.0017779352278
 20
-809.8319919414251
 10
281.9071148139183
 20
-804.5263315559218
 10
271.8132965608658
 20
-799.2202911774808
 10
261.4953394949115
 20
-794.4065187863075
 10
261.495284177863
 20
-794.4064955989079
 10
261.495284177863
 20
-794.4064955989079
  0
LWPOLYLINE
  5
980
330
A
100
AcDbEntity
  8
0
  6
PHANTOM
 62
     7
100
AcDbPolyline
 90
       45
 70
   128
 43
0.0
 10
265.2939594022465
 20
-785.2533769769312
 10
275.6315942504953
 20
-790.0387924360355
 10
285.741456522044
 20
-795.3259704424558
 10
295.8484262263441
 20
-800.6200908389962
 10
306.1773833728466
 20
-805.4263334684602
 10
310.1704886828667
 20
-806.9737559114081
 10
314.280685904643
 20
-808.1487806745181
 10
316.4233546564013
 20
-808.5195244735794
 10
318.5730151055876
 20
-808.4700507094902
 10
318.8663774049444
 20
-808.4020704265155
 10
319.2138345085326
 20
-808.2405008990162
 10
320.1385066042174
 20
-807.3372033392795
 10
321.5152032838923
 20
-805.3262200329436
 10
322.6277587114374
 20
-803.1477406345468
 10
325.0480221021076
 20
-797.1552499348766
 10
326.9787066264435
 20
-790.9698633828708
 10
328.6228201037951
 20
-784.7021808235616
 10
330.9930096788148
 20
-773.2773839355663
 10
332.5635749595302
 20
-761.6930841962155
 10
333.5175928319201
 20
-750.0230545140387
 10
334.0381401819634
 20
-738.3410677975651
 10
334.0491138030007
 20
-731.5772470141198
 10
333.4739807710572
 20
-727.4307604206395
 10
332.2323858665208
 20
-724.7835219250933
 10
330.1973852299105
 20
-722.6039159465111
 10
327.8476279855961
 20
-720.740379857975
 10
322.391424257829
 20
-717.0940048390276
 10
316.8315883711228
 20
-713.5208220059134
 10
311.3748668236848
 20
-709.7656694047478
 10
306.2001220403846
 20
-705.6758429811665
 10
301.4862164460915
 20
-701.0986386808053
 10
297.5123331555069
 20
-695.9925133117971
 10
294.456787924882
 20
-690.3011370072604
 10
292.5237976316361
 20
-684.1124094932028
 10
291.6703780639183
 20
-677.6761984821469
 10
291.7134522545833
 20
-672.1196837138314
 10
292.38814655214
 20
-666.5836611650989
 10
293.6288649468316
 20
-661.1601281098294
 10
296.0521795940405
 20
-654.3660610081111
 10
299.253211369647
 20
-647.8655516966944
 10
302.9871083026005
 20
-641.6638956967605
 10
306.1251546202282
 20
-636.8468172965329
 10
309.1428474478859
 20
-631.9310109753299
 10
311.7611175768635
 20
-626.8363989335786
 10
313.7008957984509
 20
-621.4829033717048
  0
LWPOLYLINE
  5
9AF
330
A
100
AcDbEntity
  8
0
  6
PHANTOM
 62
     7
100
AcDbPolyline
 90
       51
 70
   128
 43
0.0
 10
98.51844718988264
 20
-761.396280838722
 10
101.9799272994313
 20
-762.1414568633695
 10
105.356290608484
 20
-763.200203028406
 10
109.3316064117744
 20
-765.0374687592324
 10
112.9475855013163
 20
-767.498239918267
 10
116.0686813285285
 20
-770.5774850394491
 10
118.6472127676754
 20
-774.1295916900333
 10
121.4306466821023
 20
-779.7807214490164
 10
123.3235145210218
 20
-785.8055572025302
 10
124.9514479251392
 20
-794.3474265087552
 10
125.8218673009669
 20
-803.0159209241553
 10
126.210862631221
 20
-811.7596938823389
 10
126.394523898618
 20
-820.5273988169141
 10
126.6489410858745
 20
-829.2676891614899
 10
127.4637053746665
 20
-841.0086629244482
 10
128.074671210786
 20
-845.6411506190628
 10
129.00485613389
 20
-850.216844320156
 10
129.9664697964594
 20
-853.4584178034895
 10
131.318658846409
 20
-856.5484081170017
 10
132.2813251298665
 20
-858.097046209308
 10
133.4816252502116
 20
-859.4606226223556
 10
134.9534188000149
 20
-860.54959218096
 10
136.5915630717323
 20
-861.3812121514888
 10
140.8543720955207
 20
-862.6915991732287
 10
145.2870227744916
 20
-863.3419223657693
 10
153.8280419572641
 20
-863.6394686670426
 10
160.2572284694816
 20
-863.3555704802445
 10
166.6146631561042
 20
-862.4418799066933
 10
170.095810027271
 20
-861.4927246988553
 10
173.4045953542179
 20
-860.0740985117543
 10
176.4166180785777
 20
-857.9905514883694
 10
178.9721829966365
 20
-855.3531943959246
 10
181.9187961578938
 20
-851.1013830171981
 10
184.3396167144178
 20
-846.4962936072101
 10
186.4115491145033
 20
-841.7253841970813
 10
190.0791541280363
 20
-831.8503231832876
 10
193.5612983088216
 20
-821.9025851760644
 10
197.5185926291641
 20
-812.1534909974375
 10
200.5655099104653
 20
-806.1360381902904
 10
204.1061071742542
 20
-800.3852790077646
 10
208.1982893180742
 20
-795.0404074051156
 10
213.3544578633169
 20
-789.858178505944
 10
219.2600111848246
 20
-785.5667275794369
 10
223.6173428205301
 20
-783.330670589957
 10
228.2346203126548
 20
-781.638007667938
 10
233.0016928662
 20
-780.495485148813
 10
239.8096344584593
 20
-779.8012534039679
 10
246.6494753249766
 20
-780.0998581166758
 10
253.0069253030703
 20
-781.212537587399
 10
259.2368693285329
 20
-782.9818580854369
 10
265.2939594022465
 20
-785.2533769769312
  0
LWPOLYLINE
  5
9E4
330
A
100
AcDbEntity
  8
0
  6
PHANTOM
 62
     7
100
AcDbPolyline
 90
       19
 70
   128
 43
0.0
 10
261.4952471085011
 20
-794.4064385170962
 10
261.495191788355
 20
-794.4064153373978
 10
256.3094622391774
 20
-792.4270076462193
 10
250.9774656216803
 20
-790.8658716062475
 10
245.5311278565086
 20
-789.875332827622
 10
240.1236202811301
 20
-789.6113752648536
 10
234.7381261228874
 20
-790.139460240122
 10
229.3355547787314
 20
-791.5845327846187
 10
224.287492148254
 20
-793.975559210035
 10
219.6743792570235
 20
-797.3680452781717
 10
215.6567787988868
 20
-801.4622034922782
 10
212.1496612234809
 20
-806.1030536589724
 10
209.1266926642163
 20
-811.09581322675
 10
206.5219534772773
 20
-816.3117832147362
 10
202.6565928600402
 20
-825.9380617423584
 10
199.2561980086172
 20
-835.7574125589863
 10
195.6583989857322
 20
-845.5011722210045
 10
193.1731416401274
 20
-851.1652102835517
 10
190.6858523931228
 20
-855.8082613933081
  0
LINE
  5
9F9
330
A
100
AcDbEntity
  8
0
  6
Continuous
 62
     7
100
AcDbLine
 10
1220.03202173467
 20
295.7082863378335
 30
0.0
 11
1220.03202173467
 21
305.7082863378336
 31
0.0
  0
LINE
  5
9FA
330
A
100
AcDbEntity
  8
0
  6
Continuous
 62
     7
100
AcDbLine
 10
1155.032021734671
 20
305.7082863378336
 30
0.0
 11
1155.032021734671
 21
295.7082863378335
 31
0.0
  0
LINE
  5
9FB
330
A
100
AcDbEntity
  8
0
  6
Continuous
 62
     7
100
AcDbLine
 10
1166.532021734671
 20
295.7082863378335
 30
0.0
 11
1166.532021734671
 21
294.7082863378332
 31
0.0
  0
LINE
  5
9FC
330
A
100
AcDbEntity
  8
0
  6
Continuous
 62
     7
100
AcDbLine
 10
1208.532021734671
 20
294.7082863378332
 30
0.0
 11
1208.532021734671
 21
295.7082863378335
 31
0.0
  0
LINE
  5
9FD
330
A
100
AcDbEntity
  8
0
  6
Continuous
 62
     7
100
AcDbLine
 10
1170.03202173467
 20
315.4671640078294
 30
0.0
 11
1168.178921884273
 21
315.7082863378335
 31
0.0
  0
LINE
  5
9FE
330
A
100
AcDbEntity
  8
0
  6
Continuous
 62
     7
100
AcDbLine
 10
1031.885121585067
 20
315.7082863378335
 30
0.0
 11
955.0320217346703
 21
305.7082863378336
 31
0.0
  0
LINE
  5
9FF
330
A
100
AcDbEntity
  8
0
  6
Continuous
 62
     7
100
AcDbLine
 10
1165.03202173467
 20
315.7082863378335
 30
0.0
 11
1165.03202173467
 21
340.7082863378335
 31
0.0
  0
LINE
  5
A00
330
A
100
AcDbEntity
  8
0
  6
Continuous
 62
     7
100
AcDbLine
 10
1035.03202173467
 20
340.7082863378335
 30
0.0
 11
1035.03202173467
 21
315.7082863378335
 31
0.0
  0
LINE
  5
A01
330
A
100
AcDbEntity
  8
0
  6
Continuous
 62
     7
100
AcDbLine
 10
1170.03202173467
 20
309.3627180769825
 30
0.0
 11
1170.03202173467
 21
315.4671640078294
 31
0.0
  0
LINE
  5
A02
330
A
100
AcDbEntity
  8
0
  6
Continuous
 62
     7
100
AcDbLine
 10
892.5320217346703
 20
305.7082863378336
 30
0.0
 11
892.5320217346703
 21
295.7082863378335
 31
0.0
  0
LINE
  5
A03
330
A
100
AcDbEntity
  8
0
  6
Continuous
 62
     7
100
AcDbLine
 10
904.0320217346703
 20
295.7082863378335
 30
0.0
 11
904.0320217346703
 21
294.7082863378337
 31
0.0
  0
LINE
  5
A04
330
A
100
AcDbEntity
  8
0
  6
Continuous
 62
     7
100
AcDbLine
 10
946.0320217346703
 20
294.7082863378339
 30
0.0
 11
946.0320217346703
 21
295.7082863378335
 31
0.0
  0
LWPOLYLINE
  5
A05
330
A
100
AcDbEntity
  8
0
  6
Continuous
 62
     7
100
AcDbPolyline
 90
       20
 70
   128
 43
0.0
 10
856.1817480457728
 20
57.59506849722199
 10
856.1493391679928
 20
57.61425069333034
 10
856.0623384662273
 20
57.36288688981758
 10
855.9989838919467
 20
56.79287919177503
 10
855.9548224188011
 20
55.90422759920269
 10
855.907278542668
 20
53.71507191512789
 10
855.873542631164
 20
51.33494331348306
 10
855.8476704742806
 20
49.44057085586969
 10
855.8254830059363
 20
47.80852201685529
 10
855.8108900071866
 20
46.73850488264938
 10
855.7856251392172
 20
44.98069872811491
 10
855.7401651965797
 20
42.23506686245756
 10
855.6660655899765
 20
38.50160928567711
 10
855.5520340911483
 20
33.78032599777378
 10
855.3841085458508
 20
28.07121699874757
 10
855.1461740235916
 20
21.37428228859836
 10
854.8209981670881
 20
13.68952186732611
 10
854.3919954146021
 20
5.016935734931088
 10
853.8459626784955
 20
-4.64347610858698
 10
853.1770609736099
 20
-15.29171366216544
  0
LWPOLYLINE
  5
A1B
330
A
100
AcDbEntity
  8
0
  6
Continuous
 62
     7
100
AcDbPolyline
 90
       30
 70
   128
 43
0.0
 10
1021.658784851847
 20
-15.29171366216489
 10
1021.65577119134
 20
0.4984746880405123
 10
1021.653216616255
 20
15.18250454435174
 10
1021.650835146987
 20
28.7603759057061
 10
1021.64827817571
 20
41.23208877210369
 10
1021.645157769301
 20
52.59764314354456
 10
1021.641056956833
 20
62.85703902002868
 10
1021.635527018967
 20
72.01027640155603
 10
1021.628071588392
 20
80.0573552881266
 10
1021.618117162217
 20
86.99827567974036
 10
1021.604969419041
 20
92.83303757639735
 10
1021.590514968053
 20
97.58279202590673
 10
1021.588076187044
 20
101.3417431274166
 10
1021.595319993952
 20
103.5181422232678
 10
1021.608028326543
 20
105.1435576931637
 10
1021.62223360201
 20
106.2179895371042
 10
1021.632277281707
 20
106.8401963825065
 10
1021.633888401727
 20
107.2820958239041
 10
1021.633728848099
 20
107.8789496077914
 10
1021.630304767552
 20
109.5375202030352
 10
1021.625573579781
 20
111.8159081682379
 10
1021.621836726158
 20
114.7141135033995
 10
1021.617310637659
 20
118.0413303359161
 10
1021.597662718914
 20
121.1176335939516
 10
1021.547468740721
 20
123.8827753414013
 10
1021.44945216306
 20
126.3367555782651
 10
1021.297165121096
 20
128.4795743045433
 10
1021.111983966224
 20
130.3112315202355
 10
1020.946578342905
 20
131.8317272253418
 10
1020.881071868609
 20
133.0410614198627
  0
LWPOLYLINE
  5
A3B
330
A
100
AcDbEntity
  8
0
  6
Continuous
 62
     7
100
AcDbPolyline
 90
       14
 70
   128
 43
0.0
 10
1020.572264028373
 20
223.5576677127241
 10
1020.573321281333
 20
223.5507097812648
 10
1020.593364404157
 20
223.6385742698819
 10
1020.673347627488
 20
224.2332345955722
 10
1020.809734782836
 20
225.4275232151861
 10
1020.997906223953
 20
227.3549476076029
 10
1021.229913739283
 20
230.0257880091299
 10
1021.499385354151
 20
233.440044419767
 10
1021.913013831114
 20
239.1488112036768
 10
1022.390666331212
 20
246.1792064482269
 10
1022.93892512954
 20
254.5312301534174
 10
1023.565506958271
 20
264.2048823192481
 10
1024.275921809627
 20
275.2001629457192
 10
1024.849181245779
 20
284.0871661812375
  0
LWPOLYLINE
  5
A4B
330
A
100
AcDbEntity
  8
0
  6
Continuous
 62
     7
100
AcDbPolyline
 90
        9
 70
   128
 43
0.0
 10
1014.903337172519
 20
294.7082341423295
 10
1016.925342430606
 20
294.49500011667
 10
1018.862422365558
 20
293.8771835691373
 10
1020.634498137545
 20
292.8803250215558
 10
1022.168312175028
 20
291.5456345832884
 10
1023.400456641079
 20
289.9282883262669
 10
1024.27999471189
 20
288.0951473074499
 10
1024.770566303904
 20
286.1219935342716
 10
1024.851891198821
 20
284.0903971382017
  0
LWPOLYLINE
  5
A56
330
A
100
AcDbEntity
  8
0
  6
Continuous
 62
     7
100
AcDbPolyline
 90
        9
 70
   128
 43
0.0
 10
745.3629321511798
 20
285.0958770734702
 10
745.6187457914499
 20
286.9880372098533
 10
746.2295268138551
 20
288.797084197256
 10
747.1730079019383
 20
290.4570653942634
 10
748.4147924533356
 20
291.9074626687302
 10
749.9096085808032
 20
293.0953987145289
 10
751.602959594801
 20
293.9775648057958
 10
753.4331107957923
 20
294.5217997083063
 10
755.3333401435351
 20
294.70826218542
  0
LWPOLYLINE
  5
A61
330
A
100
AcDbEntity
  8
0
  6
Continuous
 62
     7
100
AcDbPolyline
 90
       47
 70
   128
 43
0.0
 10
745.5492266062568
 20
285.0839610488261
 10
745.0085241220903
 20
273.9291468449979
 10
744.4337280023298
 20
260.9615637024836
 10
743.9356191944715
 20
248.9516561157623
 10
743.493801020836
 20
237.8994240848341
 10
743.0929290562444
 20
227.8048676096989
 10
742.7235333775239
 20
218.6679866903568
 10
742.4008032501705
 20
210.9303658836299
 10
742.104290913787
 20
204.0440991016041
 10
741.8218969629614
 20
197.5511859923179
 10
741.5369200463238
 20
190.9809445717254
 10
741.2477311631786
 20
184.3333529689979
 10
741.0025839217118
 20
178.7346063553719
 10
740.7530142089191
 20
173.0821443374854
 10
740.4985332309295
 20
167.3759669153386
 10
740.2387483047443
 20
161.6163549657548
 10
739.9957257854945
 20
156.2916188454109
 10
739.7905247313628
 20
151.8451493601415
 10
739.6327030223735
 20
148.4571843879519
 10
739.5103302290033
 20
145.8497364115149
 10
739.3792183208707
 20
143.0754292363137
 10
739.1966299587828
 20
139.2460319330256
 10
738.9608493573464
 20
134.3615445016506
 10
738.4411554567032
 20
123.8479012638605
 10
737.8980147728721
 20
113.256266902199
 10
737.3291215314933
 20
102.6301119611606
 10
736.7525456933201
 20
92.38863052623084
 10
736.1972777279667
 20
83.10258618051987
 10
735.6665667484596
 20
74.84537528123677
 10
735.1845941236113
 20
67.92599813053809
 10
734.8998914098959
 20
64.09873835193838
 10
734.5467840726184
 20
59.60805053337889
 10
734.1366041312396
 20
54.72134217559729
 10
733.7069121311121
 20
49.94142093703827
 10
733.2592249332815
 20
45.27998323669172
 10
732.8126659524874
 20
40.90484967169735
 10
732.4276872045814
 20
37.31826133075131
 10
732.2034669740888
 20
35.29687525282074
 10
731.978623794473
 20
33.3124682034365
 10
731.6466391896443
 20
30.45257477560046
 10
731.193919755204
 20
26.67393011766037
 10
730.6094207521763
 20
21.97653422961613
 10
729.8802329797553
 20
16.36038711146778
 10
728.9923261711514
 20
9.825488763215457
 10
727.9317198512139
 20
2.371839184858975
 10
726.6862270562743
 20
-6.000561623601546
 10
725.2479383104543
 20
-15.29171366216628
  0
LWPOLYLINE
  5
A92
330
A
100
AcDbEntity
  8
0
  6
Continuous
 62
     7
100
AcDbPolyline
 90
       11
 70
   128
 43
0.0
 10
1300.576251692231
 20
-15.29171366216611
 10
1300.962372008485
 20
9.319820314306864
 10
1301.401323860596
 20
35.19870494501839
 10
1301.898725250783
 20
62.34494022996892
 10
1302.458710415581
 20
90.75852616915794
 10
1303.083169451545
 20
120.4394627625858
 10
1303.770789624607
 20
151.3877500102523
 10
1304.515864789041
 20
183.6033879121575
 10
1305.306836787305
 20
217.0863764683014
 10
1306.124530147251
 20
251.8367156786841
 10
1306.863860469187
 20
284.4899179421364
  0
LWPOLYLINE
  5
A9F
330
A
100
AcDbEntity
  8
0
  6
Continuous
 62
     7
100
AcDbPolyline
 90
       45
 70
   128
 43
0.0
 10
1047.10279179446
 20
282.8463688402241
 10
1048.943496670616
 20
273.0967193966851
 10
1051.65591050103
 20
258.627898913225
 10
1054.162582924192
 20
245.1579917197266
 10
1056.465978384264
 20
232.6869978161901
 10
1058.568838677608
 20
221.2149172026153
 10
1060.441798245711
 20
210.9200111209184
 10
1062.12706455883
 20
201.5886613855653
 10
1063.627597138427
 20
193.2208679965562
 10
1064.946347669245
 20
185.8166309538909
 10
1066.105832168807
 20
179.26468897877
 10
1067.138755396346
 20
173.3927935430233
 10
1068.083712479468
 20
167.9901105604055
 10
1068.941783860777
 20
163.0566400309168
 10
1069.714068552749
 20
158.5923819545571
 10
1070.391826940427
 20
154.6546690541744
 10
1071.019583041489
 20
150.9900741835846
 10
1071.620879873451
 20
147.4634144305426
 10
1072.332102373809
 20
143.2699133299322
 10
1073.20491812824
 20
138.0886719929351
 10
1074.223829537859
 20
131.9877242295872
 10
1075.383208836867
 20
124.9711395065659
 10
1076.600029091248
 20
117.5140133975423
 10
1077.818583444973
 20
109.9418011684781
 10
1078.616588932576
 20
104.9214585958969
 10
1079.414159477896
 20
99.85177709005014
 10
1080.210837147091
 20
94.73275665093764
 10
1081.006177889456
 20
89.56439727855933
 10
1081.798068395638
 20
84.35788002420023
 10
1082.483288763199
 20
79.80160226366354
 10
1082.937666839465
 20
76.75313805191961
 10
1083.27540126934
 20
74.47282757769816
 10
1083.498348058824
 20
72.96067084099886
 10
1083.683302377467
 20
71.7020277657324
 10
1083.997262323181
 20
69.55677182276584
 10
1084.444225620127
 20
66.48347542354724
 10
1085.021199832509
 20
62.48213856807658
 10
1085.724312907513
 20
57.55276125635397
 10
1086.676236893526
 20
50.78281111693381
 10
1087.778441752573
 20
42.80072650404173
 10
1089.021538790428
 20
33.60650741767754
 10
1090.395403918873
 20
23.20015385784133
 10
1091.889746130331
 20
11.58166582453321
 10
1093.494933065965
 20
-1.248956682246921
 10
1095.203136117765
 20
-15.29171366216589
  0
LWPOLYLINE
  5
ACE
330
A
100
AcDbEntity
  8
0
  6
Continuous
 62
     7
100
AcDbPolyline
 90
        9
 70
   128
 43
0.0
 10
1296.860047945042
 20
294.7082842879301
 10
1298.756804820444
 20
294.5278274789971
 10
1300.673923411092
 20
293.9543827637225
 10
1302.43845986785
 20
293.0104066589388
 10
1303.979701522901
 20
291.7337284021595
 10
1305.235884104523
 20
290.175510056449
 10
1306.156666900699
 20
288.398196223529
 10
1306.705150130898
 20
286.473011616378
 10
1306.859353681128
 20
284.4771067744986
  0
LINE
  5
AD9
330
A
100
AcDbEntity
  8
0
  6
Continuous
 62
     7
100
AcDbLine
 10
1296.763940979135
 20
290.7074098564603
 30
0.0
 11
1296.860047949702
 21
290.7082829213323
 31
0.0
  0
ARC
  5
ADA
330
A
100
AcDbEntity
  8
0
  6
Continuous
 62
     7
100
AcDbCircle
 10
1056.930265233118
 20
284.7082863378333
 30
0.0
 40
9.999999999999825
100
AcDbArc
 50
90.1405794939655
 51
190.7250657927188
  0
LINE
  5
ADB
330
A
100
AcDbEntity
  8
0
  6
Continuous
 62
     7
100
AcDbLine
 10
1087.185583189346
 20
294.708286296986
 30
0.0
 11
1087.184676297683
 21
294.7082863378332
 31
0.0
  0
LWPOLYLINE
  5
ADC
330
A
100
AcDbEntity
  8
0
  6
Continuous
 62
     7
100
AcDbPolyline
 90
       41
 70
   128
 43
0.0
 10
1024.53879291552
 20
279.2753446544954
 10
1024.539095031509
 20
279.2625980801851
 10
1024.680456284045
 20
272.4356194337034
 10
1024.780461398001
 20
266.7270097802927
 10
1024.847757991939
 20
262.1367691199529
 10
1024.890374446276
 20
258.6648974526842
 10
1024.907556114362
 20
257.062899414935
 10
1024.919072659436
 20
255.8977642651043
 10
1024.9323797905
 20
254.4382484859553
 10
1024.945641697525
 20
252.7809043032975
 10
1024.960443098582
 20
250.5981403223731
 10
1024.975230556761
 20
247.889956543182
 10
1024.988370880201
 20
244.6563529657243
 10
1024.998167215814
 20
240.8973295899999
 10
1025.002725987718
 20
236.6634556857623
 10
1024.973507840409
 20
224.2422063007357
 10
1024.87476184005
 20
210.8801519847061
 10
1024.816859058873
 20
205.2719048776133
 10
1024.751088695643
 20
199.5163789950114
 10
1024.690850203162
 20
194.423029132647
 10
1024.646083749046
 20
190.617665345734
 10
1024.616746368447
 20
188.1002876342726
 10
1024.591256110272
 20
185.9193202500687
 10
1024.56317265008
 20
183.5500877770226
 10
1024.53195539356
 20
180.9561637079498
 10
1024.489572011715
 20
177.4953656639781
 10
1024.432098084007
 20
172.899306954858
 10
1024.35825159075
 20
167.1237606391727
 10
1024.267316283502
 20
160.1687267169222
 10
1024.158616142677
 20
152.0342051881066
 10
1024.031528070444
 20
142.7201960527258
 10
1023.885495555555
 20
132.2266993107799
 10
1023.720043362329
 20
120.5537149622688
 10
1023.534793297741
 20
107.7012430071926
 10
1023.32946903865
 20
93.66928344555132
 10
1023.10386582554
 20
78.45783627734474
 10
1022.857882325824
 20
62.06690150257307
 10
1022.591541208512
 20
44.4964791212363
 10
1022.304999621989
 20
25.74656913333415
 10
1021.998559646482
 20
5.817171538867044
 10
1021.672678692308
 20
-15.29171366216511
  0
LWPOLYLINE
  5
B07
330
A
100
AcDbEntity
  8
0
  6
Continuous
 62
     7
100
AcDbPolyline
 90
        8
 70
   128
 43
0.0
 10
1024.643045831928
 20
286.8312815716811
 10
1025.106301837945
 20
288.3615944926717
 10
1026.012739575647
 20
290.1305652434515
 10
1027.251137878356
 20
291.6853054140605
 10
1028.772568464903
 20
292.9643882696217
 10
1030.516920639597
 20
293.9172781097398
 10
1032.415276225245
 20
294.5063268999186
 10
1034.392632473822
 20
294.7082617199957
  0
LWPOLYLINE
  5
B11
330
A
100
AcDbEntity
  8
0
  6
Continuous
 62
     7
100
AcDbPolyline
 90
       27
 70
   128
 43
0.0
 10
1382.416934921618
 20
-15.291713662165
 10
1379.657337444226
 20
10.75423096129044
 10
1377.084438236585
 20
35.7324150426038
 10
1374.695950381068
 20
59.64283858071304
 10
1372.480760595447
 20
82.48550157561787
 10
1370.425677599008
 20
104.2604040273184
 10
1368.517102990216
 20
124.9675459358145
 10
1366.742373007851
 20
144.6069273011064
 10
1365.090435143947
 20
163.1785481231938
 10
1364.198009280604
 20
173.3107845964578
 10
1363.371103291737
 20
182.7468951907136
 10
1362.633354512539
 20
191.1983207313146
 10
1361.983705828857
 20
198.6650612182605
 10
1361.421287168102
 20
205.1471166515516
 10
1360.945392599525
 20
210.6444870311878
 10
1360.555459770936
 20
215.1571723571691
 10
1360.284437893624
 20
218.2980225593263
 10
1360.07867164734
 20
220.684973267279
 10
1360.000205833874
 20
221.5957363109287
 10
1359.899776980228
 20
222.7618696711973
 10
1359.716940142036
 20
224.8861389103253
 10
1359.451119422295
 20
227.9773528154611
 10
1359.102566183827
 20
232.0355113866048
 10
1358.671583144922
 20
237.0606146237564
 10
1358.158501435964
 20
243.0526625269158
 10
1357.563651507181
 20
250.011655096083
 10
1357.171381214499
 20
254.6087262958836
  0
LWPOLYLINE
  5
B2E
330
A
100
AcDbEntity
  8
0
  6
Continuous
 62
     7
100
AcDbPolyline
 90
       17
 70
   128
 43
0.0
 10
1356.369887040936
 20
247.3380422121849
 10
1356.440067642963
 20
247.3139876716808
 10
1356.626815365032
 20
247.5403521359361
 10
1356.766107912895
 20
248.0448140744909
 10
1356.865785762879
 20
248.8273734873451
 10
1356.941796279684
 20
249.8880303744989
 10
1357.011306042033
 20
251.2267847359522
 10
1357.11284451578
 20
253.3818609315757
 10
1357.215142935874
 20
255.5259242488457
 10
1357.314865534649
 20
257.5725902972412
 10
1357.391333610367
 20
259.1144033191689
 10
1357.496722325571
 20
261.2033304833901
 10
1357.638220351126
 20
263.9484566268546
 10
1357.818055468309
 20
267.3497817495627
 10
1358.121911658617
 20
272.9056358808857
 10
1358.505032331899
 20
279.6280659753082
 10
1358.771897264123
 20
284.1174819138729
  0
LWPOLYLINE
  5
B41
330
A
100
AcDbEntity
  8
0
  6
Continuous
 62
     7
100
AcDbPolyline
 90
        9
 70
   128
 43
0.0
 10
1348.759106523171
 20
294.7082666797566
 10
1350.764295516608
 20
294.5088677660988
 10
1352.707600697989
 20
293.9027692895073
 10
1354.487850602175
 20
292.9150648382324
 10
1356.031158094517
 20
291.5867478995435
 10
1357.273470050664
 20
289.9729486730116
 10
1358.163225804575
 20
288.1406459577729
 10
1358.663497112054
 20
286.165887277896
 10
1358.753520813182
 20
284.1306326212082
  0
LWPOLYLINE
  5
B4C
330
A
100
AcDbEntity
  8
0
  6
Continuous
 62
     7
100
AcDbPolyline
 90
        9
 70
   128
 43
0.0
 10
1355.839933847337
 20
294.7082410523933
 10
1357.868691695059
 20
294.4940375411653
 10
1359.811761412764
 20
293.8725572160685
 10
1361.588273660195
 20
292.8696656975779
 10
1363.124291114307
 20
291.5271027002866
 10
1364.355885694185
 20
289.9007448522218
 10
1365.231799207581
 20
288.0582801447094
 10
1365.715576684656
 20
286.0763908007237
 10
1365.787083610913
 20
284.0375618089676
  0
LWPOLYLINE
  5
B57
330
A
100
AcDbEntity
  8
0
  6
Continuous
 62
     7
100
AcDbPolyline
 90
        9
 70
   128
 43
0.0
 10
1361.306471824915
 20
206.4734240070867
 10
1361.365897556775
 20
207.6400612156702
 10
1361.761533500031
 20
215.3620391713549
 10
1362.228702502223
 20
224.3635669491656
 10
1362.775188216721
 20
234.6446445491022
 10
1363.413945336661
 20
246.2052719711646
 10
1364.164576892827
 20
259.0454492153529
 10
1365.053378565721
 20
273.1651762816671
 10
1365.794575586872
 20
283.9952815087726
  0
LINE
  5
B62
330
A
100
AcDbEntity
  8
0
  6
Continuous
 62
     7
100
AcDbLine
 10
1220.03202173467
 20
305.7082863378336
 30
0.0
 11
1155.032021734671
 21
305.7082863378336
 31
0.0
  0
LINE
  5
B63
330
A
100
AcDbEntity
  8
0
  6
Continuous
 62
     7
100
AcDbLine
 10
1155.032021734671
 20
295.7082863378335
 30
0.0
 11
1220.03202173467
 21
295.7082863378335
 31
0.0
  0
LINE
  5
B64
330
A
100
AcDbEntity
  8
0
  6
Continuous
 62
     7
100
AcDbLine
 10
1120.24906534892
 20
315.4671640078294
 30
0.0
 11
1120.24906534892
 21
295.7082863378335
 31
0.0
  0
LINE
  5
B65
330
A
100
AcDbEntity
  8
0
  6
Continuous
 62
     7
100
AcDbLine
 10
1161.414362442888
 20
305.7082863378336
 30
0.0
 11
1120.24906534892
 21
315.4671640078294
 31
0.0
  0
LINE
  5
B66
330
A
100
AcDbEntity
  8
0
  6
Continuous
 62
     7
100
AcDbLine
 10
1120.24906534892
 20
295.7082863378335
 30
0.0
 11
1155.032021734671
 21
295.7082863378335
 31
0.0
  0
LINE
  5
B67
330
A
100
AcDbEntity
  8
0
  6
Continuous
 62
     7
100
AcDbLine
 10
1031.885121585067
 20
315.4671640078294
 30
0.0
 11
955.5739573081416
 21
305.7082863378336
 31
0.0
  0
LINE
  5
B68
330
A
100
AcDbEntity
  8
0
  6
Continuous
 62
     7
100
AcDbLine
 10
1170.03202173467
 20
315.4671640078294
 30
0.0
 11
1147.961878270022
 21
315.4671640078294
 31
0.0
  0
LWPOLYLINE
  5
B69
330
A
100
AcDbEntity
  8
0
  6
Continuous
 62
     7
100
AcDbPolyline
 90
        3
 70
   128
 43
0.0
 10
1147.961878270022
 20
315.4671640078294
 10
1165.536619147788
 20
310.61910298138
 10
1183.10774545298
 20
305.7082863378336
  0
LINE
  5
B6E
330
A
100
AcDbEntity
  8
0
  6
Continuous
 62
     7
100
AcDbLine
 10
1120.24906534892
 20
315.4671640078294
 30
0.0
 11
1031.885121585067
 21
315.4671640078294
 31
0.0
  0
LINE
  5
B6F
330
A
100
AcDbEntity
  8
0
  6
Continuous
 62
     7
100
AcDbLine
 10
1168.178921884273
 20
315.7082863378335
 30
0.0
 11
1031.885121585067
 21
315.7082863378335
 31
0.0
  0
LINE
  5
B70
330
A
100
AcDbEntity
  8
0
  6
Continuous
 62
     7
100
AcDbLine
 10
1031.885121585067
 20
315.4671640078294
 30
0.0
 11
1031.885121585067
 21
295.7082863378335
 31
0.0
  0
LINE
  5
B71
330
A
100
AcDbEntity
  8
0
  6
Continuous
 62
     7
100
AcDbLine
 10
1031.885121585067
 20
295.7082863378335
 30
0.0
 11
1120.24906534892
 21
295.7082863378335
 31
0.0
  0
LINE
  5
B72
330
A
100
AcDbEntity
  8
0
  6
Continuous
 62
     7
100
AcDbLine
 10
1035.03202173467
 20
340.7082863378335
 30
0.0
 11
1165.03202173467
 21
340.7082863378335
 31
0.0
  0
LINE
  5
B73
330
A
100
AcDbEntity
  8
0
  6
Continuous
 62
     7
100
AcDbLine
 10
955.0320217346703
 20
305.7082863378336
 30
0.0
 11
955.0320217346703
 21
295.7082863378335
 31
0.0
  0
LINE
  5
B74
330
A
100
AcDbEntity
  8
0
  6
Continuous
 62
     7
100
AcDbLine
 10
955.0320217346703
 20
305.7082863378336
 30
0.0
 11
892.5320217346703
 21
305.7082863378336
 31
0.0
  0
LINE
  5
B75
330
A
100
AcDbEntity
  8
0
  6
Continuous
 62
     7
100
AcDbLine
 10
892.5320217346703
 20
295.7082863378335
 30
0.0
 11
955.0320217346703
 21
295.7082863378335
 31
0.0
  0
LINE
  5
B76
330
A
100
AcDbEntity
  8
0
  6
Continuous
 62
     7
100
AcDbLine
 10
955.5739573081416
 20
305.7082863378336
 30
0.0
 11
955.0320217346703
 21
305.7082863378336
 31
0.0
  0
LINE
  5
B77
330
A
100
AcDbEntity
  8
0
  6
Continuous
 62
     7
100
AcDbLine
 10
955.0320217346703
 20
295.7082863378335
 30
0.0
 11
1031.885121585067
 21
295.7082863378335
 31
0.0
  0
LINE
  5
B78
330
A
100
AcDbEntity
  8
0
  6
Continuous
 62
     7
100
AcDbLine
 10
860.6357519791103
 20
-15.29171366216594
 30
0.0
 11
844.3899747684602
 21
283.9152302445044
 31
0.0
  0
LINE
  5
B79
330
A
100
AcDbEntity
  8
0
  6
Continuous
 62
     7
100
AcDbLine
 10
844.3898779561628
 20
283.9167069931678
 30
0.0
 11
844.3899747684604
 21
283.9152302445044
 31
0.0
  0
LINE
  5
B7A
330
A
100
AcDbEntity
  8
0
  6
Continuous
 62
     7
100
AcDbLine
 10
1024.83765147711
 20
284.0879162780243
 30
0.0
 11
1024.841036875152
 21
284.0886568775783
 31
0.0
  0
LINE
  5
B7B
330
A
100
AcDbEntity
  8
0
  6
Continuous
 62
     7
100
AcDbLine
 10
1023.760693631386
 20
267.2258386539038
 30
0.0
 11
1020.881071868609
 21
133.0410614198627
 31
0.0
  0
LINE
  5
B7C
330
A
100
AcDbEntity
  8
0
  6
Continuous
 62
     7
100
AcDbLine
 10
1021.571618372032
 20
-15.29171366216511
 30
0.0
 11
853.1676918756405
 21
-15.29171366216517
 31
0.0
  0
LWPOLYLINE
  5
B7D
330
A
100
AcDbEntity
  8
0
  6
Continuous
 62
     7
100
AcDbPolyline
 90
        7
 70
   128
 43
0.0
 10
844.3898779561628
 20
283.9167069931678
 10
844.6800530974325
 20
287.260997546954
 10
846.0248612234408
 20
290.3174892745816
 10
848.2726855600795
 20
292.7415864085146
 10
851.1701017631633
 20
294.2599907163199
 10
853.560733549992
 20
294.6962936516993
 10
854.0344183410615
 20
294.7082863378335
  0
LINE
  5
B86
330
A
100
AcDbEntity
  8
0
  6
Continuous
 62
     7
100
AcDbLine
 10
854.0344183410782
 20
294.7082863378335
 30
0.0
 11
1014.988256481715
 21
294.708286337834
 31
0.0
  0
LWPOLYLINE
  5
B87
330
A
100
AcDbEntity
  8
0
  6
Continuous
 62
     7
100
AcDbPolyline
 90
        5
 70
   128
 43
0.0
 10
1024.130825808671
 20
284.4732771163003
 10
1023.660431957587
 20
287.795666274128
 10
1022.151628665675
 20
290.7699767627024
 10
1019.774521959701
 20
293.0608778497466
 10
1017.055431822802
 20
294.2930306430773
  0
LWPOLYLINE
  5
B8E
330
A
100
AcDbEntity
  8
0
  6
Continuous
 62
     7
100
AcDbPolyline
 90
        3
 70
   128
 43
0.0
 10
745.56068575392
 20
285.0836043257903
 10
745.5161614995152
 20
285.0848395546418
 10
745.3850246305505
 20
285.0970833847833
  0
LINE
  5
B93
330
A
100
AcDbEntity
  8
0
  6
Continuous
 62
     7
100
AcDbLine
 10
755.3501193050382
 20
294.708286337833
 30
0.0
 11
854.0344183410784
 21
294.7082863378335
 31
0.0
  0
LINE
  5
B94
330
A
100
AcDbEntity
  8
0
  6
Continuous
 62
     7
100
AcDbLine
 10
853.1770609736099
 20
-15.29171366216533
 30
0.0
 11
725.3160974522295
 21
-15.29171366216672
 31
0.0
  0
LINE
  5
B95
330
A
100
AcDbEntity
  8
0
  6
Continuous
 62
     7
100
AcDbLine
 10
1015.33324154833
 20
294.7082863378339
 30
0.0
 11
1034.133995295791
 21
294.7082863378339
 31
0.0
  0
LINE
  5
B96
330
A
100
AcDbEntity
  8
0
  6
Continuous
 62
     7
100
AcDbLine
 10
1200.744177199423
 20
286.0463769993364
 30
0.0
 11
1204.507885299535
 21
-15.29171366216644
 31
0.0
  0
LINE
  5
B97
330
A
100
AcDbEntity
  8
0
  6
Continuous
 62
     7
100
AcDbLine
 10
1303.687541867609
 20
-15.291713662166
 30
0.0
 11
1339.42289964072
 21
283.9152302445044
 31
0.0
  0
LINE
  5
B98
330
A
100
AcDbEntity
  8
0
  6
Continuous
 62
     7
100
AcDbLine
 10
1303.687541867611
 20
-15.29171366216522
 30
0.0
 11
1300.576251692231
 21
-15.29171366216522
 31
0.0
  0
LINE
  5
B99
330
A
100
AcDbEntity
  8
0
  6
Continuous
 62
     7
100
AcDbLine
 10
1204.507885299535
 20
-15.29171366216633
 30
0.0
 11
1300.506028379446
 21
-15.29171366216567
 31
0.0
  0
LINE
  5
B9A
330
A
100
AcDbEntity
  8
0
  6
Continuous
 62
     7
100
AcDbLine
 10
1200.744177199423
 20
286.0463769993363
 30
0.0
 11
1200.744173637319
 21
286.0466621961094
 31
0.0
  0
LINE
  5
B9B
330
A
100
AcDbEntity
  8
0
  6
Continuous
 62
     7
100
AcDbLine
 10
1204.507885299535
 20
-15.29171366216622
 30
0.0
 11
1095.237021777833
 21
-15.29171366216655
 31
0.0
  0
LINE
  5
B9C
330
A
100
AcDbEntity
  8
0
  6
Continuous
 62
     7
100
AcDbLine
 10
1339.423029045359
 20
283.9167069931677
 30
0.0
 11
1339.422899640719
 21
283.9152302445044
 31
0.0
  0
LWPOLYLINE
  5
B9D
330
A
100
AcDbEntity
  8
0
  6
Continuous
 62
     7
100
AcDbPolyline
 90
       11
 70
   128
 43
0.0
 10
1208.610485755452
 20
294.7082863378333
 10
1207.776972348605
 20
294.6530016821489
 10
1206.702406323198
 20
294.4150716946122
 10
1205.904099694561
 20
294.1090916537044
 10
1204.911453586165
 20
293.5560971844241
 10
1204.044123370519
 20
292.8878955374116
 10
1203.416111172108
 20
292.2698485100381
 10
1202.741024928253
 20
291.4405217745147
 10
1202.139535632866
 20
290.4998690045006
 10
1201.63245921267
 20
289.4747153505579
 10
1200.744173637319
 20
286.0466621961098
  0
LINE
  5
BAA
330
A
100
AcDbEntity
  8
0
  6
Continuous
 62
     7
100
AcDbLine
 10
1208.610485755454
 20
294.7082863378332
 30
0.0
 11
1296.756957293326
 21
294.7082863378332
 31
0.0
  0
LINE
  5
BAB
330
A
100
AcDbEntity
  8
0
  6
Continuous
 62
     7
100
AcDbLine
 10
1297.625661393568
 20
294.7082863378335
 30
0.0
 11
1332.417359196558
 21
294.7082863378335
 31
0.0
  0
LWPOLYLINE
  5
BAC
330
A
100
AcDbEntity
  8
0
  6
Continuous
 62
     7
100
AcDbPolyline
 90
        7
 70
   128
 43
0.0
 10
1339.423029045359
 20
283.9167069931677
 10
1339.212249561275
 20
287.260997546954
 10
1338.235398265355
 20
290.3174892745816
 10
1336.602607631313
 20
292.7415864085146
 10
1334.497961840649
 20
294.2599907163198
 10
1332.761437723118
 20
294.6962936516992
 10
1332.417359196591
 20
294.7082863378335
  0
LINE
  5
BB5
330
A
100
AcDbEntity
  8
0
  6
Continuous
 62
     7
100
AcDbLine
 10
1056.951791954802
 20
294.7082863378333
 30
0.0
 11
1208.610485755454
 21
294.7082863378332
 31
0.0
  0
LINE
  5
BB6
330
A
100
AcDbEntity
  8
0
  6
Continuous
 62
     7
100
AcDbLine
 10
1095.203136117765
 20
-15.29171366216589
 30
0.0
 11
1021.680140251304
 21
-15.29171366216567
 31
0.0
  0
LINE
  5
BB7
330
A
100
AcDbEntity
  8
0
  6
Continuous
 62
     7
100
AcDbLine
 10
1057.36105862461
 20
294.7082863378336
 30
0.0
 11
1034.537444231748
 21
294.7082863378339
 31
0.0
  0
LINE
  5
BB8
330
A
100
AcDbEntity
  8
0
  6
Continuous
 62
     7
100
AcDbLine
 10
1303.687541867611
 20
-15.29171366216522
 30
0.0
 11
1382.376690248317
 21
-15.29171366216544
 31
0.0
  0
LINE
  5
BB9
330
A
100
AcDbEntity
  8
0
  6
Continuous
 62
     7
100
AcDbLine
 10
1332.417359196558
 20
294.7082863378335
 30
0.0
 11
1348.78643317694
 21
294.7082863378335
 31
0.0
  0
LINE
  5
BBA
330
A
100
AcDbEntity
  8
0
  6
Continuous
 62
     7
100
AcDbLine
 10
1365.770284390607
 20
284.0367715514414
 30
0.0
 11
1365.757121504936
 21
283.9979043394357
 31
0.0
  0
LINE
  5
BBB
330
A
100
AcDbEntity
  8
0
  6
Continuous
 62
     7
100
AcDbLine
 10
1349.13644317694
 20
294.7082863378333
 30
0.0
 11
1355.771893253929
 21
294.7082863378331
 31
0.0
  0
LINE
  5
BBC
330
A
100
AcDbEntity
  8
0
  6
PHANTOM
 62
     7
100
AcDbLine
 10
844.3898945642294
 20
283.9167074076176
 30
0.0
 11
844.3898779561628
 21
283.9167069931678
 31
0.0
  0
LWPOLYLINE
  5
BBD
330
A
100
AcDbEntity
  8
0
  6
PHANTOM
 62
     7
100
AcDbPolyline
 90
       52
 70
   128
 43
0.0
 10
1024.841036875152
 20
284.0886568775783
 10
1024.85878809392
 20
284.0925401859936
 10
1024.077914109547
 20
284.2008844996703
 10
1023.071302163105
 20
284.3095464278405
 10
1021.595357108306
 20
284.4273133234076
 10
1019.577251071231
 20
284.5406671574732
 10
1017.098436270859
 20
284.640783857697
 10
1015.033394233212
 20
284.7077741045004
 10
1012.743364065762
 20
284.7824426602495
 10
1010.01153944868
 20
284.8873492862929
 10
1007.098028070459
 20
285.0040374026061
 10
1003.308421760337
 20
285.1357507657068
 10
999.4843524260668
 20
285.2439157427572
 10
995.6730415968605
 20
285.3280567058238
 10
988.7017056092609
 20
285.43074205727
 10
981.7108468427473
 20
285.4813057835713
 10
974.8879230977186
 20
285.4866251696685
 10
970.1514104223647
 20
285.4536632472449
 10
965.7450600519091
 20
285.3632813134031
 10
961.8019066069173
 20
285.2277060473981
 10
958.3554935451036
 20
285.0910496847011
 10
955.3168246861858
 20
284.9763108423953
 10
949.5646632120068
 20
284.8237050720253
 10
945.2256462085451
 20
284.7725902618651
 10
941.9303621044424
 20
284.8044935887396
 10
938.055819977424
 20
284.9291432769159
 10
935.3557489266028
 20
285.0634224406666
 10
932.4219631491635
 20
285.2051671938958
 10
929.0268279093181
 20
285.3171540017165
 10
925.5744399789632
 20
285.388603216666
 10
920.666497621365
 20
285.4555039846696
 10
915.9136173531315
 20
285.5015069715421
 10
909.8432285447646
 20
285.5620611486262
 10
904.1073074419291
 20
285.6109262848022
 10
898.5325416442888
 20
285.6122958636902
 10
892.9456187515082
 20
285.5303633689111
 10
886.6285995576774
 20
285.3099438578707
 10
879.9688970909942
 20
284.9931015591777
 10
873.0912568225276
 20
284.6572883675982
 10
867.4214511287098
 20
284.4194285551198
 10
861.7937112201117
 20
284.2290856349624
 10
857.6700267308883
 20
284.1203117725897
 10
855.4523448240942
 20
284.085868345075
 10
853.5346813057799
 20
284.0895454779119
 10
852.0716634768504
 20
284.1148673330877
 10
850.9317541701374
 20
284.1336314374336
 10
849.1919651517155
 20
284.1281928303224
 10
847.8197773905593
 20
284.0545464899567
 10
846.097034145642
 20
283.9476826869979
 10
844.3899097079677
 20
283.9167071783393
 10
844.3898945642294
 20
283.9167074076176
 10
844.3898945642294
 20
283.9167074076176
  0
LWPOLYLINE
  5
BF3
330
A
100
AcDbEntity
  8
0
  6
PHANTOM
 62
     7
100
AcDbPolyline
 90
       34
 70
   128
 43
0.0
 10
844.3899747684602
 20
283.9152302445044
 10
844.3899595185616
 20
283.9152305967912
 10
843.222767476581
 20
284.0045842356762
 10
842.8270433672919
 20
284.1618004899964
 10
842.9248425456243
 20
284.3346569748846
 10
843.2382203665076
 20
284.4709313054739
 10
843.368832833093
 20
284.5477237810871
 10
842.9892652483712
 20
284.5981184556956
 10
841.8879775397119
 20
284.641625862344
 10
839.7602530993774
 20
284.6955887076541
 10
836.6345032736845
 20
284.747754619912
 10
833.7364822151833
 20
284.7743653689108
 10
830.2421496534284
 20
284.7795472157663
 10
826.1837883464439
 20
284.7637559497118
 10
821.7546856547961
 20
284.7383808034556
 10
816.0241866654542
 20
284.6972379800464
 10
810.1511013135411
 20
284.6477809807952
 10
804.2089734355382
 20
284.5927777926851
 10
798.271346867927
 20
284.5349964026986
 10
791.0609745528822
 20
284.473011478918
 10
786.6204964557059
 20
284.4512349962376
 10
782.3517821401277
 20
284.4623037853572
 10
779.4188514802341
 20
284.5069714447667
 10
776.841466464909
 20
284.5696462483523
 10
774.794907472758
 20
284.6245979875347
 10
772.9934910541817
 20
284.6723274896847
 10
769.1805166102683
 20
284.755367504119
 10
763.5513780095148
 20
284.8387414403397
 10
758.3293319556729
 20
284.9034226427022
 10
753.7106619810617
 20
284.9562372917816
 10
749.8916516180001
 20
285.0040115681535
 10
748.0269947544169
 20
285.0311398021794
 10
746.4911974320049
 20
285.0577892978496
 10
745.56068575392
 20
285.0836043257903
  0
LWPOLYLINE
  5
C17
330
A
100
AcDbEntity
  8
0
  6
PHANTOM
 62
     7
100
AcDbPolyline
 90
        9
 70
   128
 43
0.0
 10
1339.42289964072
 20
283.9152302445044
 10
1339.422857011441
 20
283.9152305967912
 10
1334.505844312703
 20
284.0045842356762
 10
1329.092096584892
 20
284.1618004899964
 10
1323.387504891689
 20
284.3346569748846
 10
1317.597960296775
 20
284.4709313054738
 10
1312.130677795194
 20
284.5477237810871
 10
1306.923009575677
 20
284.5981184556956
 10
1302.794962992819
 20
284.6359657516255
  0
LWPOLYLINE
  5
C22
330
A
100
AcDbEntity
  8
0
  6
PHANTOM
 62
     7
100
AcDbPolyline
 90
       28
 70
   128
 43
0.0
 10
1306.780140410745
 20
284.4918087417147
 10
1306.796570240063
 20
284.5069714447667
 10
1306.216660527345
 20
284.5696462483523
 10
1305.212944525085
 20
284.6245979875347
 10
1303.914687096044
 20
284.6723274896847
 10
1300.10044657215
 20
284.755367504119
 10
1293.514831068485
 20
284.8387414403397
 10
1286.535563392619
 20
284.9034226427022
 10
1279.04257974715
 20
284.9562372917816
 10
1270.915816334677
 20
285.0040115681535
 10
1265.90021548057
 20
285.0311398021794
 10
1260.64968992332
 20
285.0577892978496
 10
1255.046903554047
 20
285.0848395546418
 10
1251.895556734865
 20
285.0992336137053
 10
1248.523011874404
 20
285.1082444166964
 10
1244.615197466258
 20
285.0958452942597
 10
1241.073802262423
 20
285.0479218572195
 10
1239.775265698214
 20
285.0313924472509
 10
1236.116721093121
 20
285.0050003841035
 10
1232.870528244581
 20
285.0095725950433
 10
1229.25133771565
 20
285.0461738783706
 10
1225.982319362647
 20
285.1097972316233
 10
1219.450827602433
 20
285.2951130000278
 10
1213.361423089485
 20
285.5153064874187
 10
1207.272940250379
 20
285.766889904078
 10
1200.744213511692
 20
286.0463754602875
 10
1200.744177199423
 20
286.0463769993364
 10
1200.744177199423
 20
286.0463769993364
  0
LWPOLYLINE
  5
C40
330
A
100
AcDbEntity
  8
0
  6
PHANTOM
 62
     7
100
AcDbPolyline
 90
       34
 70
   128
 43
0.0
 10
1200.744173637319
 20
286.0466621961094
 10
1200.744137318517
 20
286.0466637397854
 10
1197.242867637362
 20
286.1942571036741
 10
1193.405791133703
 20
286.3463857408167
 10
1189.184393660787
 20
286.4941735446363
 10
1184.633333510736
 20
286.6193972823913
 10
1179.705316270131
 20
286.7029151211623
 10
1174.304015968086
 20
286.7369404535005
 10
1168.736752277489
 20
286.7122787955572
 10
1163.04543628909
 20
286.6172006103239
 10
1157.519013123034
 20
286.477882246368
 10
1152.161335125327
 20
286.3202585127332
 10
1147.046987774273
 20
286.1563789591618
 10
1142.183232474158
 20
285.9920695259982
 10
1134.022592721032
 20
285.6964501612864
 10
1126.168088988488
 20
285.4178459799858
 10
1118.18042380595
 20
285.1973591926955
 10
1113.19610877844
 20
285.1124726709674
 10
1107.937550569784
 20
285.0420989467843
 10
1102.359649405389
 20
284.9465402466212
 10
1096.92076840147
 20
284.80358528482
 10
1091.299770543678
 20
284.6378640477482
 10
1086.338626348625
 20
284.5105795515477
 10
1081.49610513795
 20
284.3992599118619
 10
1074.612010759168
 20
284.2377989336932
 10
1068.021975664972
 20
284.0622186078664
 10
1063.854686015897
 20
283.9272795692714
 10
1059.837072818166
 20
283.7666962497924
 10
1055.173857595886
 20
283.5274901776896
 10
1051.162693630518
 20
283.2491923738842
 10
1049.304618903024
 20
283.0811782751277
 10
1047.964892930157
 20
282.9438525185811
 10
1047.261159760702
 20
282.870727706293
 10
1047.1467654352
 20
282.8546522456291
  0
LWPOLYLINE
  5
C64
330
A
100
AcDbEntity
  8
0
  6
PHANTOM
 62
     7
100
AcDbPolyline
 90
       10
 70
   128
 43
0.0
 10
1046.978058426845
 20
284.2137588592944
 10
1043.965836958431
 20
284.2437258500833
 10
1038.807398631699
 20
284.3173053268465
 10
1034.452609861904
 20
284.3891050020046
 10
1031.467149978918
 20
284.4443792968877
 10
1029.624137208707
 20
284.5181794153558
 10
1027.399292123952
 20
284.7224078582818
 10
1025.6875141587
 20
284.8149839301072
 10
1024.557059591128
 20
284.603480781911
 10
1024.470271665286
 20
284.4633932763026
  0
LINE
  5
C70
330
A
100
AcDbEntity
  8
0
  6
PHANTOM
 62
     7
100
AcDbLine
 10
1339.423076063604
 20
283.9167074076176
 30
0.0
 11
1339.423029045359
 21
283.9167069931677
 31
0.0
  0
LWPOLYLINE
  5
C71
330
A
100
AcDbEntity
  8
0
  6
PHANTOM
 62
     7
100
AcDbPolyline
 90
       11
 70
   128
 43
0.0
 10
1358.75843305406
 20
284.1183133766481
 10
1358.612805116337
 20
284.085868345075
 10
1357.990870201615
 20
284.0895454779119
 10
1356.914105110289
 20
284.1148673330877
 10
1355.502569317962
 20
284.1336314374336
 10
1351.943983747743
 20
284.1281928303224
 10
1348.092203519604
 20
284.0545464899567
 10
1343.763632609162
 20
283.9476826869979
 10
1339.423118770568
 20
283.9167071783393
 10
1339.423076063604
 20
283.9167074076176
 10
1339.423076063604
 20
283.9167074076176
  0
LWPOLYLINE
  5
C7E
330
A
100
AcDbEntity
  8
0
  6
PHANTOM
 62
     7
100
AcDbPolyline
 90
        8
 70
   128
 43
0.0
 10
1365.757121504936
 20
283.9979043394357
 10
1365.73320351012
 20
283.9272795692714
 10
1365.410796444046
 20
283.7666962497924
 10
1364.469285098953
 20
283.5274901776896
 10
1362.633799423943
 20
283.2491923738842
 10
1360.997979739425
 20
283.0811782751277
 10
1358.875505682323
 20
282.9438525185811
 10
1358.701840145922
 20
282.9389248796529
  0
ENDSEC
  0
SECTION
  2
OBJECTS
  0
DICTIONARY
  5
19
330
0
100
AcDbDictionary
281
     1
  3
ACAD_COLOR
350
C8C
  3
ACAD_GROUP
350
1A
  3
ACAD_LAYOUT
350
C8D
  3
ACAD_MATERIAL
350
C8B
  3
ACAD_MLINESTYLE
350
1B
  3
ACAD_PLOTSETTINGS
350
C8E
  3
ACAD_PLOTSTYLENAME
350
C89
  3
ACDBHEADERROUNDTRIPXREC
350
CA6
  3
AcDbVariableDictionary
350
C9F
  3
ASE_INDEX_DICTIONARY
350
C94
  0
DICTIONARY
  5
C8C
102
{ACAD_REACTORS
330
19
102
}
330
19
100
AcDbDictionary
281
     1
  0
DICTIONARY
  5
1A
102
{ACAD_REACTORS
330
19
102
}
330
19
100
AcDbDictionary
281
     1
  0
DICTIONARY
  5
C8D
102
{ACAD_REACTORS
330
19
102
}
330
19
100
AcDbDictionary
281
     1
  3
Layout1
350
C90
  3
Model
350
C8F
  0
DICTIONARY
  5
C8B
102
{ACAD_REACTORS
330
19
102
}
330
19
100
AcDbDictionary
281
     1
  0
DICTIONARY
  5
1B
102
{ACAD_REACTORS
330
19
102
}
330
19
100
AcDbDictionary
281
     1
  3
STANDARD
350
1C
  0
DICTIONARY
  5
C8E
102
{ACAD_REACTORS
330
19
102
}
330
19
100
AcDbDictionary
281
     1
  0
ACDBDICTIONARYWDFLT
  5
C89
102
{ACAD_REACTORS
330
19
102
}
330
19
100
AcDbDictionary
281
     1
  3
Normal
350
C8A
100
AcDbDictionaryWithDefault
340
C8A
  0
DICTIONARY
  5
CA6
102
{ACAD_REACTORS
330
19
102
}
330
19
100
AcDbDictionary
281
     1
  3
COLORDICT
350
CA8
  3
MATERIALDICT
350
CA7
  0
DICTIONARY
  5
C9F
102
{ACAD_REACTORS
330
19
102
}
330
19
100
AcDbDictionary
281
     1
  3
DIMASSOC
350
CA0
  3
PROJECTNAME
350
CA1
  0
DICTIONARY
  5
C94
102
{ACAD_REACTORS
330
19
102
}
330
19
100
AcDbDictionary
281
     1
  3
ASEBlockHierarchyIndexRecord
350
C96
1001
DCO15
1040
1521898547.718
  0
LAYOUT
  5
C90
102
{ACAD_XDICTIONARY
360
CAB
102
}
102
{ACAD_REACTORS
330
C8D
102
}
330
C8D
100
AcDbPlotSettings
  1

  2
ProgeSOFT PDF Wizard
  4

  6

 40
0.0
 41
0.0
 42
0.0
 43
0.0
 44
0.0
 45
0.0
 46
0.0
 47
0.0
 48
0.0
 49
0.0
140
0.0
141
0.0
142
1.0
143
1.0
 70
   688
 72
     0
 73
     0
 74
     5
  7

 75
    16
147
1.0
148
0.0
149
0.0
100
AcDbLayout
  1
Layout1
 70
     1
 71
     1
 10
0.0
 20
0.0
 11
12.0
 21
9.0
 12
0.0
 22
0.0
 32
0.0
 14
1.000000000000000E+20
 24
1.000000000000000E+20
 34
1.000000000000000E+20
 15
-1.000000000000000E+20
 25
-1.000000000000000E+20
 35
-1.000000000000000E+20
146
0.0
 13
0.0
 23
0.0
 33
0.0
 16
1.0
 26
0.0
 36
0.0
 17
0.0
 27
1.0
 37
0.0
 76
     0
330
B
  0
LAYOUT
  5
C8F
102
{ACAD_XDICTIONARY
360
CA9
102
}
102
{ACAD_REACTORS
330
C8D
102
}
330
C8D
100
AcDbPlotSettings
  1

  2
ProgeSOFT PDF Wizard
  4

  6

 40
0.0
 41
0.0
 42
0.0
 43
0.0
 44
0.0
 45
0.0
 46
0.0
 47
0.0
 48
0.0
 49
0.0
140
0.0
141
0.0
142
1.0
143
1.0
 70
  1712
 72
     0
 73
     0
 74
     0
  7

 75
     0
147
1.0
148
0.0
149
0.0
100
AcDbLayout
  1
Model
 70
     1
 71
     0
 10
0.0
 20
0.0
 11
12.0
 21
9.0
 12
0.0
 22
0.0
 32
0.0
 14
0.0
 24
0.0
 34
0.0
 15
0.0
 25
0.0
 35
0.0
146
0.0
 13
0.0
 23
0.0
 33
0.0
 16
1.0
 26
0.0
 36
0.0
 17
0.0
 27
1.0
 37
0.0
 76
     0
330
A
  0
MLINESTYLE
  5
1C
102
{ACAD_REACTORS
330
1B
102
}
330
1B
100
AcDbMlineStyle
  2
STANDARD
 70
     0
  3

 62
     0
 51
90.0
 52
90.0
 71
     2
 49
0.5
 62
   256
  6
BYLAYER
 49
-0.5
 62
   256
  6
BYLAYER
  0
ACDBPLACEHOLDER
  5
C8A
102
{ACAD_REACTORS
330
C89
102
}
330
C89
  0
XRECORD
  5
CA8
102
{ACAD_REACTORS
330
CA6
102
}
330
CA6
100
AcDbXrecord
280
     1
340
C8C
  0
XRECORD
  5
CA7
102
{ACAD_REACTORS
330
CA6
102
}
330
CA6
100
AcDbXrecord
280
     1
340
C8B
  0
DICTIONARYVAR
  5
CA0
102
{ACAD_REACTORS
330
C9F
102
}
330
C9F
100
DictionaryVariables
280
     0
  1
1
  0
DICTIONARYVAR
  5
CA1
102
{ACAD_REACTORS
330
C9F
102
}
330
C9F
100
DictionaryVariables
280
     0
  1

  0
XRECORD
  5
C96
102
{ACAD_REACTORS
330
C94
102
}
330
C94
100
AcDbXrecord
280
     1
  0
DICTIONARY
  5
CAB
330
C90
100
AcDbDictionary
280
     1
281
     1
  3
ACAD_XREC_ROUNDTRIP
360
CAC
  0
DICTIONARY
  5
CA9
330
C8F
100
AcDbDictionary
280
     1
281
     1
  3
ACAD_XREC_ROUNDTRIP
360
CAA
  0
XRECORD
  5
CAC
102
{ACAD_REACTORS
330
CAB
102
}
330
CAB
100
AcDbXrecord
280
     1
102
SHADEPLOT
 70
     0
102
SHADEPLOTRESLEVEL
 70
     2
102
SHADEPLOTCUSTOMDPI
 70
   300
  0
XRECORD
  5
CAA
102
{ACAD_REACTORS
330
CA9
102
}
330
CA9
100
AcDbXrecord
280
     1
102
SHADEPLOT
 70
     0
102
SHADEPLOTRESLEVEL
 70
     2
102
SHADEPLOTCUSTOMDPI
 70
   300
  0
ENDSEC
  0
EOF
