  0
SECTION
  2
HEADER
  9
$ACADVER
  1
AC1018
  9
$ACADMAINTVER
 70
     0
  9
$DWGCODEPAGE
  3
ANSI_1252
  9
$INSBASE
 10
0.0
 20
0.0
 30
0.0
  9
$EXTMIN
 10
-20.85039333501863
 20
-182.6839805912935
 30
0.0
  9
$EXTMAX
 10
396.1022502453061
 20
249.0394047080974
 30
0.0
  9
$LIMMIN
 10
0.0
 20
0.0
  9
$LIMMAX
 10
0.0
 20
0.0
  9
$ORTHOMODE
 70
     0
  9
$REGENMODE
 70
     1
  9
$FILLMODE
 70
     1
  9
$QTEXTMODE
 70
     0
  9
$MIRRTEXT
 70
     1
  9
$LTSCALE
 40
1.0
  9
$ATTMODE
 70
     1
  9
$TEXTSIZE
 40
0.0
  9
$TRACEWID
 40
0.05
  9
$TEXTSTYLE
  7
STANDARD
  9
$CLAYER
  8
0
  9
$CELTYPE
  6
CONTINUOUS
  9
$CECOLOR
 62
   256
  9
$CELTSCALE
 40
1.0
  9
$DISPSILH
 70
     0
  9
$DIMSCALE
 40
1.0
  9
$DIMASZ
 40
6.0
  9
$DIMEXO
 40
1.0
  9
$DIMDLI
 40
0.38
  9
$DIMRND
 40
0.0
  9
$DIMDLE
 40
1.0
  9
$DIMEXE
 40
0.18
  9
$DIMTP
 40
0.0
  9
$DIMTM
 40
0.0
  9
$DIMTXT
 40
3.5
  9
$DIMCEN
 40
0.09
  9
$DIMTSZ
 40
0.0
  9
$DIMTOL
 70
     0
  9
$DIMLIM
 70
     0
  9
$DIMTIH
 70
     1
  9
$DIMTOH
 70
     1
  9
$DIMSE1
 70
     0
  9
$DIMSE2
 70
     0
  9
$DIMTAD
 70
     1
  9
$DIMZIN
 70
     0
  9
$DIMBLK
  1

  9
$DIMASO
 70
     1
  9
$DIMSHO
 70
     1
  9
$DIMPOST
  1

  9
$DIMAPOST
  1

  9
$DIMALT
 70
     0
  9
$DIMALTD
 70
     2
  9
$DIMALTF
 40
0.0394
  9
$DIMLFAC
 40
1.0
  9
$DIMTOFL
 70
     0
  9
$DIMTVP
 40
0.0
  9
$DIMTIX
 70
     0
  9
$DIMSOXD
 70
     0
  9
$DIMSAH
 70
     0
  9
$DIMBLK1
  1

  9
$DIMBLK2
  1

  9
$DIMSTYLE
  2
STANDARD
  9
$DIMCLRD
 70
     0
  9
$DIMCLRE
 70
     0
  9
$DIMCLRT
 70
     0
  9
$DIMTFAC
 40
1.0
  9
$DIMGAP
 40
1.0
  9
$DIMJUST
 70
     0
  9
$DIMSD1
 70
     0
  9
$DIMSD2
 70
     0
  9
$DIMTOLJ
 70
     1
  9
$DIMTZIN
 70
     0
  9
$DIMALTZ
 70
     0
  9
$DIMALTTZ
 70
     0
  9
$DIMUPT
 70
     0
  9
$DIMDEC
 70
     4
  9
$DIMTDEC
 70
     4
  9
$DIMALTU
 70
     2
  9
$DIMALTTD
 70
     2
  9
$DIMTXSTY
  7
STANDARD
  9
$DIMAUNIT
 70
     0
  9
$DIMADEC
 70
     0
  9
$DIMALTRND
 40
0.0
  9
$DIMAZIN
 70
     0
  9
$DIMDSEP
 70
    46
  9
$DIMATFIT
 70
     3
  9
$DIMFRAC
 70
     0
  9
$DIMLDRBLK
  1

  9
$DIMLUNIT
 70
     2
  9
$DIMLWD
 70
    -2
  9
$DIMLWE
 70
    -2
  9
$DIMTMOVE
 70
     0
  9
$LUNITS
 70
     2
  9
$LUPREC
 70
     2
  9
$SKETCHINC
 40
0.1
  9
$FILLETRAD
 40
0.0
  9
$AUNITS
 70
     0
  9
$AUPREC
 70
     2
  9
$MENU
  1
acad
  9
$ELEVATION
 40
0.0
  9
$PELEVATION
 40
0.0
  9
$THICKNESS
 40
0.0
  9
$LIMCHECK
 70
     0
  9
$CHAMFERA
 40
0.0
  9
$CHAMFERB
 40
0.0
  9
$CHAMFERC
 40
0.0
  9
$CHAMFERD
 40
0.0
  9
$SKPOLY
 70
     0
  9
$TDCREATE
 40
2444972.041666667
  9
$TDUCREATE
 40
2444972.000000000
  9
$TDUPDATE
 40
2453768.801899410
  9
$TDUUPDATE
 40
2453768.760232743
  9
$TDINDWG
 40
0.0444276389
  9
$TDUSRTIMER
 40
0.0444276389
  9
$USRTIMER
 70
     1
  9
$ANGBASE
 50
0.0
  9
$ANGDIR
 70
     0
  9
$PDMODE
 70
     0
  9
$PDSIZE
 40
-1.0
  9
$PLINEWID
 40
0.0
  9
$SPLFRAME
 70
     0
  9
$SPLINETYPE
 70
     6
  9
$SPLINESEGS
 70
     8
  9
$HANDSEED
  5
43F
  9
$SURFTAB1
 70
     6
  9
$SURFTAB2
 70
     6
  9
$SURFTYPE
 70
     6
  9
$SURFU
 70
     6
  9
$SURFV
 70
     6
  9
$UCSBASE
  2

  9
$UCSNAME
  2

  9
$UCSORG
 10
0.0
 20
0.0
 30
0.0
  9
$UCSXDIR
 10
1.0
 20
0.0
 30
0.0
  9
$UCSYDIR
 10
0.0
 20
1.0
 30
0.0
  9
$UCSORTHOREF
  2

  9
$UCSORTHOVIEW
 70
     1
  9
$UCSORGTOP
 10
0.0
 20
0.0
 30
0.0
  9
$UCSORGBOTTOM
 10
0.0
 20
0.0
 30
0.0
  9
$UCSORGLEFT
 10
0.0
 20
0.0
 30
0.0
  9
$UCSORGRIGHT
 10
0.0
 20
0.0
 30
0.0
  9
$UCSORGFRONT
 10
0.0
 20
0.0
 30
0.0
  9
$UCSORGBACK
 10
0.0
 20
0.0
 30
0.0
  9
$PUCSBASE
  2

  9
$PUCSNAME
  2

  9
$PUCSORG
 10
0.0
 20
0.0
 30
0.0
  9
$PUCSXDIR
 10
1.0
 20
0.0
 30
0.0
  9
$PUCSYDIR
 10
0.0
 20
1.0
 30
0.0
  9
$PUCSORTHOREF
  2

  9
$PUCSORTHOVIEW
 70
     0
  9
$PUCSORGTOP
 10
0.0
 20
0.0
 30
0.0
  9
$PUCSORGBOTTOM
 10
0.0
 20
0.0
 30
0.0
  9
$PUCSORGLEFT
 10
0.0
 20
0.0
 30
0.0
  9
$PUCSORGRIGHT
 10
0.0
 20
0.0
 30
0.0
  9
$PUCSORGFRONT
 10
0.0
 20
0.0
 30
0.0
  9
$PUCSORGBACK
 10
0.0
 20
0.0
 30
0.0
  9
$USERI1
 70
     0
  9
$USERI2
 70
     0
  9
$USERI3
 70
     0
  9
$USERI4
 70
     0
  9
$USERI5
 70
     0
  9
$USERR1
 40
0.0
  9
$USERR2
 40
0.0
  9
$USERR3
 40
0.0
  9
$USERR4
 40
0.0
  9
$USERR5
 40
0.0
  9
$WORLDVIEW
 70
     1
  9
$SHADEDGE
 70
     3
  9
$SHADEDIF
 70
    70
  9
$TILEMODE
 70
     1
  9
$MAXACTVP
 70
    16
  9
$PINSBASE
 10
0.0
 20
0.0
 30
0.0
  9
$PLIMCHECK
 70
     0
  9
$PEXTMIN
 10
1.000000000000000E+20
 20
1.000000000000000E+20
 30
1.000000000000000E+20
  9
$PEXTMAX
 10
-1.000000000000000E+20
 20
-1.000000000000000E+20
 30
-1.000000000000000E+20
  9
$PLIMMIN
 10
0.0
 20
0.0
  9
$PLIMMAX
 10
12.0
 20
9.0
  9
$UNITMODE
 70
     0
  9
$VISRETAIN
 70
     0
  9
$PLINEGEN
 70
     1
  9
$PSLTSCALE
 70
     1
  9
$TREEDEPTH
 70
  3020
  9
$CMLSTYLE
  2
STANDARD
  9
$CMLJUST
 70
     0
  9
$CMLSCALE
 40
1.0
  9
$PROXYGRAPHICS
 70
     0
  9
$MEASUREMENT
 70
     0
  9
$CELWEIGHT
370
    -1
  9
$ENDCAPS
280
     0
  9
$JOINSTYLE
280
     0
  9
$LWDISPLAY
290
     0
  9
$INSUNITS
 70
     0
  9
$HYPERLINKBASE
  1

  9
$STYLESHEET
  1

  9
$XEDIT
290
     1
  9
$CEPSNTYPE
380
     0
  9
$PSTYLEMODE
290
     1
  9
$FINGERPRINTGUID
  2
{8C795B32-44FA-4AB8-B747-CD57D8D0F82C}
  9
$VERSIONGUID
  2
{99115314-7EA7-4CA5-97B5-C9752A14355F}
  9
$EXTNAMES
290
     1
  9
$PSVPSCALE
 40
0.0
  9
$OLESTARTUP
290
     0
  9
$SORTENTS
280
   127
  9
$INDEXCTL
280
     0
  9
$HIDETEXT
280
     0
  9
$XCLIPFRAME
290
     0
  9
$HALOGAP
280
     0
  9
$OBSCOLOR
 70
   257
  9
$OBSLTYPE
280
     0
  9
$INTERSECTIONDISPLAY
280
     0
  9
$INTERSECTIONCOLOR
 70
   257
  9
$DIMASSOC
280
     1
  9
$PROJECTNAME
  1

  0
ENDSEC
  0
SECTION
  2
CLASSES
  0
CLASS
  1
IMAGE
  2
AcDbRasterImage
  3
ISM
 90
      127
 91
        0
280
     0
281
     1
  0
CLASS
  1
DICTIONARYVAR
  2
AcDbDictionaryVar
  3
ObjectDBX Classes
 90
        0
 91
        2
280
     0
281
     0
  0
CLASS
  1
RASTERVARIABLES
  2
AcDbRasterVariables
  3
ISM
 90
        0
 91
        0
280
     0
281
     0
  0
CLASS
  1
IMAGEDEF
  2
AcDbRasterImageDef
  3
ISM
 90
        0
 91
        0
280
     0
281
     0
  0
CLASS
  1
IMAGEDEF_REACTOR
  2
AcDbRasterImageDefReactor
  3
ISM
 90
        1
 91
        0
280
     0
281
     0
  0
CLASS
  1
IDBUFFER
  2
AcDbIdBuffer
  3
ObjectDBX Classes
 90
        0
 91
        0
280
     0
281
     0
  0
CLASS
  1
SPATIAL_FILTER
  2
AcDbSpatialFilter
  3
ObjectDBX Classes
 90
        0
 91
        0
280
     0
281
     0
  0
CLASS
  1
SORTENTSTABLE
  2
AcDbSortentsTable
  3
ObjectDBX Classes
 90
        0
 91
        0
280
     0
281
     0
  0
CLASS
  1
LAYER_INDEX
  2
AcDbLayerIndex
  3
ObjectDBX Classes
 90
        0
 91
        0
280
     0
281
     0
  0
CLASS
  1
SPATIAL_INDEX
  2
AcDbSpatialIndex
  3
ObjectDBX Classes
 90
        0
 91
        0
280
     0
281
     0
  0
CLASS
  1
OBJECT_PTR
  2
CAseDLPNTableRecord
  3
ASE-LPNTableRecord
 90
        1
 91
        0
280
     0
281
     0
  0
CLASS
  1
PLOTSETTINGS
  2
AcDbPlotSettings
  3
ObjectDBX Classes
 90
        0
 91
        0
280
     0
281
     0
  0
CLASS
  1
ACDBDICTIONARYWDFLT
  2
AcDbDictionaryWithDefault
  3
ObjectDBX Classes
 90
        0
 91
        1
280
     0
281
     0
  0
CLASS
  1
WIPEOUT
  2
AcDbWipeout
  3
"WipeOut|Product Desc: Object Enabler for WipeOut entity^I^I^I^I^I^I|Company: Autodesk, Inc.^I^I^I^I^I^I|WEB Address: www.autodesk.com"
 90
      127
 91
        0
280
     0
281
     1
  0
CLASS
  1
WIPEOUTVARIABLES
  2
AcDbWipeoutVariables
  3
"WipeOut|Product Desc:     WipeOut Dbx Application|Company:          Autodesk, Inc.|WEB Address:      www.autodesk.com"
 90
        0
 91
        0
280
     0
281
     0
  0
CLASS
  1
RTEXT
  2
RText
  3
RText|AutoCAD Express Tool|expresstools@autodesk.com
 90
        0
 91
        0
280
     0
281
     1
  0
CLASS
  1
ARCALIGNEDTEXT
  2
AcDbArcAlignedText
  3
ATEXT|AutoCAD Express Tool|expresstools@autodesk.com
 90
        0
 91
        0
280
     0
281
     1
  0
ENDSEC
  0
SECTION
  2
TABLES
  0
TABLE
  2
VPORT
  5
7
330
0
100
AcDbSymbolTable
 70
     2
  0
VPORT
  5
43E
330
7
100
AcDbSymbolTableRecord
100
AcDbViewportTableRecord
  2
*Active
 70
     0
 10
0.0
 20
0.0
 11
1.0
 21
1.0
 12
210.9539249047254
 22
33.17771205840191
 13
0.0
 23
0.0
 14
1.0
 24
1.0
 15
0.0
 25
0.0
 16
0.0
 26
0.0
 36
1.0
 17
0.0
 27
0.0
 37
0.0
 40
435.2842153567884
 41
1.569570871261378
 42
50.0
 43
0.0
 44
0.0
 50
0.0
 51
0.0
 71
     0
 72
  2000
 73
     1
 74
     1
 75
     0
 76
     0
 77
     0
 78
     0
281
     0
 65
     1
110
0.0
120
0.0
130
0.0
111
1.0
121
0.0
131
0.0
112
0.0
122
1.0
132
0.0
 79
     1
146
0.0
  0
ENDTAB
  0
TABLE
  2
LTYPE
  5
4
330
0
100
AcDbSymbolTable
 70
     6
  0
LTYPE
  5
11
330
4
100
AcDbSymbolTableRecord
100
AcDbLinetypeTableRecord
  2
BYBLOCK
 70
     0
  3

 72
    65
 73
     0
 40
0.0
  0
LTYPE
  5
12
330
4
100
AcDbSymbolTableRecord
100
AcDbLinetypeTableRecord
  2
BYLAYER
 70
     0
  3

 72
    65
 73
     0
 40
0.0
  0
LTYPE
  5
13
330
4
100
AcDbSymbolTableRecord
100
AcDbLinetypeTableRecord
  2
CONTINUOUS
 70
     0
  3
Solid line
 72
    65
 73
     0
 40
0.0
  0
LTYPE
  5
1E
330
4
100
AcDbSymbolTableRecord
100
AcDbLinetypeTableRecord
  2
HIDDEN
 70
     0
  3
Hidden __ __ __ __ __ __ __ __ __ __ __ __ __ __
 72
    65
 73
     2
 40
1.905
 49
1.27
 74
     0
 49
-0.635
 74
     0
  0
LTYPE
  5
1F
330
4
100
AcDbSymbolTableRecord
100
AcDbLinetypeTableRecord
  2
PHANTOM
 70
     0
  3
Phantom ______  __  __  ______  __  __  ______
 72
    65
 73
     6
 40
12.7
 49
6.349999999999999
 74
     0
 49
-1.27
 74
     0
 49
1.27
 74
     0
 49
-1.27
 74
     0
 49
1.27
 74
     0
 49
-1.27
 74
     0
  0
LTYPE
  5
20
330
4
100
AcDbSymbolTableRecord
100
AcDbLinetypeTableRecord
  2
CENTER
 70
     0
  3
Center ____ _ ____ _ ____ _ ____ _ ____ _ ____
 72
    65
 73
     4
 40
10.16
 49
6.349999999999999
 74
     0
 49
-1.27
 74
     0
 49
1.27
 74
     0
 49
-1.27
 74
     0
  0
LTYPE
  5
21
330
4
100
AcDbSymbolTableRecord
100
AcDbLinetypeTableRecord
  2
CENTERX2
 70
     0
  3
Center (2x) ________  __  ________  __  _____
 72
    65
 73
     4
 40
20.32
 49
12.7
 74
     0
 49
-2.54
 74
     0
 49
2.54
 74
     0
 49
-2.54
 74
     0
  0
LTYPE
  5
22
330
4
100
AcDbSymbolTableRecord
100
AcDbLinetypeTableRecord
  2
DOT2
 70
     0
  3
Dot (.5x) ........................................
 72
    65
 73
     2
 40
0.635
 49
0.0
 74
     0
 49
-0.635
 74
     0
  0
ENDTAB
  0
TABLE
  2
LAYER
  5
2
330
0
100
AcDbSymbolTable
 70
     2
  0
LAYER
  5
14
330
2
100
AcDbSymbolTableRecord
100
AcDbLayerTableRecord
  2
0
 70
     0
 62
     7
  6
CONTINUOUS
370
    -3
390
423
  0
LAYER
  5
26
330
2
100
AcDbSymbolTableRecord
100
AcDbLayerTableRecord
  2
DEFPOINTS
 70
     0
 62
     7
  6
CONTINUOUS
290
     0
370
    -3
390
423
  0
ENDTAB
  0
TABLE
  2
STYLE
  5
3
330
0
100
AcDbSymbolTable
 70
     1
  0
STYLE
  5
17
330
3
100
AcDbSymbolTableRecord
100
AcDbTextStyleTableRecord
  2
STANDARD
 70
     0
 40
0.0
 41
1.0
 50
0.0
 71
     0
 42
0.0
  3
Century Gothic
  4

  0
ENDTAB
  0
TABLE
  2
VIEW
  5
5
330
0
100
AcDbSymbolTable
 70
     0
  0
ENDTAB
  0
TABLE
  2
UCS
  5
6
330
0
100
AcDbSymbolTable
 70
     0
  0
ENDTAB
  0
TABLE
  2
APPID
  5
8
330
0
100
AcDbSymbolTable
 70
     2
  0
APPID
  5
16
330
8
100
AcDbSymbolTableRecord
100
AcDbRegAppTableRecord
  2
ACAD
 70
     0
  0
APPID
  5
42E
330
8
100
AcDbSymbolTableRecord
100
AcDbRegAppTableRecord
  2
DCO15
 70
     0
  0
ENDTAB
  0
TABLE
  2
DIMSTYLE
  5
9
330
0
100
AcDbSymbolTable
 70
     1
100
AcDbDimStyleTable
 71
     0
  0
DIMSTYLE
105
18
330
9
100
AcDbSymbolTableRecord
100
AcDbDimStyleTableRecord
  2
STANDARD
 70
     0
289
     0
340
17
  0
ENDTAB
  0
TABLE
  2
BLOCK_RECORD
  5
1
330
0
100
AcDbSymbolTable
 70
     0
  0
BLOCK_RECORD
  5
A
330
1
100
AcDbSymbolTableRecord
100
AcDbBlockTableRecord
  2
*MODEL_SPACE
340
428
  0
BLOCK_RECORD
  5
B
330
1
100
AcDbSymbolTableRecord
100
AcDbBlockTableRecord
  2
*PAPER_SPACE
340
429
  0
ENDTAB
  0
ENDSEC
  0
SECTION
  2
BLOCKS
  0
BLOCK
  5
D
330
A
100
AcDbEntity
  8
0
100
AcDbBlockBegin
  2
*MODEL_SPACE
 70
     0
 10
0.0
 20
0.0
 30
0.0
  3
*MODEL_SPACE
  1

  0
ENDBLK
  5
E
330
A
100
AcDbEntity
  8
0
100
AcDbBlockEnd
  0
BLOCK
  5
F
330
B
100
AcDbEntity
 67
     1
  8
0
100
AcDbBlockBegin
  2
*PAPER_SPACE
 70
     0
 10
0.0
 20
0.0
 30
0.0
  3
*PAPER_SPACE
  1

  0
ENDBLK
  5
10
330
B
100
AcDbEntity
 67
     1
  8
0
100
AcDbBlockEnd
  0
ENDSEC
  0
SECTION
  2
ENTITIES
  0
LINE
  5
27
330
A
100
AcDbEntity
  8
0
  6
Continuous
 62
     7
100
AcDbLine
 10
5.380948297980955
 20
249.0394047080974
 30
0.0
 11
11.56844228050647
 21
232.0394047080974
 31
0.0
  0
LINE
  5
28
330
A
100
AcDbEntity
  8
0
  6
Continuous
 62
     7
100
AcDbLine
 10
117.1934543154554
 20
232.0394047080974
 30
0.0
 11
123.3809482979809
 21
249.0394047080974
 31
0.0
  0
LINE
  5
29
330
A
100
AcDbEntity
  8
0
  6
Continuous
 62
     7
100
AcDbLine
 10
39.38094829798096
 20
232.0394047080974
 30
0.0
 11
39.38094829798096
 21
230.517165784868
 31
0.0
  0
LINE
  5
2A
330
A
100
AcDbEntity
  8
0
  6
Continuous
 62
     7
100
AcDbLine
 10
89.38094829798094
 20
230.5171657848678
 30
0.0
 11
89.38094829798094
 21
232.0394047080974
 31
0.0
  0
LWPOLYLINE
  5
2B
330
A
100
AcDbEntity
  8
0
  6
Continuous
 62
     7
100
AcDbPolyline
 90
       35
 70
   128
 43
0.0
 10
114.9846574898546
 20
75.51716578486789
 10
115.0511950397121
 20
81.13672146479075
 10
115.1160684748546
 20
85.93411525738698
 10
115.1749232885028
 20
89.90934716265675
 10
115.2245434597481
 20
93.06241718059993
 10
115.2668397687834
 20
95.64156412677494
 10
115.3139287658029
 20
98.41695189453709
 10
115.400069164072
 20
103.2857069783459
 10
115.5018889042658
 20
108.7746560550762
 10
115.6201893759638
 20
114.8837991247281
 10
115.76591943762
 20
122.117535033337
 10
115.9178727743146
 20
129.4042932525979
 10
116.0601178493938
 20
136.0506242208553
 10
116.1909611801388
 20
142.0564156818709
 10
116.3092703721729
 20
147.4216676356449
 10
116.3852755652724
 20
150.8432002254901
 10
116.4553346814275
 20
153.98268376798
 10
116.5306101436064
 20
157.3411297031111
 10
116.6145020463845
 20
161.0666181101173
 10
116.7070994923159
 20
165.1591489889985
 10
116.808481018703
 20
169.6187223397547
 10
116.918167807435
 20
174.4215224643828
 10
117.014983659108
 20
178.6438049334264
 10
117.0878137585361
 20
181.8109229439062
 10
117.1364686011403
 20
183.9228764958222
 10
117.1534991611013
 20
184.6614397129696
 10
117.180117115788
 20
185.8150693071216
 10
117.2192486610867
 20
187.5094054492547
 10
117.2709352283406
 20
189.7444481393689
 10
117.3594699119116
 20
193.5656041341585
 10
117.4705546164546
 20
198.348016214248
 10
117.6043348505878
 20
204.0916843796374
 10
117.7609447271665
 20
210.7966086303265
 10
117.940484388143
 20
218.4627889663154
 10
118.1033575249833
 20
225.4016446795886
  0
LWPOLYLINE
  5
50
330
A
100
AcDbEntity
  8
0
  6
Continuous
 62
     7
100
AcDbPolyline
 90
       34
 70
   128
 43
0.0
 10
-11.97558930364736
 20
224.5874647037002
 10
-10.54508922943516
 20
216.9772493225428
 10
-8.747936724741514
 20
207.3157890153682
 10
-7.1190672118068
 20
198.4608682794807
 10
-5.655764196008952
 20
190.4124871148807
 10
-4.620096035830966
 20
184.6545712562255
 10
-3.68286673699153
 20
179.3945701329059
 10
-2.851476850769183
 20
174.6856385737559
 10
-2.163760614870724
 20
170.7565679215564
 10
-1.71837481609334
 20
168.1937058038552
 10
-1.364567743493791
 20
166.1467498230947
 10
-1.019329559418399
 20
164.1394000300587
 10
-0.5027107634338057
 20
161.1156064652667
 10
0.1871515090805936
 20
157.0369207404618
 10
1.171862635560391
 20
151.1240445018883
 10
2.040912188497945
 20
145.8047038928512
 10
2.797437422608378
 20
141.0863031774539
 10
3.429147981443003
 20
137.0763338848632
 10
3.964355595610674
 20
133.6241817732493
 10
4.409861775958201
 20
130.7093920005406
 10
4.768916665221556
 20
128.3313292061803
 10
5.059127815993866
 20
126.3895125754528
 10
5.356667805025139
 20
124.3797527693413
 10
5.746957983969319
 20
121.7134268892987
 10
6.226249179017095
 20
118.3905349353252
 10
6.785502574062629
 20
114.4425861860327
 10
7.334087642001662
 20
110.4926258390726
 10
7.971490391818068
 20
105.8028934487852
 10
8.542924756622841
 20
101.5038363252893
 10
9.052171760380685
 20
97.59545446858489
 10
9.541041995242881
 20
93.7743848573633
 10
10.15518481314216
 20
88.87812934485367
 10
10.90048173037721
 20
82.79238965396629
 10
11.76721069246814
 20
75.51716578486786
  0
LWPOLYLINE
  5
74
330
A
100
AcDbEntity
  8
0
  6
Continuous
 62
     7
100
AcDbPolyline
 90
        9
 70
   128
 43
0.0
 10
113.058672857644
 20
230.5170648490741
 10
114.0356558175864
 20
230.4264064467091
 10
114.9925439190901
 20
230.1386802453912
 10
115.8730167719974
 20
229.6652986214125
 10
116.6417040315772
 20
229.0252782556102
 10
117.2677260025933
 20
228.2443300383297
 10
117.7259341380451
 20
227.3538262118508
 10
117.9979213062921
 20
226.3895400850528
 10
118.0727612421217
 20
225.3902089484852
  0
LINE
  5
7F
330
A
100
AcDbEntity
  8
0
  6
Continuous
 62
     7
100
AcDbLine
 10
113.0408512263016
 20
226.5159325136778
 30
0.0
 11
113.0587032884849
 21
226.5166619534968
 31
0.0
  0
LWPOLYLINE
  5
80
330
A
100
AcDbEntity
  8
0
  6
Continuous
 62
     7
100
AcDbPolyline
 90
        9
 70
   128
 43
0.0
 10
-11.96408041995174
 20
224.5861000997866
 10
-12.04906498692203
 20
225.672122680145
 10
-11.8970141955108
 20
226.7507898980956
 10
-11.5151454636538
 20
227.7709004934981
 10
-10.92158501225938
 20
228.6840327222801
 10
-10.14450746513647
 20
229.4468427986938
 10
-9.220798479860556
 20
230.0231223013557
 10
-8.194303890681389
 20
230.3855168838666
 10
-7.113748471670497
 20
230.5168247077136
  0
LINE
  5
8B
330
A
100
AcDbEntity
  8
0
  6
Continuous
 62
     7
100
AcDbLine
 10
10.09972575421866
 20
230.517165781223
 30
0.0
 11
10.09953339043071
 21
230.5171657848678
 31
0.0
  0
LWPOLYLINE
  5
8C
330
A
100
AcDbEntity
  8
0
  6
Continuous
 62
     7
100
AcDbPolyline
 90
        9
 70
   128
 43
0.0
 10
142.1265240588985
 20
230.5171616428135
 10
143.1335742000859
 20
230.4159281178211
 10
144.103683387247
 20
230.1120296568077
 10
144.992259255486
 20
229.6180314858389
 10
145.7625394502406
 20
228.9543714049534
 10
146.3826557713447
 20
228.1485065037194
 10
146.8269526311539
 20
227.2337772005383
 10
147.0770484831115
 20
226.2480278755851
 10
147.1225963071004
 20
225.2320411648605
  0
LWPOLYLINE
  5
97
330
A
100
AcDbEntity
  8
0
  6
Continuous
 62
     7
100
AcDbPolyline
 90
       19
 70
   128
 43
0.0
 10
160.5061530822899
 20
75.51716578486817
 10
159.206351643958
 20
87.72391593358895
 10
158.028482797914
 20
98.98853920789662
 10
156.9733290658211
 20
109.3110356072601
 10
156.0369264883796
 20
118.6914051316795
 10
155.2134722740461
 20
127.1296477811549
 10
154.5091083244651
 20
134.500165980969
 10
153.9033840125562
 20
140.9619042711193
 10
153.3921098737943
 20
146.5148626516056
 10
152.9716765461632
 20
151.1590411224281
 10
152.5515805481442
 20
155.8506378408062
 10
152.0486324541794
 20
161.4986411075411
 10
151.4647498928656
 20
168.1038104184183
 10
150.8020887152593
 20
175.6661457734377
 10
150.0628576235714
 20
184.1856471725994
 10
149.2643458889026
 20
193.4846948955464
 10
148.3957737148322
 20
203.7070293798233
 10
147.4584500163639
 20
214.85265062543
 10
146.5836068563727
 20
225.3538117571574
  0
LWPOLYLINE
  5
AC
330
A
100
AcDbEntity
  8
0
  6
Continuous
 62
     7
100
AcDbPolyline
 90
        9
 70
   128
 43
0.0
 10
-18.68704504338493
 20
225.452362043592
 10
-18.60214789473929
 20
226.4368906125193
 10
-18.32528280548563
 20
227.3854945804548
 10
-17.867264170931
 20
228.261121322502
 10
-17.24598227325384
 20
229.0295687160474
 10
-16.4857044841792
 20
229.6608210812201
 10
-15.61612737750205
 20
230.1302215982168
 10
-14.67121677609642
 20
230.4194354066844
 10
-13.68788104136327
 20
230.5171657683397
  0
LWPOLYLINE
  5
B7
330
A
100
AcDbEntity
  8
0
  6
Continuous
 62
     7
100
AcDbPolyline
 90
       22
 70
   128
 43
0.0
 10
-18.69066082106986
 20
225.4496497440224
 10
-18.6270205034347
 20
218.7068153213096
 10
-18.62853497444261
 20
210.6070167260494
 10
-18.68998472607906
 20
202.8233697894604
 10
-18.77444510960739
 20
195.7997647889099
 10
-18.86244658740188
 20
189.5370002662651
 10
-18.94924237995181
 20
183.8323617192521
 10
-19.03363307425915
 20
178.5208825942634
 10
-19.11409970910636
 20
173.6025628912991
 10
-19.15823893918993
 20
170.9473489863068
 10
-19.21031644921753
 20
167.836797385433
 10
-19.27465641034759
 20
164.0212071641737
 10
-19.35149832072219
 20
159.5005783225286
 10
-19.44109634766616
 20
154.274910860498
 10
-19.54370582025752
 20
148.3442047780816
 10
-19.65956791879287
 20
141.7084600752796
 10
-19.81176779963607
 20
133.0756674434678
 10
-19.98253471988853
 20
123.4832389116865
 10
-20.17197741120973
 20
112.931174479936
 10
-20.38002123585887
 20
101.4194741482161
 10
-20.60635801985748
 20
88.94813791652683
 10
-20.85039333501863
 20
75.5171657848682
  0
LINE
  5
CF
330
A
100
AcDbEntity
  8
0
  6
Continuous
 62
     7
100
AcDbLine
 10
64.38094829798095
 20
232.0394047080974
 30
0.0
 11
117.1934543154554
 21
232.0394047080974
 31
0.0
  0
LINE
  5
D0
330
A
100
AcDbEntity
  8
0
  6
Continuous
 62
     7
100
AcDbLine
 10
11.56844228050647
 20
232.0394047080974
 30
0.0
 11
64.38094829798095
 21
232.0394047080974
 31
0.0
  0
LINE
  5
D1
330
A
100
AcDbEntity
  8
0
  6
Continuous
 62
     7
100
AcDbLine
 10
64.38094829798095
 20
249.0394047080974
 30
0.0
 11
123.3809482979809
 21
249.0394047080974
 31
0.0
  0
LINE
  5
D2
330
A
100
AcDbEntity
  8
0
  6
Continuous
 62
     7
100
AcDbLine
 10
5.380948297980955
 20
249.0394047080974
 30
0.0
 11
64.38094829798095
 21
249.0394047080974
 31
0.0
  0
LINE
  5
D3
330
A
100
AcDbEntity
  8
0
  6
Continuous
 62
     7
100
AcDbLine
 10
118.8767365097935
 20
75.51716578486803
 30
0.0
 11
114.9846574898546
 21
75.51716578486808
 31
0.0
  0
LINE
  5
D4
330
A
100
AcDbEntity
  8
0
  6
Continuous
 62
     7
100
AcDbLine
 10
114.9219339512925
 20
75.51716578486791
 30
0.0
 11
64.47441995922051
 21
75.51716578486775
 31
0.0
  0
LINE
  5
D5
330
A
100
AcDbEntity
  8
0
  6
Continuous
 62
     7
100
AcDbLine
 10
64.47441995953766
 20
226.1862111156195
 30
0.0
 11
64.47441995922045
 21
75.51716578486775
 31
0.0
  0
LINE
  5
D6
330
A
100
AcDbEntity
  8
0
  6
Continuous
 62
     7
100
AcDbLine
 10
118.0713129974734
 20
225.3992347516111
 30
0.0
 11
118.0617213939728
 21
225.4025964117345
 31
0.0
  0
LINE
  5
D7
330
A
100
AcDbEntity
  8
0
  6
Continuous
 62
     7
100
AcDbLine
 10
118.8767365097926
 20
75.51716578486805
 30
0.0
 11
136.7689360338442
 21
225.1206377382035
 31
0.0
  0
LINE
  5
D8
330
A
100
AcDbEntity
  8
0
  6
Continuous
 62
     7
100
AcDbLine
 10
-11.94212259792195
 20
224.5937568248348
 30
0.0
 11
-11.93785360313579
 21
224.591270170515
 31
0.0
  0
LINE
  5
D9
330
A
100
AcDbEntity
  8
0
  6
Continuous
 62
     7
100
AcDbLine
 10
64.47441995953766
 20
226.1862111156195
 30
0.0
 11
64.47441995953766
 21
226.186353714006
 31
0.0
  0
LINE
  5
DA
330
A
100
AcDbEntity
  8
0
  6
Continuous
 62
     7
100
AcDbLine
 10
64.47441995922054
 20
75.51716578486773
 30
0.0
 11
11.76933028502799
 21
75.51716578486789
 31
0.0
  0
LINE
  5
DB
330
A
100
AcDbEntity
  8
0
  6
Continuous
 62
     7
100
AcDbLine
 10
136.7689996772512
 20
225.1213761125351
 30
0.0
 11
136.7689360338442
 21
225.1206377382035
 31
0.0
  0
LWPOLYLINE
  5
DC
330
A
100
AcDbEntity
  8
0
  6
Continuous
 62
     7
100
AcDbPolyline
 90
        5
 70
   128
 43
0.0
 10
68.5599113603002
 20
230.5171657848679
 10
67.15430765230589
 20
230.2175684428034
 10
65.86213207484587
 20
229.2979468709702
 10
64.93576464090175
 20
227.9003802912301
 10
64.47441995953766
 20
226.1863537140061
  0
LINE
  5
E3
330
A
100
AcDbEntity
  8
0
  6
Continuous
 62
     7
100
AcDbLine
 10
68.55991136030038
 20
230.5171657848679
 30
0.0
 11
113.0966771818491
 21
230.5171657848679
 31
0.0
  0
LINE
  5
E4
330
A
100
AcDbEntity
  8
0
  6
Continuous
 62
     7
100
AcDbLine
 10
113.5168120287337
 20
230.5171657848681
 30
0.0
 11
133.4565441344046
 21
230.5171657848681
 31
0.0
  0
LWPOLYLINE
  5
E5
330
A
100
AcDbEntity
  8
0
  6
Continuous
 62
     7
100
AcDbPolyline
 90
        7
 70
   128
 43
0.0
 10
136.7689996772512
 20
225.1213761125351
 10
136.6693378767814
 20
226.7935213894283
 10
136.2074582049538
 20
228.321767253242
 10
135.435434044001
 20
229.5338158202087
 10
134.4403049892221
 20
230.2930179741112
 10
133.6192330487644
 20
230.5111694418009
 10
133.4565441344212
 20
230.5171657848681
  0
LINE
  5
EE
330
A
100
AcDbEntity
  8
0
  6
Continuous
 62
     7
100
AcDbLine
 10
-7.015853799737708
 20
230.5171657848679
 30
0.0
 11
68.55991136030036
 21
230.5171657848679
 31
0.0
  0
LWPOLYLINE
  5
EF
330
A
100
AcDbEntity
  8
0
  6
Continuous
 62
     7
100
AcDbPolyline
 90
        6
 70
   128
 43
0.0
 10
145.3031738995623
 20
225.8046949313452
 10
145.2638549126394
 20
225.7423900227302
 10
145.9005602387285
 20
225.4916667997504
 10
146.4817217196791
 20
225.3727368935112
 10
146.9940856486969
 20
225.2775654334325
 10
147.0818897114577
 20
225.2400753046054
  0
LINE
  5
F7
330
A
100
AcDbEntity
  8
0
  6
Continuous
 62
     7
100
AcDbLine
 10
133.4565441344046
 20
230.5171657848681
 30
0.0
 11
142.1329547505157
 21
230.5171657848681
 31
0.0
  0
LINE
  5
F8
330
A
100
AcDbEntity
  8
0
  6
Continuous
 62
     7
100
AcDbLine
 10
160.4324643267862
 20
75.5171657848682
 30
0.0
 11
118.8767365097935
 21
75.51716578486803
 31
0.0
  0
LINE
  5
F9
330
A
100
AcDbEntity
  8
0
  6
Continuous
 62
     7
100
AcDbLine
 10
-18.66052095171194
 20
225.4547776796054
 30
0.0
 11
-18.65042783492103
 21
225.4507565200747
 31
0.0
  0
LINE
  5
FA
330
A
100
AcDbEntity
  8
0
  6
Continuous
 62
     7
100
AcDbLine
 10
-6.987857156594737
 20
230.5171657848681
 30
0.0
 11
-13.68607977732154
 21
230.5171657848682
 31
0.0
  0
LINE
  5
FB
330
A
100
AcDbEntity
  8
0
  6
Continuous
 62
     7
100
AcDbLine
 10
11.76721069246812
 20
75.51716578486805
 30
0.0
 11
-20.84768436838845
 21
75.51716578486814
 31
0.0
  0
LWPOLYLINE
  5
FC
330
A
100
AcDbEntity
  8
0
  6
PHANTOM
 62
     7
100
AcDbPolyline
 90
        9
 70
   128
 43
0.0
 10
136.7689360338442
 20
225.1206377382035
 10
136.7689136435757
 20
225.1206379143469
 10
133.2929042627964
 20
225.1890367391425
 10
129.4618451186845
 20
225.3022845895494
 10
125.5068867751208
 20
225.3984882686882
 10
121.332248920996
 20
225.4505233335521
 10
117.5335061416881
 20
225.4838355471232
 10
115.1800294824605
 20
225.5108169697783
 10
114.0707527110633
 20
225.5257920854477
  0
LWPOLYLINE
  5
107
330
A
100
AcDbEntity
  8
0
  6
PHANTOM
 62
     7
100
AcDbPolyline
 90
       24
 70
   128
 43
0.0
 10
118.0617213939728
 20
225.4025964117345
 10
118.0220274097561
 20
225.4165083383347
 10
117.6458298732822
 20
225.4478457401275
 10
116.3453710133722
 20
225.4991863607937
 10
114.268024991222
 20
225.5407063680108
 10
109.4846719198713
 20
225.5940434740607
 10
104.3300943714367
 20
225.6327873887034
 10
98.67194834971657
 20
225.665028400028
 10
94.67896647958157
 20
225.6852573277472
 10
90.37640631601126
 20
225.7054423932722
 10
88.75062315232616
 20
225.7126394228039
 10
87.02545663451834
 20
225.7171448242994
 10
85.05053227121981
 20
225.7109452630811
 10
83.289635755506
 20
225.686983544561
 10
82.6514569672973
 20
225.6787188395767
 10
80.87367450782286
 20
225.6655228080031
 10
79.31978663348695
 20
225.667808913473
 10
77.60996178292167
 20
225.6861095551367
 10
76.08337802999212
 20
225.717921231763
 10
72.12264506588862
 20
225.8454264977402
 10
68.43354220542288
 20
226.0029007614186
 10
64.47443684154648
 20
226.1862103460951
 10
64.47441995953768
 20
226.1862111156195
 10
64.47441995953766
 20
226.1862111156195
  0
LWPOLYLINE
  5
121
330
A
100
AcDbEntity
  8
0
  6
PHANTOM
 62
     7
100
AcDbPolyline
 90
       30
 70
   128
 43
0.0
 10
64.47441995953766
 20
226.186353714006
 10
64.47440307413277
 20
226.186354485844
 10
61.9571524549875
 20
226.2981772508263
 10
59.01400999476239
 20
226.4101093882695
 10
56.81833206619212
 20
226.4727212571469
 10
54.41619649834407
 20
226.5144801765324
 10
51.75718625147879
 20
226.5314928427016
 10
48.9892323122984
 20
226.5191620137299
 10
46.13095113883014
 20
226.4716229211132
 10
43.33131032036351
 20
226.4019637391352
 10
39.26936504825619
 20
226.2823909120353
 10
35.45692536487616
 20
226.1590573789504
 10
31.21461974875503
 20
226.0112476965945
 10
27.11471333149305
 20
225.8719456059442
 10
22.95261332668483
 20
225.7617022122991
 10
19.02929210204552
 20
225.7019990259654
 10
14.80362424693093
 20
225.636292739262
 10
12.04804502513905
 20
225.5648152583614
 10
9.230083377239191
 20
225.4819546398254
 10
6.767822125878564
 20
225.4183123917251
 10
4.382701881245565
 20
225.3626525718822
 10
1.017121503372811
 20
225.2819220827979
 10
-2.184010752445217
 20
225.1941319198845
 10
-6.136072616766963
 20
225.0463707408476
 10
-8.365583694321706
 20
224.9267677047962
 10
-10.25235471091371
 20
224.7876188028935
 10
-11.10261868303656
 20
224.7036117535152
 10
-11.6871898911968
 20
224.6349488752418
 10
-11.95007059739378
 20
224.5983864690977
 10
-11.94212259792195
 20
224.5937568248348
  0
LWPOLYLINE
  5
141
330
A
100
AcDbEntity
  8
0
  6
PHANTOM
 62
     7
100
AcDbPolyline
 90
        9
 70
   128
 43
0.0
 10
147.0818897114577
 20
225.2400753046054
 10
147.1214630055815
 20
225.2231785022461
 10
146.5970425752344
 20
225.2077953549072
 10
145.2383532158527
 20
225.2298383346681
 10
143.3551656859981
 20
225.2271190311125
 10
141.3322596278584
 20
225.1902958609297
 10
136.7690467933674
 20
225.121376205121
 10
136.7690243663435
 20
225.1213763197601
 10
136.7690243663435
 20
225.1213763197601
  0
LINE
  5
14C
330
A
100
AcDbEntity
  8
0
  6
PHANTOM
 62
     7
100
AcDbLine
 10
136.7690243663435
 20
225.1213763197601
 30
0.0
 11
136.7690019247697
 21
225.1213761313994
 31
0.0
  0
LWPOLYLINE
  5
14D
330
A
100
AcDbEntity
  8
0
  6
PHANTOM
 62
     7
100
AcDbPolyline
 90
        8
 70
   128
 43
0.0
 10
-11.97880822514503
 20
225.3049080601142
 10
-13.09037418160795
 20
225.3216752793745
 10
-15.11050415977537
 20
225.3575751169536
 10
-16.44247603816436
 20
225.3852122643952
 10
-17.19246554947378
 20
225.4221123236292
 10
-18.24834756345799
 20
225.5603621752711
 10
-18.68558413905392
 20
225.4647630069068
 10
-18.66052095171194
 20
225.4547776796054
  0
LWPOLYLINE
  5
157
330
A
100
AcDbEntity
  8
0
  6
PHANTOM
 62
     7
100
AcDbPolyline
 90
        4
 70
   128
 43
0.0
 10
114.0746016070685
 20
225.592646603881
 10
114.7865128917336
 20
225.5915865809708
 10
117.3810367070535
 20
225.5826652824251
 10
118.1075272401711
 20
225.5792863251956
  0
LWPOLYLINE
  5
15D
330
A
100
AcDbEntity
  8
0
  6
Continuous
 62
     7
100
AcDbPolyline
 90
        3
 70
   128
 43
0.0
 10
136.7071480910613
 20
-85.98746011968591
 10
141.9127863861365
 20
-81.30879299649487
 10
142.2624144160965
 20
-80.99199402418753
  0
LWPOLYLINE
  5
162
330
A
100
AcDbEntity
  8
0
  6
Continuous
 62
     7
100
AcDbPolyline
 90
        4
 70
   128
 43
0.0
 10
-3.073039264745308
 20
-82.38270590588255
 10
-3.028610295210024
 20
-82.41480238335842
 10
-0.1358321305662685
 20
-84.57225136327812
 10
1.678313076640736
 20
-86.12212262016651
  0
LWPOLYLINE
  5
168
330
A
100
AcDbEntity
  8
0
  6
Continuous
 62
     7
100
AcDbPolyline
 90
        5
 70
   128
 43
0.0
 10
131.2755160348755
 20
-89.85404409649856
 10
132.1863897615449
 20
-89.38390914595101
 10
134.2484006761427
 20
-88.09064073491823
 10
136.2448488213732
 20
-86.56807793013618
 10
136.8037708290917
 20
-86.09963516370099
  0
LWPOLYLINE
  5
16F
330
A
100
AcDbEntity
  8
0
  6
Continuous
 62
     7
100
AcDbPolyline
 90
       30
 70
   128
 43
0.0
 10
1.725258899181583
 20
-86.06088022699074
 10
2.878041159896746
 20
-87.25200617081384
 10
3.810647938599379
 20
-88.48112987404043
 10
4.50904403676064
 20
-89.82287332087462
 10
4.945751196846092
 20
-91.24680393740785
 10
5.098659385903883
 20
-92.71427132236077
 10
4.997111495795819
 20
-94.34670663460014
 10
4.625718443211773
 20
-96.20420376430949
 10
3.955733326077321
 20
-98.31038776468588
 10
2.983134769057649
 20
-100.7054150238153
 10
1.55419631871316
 20
-103.6299046403343
 10
-0.2678530959820541
 20
-106.8649146287732
 10
-2.656892496909146
 20
-110.7541607258144
 10
-6.179213381047862
 20
-116.4580893859574
 10
-8.116653264289508
 20
-119.8959395291641
 10
-9.843950534197121
 20
-123.4128884291172
 10
-10.82722401549091
 20
-125.7201341703981
 10
-11.54690645892985
 20
-127.8005881724597
 10
-11.9463301414595
 20
-129.5585240319102
 10
-12.10974611252126
 20
-131.2547348710812
 10
-12.03391840948963
 20
-132.8897714671888
 10
-11.71773076622606
 20
-134.4672284851154
 10
-11.1532222431364
 20
-136.0081910549716
 10
-10.37816329920535
 20
-137.4431704053947
 10
-9.392516782869217
 20
-138.7973535555513
 10
-8.208340501696332
 20
-140.0711614014126
 10
-6.80907442518408
 20
-141.3031586736466
 10
-5.165270836867671
 20
-142.5548229606908
 10
-2.763941536891176
 20
-144.2235759452357
 10
-1.710697006927483
 20
-144.86128551016
  0
LWPOLYLINE
  5
18F
330
A
100
AcDbEntity
  8
0
  6
Continuous
 62
     7
100
AcDbPolyline
 90
        3
 70
   128
 43
0.0
 10
111.4826240041299
 20
-10.1290377125971
 10
107.854712346985
 20
-8.453808448481966
 10
104.2951188409721
 20
-6.810207198320108
  0
LWPOLYLINE
  5
194
330
A
100
AcDbEntity
  8
0
  6
Continuous
 62
     7
100
AcDbPolyline
 90
        3
 70
   128
 43
0.0
 10
10.43341888343006
 20
-149.2082568230741
 10
16.29771066708546
 20
-149.1851343760228
 10
22.31936143649219
 20
-149.1635081448122
  0
LWPOLYLINE
  5
199
330
A
100
AcDbEntity
  8
0
  6
Continuous
 62
     7
100
AcDbPolyline
 90
        3
 70
   128
 43
0.0
 10
111.9814295217239
 20
-144.6942849642676
 10
113.5733141651637
 20
-141.2307634622009
 10
115.5720641387943
 20
-137.8005317925301
  0
LWPOLYLINE
  5
19E
330
A
100
AcDbEntity
  8
0
  6
Continuous
 62
     7
100
AcDbPolyline
 90
        4
 70
   128
 43
0.0
 10
-18.64186302328924
 20
-45.84631104568656
 10
-18.68418980473646
 20
-48.20141752930096
 10
-19.04255304194868
 20
-50.66789570485191
 10
-20.46475291079386
 20
-55.74766872084997
  0
LWPOLYLINE
  5
1A4
330
A
100
AcDbEntity
  8
0
  6
Continuous
 62
     7
100
AcDbPolyline
 90
        3
 70
   128
 43
0.0
 10
25.81392089504914
 20
-9.184721338501706
 10
25.38744645614731
 20
-8.933977872367327
 10
24.97440857867411
 20
-8.530158028268994
  0
CIRCLE
  5
1A9
330
A
100
AcDbEntity
  8
0
  6
Continuous
 62
     7
100
AcDbCircle
 10
64.38094829798095
 20
-88.53670095128375
 30
0.0
 40
58.99999999999998
  0
LINE
  5
1AA
330
A
100
AcDbEntity
  8
0
  6
Continuous
 62
     7
100
AcDbLine
 10
64.47441995914591
 20
-22.02849569942954
 30
0.0
 11
64.47441995914591
 21
-22.02849633392311
 31
0.0
  0
LWPOLYLINE
  5
1AB
330
A
100
AcDbEntity
  8
0
  6
Continuous
 62
     7
100
AcDbPolyline
 90
       45
 70
   128
 43
0.0
 10
64.47441995914591
 20
-22.02849633392311
 10
64.47444923843916
 20
-22.02848982007359
 10
69.11374142593508
 20
-20.66059456985094
 10
73.58783905382323
 20
-18.75517698049163
 10
77.89803566305102
 20
-16.45786820071035
 10
82.04562479456587
 20
-13.91429937922177
 10
85.29548874779598
 20
-11.71417255288008
 10
88.56769351451498
 20
-9.511745467682338
 10
91.96179668691748
 20
-7.584633088509456
 10
95.57735585719806
 20
-6.210450380242385
 10
99.24462247445321
 20
-5.735004138127483
 10
101.1626920515343
 20
-5.890185552572909
 10
103.0360105946227
 20
-6.326701524206071
 10
105.54548359962
 20
-7.491967064626972
 10
107.7255986414184
 20
-9.549097321900276
 10
109.1394222190586
 20
-12.0275076251945
 10
110.2180477611494
 20
-14.69041210579626
 10
111.5963923714875
 20
-17.9001670937793
 10
113.3016958079767
 20
-20.95428370240476
 10
115.4215260135999
 20
-23.70294943224484
 10
117.2561521864698
 20
-25.42611693207782
 10
119.3333840622239
 20
-26.8403957433663
 10
122.8794656326948
 20
-28.24505188559694
 10
126.6522258251906
 20
-28.96320068590094
 10
131.9827998818022
 20
-29.47503841643277
 10
135.8659638352726
 20
-29.93136387184355
 10
138.4053562747002
 20
-30.48667070294848
 10
140.8126741360102
 20
-31.43433113157479
 10
143.2819494939126
 20
-33.33768516363027
 10
144.316612999839
 20
-34.71572245569539
 10
145.1318176025086
 20
-36.23770774245496
 10
145.9559636681043
 20
-38.57194058829805
 10
146.4084677059122
 20
-41.00851937972247
 10
146.4652348874482
 20
-45.47505425480223
 10
145.9606651998715
 20
-49.95156526436851
 10
145.3811174095511
 20
-54.42077422953946
 10
145.2638549126394
 20
-59.87432785980465
 10
145.9005602387285
 20
-65.29764055070796
 10
146.4817217196791
 20
-68.18320983212792
 10
146.9940856486969
 20
-71.0802274498912
 10
147.1214630055815
 20
-73.32938509385987
 10
146.5970425752344
 20
-75.9171939854966
 10
145.2383532158527
 20
-78.07014750154997
 10
143.3551656859981
 20
-80.00598490584282
 10
142.2589734613382
 20
-80.9817893811058
  0
LINE
  5
1DA
330
A
100
AcDbEntity
  8
0
  6
Continuous
 62
     7
100
AcDbLine
 10
136.7451066287643
 20
-86.02969403209923
 30
0.0
 11
133.4565441344212
 21
-82.33217836682554
 31
0.0
  0
LWPOLYLINE
  5
1DB
330
A
100
AcDbEntity
  8
0
  6
Continuous
 62
     7
100
AcDbPolyline
 90
        7
 70
   128
 43
0.0
 10
64.47441989187213
 20
-22.02849571446887
 10
64.52718417167258
 20
-22.26557865163342
 10
64.69642729089677
 20
-23.02602973620809
 10
64.96306840174772
 20
-24.22411391723334
 10
65.29704579624307
 20
-25.72475643723441
 10
65.48751541512453
 20
-26.58058317318259
 10
65.56032581115075
 20
-26.90773813572872
  0
LWPOLYLINE
  5
1E4
330
A
100
AcDbEntity
  8
0
  6
Continuous
 62
     7
100
AcDbPolyline
 90
       37
 70
   128
 43
0.0
 10
-3.073737641686974
 20
-82.37688823720434
 10
-3.386471135040341
 20
-82.15471373261623
 10
-7.149505837301076
 20
-79.38723120025061
 10
-10.65143543468024
 20
-76.30808804348146
 10
-13.09037418160795
 20
-73.56383901208892
 10
-15.11050415977537
 20
-70.5060382925764
 10
-16.44247603816436
 20
-67.39950320766368
 10
-17.19246554947378
 20
-64.10263580057632
 10
-18.24834756345799
 20
-54.16431021506821
 10
-18.68558413905392
 20
-44.18389233663355
 10
-18.36936980540816
 20
-38.79588529053053
 10
-17.32104352163316
 20
-33.50109380546787
 10
-15.7218637392377
 20
-28.986948448375
 10
-13.37907764593242
 20
-24.82324432411251
 10
-11.14375834674759
 20
-22.11096874362949
 10
-8.552916353411891
 20
-19.70661918785589
 10
-5.725148708974586
 20
-17.59652518447042
 10
-0.97796373146454
 20
-14.68412550353537
 10
3.906885782469282
 20
-11.99753664290175
 10
6.888696592040818
 20
-10.42444010983766
 10
9.961617831193315
 20
-9.03822612094024
 10
13.15452255173102
 20
-8.009929072746709
 10
16.7071487380851
 20
-7.517149233355488
 10
20.29291951646882
 20
-7.693976688559881
 10
24.29497151123881
 20
-8.641736914236378
 10
28.11050076939909
 20
-10.2003864191514
 10
31.47284732534041
 20
-12.00389445338319
 10
34.73357265700714
 20
-13.9910232953986
 10
38.94718904618044
 20
-16.6762339451656
 10
43.24763606075189
 20
-19.21551532874337
 10
47.76323298965084
 20
-21.2907936248727
 10
52.32426195848862
 20
-22.50295820896428
 10
57.03259186502217
 20
-22.88837557105435
 10
60.77601599713155
 20
-22.66028740613969
 10
64.47439068708482
 20
-22.02850224329418
 10
64.47441995914591
 20
-22.02849569942954
 10
64.47441995914591
 20
-22.02849569942954
  0
LWPOLYLINE
  5
20B
330
A
100
AcDbEntity
  8
0
  6
Continuous
 62
     7
100
AcDbPolyline
 90
        7
 70
   128
 43
0.0
 10
5.121807496522635
 20
-82.40441365736492
 10
4.961902191928019
 20
-82.57671873677336
 10
4.100705515046571
 20
-83.50469646542759
 10
3.084382462010204
 20
-84.5998297603173
 10
2.297763703774949
 20
-85.44744645691585
 10
1.829534212059835
 20
-85.9519845570924
 10
1.756094204030431
 20
-86.03107876162793
  0
LWPOLYLINE
  5
214
330
A
100
AcDbEntity
  8
0
  6
Continuous
 62
     7
100
AcDbPolyline
 90
        4
 70
   128
 43
0.0
 10
131.1944236238261
 20
-89.71681104427243
 10
129.4618451186845
 20
-90.64130112210126
 10
125.5068867751208
 20
-92.44115923291806
 10
123.0466489860009
 20
-93.68881893978004
  0
LWPOLYLINE
  5
21A
330
A
100
AcDbEntity
  8
0
  6
Continuous
 62
     7
100
AcDbPolyline
 90
       24
 70
   128
 43
0.0
 10
114.3371460158331
 20
-119.8886732109502
 10
115.6121413574202
 20
-122.7165348154258
 10
117.0342759701339
 20
-126.0381160537845
 10
117.7234922127168
 20
-128.1787753760345
 10
118.0857510556085
 20
-130.3896403149461
 10
118.0220274097561
 20
-132.067961650623
 10
117.6458298732822
 20
-133.7059772830863
 10
116.3453710133722
 20
-136.5279360508465
 10
114.268024991222
 20
-139.7260973474548
 10
109.4846719198713
 20
-146.3298311703697
 10
104.3300943714367
 20
-152.6513159494725
 10
98.67194834971657
 20
-158.4968949460719
 10
94.67896647958157
 20
-162.0399153005416
 10
90.37640631601126
 20
-165.1790484108379
 10
88.75062315232616
 20
-166.0939390177795
 10
87.02545663451834
 20
-166.7919258215886
 10
85.05053227121981
 20
-167.1417922487606
 10
83.289635755506
 20
-166.9084090346925
 10
82.6514569672973
 20
-166.6798071975585
 10
80.87367450782286
 20
-165.6494212828268
 10
79.31978663348695
 20
-164.2863412059107
 10
77.60996178292167
 20
-162.335222381218
 10
76.08337802999212
 20
-160.233081492863
 10
73.57938853746434
 20
-156.1379468670819
  0
LWPOLYLINE
  5
234
330
A
100
AcDbEntity
  8
0
  6
Continuous
 62
     7
100
AcDbPolyline
 90
       10
 70
   128
 43
0.0
 10
24.99921745349648
 20
-142.5982980661143
 10
22.95261332668483
 20
-144.1256669723973
 10
19.02929210204552
 20
-146.6038284396528
 10
14.80362424693093
 20
-148.4713212697747
 10
12.04804502513905
 20
-149.08967806692
 10
9.230083377239191
 20
-149.1584797237745
 10
6.767822125878564
 20
-148.7441318988173
 10
4.382701881245565
 20
-147.9911297959656
 10
1.017121503372811
 20
-146.4419229355717
 10
-1.695891795633619
 20
-144.8505227570242
  0
LWPOLYLINE
  5
240
330
A
100
AcDbEntity
  8
0
  6
Continuous
 62
     7
100
AcDbPolyline
 90
       26
 70
   128
 43
0.0
 10
111.4784514616076
 20
-10.13608683223231
 10
113.5599981098847
 20
-11.36741405767737
 10
115.669590807413
 20
-13.021465794382
 10
120.4451098719386
 20
-17.07772516014132
 10
125.1567143309959
 20
-20.55881922456027
 10
130.3543733713577
 20
-23.35197895426919
 10
136.0698581481274
 20
-25.35104270208368
 10
142.1014572875957
 20
-26.5786929753746
 10
145.8574433061342
 20
-27.28650568876784
 10
149.4635968318278
 20
-28.26042664389288
 10
152.8038393618161
 20
-29.76048931466976
 10
155.7587051389706
 20
-32.02853924484005
 10
158.1543309605058
 20
-35.01433379547346
 10
159.772993602105
 20
-38.43212305654931
 10
160.459035944707
 20
-42.02312698855607
 10
160.3899980410581
 20
-45.70579077667559
 10
159.8526371186177
 20
-49.45665145069893
 10
159.1337739377577
 20
-53.25227983312472
 10
158.519766126502
 20
-57.06918607891633
 10
158.0927421428646
 20
-60.85712755745801
 10
157.4108969881145
 20
-64.49722952536903
 10
155.9783540683467
 20
-67.86264704199552
 10
153.7137259772946
 20
-70.86805071731531
 10
150.8466944267224
 20
-73.45926807951956
 10
147.6144938598061
 20
-75.58288314409195
 10
146.4562948614824
 20
-76.14022015634749
  0
LWPOLYLINE
  5
25C
330
A
100
AcDbEntity
  8
0
  6
Continuous
 62
     7
100
AcDbPolyline
 90
       19
 70
   128
 43
0.0
 10
64.47441995922057
 20
-176.5857274953735
 10
63.42621252037145
 20
-175.4810773681157
 10
60.23111056640363
 20
-171.3618405459549
 10
57.68200242458881
 20
-167.0628991298614
 10
55.4612952723238
 20
-162.6721766817316
 10
53.81997091473562
 20
-159.3715651875389
 10
52.05032406194493
 20
-156.1055004623907
 10
50.01983748645288
 20
-152.9342118912042
 10
47.60470052122045
 20
-150.0411466958695
 10
44.68397013632208
 20
-147.650335752864
 10
41.19508129396045
 20
-145.9768618149221
 10
38.67122305882112
 20
-145.3431045510889
 10
36.11229543233328
 20
-145.1469375519094
 10
33.62399849192195
 20
-145.4329926328397
 10
31.01839840283535
 20
-146.3538531031976
 10
28.51237533892005
 20
-147.6003378007025
 10
25.86967925386274
 20
-148.6648737743246
 10
22.96274143673714
 20
-149.1461195148233
 10
22.31715002843548
 20
-149.1061843858371
  0
LINE
  5
271
330
A
100
AcDbEntity
  8
0
  6
Continuous
 62
     7
100
AcDbLine
 10
64.47441995947674
 20
-147.5366269092754
 30
0.0
 11
64.47441995922045
 21
-176.5857274953734
 31
0.0
  0
LWPOLYLINE
  5
272
330
A
100
AcDbEntity
  8
0
  6
Continuous
 62
     7
100
AcDbPolyline
 90
       15
 70
   128
 43
0.0
 10
111.9066983784563
 20
-144.6599577740877
 10
111.4214587694293
 20
-146.0339837167267
 10
108.4092354517094
 20
-151.9409026842306
 10
103.8038947593216
 20
-158.8445528923025
 10
98.60093260250948
 20
-165.1393699101037
 10
92.78862814503725
 20
-171.2198986068063
 10
88.60034090820093
 20
-175.3193826918198
 10
84.12341831752284
 20
-179.287328021429
 10
81.66419038069284
 20
-180.9686010161914
 10
79.12737040787263
 20
-182.1570403466086
 10
76.51365068607894
 20
-182.6839805912935
 10
73.3764558680994
 20
-182.3158080010063
 10
70.24845655324829
 20
-181.0301744538445
 10
67.24324662309789
 20
-179.0468807014272
 10
64.47441995922051
 20
-176.5857274953735
  0
LWPOLYLINE
  5
283
330
A
100
AcDbEntity
  8
0
  6
Continuous
 62
     7
100
AcDbPolyline
 90
        8
 70
   128
 43
0.0
 10
-15.40530106842198
 20
-69.81848853683968
 10
-16.91960118609102
 20
-67.96218669600193
 10
-18.36752718365507
 20
-65.6867153723293
 10
-19.60422456551179
 20
-63.27437746766046
 10
-20.48147944672339
 20
-60.80645415928657
 10
-20.84768436838845
 20
-58.36582928708096
 10
-20.55383424682069
 20
-56.03442225681605
 10
-20.42372808603092
 20
-55.75512121982825
  0
LWPOLYLINE
  5
28D
330
A
100
AcDbEntity
  8
0
  6
Continuous
 62
     7
100
AcDbPolyline
 90
       18
 70
   128
 43
0.0
 10
-12.95543960190454
 20
-24.30921345514475
 10
-13.77470789497109
 20
-20.12758265955339
 10
-14.26564609848946
 20
-17.62376240179744
 10
-14.34027609679084
 20
-15.17034711867018
 10
-13.65997757431111
 20
-12.83012764758873
 10
-12.25804937826947
 20
-10.69642371179929
 10
-9.634997821276899
 20
-8.359566971341326
 10
-6.607347035737301
 20
-6.828639522976215
 10
-3.445858918500937
 20
-6.099395874460316
 10
1.488347107306886
 20
-5.913817156354722
 10
6.602031772211885
 20
-5.969437226726825
 10
11.83015737952209
 20
-5.365159127904278
 10
14.41781544385531
 20
-4.872130286764031
 10
16.91167167708577
 20
-4.552761253522525
 10
19.25213550811545
 20
-4.649593265253964
 10
21.38334118211782
 20
-5.388883889274054
 10
23.30187828313408
 20
-6.767573230521184
 10
24.9698431640201
 20
-8.535478908180321
  0
LWPOLYLINE
  5
2A1
330
A
100
AcDbEntity
  8
0
  6
PHANTOM
 62
     7
100
AcDbPolyline
 90
       44
 70
   128
 43
0.0
 10
133.4565441344046
 20
-82.33217836682461
 10
137.9939968345406
 20
-78.09874253873326
 10
139.7601198536299
 20
-76.54311437388589
 10
141.4059822141058
 20
-74.87165169237171
 10
141.9931636217949
 20
-73.99142439410137
 10
142.1329547505157
 20
-73.16099012126101
 10
142.0421612745687
 20
-71.72910083084255
 10
141.5426013936537
 20
-68.94753938924413
 10
140.9783785628744
 20
-66.17597838528185
 10
140.2734800053479
 20
-60.05710892379485
 10
140.4246122123712
 20
-53.90686415075887
 10
140.9838852059293
 20
-49.79440772973093
 10
141.4884798346673
 20
-45.67683297986025
 10
141.4556138630783
 20
-41.56703443600129
 10
141.1500439162392
 20
-39.8985416758185
 10
140.5898064605203
 20
-38.30033398638484
 10
139.5726161980743
 20
-36.68120484416228
 10
138.4916019862461
 20
-35.86156837716079
 10
136.8210048671969
 20
-35.22832843940542
 10
135.0599549482052
 20
-34.86586647345468
 10
131.5353380014666
 20
-34.45464156272829
 10
126.0132485111074
 20
-33.92039230095134
 10
122.8650255670649
 20
-33.37767066149853
 10
119.7881876973949
 20
-32.49909953327929
 10
116.8929498682609
 20
-31.19206511734584
 10
114.1691326125874
 20
-29.34125066892518
 10
111.7624734166784
 20
-27.08819407018117
 10
109.2465027315101
 20
-23.85265173219049
 10
107.2061902843281
 20
-20.26453193232465
 10
105.5618204034659
 20
-16.48582792568319
 10
104.7628095768291
 20
-14.43250772004444
 10
103.7068934971417
 20
-12.52031622839063
 10
102.8312625379035
 20
-11.69097042710433
 10
101.5223200406075
 20
-11.09195091542152
 10
99.19349916026639
 20
-10.73276863318305
 10
96.86076739059695
 20
-11.03626540773732
 10
93.61575609360155
 20
-12.29285211636043
 10
90.58672146843822
 20
-14.07595719398219
 10
87.66813417971944
 20
-16.10882492067094
 10
84.75446489205772
 20
-18.11469957649499
 10
80.226407509688
 20
-20.88312689023544
 10
75.51582565850292
 20
-23.36934570509523
 10
70.62602865386068
 20
-25.42650109545584
 10
65.56032581111949
 20
-26.90773813569873
  0
LWPOLYLINE
  5
2CF
330
A
100
AcDbEntity
  8
0
  6
PHANTOM
 62
     7
100
AcDbPolyline
 90
       34
 70
   128
 43
0.0
 10
65.56032581111949
 20
-26.90773813569873
 10
61.32592178511647
 20
-27.62613503322457
 10
57.04011177338679
 20
-27.88108449799914
 10
51.44450819359661
 20
-27.41075644388277
 10
46.02456731157998
 20
-25.96089300156558
 10
41.19344463547328
 20
-23.75847805495265
 10
36.58476242929735
 20
-21.07293520856138
 10
32.07465698555669
 20
-18.22063963781957
 10
29.0489268516834
 20
-16.37493362458782
 10
25.92902688676901
 20
-14.69902779338915
 10
22.8389137168228
 20
-13.42441521032698
 10
19.59820004974589
 20
-12.64459059677413
 10
16.95379437114588
 20
-12.50934001343248
 10
14.33378323791454
 20
-12.86789491797548
 10
10.21241100688204
 20
-14.3583819632426
 10
6.296669879951463
 20
-16.38119566899811
 10
1.619670119105714
 20
-18.94427686647461
 10
-2.922975720250853
 20
-21.72769692535688
 10
-6.381457683192551
 20
-24.43355277210236
 10
-9.289309425518366
 20
-27.69942335374644
 10
-11.19986811463379
 20
-31.11410937561461
 10
-12.50109708597032
 20
-34.81532321644051
 10
-13.41361706422371
 20
-39.43478449021553
 10
-13.68607977732154
 20
-44.13688078612993
 10
-13.26011569524528
 20
-53.809393395831
 10
-12.23756949663383
 20
-63.43933349765729
 10
-11.69225850028337
 20
-65.84668080004902
 10
-10.72209718866364
 20
-68.11513572772511
 10
-9.089885707432646
 20
-70.57132477790779
 10
-7.120675104776902
 20
-72.77541520537631
 10
-3.941094051563981
 20
-75.56181504889612
 10
-0.5248096209680004
 20
-78.06598417955942
 10
2.374753988428055
 20
-80.14069225748761
 10
5.121807496522648
 20
-82.40441365736492
  0
LWPOLYLINE
  5
2F3
330
A
100
AcDbEntity
  8
0
  6
PHANTOM
 62
     7
100
AcDbPolyline
 90
        3
 70
   128
 43
0.0
 10
73.57938853746434
 20
-156.1379468670819
 10
72.12264506588862
 20
-153.755524477079
 10
68.5062898457613
 20
-147.2369940023711
  0
LWPOLYLINE
  5
2F8
330
A
100
AcDbEntity
  8
0
  6
PHANTOM
 62
     7
100
AcDbPolyline
 90
       23
 70
   128
 43
0.0
 10
73.88087649388179
 20
-146.7022358633149
 10
76.24185503252981
 20
-150.940492538129
 10
80.21028378231536
 20
-157.4173495876591
 10
81.46334039838166
 20
-159.1536389285797
 10
82.86690894100949
 20
-160.7656551955883
 10
83.66444477800817
 20
-161.504611672506
 10
84.57934592447854
 20
-162.0692600739198
 10
84.72087544544615
 20
-162.12064182247
 10
84.91057500442003
 20
-162.1475093695783
 10
85.54430819587899
 20
-162.0205310898038
 10
87.72901189750815
 20
-160.9416134896142
 10
91.63844665519979
 20
-158.0742641867401
 10
95.26603861678998
 20
-154.8393116540341
 10
100.6718441934061
 20
-149.2449068929762
 10
105.5923496053471
 20
-143.1923543193937
 10
110.1619093299226
 20
-136.8731585088224
 10
112.0084313686716
 20
-134.0398381310423
 10
112.8964270238875
 20
-132.1444500481145
 10
113.0966771818491
 20
-130.6962590164979
 10
112.8368788604555
 20
-129.2281029330315
 10
112.359019987632
 20
-127.8067717391204
 10
111.0640203338469
 20
-124.7918872685109
 10
110.9548351967611
 20
-124.5471452086951
  0
LWPOLYLINE
  5
311
330
A
100
AcDbEntity
  8
0
  6
PHANTOM
 62
     7
100
AcDbPolyline
 90
        5
 70
   128
 43
0.0
 10
123.3211589158593
 20
-87.95241282946248
 10
123.4681969196268
 20
-87.87720707275481
 10
126.9712290139908
 20
-86.31224203142259
 10
130.3759111270764
 20
-84.5504772541599
 10
133.4565441344046
 20
-82.33217836682463
  0
LINE
  5
318
330
A
100
AcDbEntity
  8
0
  6
PHANTOM
 62
     7
100
AcDbLine
 10
5.121807496522635
 20
-82.40441365736492
 30
0.0
 11
5.71644859756619
 21
-83.0597226312116
 31
0.0
  0
LWPOLYLINE
  5
319
330
A
100
AcDbEntity
  8
0
  6
PHANTOM
 62
     7
100
AcDbPolyline
 90
       24
 70
   128
 43
0.0
 10
7.312545512595386
 20
-103.0969409523931
 10
6.761900622234029
 20
-104.4004886240693
 10
4.147951761578644
 20
-109.1875916587614
 10
1.287910035975781
 20
-113.861089095406
 10
-1.564793024320984
 20
-118.525772465025
 10
-4.420429920106702
 20
-123.6710532500375
 10
-6.28173854364375
 20
-127.9520540416369
 10
-6.761243732324784
 20
-129.5732263474086
 10
-7.035687824357969
 20
-131.2371957826593
 10
-6.921732542172279
 20
-133.0474080467199
 10
-6.140639896551156
 20
-134.699675769349
 10
-4.709937625547707
 20
-136.410013379809
 10
-3.028266492346179
 20
-137.8898141346038
 10
0.4722565468789631
 20
-140.3404720202184
 10
3.245552315943464
 20
-141.9722164624109
 10
6.160264771736978
 20
-143.3203273127342
 10
7.878505971746503
 20
-143.8702972804502
 10
9.652316005221303
 20
-144.1764640892013
 10
11.48275392978544
 20
-144.122991881499
 10
13.27259628131992
 20
-143.712985201646
 10
16.81475097084826
 20
-142.1250428470422
 10
20.10330368296565
 20
-140.0242481337674
 10
24.3304317234488
 20
-136.8820470469939
 10
27.51478024226858
 20
-134.4202176414165
  0
LWPOLYLINE
  5
333
330
A
100
AcDbEntity
  8
0
  6
PHANTOM
 62
     7
100
AcDbPolyline
 90
        4
 70
   128
 43
0.0
 10
31.67891735389
 20
-137.5013237147875
 10
31.21461974875503
 20
-137.8279092637207
 10
27.11471333149305
 20
-141.0195156415643
 10
24.99921745349648
 20
-142.5982980661143
  0
LINE
  5
339
330
A
100
AcDbEntity
  8
0
  6
Continuous
 62
     7
100
AcDbLine
 10
242.9432454994851
 20
249.0394047080974
 30
0.0
 11
249.1307394820106
 21
232.0394047080974
 31
0.0
  0
LINE
  5
33A
330
A
100
AcDbEntity
  8
0
  6
Continuous
 62
     7
100
AcDbLine
 10
354.7557515169596
 20
232.0394047080974
 30
0.0
 11
360.9432454994851
 21
249.0394047080974
 31
0.0
  0
LINE
  5
33B
330
A
100
AcDbEntity
  8
0
  6
Continuous
 62
     7
100
AcDbLine
 10
276.943245499485
 20
232.0394047080974
 30
0.0
 11
276.943245499485
 21
230.5171657848681
 31
0.0
  0
LINE
  5
33C
330
A
100
AcDbEntity
  8
0
  6
Continuous
 62
     7
100
AcDbLine
 10
326.943245499485
 20
230.517165784868
 30
0.0
 11
326.943245499485
 21
232.0394047080974
 31
0.0
  0
LWPOLYLINE
  5
33D
330
A
100
AcDbEntity
  8
0
  6
Continuous
 62
     7
100
AcDbPolyline
 90
       11
 70
   128
 43
0.0
 10
220.9014355816255
 20
225.6140708782112
 10
220.5628622387219
 20
208.2388913386786
 10
220.2185594445558
 20
190.4670363499917
 10
219.8993332431732
 20
173.4514305097596
 10
219.6197807538323
 20
157.1920738179823
 10
219.4003622220861
 20
141.6889662746597
 10
219.2630844192186
 20
126.9421078797919
 10
219.2219170913037
 20
112.9514986333789
 10
219.266536966199
 20
99.71713853542057
 10
219.3403211839785
 20
87.23902758591711
 10
219.3282571811111
 20
75.51716578486834
  0
ARC
  5
34A
330
A
100
AcDbEntity
  8
0
  6
Continuous
 62
     7
100
AcDbCircle
 10
225.9000986977643
 20
225.5171657848684
 30
0.0
 40
4.999999999999985
100
AcDbArc
 50
90.01131182355491
 51
179.0103569796118
  0
LWPOLYLINE
  5
34B
330
A
100
AcDbEntity
  8
0
  6
Continuous
 62
     7
100
AcDbPolyline
 90
        9
 70
   128
 43
0.0
 10
357.6146613493319
 20
230.5171657833704
 10
358.5817622831102
 20
230.4227685533171
 10
359.5197287630274
 20
230.1400577687141
 10
360.3845667177195
 20
229.6798797787493
 10
361.1430760690867
 20
229.0599002572335
 10
361.7661385648968
 20
228.3039194645768
 10
362.2298355931028
 20
227.4409585847156
 10
362.5163663882926
 20
226.5041456371278
 10
362.6147313814408
 20
225.5294437324237
  0
LWPOLYLINE
  5
356
330
A
100
AcDbEntity
  8
0
  6
Continuous
 62
     7
100
AcDbPolyline
 90
        4
 70
   128
 43
0.0
 10
362.5701063909631
 20
75.51716578486786
 10
362.5921897627799
 20
153.0146817832649
 10
362.598474228469
 20
173.785195631006
 10
362.6148240810958
 20
225.5151844970323
  0
LWPOLYLINE
  5
35C
330
A
100
AcDbEntity
  8
0
  6
Continuous
 62
     7
100
AcDbPolyline
 90
        4
 70
   128
 43
0.0
 10
219.1400971353811
 20
225.3713467715092
 10
219.4937906252394
 20
212.9489354725009
 10
219.8502616225029
 20
199.9004497515724
 10
220.1690914443689
 20
187.8302603296044
  0
LWPOLYLINE
  5
362
330
A
100
AcDbEntity
  8
0
  6
Continuous
 62
     7
100
AcDbPolyline
 90
        9
 70
   128
 43
0.0
 10
219.1469679170788
 20
225.3846342051841
 10
219.2190803476601
 20
226.3736519794498
 10
219.4848672473798
 20
227.3289803406628
 10
219.9338740348271
 20
228.2130419735489
 10
220.5484392751516
 20
228.9910628003671
 10
221.3043893828828
 20
229.6324398001184
 10
222.1719894766088
 20
230.1119447615324
 10
223.1171129841716
 20
230.4107166208719
 10
224.1025839925981
 20
230.5170033514943
  0
LWPOLYLINE
  5
36D
330
A
100
AcDbEntity
  8
0
  6
Continuous
 62
     7
100
AcDbPolyline
 90
        9
 70
   128
 43
0.0
 10
375.4902732574557
 20
230.5169764897518
 10
376.4340459024859
 20
230.4331455253695
 10
377.3446142317091
 20
230.1681138275853
 10
378.1884151187949
 20
229.7316503418686
 10
378.9343464543662
 20
229.1398429098888
 10
379.5549135553266
 20
228.4145052791321
 10
380.0272426061288
 20
227.582373058286
 10
380.3339237770073
 20
226.6741182551015
 10
380.4636529422298
 20
225.7232187204122
  0
LWPOLYLINE
  5
378
330
A
100
AcDbEntity
  8
0
  6
Continuous
 62
     7
100
AcDbPolyline
 90
       34
 70
   128
 43
0.0
 10
396.1022502453061
 20
75.51716578486773
 10
394.9038248711658
 20
81.63220486646611
 10
393.810070580786
 20
87.29098767445576
 10
392.8196462529031
 20
92.49351420883673
 10
391.9308679842755
 20
97.23978446960902
 10
391.1502145469217
 20
101.4825985606788
 10
390.5216177046002
 20
104.9598501836461
 10
390.0695680537097
 20
107.5002536022019
 10
389.7455376862402
 20
109.344940886619
 10
389.4073249532849
 20
111.2938243684235
 10
388.9863061874724
 20
113.7572472516
 10
388.4886420709595
 20
116.7352095361486
 10
387.7672243815962
 20
121.2330375555794
 10
387.0518147177397
 20
126.016623470587
 10
386.3793238371694
 20
130.9499999400395
 10
385.7606665433166
 20
136.0331669639369
 10
385.229632796936
 20
140.9808647538745
 10
384.8599284033807
 20
144.8331212308208
 10
384.5853121051409
 20
147.948091480208
 10
384.2278769473854
 20
152.3643743071118
 10
383.8465529699994
 20
157.5762296663666
 10
383.5011458247129
 20
162.7863932180589
 10
383.1871745300499
 20
167.9444807114807
 10
382.9023692488243
 20
172.9723397941843
 10
382.644037207377
 20
177.8140406623849
 10
382.4067783905715
 20
182.4912646618697
 10
382.0249893856877
 20
190.4677075969124
 10
381.6970061257713
 20
197.7294939699783
 10
381.5828733503515
 20
200.3414019426606
 10
381.4317922129789
 20
203.8620071640791
 10
381.2455783578053
 20
208.2971921192826
 10
381.0263644590945
 20
213.6469568082713
 10
380.7762698185271
 20
219.911301231045
 10
380.5508844218172
 20
225.7102117957942
  0
LINE
  5
39C
330
A
100
AcDbEntity
  8
0
  6
Continuous
 62
     7
100
AcDbLine
 10
249.1307394820106
 20
232.0394047080974
 30
0.0
 11
354.7557515169596
 21
232.0394047080974
 31
0.0
  0
LINE
  5
39D
330
A
100
AcDbEntity
  8
0
  6
Continuous
 62
     7
100
AcDbLine
 10
242.9432454994851
 20
249.0394047080974
 30
0.0
 11
360.9432454994851
 21
249.0394047080974
 31
0.0
  0
LINE
  5
39E
330
A
100
AcDbEntity
  8
0
  6
Continuous
 62
     7
100
AcDbLine
 10
299.4630809728171
 20
75.51716578486805
 30
0.0
 11
219.2465051255344
 21
75.51716578486834
 31
0.0
  0
LINE
  5
39F
330
A
100
AcDbEntity
  8
0
  6
Continuous
 62
     7
100
AcDbLine
 10
299.4630809756908
 20
225.0988409857754
 30
0.0
 11
299.4630809756908
 21
225.0996502113445
 31
0.0
  0
LINE
  5
3A0
330
A
100
AcDbEntity
  8
0
  6
Continuous
 62
     7
100
AcDbLine
 10
299.4630809756908
 20
225.0988409857754
 30
0.0
 11
299.4630809728156
 21
75.51716578486811
 31
0.0
  0
LWPOLYLINE
  5
3A1
330
A
100
AcDbEntity
  8
0
  6
Continuous
 62
     7
100
AcDbPolyline
 90
        7
 70
   128
 43
0.0
 10
235.4350402626703
 20
225.3996611741015
 10
235.6721231998349
 20
227.0608557530153
 10
236.4325742844095
 20
228.5480109973025
 10
237.6306584654348
 20
229.6934615408245
 10
239.1313009854358
 20
230.3680665501212
 10
239.987127721384
 20
230.5059199679452
 10
240.3142826839301
 20
230.5171657848683
  0
LINE
  5
3AA
330
A
100
AcDbEntity
  8
0
  6
Continuous
 62
     7
100
AcDbLine
 10
295.8109582055665
 20
230.5171657848681
 30
0.0
 11
225.915884561634
 21
230.5171657848683
 31
0.0
  0
LWPOLYLINE
  5
3AB
330
A
100
AcDbEntity
  8
0
  6
Continuous
 62
     7
100
AcDbPolyline
 90
        7
 70
   128
 43
0.0
 10
295.8109582055665
 20
230.5171657848681
 10
295.983263284975
 20
230.5116368578061
 10
296.9112410136292
 20
230.2865190251409
 10
298.006374308519
 20
229.5207959761133
 10
298.8539910051175
 20
228.3036944762856
 10
299.3585291052941
 20
226.7724332899573
 10
299.4630809756908
 20
225.0996502113445
  0
LWPOLYLINE
  5
3B4
330
A
100
AcDbEntity
  8
0
  6
Continuous
 62
     7
100
AcDbPolyline
 90
        5
 70
   128
 43
0.0
 10
351.2313074071863
 20
230.5171657848679
 10
352.1959281028246
 20
230.2175684428034
 10
353.0827072475087
 20
229.2979468709702
 10
353.7184441718192
 20
227.9003802912302
 10
354.0350455683691
 20
226.1863537140061
  0
LINE
  5
3BB
330
A
100
AcDbEntity
  8
0
  6
Continuous
 62
     7
100
AcDbLine
 10
343.7503066060403
 20
226.511062484108
 30
0.0
 11
343.773616760928
 21
226.5044009027589
 31
0.0
  0
LINE
  5
3BC
330
A
100
AcDbEntity
  8
0
  6
Continuous
 62
     7
100
AcDbLine
 10
295.8109582055665
 20
230.5171657848681
 30
0.0
 11
357.5830086374029
 21
230.5171657848679
 31
0.0
  0
LINE
  5
3BD
330
A
100
AcDbEntity
  8
0
  6
Continuous
 62
     7
100
AcDbLine
 10
362.603688148541
 20
190.2817374305518
 30
0.0
 11
389.9922720435753
 21
75.51716578486775
 31
0.0
  0
LINE
  5
3BE
330
A
100
AcDbEntity
  8
0
  6
Continuous
 62
     7
100
AcDbLine
 10
389.9922720435754
 20
75.5171657848677
 30
0.0
 11
362.5701063909631
 21
75.51716578486779
 31
0.0
  0
LINE
  5
3BF
330
A
100
AcDbEntity
  8
0
  6
Continuous
 62
     7
100
AcDbLine
 10
362.5108962535302
 20
75.51716578486789
 30
0.0
 11
299.4630809728171
 21
75.51716578486805
 31
0.0
  0
LWPOLYLINE
  5
3C0
330
A
100
AcDbEntity
  8
0
  6
Continuous
 62
     7
100
AcDbPolyline
 90
        3
 70
   128
 43
0.0
 10
219.1606535769322
 20
225.3721299747858
 10
219.1415486863288
 20
225.3766792776552
 10
219.1639932997728
 20
225.3848767251301
  0
LINE
  5
3C5
330
A
100
AcDbEntity
  8
0
  6
Continuous
 62
     7
100
AcDbLine
 10
224.1393131813843
 20
230.5171657848684
 30
0.0
 11
225.9286348975158
 21
230.5171657848683
 31
0.0
  0
LWPOLYLINE
  5
3C6
330
A
100
AcDbEntity
  8
0
  6
Continuous
 62
     7
100
AcDbPolyline
 90
        3
 70
   128
 43
0.0
 10
380.3970984096276
 20
225.7136251762366
 10
380.548336796962
 20
225.710945263081
 10
380.5354474946684
 20
225.7096219038381
  0
LINE
  5
3CB
330
A
100
AcDbEntity
  8
0
  6
Continuous
 62
     7
100
AcDbLine
 10
357.6574815597326
 20
230.5171657848679
 30
0.0
 11
375.5540539177797
 21
230.5171657848678
 31
0.0
  0
LINE
  5
3CC
330
A
100
AcDbEntity
  8
0
  6
Continuous
 62
     7
100
AcDbLine
 10
396.0447019134208
 20
75.51716578486765
 30
0.0
 11
389.9922720435754
 21
75.51716578486775
 31
0.0
  0
LWPOLYLINE
  5
3CD
330
A
100
AcDbEntity
  8
0
  6
PHANTOM
 62
     7
100
AcDbPolyline
 90
       26
 70
   128
 43
0.0
 10
299.4630809756908
 20
225.0996502113445
 10
299.4630606496908
 20
225.0996510711427
 10
297.4279518011033
 20
225.1709716253924
 10
295.5612582808179
 20
225.2119052062851
 10
292.7937757484523
 20
225.2484912549194
 10
289.7146325916832
 20
225.2848855409929
 10
286.9703835602906
 20
225.3216752793745
 10
283.9125828407781
 20
225.3575751169536
 10
280.8060477558654
 20
225.3852122643952
 10
277.509180348778
 20
225.4221123236291
 10
267.5708547632699
 20
225.560362175271
 10
257.5904368848353
 20
225.4647630069067
 10
252.2024298387322
 20
225.3387812801713
 10
246.9076383536696
 20
225.314885255218
 10
242.3934929965767
 20
225.3709268553256
 10
238.2297888723142
 20
225.4798818367783
 10
235.5175132918312
 20
225.5939586291122
 10
233.1131637360576
 20
225.7141366777271
 10
231.0030697326721
 20
225.8022036570338
 10
228.090670051737
 20
225.8418304935064
 10
225.4040811911034
 20
225.7863599719256
 10
223.8309846580393
 20
225.7200568496249
 10
222.4447706691419
 20
225.6542340336035
 10
221.4164736209483
 20
225.6146956808645
 10
220.9236937815571
 20
225.6134825680806
 10
220.9548380724161
 20
225.6130283546041
  0
LWPOLYLINE
  5
3E9
330
A
100
AcDbEntity
  8
0
  6
PHANTOM
 62
     7
100
AcDbPolyline
 90
        8
 70
   128
 43
0.0
 10
354.0350455683691
 20
226.186353714006
 10
354.0350207835477
 20
226.186354485844
 10
350.7180056604144
 20
226.2981772508263
 10
347.7876518252277
 20
226.4101093882695
 10
346.2043952518422
 20
226.4727212571469
 10
344.9592647441959
 20
226.5144801765324
 10
344.0940090282631
 20
226.5314928427016
 10
343.7219647934719
 20
226.5191620137299
  0
LWPOLYLINE
  5
3F3
330
A
100
AcDbEntity
  8
0
  6
PHANTOM
 62
     7
100
AcDbPolyline
 90
       28
 70
   128
 43
0.0
 10
362.5354819448755
 20
225.5175336594081
 10
362.5650242719761
 20
225.4819546398254
 10
362.1506764470189
 20
225.4183123917251
 10
361.3976743441672
 20
225.3626525718822
 10
359.8484674837733
 20
225.2819220827979
 10
357.9707463368374
 20
225.1941319198845
 10
355.1847893584815
 20
225.0463707408476
 10
353.1756161517609
 20
224.9267677047962
 10
350.8560498552572
 20
224.7876188028935
 10
349.328636302779
 20
224.7036117535152
 10
347.6836312435928
 20
224.6349488752418
 10
345.9764655812802
 20
224.5983864690977
 10
344.2455981269939
 20
224.588128083969
 10
341.9756546678883
 20
224.5944678156608
 10
339.7635438184916
 20
224.6099035124802
 10
334.8502559073281
 20
224.6483624584943
 10
329.4308808031488
 20
224.6838155810725
 10
324.9786098864384
 20
224.7153489941677
 10
320.5240799032817
 20
224.745741867325
 10
315.9615076785117
 20
224.7726992683475
 10
311.1851100369611
 20
224.7939262650385
 10
308.8803767061273
 20
224.8036302399605
 10
306.510814092978
 20
224.8253057515781
 10
303.7947629340568
 20
224.8923863146673
 10
301.3910939981867
 20
225.0096654568034
 10
299.4631013452119
 20
225.0988401721961
 10
299.4630809756908
 20
225.0988409857754
 10
299.4630809756908
 20
225.0988409857754
  0
LWPOLYLINE
  5
411
330
A
100
AcDbEntity
  8
0
  6
PHANTOM
 62
     7
100
AcDbPolyline
 90
        3
 70
   128
 43
0.0
 10
220.8935214420192
 20
225.2079266868769
 10
219.6169949284437
 20
225.2634648657865
 10
219.1606535769322
 20
225.3721299747858
  0
LWPOLYLINE
  5
416
330
A
100
AcDbEntity
  8
0
  6
PHANTOM
 62
     7
100
AcDbPolyline
 90
        9
 70
   128
 43
0.0
 10
380.5354474946684
 20
225.7096219038381
 10
380.3149535828938
 20
225.686983544561
 10
380.0863517457598
 20
225.6787188395767
 10
379.0559658310282
 20
225.6655228080031
 10
377.6928857541121
 20
225.667808913473
 10
375.7417669294194
 20
225.6861095551367
 10
373.6396260410644
 20
225.717921231763
 10
367.1620690252804
 20
225.8454264977402
 10
362.5111903694972
 20
225.9555665335067
  0
ENDSEC
  0
SECTION
  2
OBJECTS
  0
DICTIONARY
  5
19
330
0
100
AcDbDictionary
281
     1
  3
ACAD_COLOR
350
425
  3
ACAD_GROUP
350
1A
  3
ACAD_LAYOUT
350
426
  3
ACAD_MATERIAL
350
424
  3
ACAD_MLINESTYLE
350
1B
  3
ACAD_PLOTSETTINGS
350
427
  3
ACAD_PLOTSTYLENAME
350
422
  3
AcDbVariableDictionary
350
438
  3
ASE_INDEX_DICTIONARY
350
42D
  0
DICTIONARY
  5
425
102
{ACAD_REACTORS
330
19
102
}
330
19
100
AcDbDictionary
281
     1
  0
DICTIONARY
  5
1A
102
{ACAD_REACTORS
330
19
102
}
330
19
100
AcDbDictionary
281
     1
  0
DICTIONARY
  5
426
102
{ACAD_REACTORS
330
19
102
}
330
19
100
AcDbDictionary
281
     1
  3
Layout1
350
429
  3
Model
350
428
  0
DICTIONARY
  5
424
102
{ACAD_REACTORS
330
19
102
}
330
19
100
AcDbDictionary
281
     1
  0
DICTIONARY
  5
1B
102
{ACAD_REACTORS
330
19
102
}
330
19
100
AcDbDictionary
281
     1
  3
STANDARD
350
1C
  0
DICTIONARY
  5
427
102
{ACAD_REACTORS
330
19
102
}
330
19
100
AcDbDictionary
281
     1
  0
ACDBDICTIONARYWDFLT
  5
422
102
{ACAD_REACTORS
330
19
102
}
330
19
100
AcDbDictionary
281
     1
  3
Normal
350
423
100
AcDbDictionaryWithDefault
340
423
  0
DICTIONARY
  5
438
102
{ACAD_REACTORS
330
19
102
}
330
19
100
AcDbDictionary
281
     1
  3
DIMASSOC
350
439
  3
PROJECTNAME
350
43A
  0
DICTIONARY
  5
42D
102
{ACAD_REACTORS
330
19
102
}
330
19
100
AcDbDictionary
281
     1
  3
ASEBlockHierarchyIndexRecord
350
42F
1001
DCO15
1040
1521898439.687
  0
LAYOUT
  5
429
102
{ACAD_REACTORS
330
426
102
}
330
426
100
AcDbPlotSettings
  1

  2
ProgeSOFT PDF Wizard
  4

  6

 40
0.0
 41
0.0
 42
0.0
 43
0.0
 44
0.0
 45
0.0
 46
0.0
 47
0.0
 48
0.0
 49
0.0
140
0.0
141
0.0
142
1.0
143
1.0
 70
   688
 72
     0
 73
     0
 74
     5
  7

 75
    16
147
1.0
 76
     0
 77
     2
 78
   300
148
0.0
149
0.0
100
AcDbLayout
  1
Layout1
 70
     1
 71
     1
 10
0.0
 20
0.0
 11
12.0
 21
9.0
 12
0.0
 22
0.0
 32
0.0
 14
1.000000000000000E+20
 24
1.000000000000000E+20
 34
1.000000000000000E+20
 15
-1.000000000000000E+20
 25
-1.000000000000000E+20
 35
-1.000000000000000E+20
146
0.0
 13
0.0
 23
0.0
 33
0.0
 16
1.0
 26
0.0
 36
0.0
 17
0.0
 27
1.0
 37
0.0
 76
     0
330
B
  0
LAYOUT
  5
428
102
{ACAD_REACTORS
330
426
102
}
330
426
100
AcDbPlotSettings
  1

  2
ProgeSOFT PDF Wizard
  4

  6

 40
0.0
 41
0.0
 42
0.0
 43
0.0
 44
0.0
 45
0.0
 46
0.0
 47
0.0
 48
0.0
 49
0.0
140
0.0
141
0.0
142
1.0
143
1.0
 70
  1712
 72
     0
 73
     0
 74
     0
  7

 75
     0
147
1.0
 76
     0
 77
     2
 78
   300
148
0.0
149
0.0
100
AcDbLayout
  1
Model
 70
     1
 71
     0
 10
0.0
 20
0.0
 11
12.0
 21
9.0
 12
0.0
 22
0.0
 32
0.0
 14
0.0
 24
0.0
 34
0.0
 15
0.0
 25
0.0
 35
0.0
146
0.0
 13
0.0
 23
0.0
 33
0.0
 16
1.0
 26
0.0
 36
0.0
 17
0.0
 27
1.0
 37
0.0
 76
     0
330
A
  0
MLINESTYLE
  5
1C
102
{ACAD_REACTORS
330
1B
102
}
330
1B
100
AcDbMlineStyle
  2
STANDARD
 70
     0
  3

 62
     0
 51
90.0
 52
90.0
 71
     2
 49
0.5
 62
   256
  6
BYLAYER
 49
-0.5
 62
   256
  6
BYLAYER
  0
ACDBPLACEHOLDER
  5
423
102
{ACAD_REACTORS
330
422
102
}
330
422
  0
DICTIONARYVAR
  5
439
102
{ACAD_REACTORS
330
438
102
}
330
438
100
DictionaryVariables
280
     0
  1
1
  0
DICTIONARYVAR
  5
43A
102
{ACAD_REACTORS
330
438
102
}
330
438
100
DictionaryVariables
280
     0
  1

  0
XRECORD
  5
42F
102
{ACAD_REACTORS
330
42D
102
}
330
42D
100
AcDbXrecord
280
     1
  0
ENDSEC
  0
EOF
