  0
SECTION
  2
HEADER
  9
$ACADVER
  1
AC1015
  9
$ACADMAINTVER
 70
    20
  9
$DWGCODEPAGE
  3
ANSI_1252
  9
$INSBASE
 10
0.0
 20
0.0
 30
0.0
  9
$EXTMIN
 10
-52.09738518002985
 20
-365.9913169045403
 30
0.0
  9
$EXTMAX
 10
608.4832076999974
 20
326.4250000000002
 30
0.0
  9
$LIMMIN
 10
0.0
 20
0.0
  9
$LIMMAX
 10
0.0
 20
0.0
  9
$ORTHOMODE
 70
     0
  9
$REGENMODE
 70
     1
  9
$FILLMODE
 70
     1
  9
$QTEXTMODE
 70
     0
  9
$MIRRTEXT
 70
     1
  9
$LTSCALE
 40
1.0
  9
$ATTMODE
 70
     1
  9
$TEXTSIZE
 40
0.0
  9
$TRACEWID
 40
0.05
  9
$TEXTSTYLE
  7
STANDARD
  9
$CLAYER
  8
0
  9
$CELTYPE
  6
CONTINUOUS
  9
$CECOLOR
 62
   256
  9
$CELTSCALE
 40
1.0
  9
$DISPSILH
 70
     0
  9
$DIMSCALE
 40
1.0
  9
$DIMASZ
 40
6.0
  9
$DIMEXO
 40
1.0
  9
$DIMDLI
 40
0.38
  9
$DIMRND
 40
0.0
  9
$DIMDLE
 40
1.0
  9
$DIMEXE
 40
0.18
  9
$DIMTP
 40
0.0
  9
$DIMTM
 40
0.0
  9
$DIMTXT
 40
3.5
  9
$DIMCEN
 40
0.09
  9
$DIMTSZ
 40
0.0
  9
$DIMTOL
 70
     0
  9
$DIMLIM
 70
     0
  9
$DIMTIH
 70
     1
  9
$DIMTOH
 70
     1
  9
$DIMSE1
 70
     0
  9
$DIMSE2
 70
     0
  9
$DIMTAD
 70
     1
  9
$DIMZIN
 70
     0
  9
$DIMBLK
  1

  9
$DIMASO
 70
     1
  9
$DIMSHO
 70
     1
  9
$DIMPOST
  1

  9
$DIMAPOST
  1

  9
$DIMALT
 70
     0
  9
$DIMALTD
 70
     2
  9
$DIMALTF
 40
0.0394
  9
$DIMLFAC
 40
1.0
  9
$DIMTOFL
 70
     0
  9
$DIMTVP
 40
0.0
  9
$DIMTIX
 70
     0
  9
$DIMSOXD
 70
     0
  9
$DIMSAH
 70
     0
  9
$DIMBLK1
  1

  9
$DIMBLK2
  1

  9
$DIMSTYLE
  2
STANDARD
  9
$DIMCLRD
 70
     0
  9
$DIMCLRE
 70
     0
  9
$DIMCLRT
 70
     0
  9
$DIMTFAC
 40
1.0
  9
$DIMGAP
 40
1.0
  9
$DIMJUST
 70
     0
  9
$DIMSD1
 70
     0
  9
$DIMSD2
 70
     0
  9
$DIMTOLJ
 70
     1
  9
$DIMTZIN
 70
     0
  9
$DIMALTZ
 70
     0
  9
$DIMALTTZ
 70
     0
  9
$DIMUPT
 70
     0
  9
$DIMDEC
 70
     4
  9
$DIMTDEC
 70
     4
  9
$DIMALTU
 70
     2
  9
$DIMALTTD
 70
     2
  9
$DIMTXSTY
  7
STANDARD
  9
$DIMAUNIT
 70
     0
  9
$DIMADEC
 70
     0
  9
$DIMALTRND
 40
0.0
  9
$DIMAZIN
 70
     0
  9
$DIMDSEP
 70
    46
  9
$DIMATFIT
 70
     3
  9
$DIMFRAC
 70
     0
  9
$DIMLDRBLK
  1

  9
$DIMLUNIT
 70
     2
  9
$DIMLWD
 70
    -2
  9
$DIMLWE
 70
    -2
  9
$DIMTMOVE
 70
     0
  9
$LUNITS
 70
     2
  9
$LUPREC
 70
     2
  9
$SKETCHINC
 40
0.1
  9
$FILLETRAD
 40
0.0
  9
$AUNITS
 70
     0
  9
$AUPREC
 70
     2
  9
$MENU
  1
acad
  9
$ELEVATION
 40
0.0
  9
$PELEVATION
 40
0.0
  9
$THICKNESS
 40
0.0
  9
$LIMCHECK
 70
     0
  9
$CHAMFERA
 40
0.0
  9
$CHAMFERB
 40
0.0
  9
$CHAMFERC
 40
0.0
  9
$CHAMFERD
 40
0.0
  9
$SKPOLY
 70
     0
  9
$TDCREATE
 40
2444972.041666667
  9
$TDUCREATE
 40
2444972.000000000
  9
$TDUPDATE
 40
2453768.783902442
  9
$TDUUPDATE
 40
2453768.742235776
  9
$TDINDWG
 40
0.0264132986
  9
$TDUSRTIMER
 40
0.0264132986
  9
$USRTIMER
 70
     1
  9
$ANGBASE
 50
0.0
  9
$ANGDIR
 70
     0
  9
$PDMODE
 70
     0
  9
$PDSIZE
 40
-1.0
  9
$PLINEWID
 40
0.0
  9
$SPLFRAME
 70
     0
  9
$SPLINETYPE
 70
     6
  9
$SPLINESEGS
 70
     8
  9
$HANDSEED
  5
4E9
  9
$SURFTAB1
 70
     6
  9
$SURFTAB2
 70
     6
  9
$SURFTYPE
 70
     6
  9
$SURFU
 70
     6
  9
$SURFV
 70
     6
  9
$UCSBASE
  2

  9
$UCSNAME
  2

  9
$UCSORG
 10
0.0
 20
0.0
 30
0.0
  9
$UCSXDIR
 10
1.0
 20
0.0
 30
0.0
  9
$UCSYDIR
 10
0.0
 20
1.0
 30
0.0
  9
$UCSORTHOREF
  2

  9
$UCSORTHOVIEW
 70
     1
  9
$UCSORGTOP
 10
0.0
 20
0.0
 30
0.0
  9
$UCSORGBOTTOM
 10
0.0
 20
0.0
 30
0.0
  9
$UCSORGLEFT
 10
0.0
 20
0.0
 30
0.0
  9
$UCSORGRIGHT
 10
0.0
 20
0.0
 30
0.0
  9
$UCSORGFRONT
 10
0.0
 20
0.0
 30
0.0
  9
$UCSORGBACK
 10
0.0
 20
0.0
 30
0.0
  9
$PUCSBASE
  2

  9
$PUCSNAME
  2

  9
$PUCSORG
 10
0.0
 20
0.0
 30
0.0
  9
$PUCSXDIR
 10
1.0
 20
0.0
 30
0.0
  9
$PUCSYDIR
 10
0.0
 20
1.0
 30
0.0
  9
$PUCSORTHOREF
  2

  9
$PUCSORTHOVIEW
 70
     0
  9
$PUCSORGTOP
 10
0.0
 20
0.0
 30
0.0
  9
$PUCSORGBOTTOM
 10
0.0
 20
0.0
 30
0.0
  9
$PUCSORGLEFT
 10
0.0
 20
0.0
 30
0.0
  9
$PUCSORGRIGHT
 10
0.0
 20
0.0
 30
0.0
  9
$PUCSORGFRONT
 10
0.0
 20
0.0
 30
0.0
  9
$PUCSORGBACK
 10
0.0
 20
0.0
 30
0.0
  9
$USERI1
 70
     0
  9
$USERI2
 70
     0
  9
$USERI3
 70
     0
  9
$USERI4
 70
     0
  9
$USERI5
 70
     0
  9
$USERR1
 40
0.0
  9
$USERR2
 40
0.0
  9
$USERR3
 40
0.0
  9
$USERR4
 40
0.0
  9
$USERR5
 40
0.0
  9
$WORLDVIEW
 70
     1
  9
$SHADEDGE
 70
     3
  9
$SHADEDIF
 70
    70
  9
$TILEMODE
 70
     1
  9
$MAXACTVP
 70
    16
  9
$PINSBASE
 10
0.0
 20
0.0
 30
0.0
  9
$PLIMCHECK
 70
     0
  9
$PEXTMIN
 10
1.000000000000000E+20
 20
1.000000000000000E+20
 30
1.000000000000000E+20
  9
$PEXTMAX
 10
-1.000000000000000E+20
 20
-1.000000000000000E+20
 30
-1.000000000000000E+20
  9
$PLIMMIN
 10
0.0
 20
0.0
  9
$PLIMMAX
 10
12.0
 20
9.0
  9
$UNITMODE
 70
     0
  9
$VISRETAIN
 70
     0
  9
$PLINEGEN
 70
     1
  9
$PSLTSCALE
 70
     1
  9
$TREEDEPTH
 70
  3020
  9
$CMLSTYLE
  2
STANDARD
  9
$CMLJUST
 70
     0
  9
$CMLSCALE
 40
1.0
  9
$PROXYGRAPHICS
 70
     0
  9
$MEASUREMENT
 70
     0
  9
$CELWEIGHT
370
    -1
  9
$ENDCAPS
280
     0
  9
$JOINSTYLE
280
     0
  9
$LWDISPLAY
290
     0
  9
$INSUNITS
 70
     0
  9
$HYPERLINKBASE
  1

  9
$STYLESHEET
  1

  9
$XEDIT
290
     1
  9
$CEPSNTYPE
380
     0
  9
$PSTYLEMODE
290
     1
  9
$FINGERPRINTGUID
  2
{23DA1A5F-510A-487E-B034-6800218C7166}
  9
$VERSIONGUID
  2
{05EB349B-EED1-43A7-8FA3-931E5F5FE3EA}
  9
$EXTNAMES
290
     1
  9
$PSVPSCALE
 40
0.0
  9
$OLESTARTUP
290
     0
  0
ENDSEC
  0
SECTION
  2
CLASSES
  0
CLASS
  1
IMAGE
  2
AcDbRasterImage
  3
ISM
 90
    32895
280
     0
281
     1
  0
CLASS
  1
DICTIONARYVAR
  2
AcDbDictionaryVar
  3
ObjectDBX Classes
 90
        0
280
     0
281
     0
  0
CLASS
  1
RASTERVARIABLES
  2
AcDbRasterVariables
  3
ISM
 90
    32768
280
     0
281
     0
  0
CLASS
  1
IMAGEDEF
  2
AcDbRasterImageDef
  3
ISM
 90
    32768
280
     0
281
     0
  0
CLASS
  1
IMAGEDEF_REACTOR
  2
AcDbRasterImageDefReactor
  3
ISM
 90
    32769
280
     0
281
     0
  0
CLASS
  1
IDBUFFER
  2
AcDbIdBuffer
  3
ObjectDBX Classes
 90
    32768
280
     0
281
     0
  0
CLASS
  1
SPATIAL_FILTER
  2
AcDbSpatialFilter
  3
ObjectDBX Classes
 90
    32768
280
     0
281
     0
  0
CLASS
  1
SORTENTSTABLE
  2
AcDbSortentsTable
  3
ObjectDBX Classes
 90
    32768
280
     0
281
     0
  0
CLASS
  1
LAYER_INDEX
  2
AcDbLayerIndex
  3
ObjectDBX Classes
 90
    32768
280
     0
281
     0
  0
CLASS
  1
SPATIAL_INDEX
  2
AcDbSpatialIndex
  3
ObjectDBX Classes
 90
    32768
280
     0
281
     0
  0
CLASS
  1
OBJECT_PTR
  2
CAseDLPNTableRecord
  3
ASE-LPNTableRecord
 90
    32769
280
     0
281
     0
  0
CLASS
  1
LAYOUT
  2
AcDbLayout
  3
ObjectDBX Classes
 90
        0
280
     0
281
     0
  0
CLASS
  1
PLOTSETTINGS
  2
AcDbPlotSettings
  3
ObjectDBX Classes
 90
    32768
280
     0
281
     0
  0
CLASS
  1
ACDBDICTIONARYWDFLT
  2
AcDbDictionaryWithDefault
  3
ObjectDBX Classes
 90
        0
280
     0
281
     0
  0
CLASS
  1
ACDBPLACEHOLDER
  2
AcDbPlaceHolder
  3
ObjectDBX Classes
 90
        0
280
     0
281
     0
  0
CLASS
  1
VBA_PROJECT
  2
AcDbVbaProject
  3
acad
 90
    32768
280
     0
281
     0
  0
CLASS
  1
WIPEOUT
  2
AcDbWipeout
  3
"WipeOut|Product Desc: Object Enabler for WipeOut entity^I^I^I^I^I^I|Company: Autodesk, Inc.^I^I^I^I^I^I|WEB Address: www.autodesk.com"
 90
    32895
280
     0
281
     1
  0
CLASS
  1
WIPEOUTVARIABLES
  2
AcDbWipeoutVariables
  3
"WipeOut|Product Desc:     WipeOut Dbx Application|Company:          Autodesk, Inc.|WEB Address:      www.autodesk.com"
 90
    32768
280
     0
281
     0
  0
CLASS
  1
RTEXT
  2
RText
  3
RText|AutoCAD Express Tool|expresstools@autodesk.com
 90
    32768
280
     0
281
     1
  0
CLASS
  1
ARCALIGNEDTEXT
  2
AcDbArcAlignedText
  3
ATEXT|AutoCAD Express Tool|expresstools@autodesk.com
 90
    32768
280
     0
281
     1
  0
ENDSEC
  0
SECTION
  2
TABLES
  0
TABLE
  2
VPORT
  5
7
330
0
100
AcDbSymbolTable
 70
     2
  0
VPORT
  5
4E1
330
7
100
AcDbSymbolTableRecord
100
AcDbViewportTableRecord
  2
*Active
 70
     0
 10
0.0
 20
0.0
 11
1.0
 21
1.0
 12
315.6073435849318
 22
-19.78315845227007
 13
0.0
 23
0.0
 14
1.0
 24
1.0
 15
0.0
 25
0.0
 16
0.0
 26
0.0
 36
1.0
 17
0.0
 27
0.0
 37
0.0
 40
698.3222218784518
 41
1.569570871261378
 42
50.0
 43
0.0
 44
0.0
 50
0.0
 51
0.0
 71
     0
 72
  2000
 73
     1
 74
     1
 75
     0
 76
     0
 77
     0
 78
     0
281
     0
 65
     1
110
0.0
120
0.0
130
0.0
111
1.0
121
0.0
131
0.0
112
0.0
122
1.0
132
0.0
 79
     1
146
0.0
  0
ENDTAB
  0
TABLE
  2
LTYPE
  5
4
330
0
100
AcDbSymbolTable
 70
     6
  0
LTYPE
  5
11
330
4
100
AcDbSymbolTableRecord
100
AcDbLinetypeTableRecord
  2
BYBLOCK
 70
     0
  3

 72
    65
 73
     0
 40
0.0
  0
LTYPE
  5
12
330
4
100
AcDbSymbolTableRecord
100
AcDbLinetypeTableRecord
  2
BYLAYER
 70
     0
  3

 72
    65
 73
     0
 40
0.0
  0
LTYPE
  5
13
330
4
100
AcDbSymbolTableRecord
100
AcDbLinetypeTableRecord
  2
CONTINUOUS
 70
     0
  3
Solid line
 72
    65
 73
     0
 40
0.0
  0
LTYPE
  5
1E
330
4
100
AcDbSymbolTableRecord
100
AcDbLinetypeTableRecord
  2
HIDDEN
 70
     0
  3
Hidden __ __ __ __ __ __ __ __ __ __ __ __ __ __
 72
    65
 73
     2
 40
1.905
 49
1.27
 74
     0
 49
-0.635
 74
     0
  0
LTYPE
  5
1F
330
4
100
AcDbSymbolTableRecord
100
AcDbLinetypeTableRecord
  2
PHANTOM
 70
     0
  3
Phantom ______  __  __  ______  __  __  ______
 72
    65
 73
     6
 40
12.7
 49
6.349999999999999
 74
     0
 49
-1.27
 74
     0
 49
1.27
 74
     0
 49
-1.27
 74
     0
 49
1.27
 74
     0
 49
-1.27
 74
     0
  0
LTYPE
  5
20
330
4
100
AcDbSymbolTableRecord
100
AcDbLinetypeTableRecord
  2
CENTER
 70
     0
  3
Center ____ _ ____ _ ____ _ ____ _ ____ _ ____
 72
    65
 73
     4
 40
10.16
 49
6.349999999999999
 74
     0
 49
-1.27
 74
     0
 49
1.27
 74
     0
 49
-1.27
 74
     0
  0
LTYPE
  5
21
330
4
100
AcDbSymbolTableRecord
100
AcDbLinetypeTableRecord
  2
CENTERX2
 70
     0
  3
Center (2x) ________  __  ________  __  _____
 72
    65
 73
     4
 40
20.32
 49
12.7
 74
     0
 49
-2.54
 74
     0
 49
2.54
 74
     0
 49
-2.54
 74
     0
  0
LTYPE
  5
22
330
4
100
AcDbSymbolTableRecord
100
AcDbLinetypeTableRecord
  2
DOT2
 70
     0
  3
Dot (.5x) ........................................
 72
    65
 73
     2
 40
0.635
 49
0.0
 74
     0
 49
-0.635
 74
     0
  0
ENDTAB
  0
TABLE
  2
LAYER
  5
2
330
0
100
AcDbSymbolTable
 70
     2
  0
LAYER
  5
14
330
2
100
AcDbSymbolTableRecord
100
AcDbLayerTableRecord
  2
0
 70
     0
 62
     7
  6
CONTINUOUS
370
    -3
390
4C6
  0
LAYER
  5
26
330
2
100
AcDbSymbolTableRecord
100
AcDbLayerTableRecord
  2
DEFPOINTS
 70
     0
 62
     7
  6
CONTINUOUS
290
     0
370
    -3
390
4C6
  0
ENDTAB
  0
TABLE
  2
STYLE
  5
3
330
0
100
AcDbSymbolTable
 70
     1
  0
STYLE
  5
17
330
3
100
AcDbSymbolTableRecord
100
AcDbTextStyleTableRecord
  2
STANDARD
 70
     0
 40
0.0
 41
1.0
 50
0.0
 71
     0
 42
0.0
  3
Century Gothic
  4

  0
ENDTAB
  0
TABLE
  2
VIEW
  5
5
330
0
100
AcDbSymbolTable
 70
     0
  0
ENDTAB
  0
TABLE
  2
UCS
  5
6
330
0
100
AcDbSymbolTable
 70
     0
  0
ENDTAB
  0
TABLE
  2
APPID
  5
8
330
0
100
AcDbSymbolTable
 70
     2
  0
APPID
  5
16
330
8
100
AcDbSymbolTableRecord
100
AcDbRegAppTableRecord
  2
ACAD
 70
     0
  0
APPID
  5
4D1
330
8
100
AcDbSymbolTableRecord
100
AcDbRegAppTableRecord
  2
DCO15
 70
     0
  0
ENDTAB
  0
TABLE
  2
DIMSTYLE
  5
9
330
0
100
AcDbSymbolTable
 70
     1
100
AcDbDimStyleTable
 71
     0
  0
DIMSTYLE
105
18
330
9
100
AcDbSymbolTableRecord
100
AcDbDimStyleTableRecord
  2
STANDARD
 70
     0
289
     0
340
17
  0
ENDTAB
  0
TABLE
  2
BLOCK_RECORD
  5
1
330
0
100
AcDbSymbolTable
 70
     0
  0
BLOCK_RECORD
  5
A
330
1
100
AcDbSymbolTableRecord
100
AcDbBlockTableRecord
  2
*MODEL_SPACE
340
4CB
  0
BLOCK_RECORD
  5
B
330
1
100
AcDbSymbolTableRecord
100
AcDbBlockTableRecord
  2
*PAPER_SPACE
340
4CC
  0
ENDTAB
  0
ENDSEC
  0
SECTION
  2
BLOCKS
  0
BLOCK
  5
D
330
A
100
AcDbEntity
  8
0
100
AcDbBlockBegin
  2
*MODEL_SPACE
 70
     0
 10
0.0
 20
0.0
 30
0.0
  3
*MODEL_SPACE
  1

  0
ENDBLK
  5
E
330
A
100
AcDbEntity
  8
0
100
AcDbBlockEnd
  0
BLOCK
  5
F
330
B
100
AcDbEntity
 67
     1
  8
0
100
AcDbBlockBegin
  2
*PAPER_SPACE
 70
     0
 10
0.0
 20
0.0
 30
0.0
  3
*PAPER_SPACE
  1

  0
ENDBLK
  5
10
330
B
100
AcDbEntity
 67
     1
  8
0
100
AcDbBlockEnd
  0
ENDSEC
  0
SECTION
  2
ENTITIES
  0
LINE
  5
27
330
A
100
AcDbEntity
  8
0
  6
Continuous
 62
     7
100
AcDbLine
 10
9.954524256817837
 20
326.4250000000002
 30
0.0
 11
16.14201823934335
 21
309.4250000000002
 31
0.0
  0
LINE
  5
28
330
A
100
AcDbEntity
  8
0
  6
Continuous
 62
     7
100
AcDbLine
 10
121.7670302742923
 20
309.4250000000002
 30
0.0
 11
127.9545242568178
 21
326.4250000000002
 31
0.0
  0
LINE
  5
29
330
A
100
AcDbEntity
  8
0
  6
Continuous
 62
     7
100
AcDbLine
 10
43.95452425681784
 20
309.4250000000002
 30
0.0
 11
43.95452425681784
 21
306.4120840759738
 31
0.0
  0
LINE
  5
2A
330
A
100
AcDbEntity
  8
0
  6
Continuous
 62
     7
100
AcDbLine
 10
93.95452425681783
 20
306.4120840759737
 30
0.0
 11
93.95452425681783
 21
309.4250000000002
 31
0.0
  0
LWPOLYLINE
  5
2B
330
A
100
AcDbEntity
  8
0
  6
Continuous
 62
     7
100
AcDbPolyline
 90
       38
 70
   128
 43
0.0
 10
140.7009269285919
 20
86.4120900759743
 10
140.7953325039448
 20
94.38823340413994
 10
140.8873432844175
 20
101.1974373111516
 10
140.9708355148453
 20
106.8397017970094
 10
141.0412613099663
 20
111.3150268617132
 10
141.1013389858766
 20
114.975751459672
 10
141.1682443003042
 20
118.9150114097064
 10
141.2906531708301
 20
125.8255023079347
 10
141.4353213292343
 20
133.6162685269475
 10
141.6033230794583
 20
142.2873100667446
 10
141.7737050383322
 20
150.7731665436294
 10
141.9551978176604
 20
159.5505085571818
 10
142.1284105963519
 20
167.727438089625
 10
142.2911452787145
 20
175.2730114941563
 10
142.4422385323181
 20
182.1872287707758
 10
142.5808603954287
 20
188.4700899194832
 10
142.7010164862129
 20
193.8784051239267
 10
142.8126930614673
 20
198.8790261151705
 10
142.9364518232611
 20
204.3929153708389
 10
143.0756103482269
 20
210.5603012337066
 10
143.1710404597835
 20
214.771427345643
 10
143.2726594064926
 20
219.2407513007505
 10
143.3804997343649
 20
223.9682730990289
 10
143.4892836032012
 20
228.7224103034031
 10
143.5824994103935
 20
232.7853803593483
 10
143.6552160298191
 20
235.9486289861369
 10
143.7127127890686
 20
238.4462541733469
 10
143.7549296459948
 20
240.2782559209783
 10
143.7791020530222
 20
241.3265391683399
 10
143.8168823747729
 20
242.9639488702215
 10
143.8724239214241
 20
245.3688130063716
 10
143.9457854987513
 20
248.5411315767902
 10
144.0714476268443
 20
253.9647076795436
 10
144.2291162354441
 20
260.7526472209966
 10
144.4189978529061
 20
268.9049502011491
 10
144.6412828329555
 20
278.4216166200011
 10
144.896113312553
 20
289.3026464775526
 10
145.1272880811182
 20
299.1513446406942
  0
LWPOLYLINE
  5
53
330
A
100
AcDbEntity
  8
0
  6
Continuous
 62
     7
100
AcDbPolyline
 90
       37
 70
   128
 43
0.0
 10
-39.50088947904367
 20
297.9957343838531
 10
-37.47050233231014
 20
287.1941386535732
 10
-34.91970529844116
 20
273.4810985915751
 10
-32.60776153668357
 20
260.9128243414736
 10
-30.5308153773564
 20
249.489315903269
 10
-29.06083480300059
 20
241.3167903912908
 10
-27.73057389899225
 20
233.8509825489019
 10
-26.55053667331113
 20
227.1673379375511
 10
-25.5744233328508
 20
221.5905926478127
 10
-25.03854364618366
 20
218.5083994787999
 10
-24.59315230568314
 20
215.9347159291039
 10
-24.2222656111272
 20
213.7829267497591
 10
-23.73344831298011
 20
210.9342345852326
 10
-23.07045917374197
 20
207.0457741909859
 10
-22.23764492534215
 20
202.1175455670191
 10
-20.83999046135955
 20
193.7250762959933
 10
-19.60650080695972
 20
186.1750446697213
 10
-18.53272308460396
 20
179.4779599659987
 10
-17.63610167071139
 20
173.7863908027079
 10
-16.87645217454603
 20
168.8865621327591
 10
-16.24412083904017
 20
164.7494412778744
 10
-15.73449455850076
 20
161.3741264359979
 10
-15.32258196863859
 20
158.6179996804551
 10
-14.9002671570151
 20
155.7654374528036
 10
-14.34630691813782
 20
151.9809750166011
 10
-13.66602265984903
 20
147.2646123718474
 10
-12.87224366917483
 20
141.6610723643852
 10
-12.09360681978724
 20
136.0546771861177
 10
-11.37619669574828
 20
130.7891129488304
 10
-10.71709143098851
 20
125.864379652523
 10
-10.11360046969504
 20
121.2804772971958
 10
-9.563287449967941
 20
117.0374058828487
 10
-9.02246050585391
 20
112.8085889388943
 10
-8.38021650055011
 20
107.7109538975674
 10
-7.625176750429868
 20
101.6123257399323
 10
-6.763421886757408
 20
94.51270446598888
 10
-5.801432339117035
 20
86.41209007597424
  0
LWPOLYLINE
  5
7A
330
A
100
AcDbEntity
  8
0
  6
Continuous
 62
     7
100
AcDbPolyline
 90
        9
 70
   128
 43
0.0
 10
137.9670906840432
 20
306.4119408122702
 10
139.3537761377557
 20
306.2832643737132
 10
140.7119398576879
 20
305.874878808787
 10
141.9616432277315
 20
305.2029823285611
 10
143.0526831793151
 20
304.2945663502619
 10
143.9412304687822
 20
303.1861237495133
 10
144.5915903852349
 20
301.9221828689821
 10
144.9776366780247
 20
300.5535187263379
 10
145.0838611001761
 20
299.1351132808611
  0
LINE
  5
85
330
A
100
AcDbEntity
  8
0
  6
Continuous
 62
     7
100
AcDbLine
 10
137.9417269762247
 20
302.411280612838
 30
0.0
 11
137.9670983478533
 21
302.4117558611725
 31
0.0
  0
LWPOLYLINE
  5
86
330
A
100
AcDbEntity
  8
0
  6
Continuous
 62
     7
100
AcDbPolyline
 90
        9
 70
   128
 43
0.0
 10
-39.48455428972764
 20
297.9937975267382
 10
-39.60517754278285
 20
299.5352488890784
 10
-39.3893635221495
 20
301.0662603824792
 10
-38.84735630461835
 20
302.5141592525946
 10
-38.00488342884153
 20
303.8102178645511
 10
-36.90193468236039
 20
304.8929160079972
 10
-35.59086390030592
 20
305.7108610862419
 10
-34.13390387798046
 20
306.2252275764228
 10
-32.60021235734134
 20
306.4115999664776
  0
LINE
  5
91
330
A
100
AcDbEntity
  8
0
  6
Continuous
 62
     7
100
AcDbLine
 10
-8.168185090150062
 20
306.4120840708006
 30
0.0
 11
-8.168458122614977
 21
306.4120840759737
 31
0.0
  0
LWPOLYLINE
  5
92
330
A
100
AcDbEntity
  8
0
  6
Continuous
 62
     7
100
AcDbPolyline
 90
        9
 70
   128
 43
0.0
 10
179.2246848122302
 20
306.412078196929
 10
180.6540462639645
 20
306.2683919073103
 10
182.0309753952859
 20
305.8370521679582
 10
183.2921798190352
 20
305.1358934928025
 10
184.3854807108053
 20
304.1939243714293
 10
185.2656457877228
 20
303.0501161557113
 10
185.896260668318
 20
301.7517907285404
 10
186.2512354162542
 20
300.3526626925713
 10
186.3158839388624
 20
298.9106170779681
  0
LWPOLYLINE
  5
9D
330
A
100
AcDbEntity
  8
0
  6
Continuous
 62
     7
100
AcDbPolyline
 90
       20
 70
   128
 43
0.0
 10
205.3118994888002
 20
86.41209007597453
 10
203.4670200782569
 20
103.7377994919621
 10
201.7952062778538
 20
119.7262966065424
 10
200.2975687634698
 20
134.3775814189618
 10
198.9684812704459
 20
147.6916539292202
 10
197.7997075787515
 20
159.6685141373177
 10
196.7999652259667
 20
170.1298945227113
 10
195.9402275163822
 20
179.3013937811797
 10
195.2145481134145
 20
187.1830119127232
 10
194.6178040517613
 20
193.7747489173417
 10
194.129144492455
 20
199.2297845304774
 10
193.5585403864398
 20
205.6271853573676
 10
192.9074806852957
 20
212.9680293920012
 10
192.1776921900324
 20
221.2523166343779
 10
191.3709805037983
 20
230.480047084498
 10
190.4891579516497
 20
240.6512207423614
 10
189.3557864881913
 20
253.8498687633553
 10
188.122974403778
 20
268.3589882808192
 10
186.7925795132032
 20
284.1785792947529
 10
186.0147879190611
 20
293.5147840346635
  0
LWPOLYLINE
  5
B3
330
A
100
AcDbEntity
  8
0
  6
Continuous
 62
     7
100
AcDbPolyline
 90
        9
 70
   128
 43
0.0
 10
184.9129458871381
 20
283.0164559602866
 10
184.9964637257984
 20
283.0017927648014
 10
185.1937399426136
 20
283.3915422895653
 10
185.3714943848315
 20
284.2362164965705
 10
185.5401480781219
 20
285.8749076502645
 10
185.7167538030983
 20
288.4014957579702
 10
185.9185531250953
 20
291.8159808196875
 10
186.1622769673838
 20
296.1183628354163
 10
186.3234406535129
 20
298.9130232474755
  0
LWPOLYLINE
  5
BE
330
A
100
AcDbEntity
  8
0
  6
Continuous
 62
     7
100
AcDbPolyline
 90
        9
 70
   128
 43
0.0
 10
-49.02682639822761
 20
299.223330574736
 10
-48.90632722279106
 20
300.6207259247802
 10
-48.51335742940631
 20
301.9671315199688
 10
-47.86326648196162
 20
303.2099565393017
 10
-46.98144703834023
 20
304.3006560358779
 10
-45.90234310908354
 20
305.1966271103971
 10
-44.66810466875098
 20
305.8628729873188
 10
-43.32694127107485
 20
306.2733699945935
 10
-41.93123897596964
 20
306.4120840525144
  0
LWPOLYLINE
  5
C9
330
A
100
AcDbEntity
  8
0
  6
Continuous
 62
     7
100
AcDbPolyline
 90
       23
 70
   128
 43
0.0
 10
-49.03106511315298
 20
299.2196173472517
 10
-48.94798076395512
 20
290.8414130069413
 10
-48.93454173532005
 20
280.5484197165666
 10
-48.99820862880858
 20
270.436264207644
 10
-49.09941884784405
 20
261.1516046846201
 10
-49.21100563648701
 20
252.7345063902865
 10
-49.3203343350985
 20
245.2675178764056
 10
-49.42813645166651
 20
238.2895611410971
 10
-49.53278972192467
 20
231.7437449385928
 10
-49.63296848788185
 20
225.6300692688927
 10
-49.69561771596924
 20
221.8613786678152
 10
-49.76953417979901
 20
217.4464023224672
 10
-49.86085541246072
 20
212.0307260270896
 10
-49.9699213467921
 20
205.6143497816822
 10
-50.09709273640557
 20
198.1972735862451
 10
-50.24273198385359
 20
189.7794974407783
 10
-50.40718140954782
 20
180.3610213452817
 10
-50.62320704098202
 20
168.108025685915
 10
-50.86558588892359
 20
154.4929662056744
 10
-51.13447228217527
 20
139.51584290456
 10
-51.42976028330136
 20
123.1766557825719
 10
-51.7510124840864
 20
105.4754048397101
 10
-52.09738518002985
 20
86.41209007597424
  0
LINE
  5
E2
330
A
100
AcDbEntity
  8
0
  6
Continuous
 62
     7
100
AcDbLine
 10
68.95452425681783
 20
309.4250000000002
 30
0.0
 11
121.7670302742923
 21
309.4250000000002
 31
0.0
  0
LINE
  5
E3
330
A
100
AcDbEntity
  8
0
  6
Continuous
 62
     7
100
AcDbLine
 10
16.14201823934335
 20
309.4250000000002
 30
0.0
 11
68.95452425681783
 21
309.4250000000002
 31
0.0
  0
LINE
  5
E4
330
A
100
AcDbEntity
  8
0
  6
Continuous
 62
     7
100
AcDbLine
 10
68.95452425681783
 20
326.4250000000002
 30
0.0
 11
127.9545242568178
 21
326.4250000000002
 31
0.0
  0
LINE
  5
E5
330
A
100
AcDbEntity
  8
0
  6
Continuous
 62
     7
100
AcDbLine
 10
9.954524256817837
 20
326.4250000000002
 30
0.0
 11
68.95452425681783
 21
326.4250000000002
 31
0.0
  0
LINE
  5
E6
330
A
100
AcDbEntity
  8
0
  6
Continuous
 62
     7
100
AcDbLine
 10
69.00879812870257
 20
300.2649227775937
 30
0.0
 11
69.00879812825241
 21
86.41209007597403
 31
0.0
  0
LINE
  5
E7
330
A
100
AcDbEntity
  8
0
  6
Continuous
 62
     7
100
AcDbLine
 10
145.081805527183
 20
299.1479240978519
 30
0.0
 11
145.068191638715
 21
299.1526954862838
 31
0.0
  0
LINE
  5
E8
330
A
100
AcDbEntity
  8
0
  6
Continuous
 62
     7
100
AcDbLine
 10
146.2249872554266
 20
86.41209007597398
 30
0.0
 11
171.6203665324469
 21
298.7524960896061
 31
0.0
  0
LINE
  5
E9
330
A
100
AcDbEntity
  8
0
  6
Continuous
 62
     7
100
AcDbLine
 10
146.2249872554278
 20
86.41209007597408
 30
0.0
 11
140.7009269285919
 21
86.41209007597408
 31
0.0
  0
LINE
  5
EA
330
A
100
AcDbEntity
  8
0
  6
Continuous
 62
     7
100
AcDbLine
 10
140.6073599001277
 20
86.41209007597351
 30
0.0
 11
69.00879812825248
 21
86.41209007597291
 31
0.0
  0
LINE
  5
EB
330
A
100
AcDbEntity
  8
0
  6
Continuous
 62
     7
100
AcDbLine
 10
-39.45338834963211
 20
298.0046651361877
 30
0.0
 11
-39.44732913139123
 21
298.0011356914429
 31
0.0
  0
LINE
  5
EC
330
A
100
AcDbEntity
  8
0
  6
Continuous
 62
     7
100
AcDbLine
 10
69.00879812870255
 20
300.2649227775937
 30
0.0
 11
69.00879812870255
 21
300.265125175298
 31
0.0
  0
LINE
  5
ED
330
A
100
AcDbEntity
  8
0
  6
Continuous
 62
     7
100
AcDbLine
 10
69.00879812825255
 20
86.41209007597291
 30
0.0
 11
-5.798423885243209
 21
86.4120900759743
 31
0.0
  0
LINE
  5
EE
330
A
100
AcDbEntity
  8
0
  6
Continuous
 62
     7
100
AcDbLine
 10
171.620456865022
 20
298.7535441047579
 30
0.0
 11
171.6203665324468
 21
298.7524960896061
 31
0.0
  0
LWPOLYLINE
  5
EF
330
A
100
AcDbEntity
  8
0
  6
Continuous
 62
     7
100
AcDbPolyline
 90
        5
 70
   128
 43
0.0
 10
74.80755995873467
 20
306.4120840759737
 10
72.81250958889508
 20
305.9868491504472
 10
70.97845398058431
 20
304.6815798582823
 10
69.66360991665204
 20
302.6979370250086
 10
69.00879812870255
 20
300.2651251752979
  0
LINE
  5
F6
330
A
100
AcDbEntity
  8
0
  6
Continuous
 62
     7
100
AcDbLine
 10
74.80755995873384
 20
306.4120840759737
 30
0.0
 11
138.0210323040251
 21
306.4120840759738
 31
0.0
  0
LINE
  5
F7
330
A
100
AcDbEntity
  8
0
  6
Continuous
 62
     7
100
AcDbLine
 10
138.371042304025
 20
306.412084075974
 30
0.0
 11
166.918907190496
 21
306.4120840759741
 31
0.0
  0
LWPOLYLINE
  5
F8
330
A
100
AcDbEntity
  8
0
  6
Continuous
 62
     7
100
AcDbPolyline
 90
        7
 70
   128
 43
0.0
 10
171.620456865022
 20
298.7535441047579
 10
171.4790014101484
 20
301.1269115298135
 10
170.8234302809178
 20
303.2960346321977
 10
169.7276540823533
 20
305.0163615835548
 10
168.3152128818334
 20
306.0939388048668
 10
167.1498204819994
 20
306.4035731376593
 10
166.9189071905196
 20
306.4120840759741
  0
LINE
  5
101
330
A
100
AcDbEntity
  8
0
  6
Continuous
 62
     7
100
AcDbLine
 10
-32.46126508483907
 20
306.4120840759738
 30
0.0
 11
74.80755995873384
 21
306.4120840759737
 31
0.0
  0
LINE
  5
102
330
A
100
AcDbEntity
  8
0
  6
Continuous
 62
     7
100
AcDbLine
 10
186.2581068369452
 20
298.9220203727789
 30
0.0
 11
186.2728263262934
 21
298.9157355206367
 31
0.0
  0
LINE
  5
103
330
A
100
AcDbEntity
  8
0
  6
Continuous
 62
     7
100
AcDbLine
 10
166.918907190496
 20
306.4120840759741
 30
0.0
 11
179.2338122452443
 21
306.412084075974
 31
0.0
  0
LINE
  5
104
330
A
100
AcDbEntity
  8
0
  6
Continuous
 62
     7
100
AcDbLine
 10
205.2629664645434
 20
86.41209007597387
 30
0.0
 11
146.2249872554278
 21
86.41209007597408
 31
0.0
  0
LINE
  5
105
330
A
100
AcDbEntity
  8
0
  6
Continuous
 62
     7
100
AcDbLine
 10
-48.98917930139606
 20
299.2267592193067
 30
0.0
 11
-48.97520319321102
 21
299.2211910522286
 31
0.0
  0
LINE
  5
106
330
A
100
AcDbEntity
  8
0
  6
Continuous
 62
     7
100
AcDbLine
 10
-41.82593616961955
 20
306.4120840759742
 30
0.0
 11
-32.44441761178276
 21
306.4120840759741
 31
0.0
  0
LINE
  5
107
330
A
100
AcDbEntity
  8
0
  6
Continuous
 62
     7
100
AcDbLine
 10
-5.801432339117063
 20
86.41209007597447
 30
0.0
 11
-52.09354019524028
 21
86.41209007597465
 31
0.0
  0
LWPOLYLINE
  5
108
330
A
100
AcDbEntity
  8
0
  6
PHANTOM
 62
     7
100
AcDbPolyline
 90
        9
 70
   128
 43
0.0
 10
171.6203665324469
 20
298.7524960896061
 10
171.6203347527117
 20
298.752496339616
 10
166.6866441532577
 20
298.8495785399041
 10
161.2490119679786
 20
299.0103174199689
 10
155.6355228592414
 20
299.1468645737322
 10
151.6491961035493
 20
299.2013624581649
 10
147.8305460039879
 20
299.2371264198148
 10
144.3184667849517
 20
299.2680026430458
 10
141.0963284890618
 20
299.3049428331571
  0
LWPOLYLINE
  5
113
330
A
100
AcDbEntity
  8
0
  6
PHANTOM
 62
     7
100
AcDbPolyline
 90
       24
 70
   128
 43
0.0
 10
145.068191638715
 20
299.1526954862838
 10
145.0118517916859
 20
299.1724414460812
 10
144.4778940125436
 20
299.2169203377353
 10
142.6320814875277
 20
299.2897908941129
 10
139.6835904397278
 20
299.3487225156524
 10
132.8943152978115
 20
299.4244267931425
 10
125.5781409124686
 20
299.4794181543613
 10
117.5472241974393
 20
299.5251795885418
 10
111.8797662137502
 20
299.5538916141989
 10
105.7729067932979
 20
299.5825413838403
 10
103.4653436561622
 20
299.5927565222518
 10
101.0167202783124
 20
299.5991512854903
 10
98.21360190362767
 20
299.5903519085172
 10
95.71426498174611
 20
299.5563417283194
 10
94.80846285544386
 20
299.5446111796295
 10
92.285158788233
 20
299.5258813288744
 10
90.0796405751325
 20
299.5291261236464
 10
87.65279246632337
 20
299.5551012272348
 10
85.48602848900076
 20
299.6002532831504
 10
79.8643431448822
 20
299.7812284944405
 10
74.62819729218644
 20
300.0047403464689
 10
69.00882209026282
 20
300.2649216853654
 10
69.00879812870257
 20
300.2649227775937
 10
69.00879812870257
 20
300.2649227775937
  0
LWPOLYLINE
  5
12D
330
A
100
AcDbEntity
  8
0
  6
PHANTOM
 62
     7
100
AcDbPolyline
 90
       31
 70
   128
 43
0.0
 10
69.00879812870259
 20
300.2651251752979
 10
69.00877416232211
 20
300.2651262708099
 10
65.43590241323532
 20
300.4238424490369
 10
61.25853903523092
 20
300.5827138655912
 10
58.14209302806066
 20
300.6715823222194
 10
54.7326103795848
 20
300.730853044892
 10
50.95853142244735
 20
300.7550000542799
 10
47.0298227126927
 20
300.737498232991
 10
42.97290760938087
 20
300.6700233936979
 10
38.99922397541434
 20
300.5711522993934
 10
33.23388245611161
 20
300.4014360332994
 10
27.82267789179572
 20
300.2263819911144
 10
21.80134105248719
 20
300.0165876089761
 10
15.98211919959561
 20
299.8188685179616
 10
10.07462257969101
 20
299.6623940280231
 10
6.406180579337367
 20
299.602151981988
 10
2.5582130511963
 20
299.5522093403816
 10
-1.491684185805253
 20
299.4843934905025
 10
-5.402828781035831
 20
299.3829415848942
 10
-9.402516172198408
 20
299.2653329682442
 10
-12.89733849817118
 20
299.1750020379204
 10
-16.28267036596825
 20
299.0960010054592
 10
-21.05962303008781
 20
298.981415798271
 10
-25.60316546281798
 20
298.856810409147
 10
-31.21254343983976
 20
298.6470848704272
 10
-34.37701068942026
 20
298.4773257271132
 10
-37.05500818832109
 20
298.2798240652828
 10
-38.26183443842071
 20
298.1605882565139
 10
-39.09154838866471
 20
298.0631312706549
 10
-39.46466938083285
 20
298.0112362439948
 10
-39.45338834963211
 20
298.0046651361877
  0
LWPOLYLINE
  5
14E
330
A
100
AcDbEntity
  8
0
  6
PHANTOM
 62
     7
100
AcDbPolyline
 90
       11
 70
   128
 43
0.0
 10
186.2728263262934
 20
298.9157355206367
 10
186.3142753819115
 20
298.8980378152455
 10
186.1062853552468
 20
298.8735940931599
 10
185.5699367268804
 20
298.876203671231
 10
184.7209931111877
 20
298.8941740195754
 10
183.641474462933
 20
298.9074904803611
 10
180.9685632031339
 20
298.9036308238068
 10
178.0973417795641
 20
298.8513656804565
 10
171.6205237395076
 20
298.75354423617
 10
171.6204919076038
 20
298.7535443988836
 10
171.6204919076038
 20
298.7535443988836
  0
LINE
  5
15B
330
A
100
AcDbEntity
  8
0
  6
PHANTOM
 62
     7
100
AcDbLine
 10
171.6204919076037
 20
298.7535443988836
 30
0.0
 11
171.6204600550481
 21
298.753544131533
 31
0.0
  0
LWPOLYLINE
  5
15C
330
A
100
AcDbEntity
  8
0
  6
PHANTOM
 62
     7
100
AcDbPolyline
 90
        4
 70
   128
 43
0.0
 10
141.0909464031183
 20
299.5471104922367
 10
141.4551315513546
 20
299.5458638285321
 10
144.9207847957077
 20
299.5181472170218
 10
145.004827980481
 20
299.5172396867452
  0
LWPOLYLINE
  5
162
330
A
100
AcDbEntity
  8
0
  6
PHANTOM
 62
     7
100
AcDbPolyline
 90
        8
 70
   128
 43
0.0
 10
-39.50545827072222
 20
299.0140410555075
 10
-41.08316474654443
 20
299.0378396886473
 10
-43.95044592768019
 20
299.0887942954344
 10
-45.84098660673666
 20
299.128021213314
 10
-46.9054878195634
 20
299.1803954895082
 10
-48.40415902434551
 20
299.3766210800353
 10
-49.02475285665314
 20
299.2409319415413
 10
-48.98917930139606
 20
299.2267592193067
  0
LWPOLYLINE
  5
16C
330
A
100
AcDbEntity
  8
0
  6
Continuous
 62
     7
100
AcDbPolyline
 90
       12
 70
   128
 43
0.0
 10
171.6398877140919
 20
-228.8619714371635
 10
177.9524136068007
 20
-222.9892486348651
 10
180.5649813423343
 20
-220.6385524096332
 10
182.3033364460826
 20
-219.0022836386484
 10
183.5872078735664
 20
-217.5940964093964
 10
184.5958499646494
 20
-216.2424764649317
 10
185.4166171205863
 20
-214.6791508623322
 10
185.9439944713125
 20
-213.1049803635995
 10
186.2344936237636
 20
-211.4924267317811
 10
186.3143738742761
 20
-209.8457257797974
 10
186.2112072992375
 20
-208.1598100229022
 10
186.1824943651973
 20
-207.9521890228942
  0
LWPOLYLINE
  5
17A
330
A
100
AcDbEntity
  8
0
  6
Continuous
 62
     7
100
AcDbPolyline
 90
        7
 70
   128
 43
0.0
 10
-36.15142139233606
 20
-216.3745652143346
 10
-35.31388943269137
 20
-217.1601527812319
 10
-32.39040058703208
 20
-219.5742714702701
 10
-28.95354758241685
 20
-222.1423775778725
 10
-24.80782663150412
 20
-225.100531789068
 10
-21.30481863114485
 20
-227.8824605285549
 10
-20.11657864804544
 20
-228.9269441175557
  0
LWPOLYLINE
  5
183
330
A
100
AcDbEntity
  8
0
  6
Continuous
 62
     7
100
AcDbPolyline
 90
       13
 70
   128
 43
0.0
 10
68.99579325203487
 20
-137.9206207851455
 10
66.28716250176767
 20
-138.4549989454283
 10
62.61008878125231
 20
-138.9602255128409
 10
59.23644634111573
 20
-139.1658314893594
 10
55.68080435681253
 20
-139.0779400827965
 10
52.15820213158623
 20
-138.6759506389408
 10
48.75277305482471
 20
-137.9666104092168
 10
45.48086887430432
 20
-136.9582037187572
 10
42.28321506193131
 20
-135.6390196232032
 10
39.03472362657232
 20
-134.0175561938195
 10
35.26602058934969
 20
-131.8654323883157
 10
30.74839552086663
 20
-129.0564466047304
 10
29.87436253744154
 20
-128.5036617458198
  0
LWPOLYLINE
  5
192
330
A
100
AcDbEntity
  8
0
  6
Continuous
 62
     7
100
AcDbPolyline
 90
        5
 70
   128
 43
0.0
 10
161.6386164596477
 20
-235.344694779457
 10
164.4290548511673
 20
-233.9463020501783
 10
167.1591325981342
 20
-232.3252708002428
 10
169.9763214307753
 20
-230.2843856710174
 10
171.6710293992042
 20
-228.9085341099455
  0
LWPOLYLINE
  5
199
330
A
100
AcDbEntity
  8
0
  6
Continuous
 62
     7
100
AcDbPolyline
 90
       34
 70
   128
 43
0.0
 10
-20.05858247530563
 20
-228.8551190975133
 10
-18.97287280995704
 20
-229.9236496236332
 10
-17.59868118851111
 20
-231.5531807481971
 10
-16.52014951118187
 20
-233.2849429545427
 10
-15.78427281814679
 20
-235.0619900758078
 10
-15.37007606955737
 20
-236.8681145521359
 10
-15.26779623618704
 20
-238.7832229310404
 10
-15.44678150523128
 20
-240.8679791471196
 10
-15.93946522453025
 20
-243.252415133857
 10
-16.77622807084936
 20
-245.9237952188659
 10
-17.96821463978904
 20
-248.9474009569057
 10
-19.69161706585144
 20
-252.6157806958418
 10
-21.8470517305399
 20
-256.5986592893134
 10
-24.58573362648327
 20
-261.1867146632381
 10
-28.27077832278742
 20
-267.0796019863471
 10
-31.83102489607558
 20
-272.9423379985535
 10
-34.31108041246521
 20
-277.4181172227681
 10
-36.41409773266824
 20
-281.7284367828214
 10
-37.80811466165924
 20
-284.9817591220517
 10
-38.76536703117583
 20
-287.6637755322051
 10
-39.34329272690569
 20
-289.9451009700285
 10
-39.64669605216815
 20
-292.135641417341
 10
-39.67609135956876
 20
-294.2445035475301
 10
-39.43405303305177
 20
-296.2816157032288
 10
-38.84860871414723
 20
-298.4576526154068
 10
-38.05837183262198
 20
-300.319642239928
 10
-36.99308228085264
 20
-302.1485835356825
 10
-35.69739587872039
 20
-303.8645563689457
 10
-34.16455777367374
 20
-305.4982237048633
 10
-32.37324837304485
 20
-307.0895467623429
 10
-30.28255923415939
 20
-308.7056164579635
 10
-27.50187530574062
 20
-310.6842980131154
 10
-23.85994549923312
 20
-313.0025271258285
 10
-21.65129970688684
 20
-314.2139581262045
  0
LWPOLYLINE
  5
1BD
330
A
100
AcDbEntity
  8
0
  6
Continuous
 62
     7
100
AcDbPolyline
 90
        3
 70
   128
 43
0.0
 10
135.7301181787735
 20
-121.0746304659361
 10
130.5808243542291
 20
-118.696885768814
 10
125.5284982254211
 20
-116.3640324451109
  0
LWPOLYLINE
  5
1C2
330
A
100
AcDbEntity
  8
0
  6
Continuous
 62
     7
100
AcDbPolyline
 90
        3
 70
   128
 43
0.0
 10
-7.694197320545423
 20
-318.4773841077927
 10
0.1084760643858817
 20
-318.4465408511116
 10
9.17581346973758
 20
-318.413873439359
  0
LWPOLYLINE
  5
1C7
330
A
100
AcDbEntity
  8
0
  6
Continuous
 62
     7
100
AcDbPolyline
 90
        3
 70
   128
 43
0.0
 10
136.4381001844373
 20
-312.0704600657825
 10
138.6975492941499
 20
-307.1544941969208
 10
141.5344846632225
 20
-302.2857784114617
  0
LWPOLYLINE
  5
1CC
330
A
100
AcDbEntity
  8
0
  6
Continuous
 62
     7
100
AcDbPolyline
 90
        6
 70
   128
 43
0.0
 10
136.5258873630379
 20
-268.050010933179
 10
136.4723869323874
 20
-267.8216646343646
 10
136.4237782491869
 20
-267.5540180312377
 10
136.3833903518181
 20
-267.2850120732212
 10
136.3467155427773
 20
-267.0124324888921
 10
136.3256142717937
 20
-266.8497101105707
  0
LWPOLYLINE
  5
1D4
330
A
100
AcDbEntity
  8
0
  6
Continuous
 62
     7
100
AcDbPolyline
 90
        4
 70
   128
 43
0.0
 10
138.4685925234136
 20
-251.7001114216953
 10
138.5265562615437
 20
-251.5897146661082
 10
139.4787647859394
 20
-250.0938616561063
 10
140.3588240624373
 20
-248.9207190722996
  0
LWPOLYLINE
  5
1DA
330
A
100
AcDbEntity
  8
0
  6
Continuous
 62
     7
100
AcDbPolyline
 90
        7
 70
   128
 43
0.0
 10
-48.96089219555566
 20
-171.7795156267405
 10
-48.96692641142886
 20
-174.2489087556175
 10
-49.22025309635785
 20
-176.7484417005239
 10
-49.65909587902004
 20
-179.1545828130651
 10
-50.22552389264831
 20
-181.4694861230589
 10
-50.86928671163195
 20
-183.6932501275032
 10
-51.55002459283239
 20
-185.8236533569293
  0
LWPOLYLINE
  5
1E3
330
A
100
AcDbEntity
  8
0
  6
Continuous
 62
     7
100
AcDbPolyline
 90
        3
 70
   128
 43
0.0
 10
14.13565087103906
 20
-119.7341677086256
 10
13.51948922005465
 20
-119.369783803367
 10
12.92322601217549
 20
-118.7799861085422
  0
CIRCLE
  5
1E8
330
A
100
AcDbEntity
  8
0
  6
Continuous
 62
     7
100
AcDbCircle
 10
68.95452425681783
 20
-233.1860118449818
 30
0.0
 40
58.99999999999997
  0
LINE
  5
1E9
330
A
100
AcDbEntity
  8
0
  6
Continuous
 62
     7
100
AcDbLine
 10
69.0087981281465
 20
-137.9641832769456
 30
0.0
 11
69.0087981281465
 21
-137.9641841775171
 31
0.0
  0
LWPOLYLINE
  5
1EA
330
A
100
AcDbEntity
  8
0
  6
Continuous
 62
     7
100
AcDbPolyline
 90
       19
 70
   128
 43
0.0
 10
69.00879812814654
 20
-137.9641841775169
 10
69.00883968585195
 20
-137.9641749320536
 10
75.59364132077679
 20
-136.0226462427528
 10
81.94397326458846
 20
-133.3181826412912
 10
88.06167151083965
 20
-130.0574863976264
 10
93.94857205308307
 20
-126.4472597817162
 10
98.56128205444724
 20
-123.3244992101394
 10
103.2057015966728
 20
-120.198473755114
 10
108.0231382261175
 20
-117.4632175495956
 10
113.1548994891392
 20
-115.5127647265398
 10
115.7353298125618
 20
-114.9997257187397
 10
118.36005196522
 20
-114.8379378206519
 10
121.0824732261841
 20
-115.0581953061158
 10
123.7413768922457
 20
-115.67776634573
 10
127.303209447359
 20
-117.3316915838011
 10
128.9813779003141
 20
-118.6524918528838
 10
130.3975661964877
 20
-120.251489288687
 10
132.4042834777645
 20
-123.7692328490372
 10
132.4835101162893
 20
-123.9648271145889
  0
LWPOLYLINE
  5
1FF
330
A
100
AcDbEntity
  8
0
  6
Continuous
 62
     7
100
AcDbPolyline
 90
        9
 70
   128
 43
0.0
 10
150.8485383814556
 20
-146.4397816278182
 10
153.6778527026725
 20
-147.2125110255643
 10
157.2611653375852
 20
-147.8069900860776
 10
164.8271412115924
 20
-148.533469425729
 10
170.3387286081377
 20
-149.1811571512287
 10
173.943027456123
 20
-149.9693345674302
 10
177.359865617699
 20
-151.3144009455708
 10
179.2325363954675
 20
-152.5108059459568
 10
180.7359465925006
 20
-153.8972513417446
  0
LWPOLYLINE
  5
20A
330
A
100
AcDbEntity
  8
0
  6
Continuous
 62
     7
100
AcDbPolyline
 90
        6
 70
   128
 43
0.0
 10
183.6956192138694
 20
-190.8460981109282
 10
183.6776704186754
 20
-191.6808468137683
 10
184.5813811794455
 20
-199.378451713503
 10
185.4062555170078
 20
-203.4740983238189
 10
186.1334817190061
 20
-207.5859941852757
 10
186.1538348626622
 20
-207.9453785354649
  0
LINE
  5
212
330
A
100
AcDbEntity
  8
0
  6
Continuous
 62
     7
100
AcDbLine
 10
171.5873868540188
 20
-228.8055388334536
 30
0.0
 11
166.9189071905196
 21
-223.5565047285909
 31
0.0
  0
LWPOLYLINE
  5
213
330
A
100
AcDbEntity
  8
0
  6
Continuous
 62
     7
100
AcDbPolyline
 90
        7
 70
   128
 43
0.0
 10
69.00879803266112
 20
-137.9641832982917
 10
69.08368926646446
 20
-138.3006881031541
 10
69.32390530010234
 20
-139.3800380002104
 10
69.70236364066593
 20
-141.0805445333527
 10
70.17639605863442
 20
-143.2104886972003
 10
70.44674002644805
 20
-144.4252104828368
 10
70.55008381153779
 20
-144.8895594492707
  0
LWPOLYLINE
  5
21C
330
A
100
AcDbEntity
  8
0
  6
Continuous
 62
     7
100
AcDbPolyline
 90
        7
 70
   128
 43
0.0
 10
-36.11584046068059
 20
-216.3300170586157
 10
-37.62144532918661
 20
-215.0061832125189
 10
-41.08316474654443
 20
-211.1111201774166
 10
-43.95044592768019
 20
-206.771016048733
 10
-45.84098660673666
 20
-202.3617405645937
 10
-46.9054878195634
 20
-197.6823159853808
 10
-47.81665187878028
 20
-189.106125689136
  0
LWPOLYLINE
  5
225
330
A
100
AcDbEntity
  8
0
  6
Continuous
 62
     7
100
AcDbPolyline
 90
       22
 70
   128
 43
0.0
 10
-48.54738997409048
 20
-180.306897922386
 10
-49.02475285665314
 20
-169.410551839865
 10
-48.57593252436426
 20
-161.7630581765447
 10
-47.08798558152202
 20
-154.2478704672219
 10
-45.68672225085591
 20
-149.9402261761991
 10
-43.83237066880956
 20
-145.7964337134849
 10
-41.49293739441001
 20
-141.9309231521827
 10
-38.32022621757936
 20
-138.0812417881013
 10
-34.64290219829674
 20
-134.6686167052361
 10
-30.62929661887992
 20
-131.6736446530798
 10
-23.89135683456325
 20
-127.5399161864261
 10
-16.95802222968375
 20
-123.7266933914592
 10
-12.72577474442646
 20
-121.4939112763914
 10
-8.364209233613362
 20
-119.5263817974228
 10
-3.832344592575489
 20
-118.0668634462435
 10
1.210092437631884
 20
-117.3674340158604
 10
6.299573403630576
 20
-117.6184149131765
 10
11.97990511225695
 20
-118.9636229387395
 10
17.3954948793672
 20
-121.1758995950582
 10
22.167857602806
 20
-123.7357173802836
 10
26.79598375378879
 20
-126.5561582404166
 10
29.86270616976928
 20
-128.5104879493167
  0
LWPOLYLINE
  5
23D
330
A
100
AcDbEntity
  8
0
  6
Continuous
 62
     7
100
AcDbPolyline
 90
        7
 70
   128
 43
0.0
 10
-15.23361726321772
 20
-223.6590322349475
 10
-15.46057962483948
 20
-223.9035942764702
 10
-16.68292326191528
 20
-225.2207239199287
 10
-18.12544626559309
 20
-226.7751066186701
 10
-19.24193737586435
 20
-227.9781754455475
 10
-19.90652115243169
 20
-228.6942940198159
 10
-20.01071145103503
 20
-228.8065060008527
  0
LWPOLYLINE
  5
246
330
A
100
AcDbEntity
  8
0
  6
Continuous
 62
     7
100
AcDbPolyline
 90
       37
 70
   128
 43
0.0
 10
161.3015001717942
 20
-235.3220907079728
 10
161.2490119679786
 20
-235.3500979950808
 10
155.6355228592414
 20
-237.9047352439875
 10
151.6491961035493
 20
-239.8318387091523
 10
147.8305460039879
 20
-242.0798597385206
 10
144.3184667849517
 20
-244.7465176506752
 10
140.9780483919889
 20
-248.1432561504864
 10
138.2357322823375
 20
-252.030163121866
 10
136.7713314324109
 20
-255.0845561591097
 10
135.8495361346121
 20
-258.3374337490994
 10
135.5800653265443
 20
-261.7071784208975
 10
135.8806236920764
 20
-265.0817703664633
 10
137.2445566833689
 20
-270.5006521439992
 10
139.2780966018077
 20
-275.7455395594836
 10
141.5913684558498
 20
-280.8762348988227
 10
143.6098820446512
 20
-285.5907371730772
 10
144.5881244267992
 20
-288.6290922572774
 10
145.1022982543
 20
-291.7670940204733
 10
145.0118517916859
 20
-294.1492274642088
 10
144.4778940125436
 20
-296.4741528146205
 10
142.6320814875277
 20
-300.4795135370432
 10
139.6835904397278
 20
-305.0188391245582
 10
132.8943152978115
 20
-314.3918804240347
 10
125.5781409124686
 20
-323.3643101883814
 10
117.5472241974393
 20
-331.661260795984
 10
111.8797662137502
 20
-336.6900637425982
 10
105.7729067932979
 20
-341.1456073905363
 10
103.4653436561622
 20
-342.4441617649738
 10
101.0167202783124
 20
-343.4348526852967
 10
98.21360190362767
 20
-343.9314372780622
 10
95.71426498174611
 20
-343.6001836929351
 10
94.80846285544386
 20
-343.2757165781102
 10
92.285158788233
 20
-341.8132333841835
 10
90.0796405751325
 20
-339.8785391342282
 10
87.65279246632337
 20
-337.1092092650303
 10
85.48602848900076
 20
-334.1255255048673
 10
84.99253077528324
 20
-333.3184376232211
  0
LINE
  5
26D
330
A
100
AcDbEntity
  8
0
  6
Continuous
 62
     7
100
AcDbLine
 10
69.00879812870255
 20
-306.2997184112064
 30
0.0
 11
69.00879812870255
 21
-306.2996701089609
 31
0.0
  0
LWPOLYLINE
  5
26E
330
A
100
AcDbEntity
  8
0
  6
Continuous
 62
     7
100
AcDbPolyline
 90
        5
 70
   128
 43
0.0
 10
74.80755995873467
 20
-302.3201708919448
 10
72.81250958889508
 20
-303.6893099064782
 10
70.97845398058431
 20
-304.9479641420252
 10
69.66360991665201
 20
-305.8503003970825
 10
69.00879812870255
 20
-306.299670108961
  0
LWPOLYLINE
  5
275
330
A
100
AcDbEntity
  8
0
  6
Continuous
 62
     7
100
AcDbPolyline
 90
       11
 70
   128
 43
0.0
 10
10.17593046885847
 20
-311.1877838937755
 10
10.07462257969101
 20
-311.2633893896545
 10
6.406180579337367
 20
-313.6739462541942
 10
2.5582130511963
 20
-315.7913071101936
 10
-1.491684185805253
 20
-317.4314146757776
 10
-5.402828781035831
 20
-318.3090823639187
 10
-9.402516172198408
 20
-318.4067363258231
 10
-12.89733849817118
 20
-317.8186297516006
 10
-16.28267036596825
 20
-316.7498526025079
 10
-21.05962303008781
 20
-314.5509784090149
 10
-21.63977814845261
 20
-314.2106708405673
  0
LWPOLYLINE
  5
282
330
A
100
AcDbEntity
  8
0
  6
Continuous
 62
     7
100
AcDbPolyline
 90
       30
 70
   128
 43
0.0
 10
135.7241958605163
 20
-121.084635667726
 10
138.6786490871728
 20
-122.8323258755324
 10
141.6729096084546
 20
-125.1800121474724
 10
147.3516679157682
 20
-130.0290058094277
 10
152.8640933151441
 20
-134.332537333947
 10
158.7206152884955
 20
-137.99174456747
 10
165.1499641027356
 20
-140.9212706460473
 10
172.0349553007347
 20
-143.0326319520312
 10
179.189106170061
 20
-144.422527621505
 10
183.4657086242438
 20
-145.2078319107916
 10
187.6272940212278
 20
-146.1876232774208
 10
191.5895069919448
 20
-147.5508705581895
 10
195.2679921673264
 20
-149.4865425898948
 10
198.5735864626997
 20
-152.1577930833328
 10
201.3720582020778
 20
-155.4857790383608
 10
203.504528958066
 20
-159.2593162255629
 10
204.8153994135657
 20
-163.2677509291216
 10
205.2981438397007
 20
-167.3797206229535
 10
205.1470342734834
 20
-171.570665695851
 10
204.5185539089576
 20
-176.1292587480631
 10
203.6580768305683
 20
-180.7380254251579
 10
202.8219694854356
 20
-185.3760242339634
 10
202.2292800129423
 20
-190.0174252087888
 10
201.679376193273
 20
-194.581422796172
 10
200.7074329597296
 20
-198.9526037782126
 10
198.8853462249247
 20
-203.0191059889431
 10
195.671035473675
 20
-207.2848401214459
 10
191.6017004806188
 20
-210.9626969223338
 10
187.0140610914034
 20
-213.9768601575869
 10
185.3699607901452
 20
-214.7680177661481
  0
LWPOLYLINE
  5
2A2
330
A
100
AcDbEntity
  8
0
  6
Continuous
 62
     7
100
AcDbPolyline
 90
       21
 70
   128
 43
0.0
 10
69.00879812825255
 20
-357.3357321012311
 10
67.52101986852633
 20
-355.7678416407871
 10
64.01628563824193
 20
-351.4116983816934
 10
61.09051625437262
 20
-346.8943710212387
 10
58.55388833454493
 20
-342.2688208961687
 10
56.21597634090711
 20
-337.5874669688445
 10
53.88635473560739
 20
-332.9027282016269
 10
51.37459798079404
 20
-328.2670235568772
 10
48.49261711353383
 20
-323.7658399011785
 10
45.06468086927374
 20
-319.6595539294674
 10
42.39131044468727
 20
-317.298442192759
 10
39.34960553225744
 20
-315.3481655506522
 10
35.96715705288998
 20
-313.8908916751272
 10
32.38490675232543
 20
-312.9913652606708
 10
28.75288054281731
 20
-312.7129346887837
 10
25.22110433661917
 20
-313.1189483409666
 10
21.52283334329366
 20
-314.4259760696993
 10
17.96589747861476
 20
-316.1951801082294
 10
14.21497410534744
 20
-317.7061343521627
 10
10.0889979613087
 20
-318.3891928039191
 10
9.174446516070522
 20
-318.3326202884542
  0
LINE
  5
2B9
330
A
100
AcDbEntity
  8
0
  6
Continuous
 62
     7
100
AcDbLine
 10
69.00879812870257
 20
-306.2997184112061
 30
0.0
 11
69.00879812825241
 21
-357.335732101231
 31
0.0
  0
LWPOLYLINE
  5
2BA
330
A
100
AcDbEntity
  8
0
  6
Continuous
 62
     7
100
AcDbPolyline
 90
       18
 70
   128
 43
0.0
 10
136.3629608088221
 20
-312.0300650287465
 10
134.6675075163339
 20
-316.1182816571496
 10
131.367889384631
 20
-322.3559817103764
 10
126.5486474765376
 20
-329.8034193080185
 10
121.2436043197284
 20
-336.6974180571383
 10
115.4671771259374
 20
-343.2520362034045
 10
109.1967054249907
 20
-349.7197171122646
 10
105.2789958139995
 20
-353.5749322517401
 10
101.1793442707343
 20
-357.4991513749414
 10
96.89769826330097
 20
-361.1702617755707
 10
93.40718128686722
 20
-363.5565846707971
 10
89.806533681709
 20
-365.2434017389337
 10
86.09673804872649
 20
-365.9913169045403
 10
82.53861925613271
 20
-365.6874222950338
 10
78.96821609700563
 20
-364.5101851810004
 10
75.4680783421281
 20
-362.6193368913893
 10
72.12075576228286
 20
-360.17460875515
 10
69.00879812825248
 20
-357.3357321012311
  0
LWPOLYLINE
  5
2CE
330
A
100
AcDbEntity
  8
0
  6
Continuous
 62
     7
100
AcDbPolyline
 90
        8
 70
   128
 43
0.0
 10
-44.28625188254738
 20
-205.9878216003792
 10
-46.51819647564714
 20
-203.1603880746474
 10
-48.57331719033443
 20
-199.9306869291303
 10
-50.32862955542023
 20
-196.5067235449167
 10
-51.57376548189136
 20
-193.0038647511443
 10
-52.09354019524028
 20
-189.53975212378
 10
-51.67646261471252
 20
-186.2306583646197
 10
-51.50299313163685
 20
-185.8318390466297
  0
LWPOLYLINE
  5
2D8
330
A
100
AcDbEntity
  8
0
  6
Continuous
 62
     7
100
AcDbPolyline
 90
       21
 70
   128
 43
0.0
 10
-40.91057439346077
 20
-141.2242997418148
 10
-41.02150295389956
 20
-140.3795382583798
 10
-42.05447708740817
 20
-135.2661132294145
 10
-42.75129258307533
 20
-131.7123039282313
 10
-42.85721902938835
 20
-128.2300371697312
 10
-41.8916340560739
 20
-124.9084354303983
 10
-39.90180054176684
 20
-121.8799525073567
 10
-37.19034495239227
 20
-119.2980036500606
 10
-34.06155976940839
 20
-117.3161408624074
 10
-30.7749475778304
 20
-116.0387370566482
 10
-27.39417571418022
 20
-115.355138980696
 10
-22.16869040777475
 20
-115.072552816129
 10
-16.78848451546941
 20
-115.1731193224268
 10
-11.28783951788251
 20
-115.085090472674
 10
-5.71208865670296
 20
-114.3129965301353
 10
-2.039283762332866
 20
-113.6132136779244
 10
1.500383052812706
 20
-113.1599157076217
 10
4.822331625611075
 20
-113.2973546882664
 10
7.847268628793591
 20
-114.3466703840643
 10
10.5703534720991
 20
-116.3035197182723
 10
12.91516721814396
 20
-118.788829560338
  0
LWPOLYLINE
  5
2EF
330
A
100
AcDbEntity
  8
0
  6
PHANTOM
 62
     7
100
AcDbPolyline
 90
        9
 70
   128
 43
0.0
 10
132.4835101162893
 20
-123.9648271145889
 10
133.9352358183337
 20
-127.5488391055209
 10
135.8915958570712
 20
-132.1046202545386
 10
138.3120264751087
 20
-136.4394953227508
 10
141.3208176526449
 20
-140.3408272199948
 10
143.9248031173134
 20
-142.7866132820866
 10
146.8731321508779
 20
-144.7939767014272
 10
150.1704559944766
 20
-146.2545868650507
 10
150.8485383814556
 20
-146.4397816278182
  0
LWPOLYLINE
  5
2FA
330
A
100
AcDbEntity
  8
0
  6
PHANTOM
 62
     7
100
AcDbPolyline
 90
       11
 70
   128
 43
0.0
 10
180.7359465925006
 20
-153.8972513417446
 10
180.8646434494596
 20
-154.0159356270683
 10
182.333198062981
 20
-155.9718594721398
 10
183.4902626287622
 20
-158.1320965944314
 10
184.6600183028665
 20
-161.4452011884964
 10
185.3022820809485
 20
-164.9035709916829
 10
185.4643711315432
 20
-169.655983844424
 10
185.081220442897
 20
-174.4198101826722
 10
184.444056929671
 20
-179.1847040004035
 10
183.8441075065269
 20
-183.9403192915939
 10
183.6956192138694
 20
-190.8460981109282
  0
LWPOLYLINE
  5
307
330
A
100
AcDbEntity
  8
0
  6
PHANTOM
 62
     7
100
AcDbPolyline
 90
       46
 70
   128
 43
0.0
 10
166.918907190496
 20
-223.5565047285895
 10
173.3591624602071
 20
-217.5477572654961
 10
175.865917644742
 20
-215.3397689627048
 10
178.2019802862227
 20
-212.9673703826767
 10
179.0353990356972
 20
-211.7180155417857
 10
179.2338122452443
 20
-210.5393346705453
 10
179.1049440893504
 20
-208.5069757331213
 10
178.3958913744863
 20
-204.5589531494937
 10
177.59505899135
 20
-200.6251247350271
 10
176.8044454588312
 20
-194.8523444465931
 10
176.519671485438
 20
-189.0232634643187
 10
176.8090680636846
 20
-183.2108985545083
 10
177.3849317600767
 20
-178.8345184704556
 10
178.0135027309315
 20
-174.4514782713178
 10
178.4056956535977
 20
-170.0694990795692
 10
178.2724252054237
 20
-165.6963020176845
 10
177.838713034642
 20
-163.3281188097539
 10
177.0435373127277
 20
-161.0596950543594
 10
175.5997834312115
 20
-158.7615763345258
 10
174.0654407207849
 20
-157.5982213808322
 10
171.6942706809963
 20
-156.6994292356274
 10
169.1947160254359
 20
-156.1849671044377
 10
164.192034043921
 20
-155.6012930535187
 10
156.3542298197502
 20
-154.8430037994191
 10
151.8857844726534
 20
-154.0726892353979
 10
147.5186598735156
 20
-152.8256850874185
 10
143.4092901635926
 20
-150.9705395153982
 10
139.5432270674294
 20
-148.3435771441231
 10
136.127323785752
 20
-145.1456904460242
 10
132.5562687170991
 20
-140.5533078979939
 10
129.6603414516916
 20
-135.4604928370792
 10
127.3263971683144
 20
-130.0971711674734
 10
126.1923173162755
 20
-127.1827812776629
 10
124.6935977601739
 20
-124.4687031054649
 10
123.4507667551505
 20
-123.2915671615494
 10
121.5929129386896
 20
-122.4413459423487
 10
118.2874898438371
 20
-121.9315388459786
 10
114.9765158094443
 20
-122.3623084497266
 10
110.3706934489996
 20
-124.145850826227
 10
106.0714186144078
 20
-126.6767095770538
 10
101.9289077369458
 20
-129.5620701426946
 10
97.79337724789058
 20
-132.4091179636369
 10
91.36645726754869
 20
-136.3384985598456
 10
84.6804703062763
 20
-139.8673251685673
 10
77.74011345671174
 20
-142.7871585462216
 10
70.55008381149335
 20
-144.8895594492281
  0
LWPOLYLINE
  5
337
330
A
100
AcDbEntity
  8
0
  6
PHANTOM
 62
     7
100
AcDbPolyline
 90
        3
 70
   128
 43
0.0
 10
-47.81665187878028
 20
-189.106125689136
 10
-48.40415902434551
 20
-183.576305861627
 10
-48.54738997409048
 20
-180.306897922386
  0
LWPOLYLINE
  5
33C
330
A
100
AcDbEntity
  8
0
  6
PHANTOM
 62
     7
100
AcDbPolyline
 90
       37
 70
   128
 43
0.0
 10
70.55008381149335
 20
-144.8895594492281
 10
64.53996213204664
 20
-145.9092195340364
 10
58.45687712001006
 20
-146.2710832806215
 10
53.15388410127088
 20
-145.978203397659
 10
47.90327961603397
 20
-145.0743597062132
 10
42.82191121353108
 20
-143.5456502632394
 10
35.96483405381015
 20
-140.4196420371725
 10
29.42347884279973
 20
-136.6079039075413
 10
23.02203903272026
 20
-132.5594844981901
 10
18.72745444370263
 20
-129.9397728089209
 10
14.29920945298163
 20
-127.5610678230611
 10
9.913242492675243
 20
-125.7519403351515
 10
5.313519993884033
 20
-124.6450925267471
 10
1.560170100815855
 20
-124.4531239620783
 10
-2.158555277189486
 20
-124.9620405869049
 10
-6.098719053174231
 20
-126.2485444874741
 10
-9.885341141428401
 20
-127.990547726048
 10
-13.56607069995857
 20
-129.9486608717125
 10
-20.2043927601138
 20
-133.5865824721405
 10
-26.65201893690457
 20
-137.5372430931312
 10
-29.98576375742074
 20
-140.014371133639
 10
-33.0490623275007
 20
-142.8295717545572
 10
-35.68810523987792
 20
-146.0132416635532
 10
-38.3998658859555
 20
-150.8598926591845
 10
-40.24677147232097
 20
-156.113228289987
 10
-41.54196108355086
 20
-162.6698828223338
 10
-41.92868234320727
 20
-169.3438257700023
 10
-41.32408817868476
 20
-183.072552970642
 10
-39.8727323234639
 20
-196.7408546778816
 10
-39.09874254330104
 20
-200.1577346267983
 10
-37.72173942887924
 20
-203.3774770169789
 10
-35.40505222837903
 20
-206.8636807350632
 10
-32.61004370728879
 20
-209.9920670629248
 10
-28.09709007742194
 20
-213.9469570555439
 10
-23.24817037269028
 20
-217.5012615311627
 10
-19.13266084578867
 20
-220.4460084001689
 10
-15.23361726321766
 20
-223.6590322349475
  0
LWPOLYLINE
  5
363
330
A
100
AcDbEntity
  8
0
  6
PHANTOM
 62
     7
100
AcDbPolyline
 90
        6
 70
   128
 43
0.0
 10
84.99253077528324
 20
-333.3184376232211
 10
79.8643431448822
 20
-324.9315738622406
 10
74.62819729218644
 20
-315.4933482916864
 10
69.00882209026282
 20
-306.2997535930467
 10
69.00879812870257
 20
-306.2997184112061
 10
69.00879812870257
 20
-306.2997184112061
  0
LWPOLYLINE
  5
36B
330
A
100
AcDbEntity
  8
0
  6
PHANTOM
 62
     7
100
AcDbPolyline
 90
       39
 70
   128
 43
0.0
 10
74.80755995873384
 20
-302.3201708919436
 10
80.45583047966081
 20
-311.5024126575051
 10
85.71096358324234
 20
-320.9360447675386
 10
91.34357197770846
 20
-330.1290029097028
 10
93.12210390039396
 20
-332.5934135199273
 10
95.11426564850186
 20
-334.8814365461842
 10
96.24625196691788
 20
-335.9302779686885
 10
97.54482130068609
 20
-336.7317143875476
 10
97.74570190561313
 20
-336.8046433189846
 10
98.01495288520067
 20
-336.8427779009371
 10
98.91444513241728
 20
-336.6625506700432
 10
100.5111163746703
 20
-335.9977605355419
 10
102.0153148179024
 20
-335.13118379541
 10
107.5641898065188
 20
-331.0613977990987
 10
112.7130298696433
 20
-326.4698523940304
 10
120.3857859626801
 20
-318.52940714328
 10
127.3697289375445
 20
-309.9386875957133
 10
133.8555554665074
 20
-300.9695066898391
 10
136.4764253855117
 20
-296.9480198116991
 10
137.7368062811215
 20
-294.2577916383326
 10
138.0210323040251
 20
-292.2022947462907
 10
137.6522863095231
 20
-290.1184603620734
 10
136.9740350246586
 20
-288.101087109606
 10
135.1359710500603
 20
-283.8218963648009
 10
132.5863548245673
 20
-278.1068481135319
 10
130.3689456936493
 20
-272.2572194910422
 10
128.8759906457573
 20
-266.2214461785141
 10
128.4844021797382
 20
-261.6463766734437
 10
128.8656052847644
 20
-257.0779284729241
 10
130.1071720674026
 20
-252.6473517255068
 10
132.0869405738781
 20
-248.4867499104152
 10
135.4896023399849
 20
-243.6452732747829
 10
139.636362387242
 20
-239.4136139741766
 10
143.7047135690298
 20
-236.306538187786
 10
148.1224853719703
 20
-233.6747854358812
 10
152.7418986271346
 20
-231.4268678384894
 10
157.7139440448241
 20
-229.2056271952423
 10
162.5463959445063
 20
-226.7050579021635
 10
166.918907190496
 20
-223.5565047285895
  0
LWPOLYLINE
  5
394
330
A
100
AcDbEntity
  8
0
  6
PHANTOM
 62
     7
100
AcDbPolyline
 90
       36
 70
   128
 43
0.0
 10
-15.23361726321772
 20
-223.6590322349475
 10
-11.86108010290832
 20
-227.3756503124793
 10
-10.2051658896278
 20
-230.0056954940512
 10
-9.004119775299217
 20
-232.8679519825985
 10
-8.336672354464086
 20
-235.9070339394318
 10
-8.174920915714992
 20
-239.0178453349161
 10
-8.70252472875091
 20
-243.4571634475531
 10
-9.904624698512234
 20
-247.7746861362637
 10
-12.90574321279225
 20
-254.8792668200992
 10
-16.615864075118
 20
-261.6738644904839
 10
-20.6752780265527
 20
-268.3072155099732
 10
-24.72427580815961
 20
-274.9280562411222
 10
-28.77743774325017
 20
-282.2310352206775
 10
-31.419295072349
 20
-288.3072942430379
 10
-32.09988306352826
 20
-290.6083129368619
 10
-32.48941660288715
 20
-292.9700759418384
 10
-32.32767362613155
 20
-295.5394094078516
 10
-31.21902603032445
 20
-297.8845635308502
 10
-29.18835189460481
 20
-300.3121394278773
 10
-26.80146389967382
 20
-302.4125017322389
 10
-21.83297972143902
 20
-305.8908547653438
 10
-17.89668905979757
 20
-308.2068790717429
 10
-13.75967794504722
 20
-310.1203266780813
 10
-11.320884050256
 20
-310.900929191615
 10
-8.803218264955392
 20
-311.3354885212165
 10
-6.205177410623222
 20
-311.2595924865476
 10
-3.664756077729452
 20
-310.6776475374662
 10
-0.267572816943118
 20
-309.2859499195558
 10
2.953214607341353
 20
-307.4807580094528
 10
6.030441260191948
 20
-305.4420208742348
 10
12.03023573466626
 20
-300.9821226791576
 10
17.94773756893394
 20
-296.4072842351051
 10
24.07126248126775
 20
-292.1343298154954
 10
30.35300458338208
 20
-288.6531149499088
 10
37.04217869756031
 20
-286.0767649352528
 10
41.36103763738844
 20
-285.1473784684303
  0
LWPOLYLINE
  5
3BA
330
A
100
AcDbEntity
  8
0
  6
PHANTOM
 62
     7
100
AcDbPolyline
 90
        4
 70
   128
 43
0.0
 10
65.61717018427285
 20
-291.9855343090701
 10
65.70256036042813
 20
-292.0464419810328
 10
70.60756888928423
 20
-296.8606395828567
 10
74.80755995873384
 20
-302.3201708919436
  0
LWPOLYLINE
  5
3C0
330
A
100
AcDbEntity
  8
0
  6
PHANTOM
 62
     7
100
AcDbPolyline
 90
       15
 70
   128
 43
0.0
 10
69.00879812870259
 20
-306.2996701089608
 10
69.00877416232211
 20
-306.2996349305056
 10
65.43590241323532
 20
-301.5916135938137
 10
61.25853903523092
 20
-297.4324018121432
 10
58.14209302806066
 20
-295.1851989950769
 10
54.7326103795848
 20
-293.4179170324226
 10
50.95853142244735
 20
-292.1898121787859
 10
47.0298227126927
 20
-291.6617494083228
 10
42.97290760938087
 20
-291.8978568537658
 10
38.99922397541434
 20
-292.7817657031409
 10
33.23388245611161
 20
-295.0467687678886
 10
27.82267789179572
 20
-298.0892464051856
 10
21.80134105248719
 20
-302.3246367566072
 10
15.98211919959561
 20
-306.8546585887103
 10
10.17593046885847
 20
-311.1877838937755
  0
LINE
  5
3D1
330
A
100
AcDbEntity
  8
0
  6
Continuous
 62
     7
100
AcDbLine
 10
416.6612605552256
 20
326.4250000000002
 30
0.0
 11
422.848754537751
 21
309.4250000000002
 31
0.0
  0
LINE
  5
3D2
330
A
100
AcDbEntity
  8
0
  6
Continuous
 62
     7
100
AcDbLine
 10
528.4737665727
 20
309.4250000000002
 30
0.0
 11
534.6612605552255
 21
326.4250000000002
 31
0.0
  0
LINE
  5
3D3
330
A
100
AcDbEntity
  8
0
  6
Continuous
 62
     7
100
AcDbLine
 10
450.6612605552255
 20
309.4250000000002
 30
0.0
 11
450.6612605552255
 21
306.4120840759741
 31
0.0
  0
LINE
  5
3D4
330
A
100
AcDbEntity
  8
0
  6
Continuous
 62
     7
100
AcDbLine
 10
500.6612605552255
 20
306.412084075974
 30
0.0
 11
500.6612605552255
 21
309.4250000000002
 31
0.0
  0
LWPOLYLINE
  5
3D5
330
A
100
AcDbEntity
  8
0
  6
Continuous
 62
     7
100
AcDbPolyline
 90
       11
 70
   128
 43
0.0
 10
359.811090443192
 20
299.4528527853551
 10
359.3305347437897
 20
274.7913083050577
 10
358.8418469202367
 20
249.5667406219611
 10
358.3887516790183
 20
225.4155587977198
 10
357.9919675114203
 20
202.3377628323336
 10
357.6805347651775
 20
180.3333527258025
 10
357.485688856744
 20
159.4023284781266
 10
357.4272578122647
 20
139.5446900893058
 10
357.4905892458728
 20
120.7604375593402
 10
357.5953152295424
 20
103.0495708882297
 10
357.5781921291654
 20
86.4120900759743
  0
ARC
  5
3E2
330
A
100
AcDbEntity
  8
0
  6
Continuous
 62
     7
100
AcDbCircle
 10
366.9059669306665
 20
299.3153100759744
 30
0.0
 40
7.096773999999956
100
AcDbArc
 50
90.01131182354916
 51
179.0103569796195
  0
LWPOLYLINE
  5
3E3
330
A
100
AcDbEntity
  8
0
  6
Continuous
 62
     7
100
AcDbPolyline
 90
        9
 70
   128
 43
0.0
 10
553.8556636600692
 20
306.4120840738482
 10
555.2283230125129
 20
306.2781009122654
 10
556.5596302380225
 20
305.8768340031273
 10
557.7871421402367
 20
305.2236781642165
 10
558.8637360289445
 20
304.3437072544512
 10
559.7480827730726
 20
303.2707022876863
 10
560.4062333758025
 20
302.045854620643
 10
560.8129222353029
 20
300.7161846667822
 10
560.9525370604798
 20
299.3327368397714
  0
LWPOLYLINE
  5
3EE
330
A
100
AcDbEntity
  8
0
  6
Continuous
 62
     7
100
AcDbPolyline
 90
        4
 70
   128
 43
0.0
 10
560.8891983660452
 20
86.4120900759743
 10
560.9205425058335
 20
196.4085613963755
 10
560.9294623923748
 20
225.8892899246333
 10
560.9526686341801
 20
299.3124979255741
  0
LWPOLYLINE
  5
3F4
330
A
100
AcDbEntity
  8
0
  6
Continuous
 62
     7
100
AcDbPolyline
 90
        5
 70
   128
 43
0.0
 10
357.3112569355119
 20
299.1086664556492
 10
357.7572919519111
 20
283.477957724901
 10
358.2183153191889
 20
266.7003104603074
 10
358.6369778662166
 20
250.9757000113763
 10
358.7712280976506
 20
245.80256949559
  0
LWPOLYLINE
  5
3FB
330
A
100
AcDbEntity
  8
0
  6
Continuous
 62
     7
100
AcDbPolyline
 90
        9
 70
   128
 43
0.0
 10
357.3208783420729
 20
299.1272007421981
 10
357.4232314665581
 20
300.5309678673873
 10
357.8004773784524
 20
301.8869177624511
 10
358.4377773174483
 20
303.1417148845837
 10
359.310063441216
 20
304.2460024796282
 10
360.3830248551846
 20
305.1563440028348
 10
361.6144572126952
 20
305.8369316714415
 10
362.9559227997471
 20
306.2609949441
 10
364.3546558058182
 20
306.4118535253853
  0
LWPOLYLINE
  5
406
330
A
100
AcDbEntity
  8
0
  6
Continuous
 62
     7
100
AcDbPolyline
 90
        9
 70
   128
 43
0.0
 10
579.2274992248005
 20
306.4118153990421
 10
580.5670474586327
 20
306.2928295173577
 10
581.8594669874435
 20
305.9166555049558
 10
583.0571198267729
 20
305.2971589614791
 10
584.1158610483863
 20
304.4571742422229
 10
584.9966659418566
 20
303.4276627943878
 10
585.6670684472921
 20
302.2465719324952
 10
586.1023578392481
 20
300.9574361179721
 10
586.2864895526067
 20
299.6077722990928
  0
LWPOLYLINE
  5
411
330
A
100
AcDbEntity
  8
0
  6
Continuous
 62
     7
100
AcDbPolyline
 90
       38
 70
   128
 43
0.0
 10
608.4832076999974
 20
86.41209007597408
 10
606.7822168927698
 20
95.0915001486283
 10
605.2297914906985
 20
103.1233206893059
 10
603.8240279668812
 20
110.5075516980068
 10
602.5625362651688
 20
117.2441931747312
 10
601.4545120617241
 20
123.2662517203987
 10
600.5623101163102
 20
128.2017055022651
 10
600.0144807302249
 20
131.2771002916287
 10
599.5971258940078
 20
133.6463287378849
 10
599.2358348947807
 20
135.7174943560943
 10
598.7942612564596
 20
138.2762065324909
 10
598.2726773512929
 20
141.3420811874475
 10
597.6767963924194
 20
144.9151183209641
 10
596.7831126230594
 20
150.465380261536
 10
595.8862903493616
 20
156.371404525072
 10
595.0326147928042
 20
162.4402052132933
 10
594.2336167208143
 20
168.6717823261998
 10
593.4972299572542
 20
175.0651968236483
 10
592.8998170412813
 20
180.8513799276807
 10
592.47479992686
 20
185.362380384487
 10
592.136563732591
 20
189.2172721300983
 10
591.696495871294
 20
194.6187423579856
 10
591.2188506769816
 20
201.022816154199
 10
590.7757939610583
 20
207.5135097813732
 10
590.3699980319156
 20
213.9481843348646
 10
589.9956464835867
 20
220.3063254542839
 10
589.6529830689926
 20
226.4783529848542
 10
589.3377088777215
 20
232.448083590262
 10
589.0444739847152
 20
238.2462907927208
 10
588.5025799280461
 20
249.5676933594998
 10
588.0370553137642
 20
259.8747447046855
 10
587.9205267225217
 20
262.5355520202532
 10
587.7742645749135
 20
265.9181986409418
 10
587.5991024194393
 20
270.0310339001412
 10
587.3963191444483
 20
274.8740577978516
 10
587.0851768450863
 20
282.4672719880382
 10
586.7302038165428
 20
291.3585993133554
 10
586.4103019718728
 20
299.589310858203
  0
LINE
  5
439
330
A
100
AcDbEntity
  8
0
  6
Continuous
 62
     7
100
AcDbLine
 10
422.848754537751
 20
309.4250000000002
 30
0.0
 11
528.4737665727
 21
309.4250000000002
 31
0.0
  0
LINE
  5
43A
330
A
100
AcDbEntity
  8
0
  6
Continuous
 62
     7
100
AcDbLine
 10
416.6612605552256
 20
326.4250000000002
 30
0.0
 11
534.6612605552255
 21
326.4250000000002
 31
0.0
  0
LINE
  5
43B
330
A
100
AcDbEntity
  8
0
  6
Continuous
 62
     7
100
AcDbLine
 10
359.8868875248278
 20
299.4513730744691
 30
0.0
 11
359.8963214301882
 21
299.4512354888368
 31
0.0
  0
LINE
  5
43C
330
A
100
AcDbEntity
  8
0
  6
Continuous
 62
     7
100
AcDbLine
 10
471.3179389291564
 20
298.7215587644227
 30
0.0
 11
471.3179389291564
 21
298.7227073426186
 31
0.0
  0
LINE
  5
43D
330
A
100
AcDbEntity
  8
0
  6
Continuous
 62
     7
100
AcDbLine
 10
471.3179389291566
 20
298.7215587644227
 30
0.0
 11
471.3179389250758
 21
86.41209007597424
 31
0.0
  0
LINE
  5
43E
330
A
100
AcDbEntity
  8
0
  6
Continuous
 62
     7
100
AcDbLine
 10
471.3179389250776
 20
86.41209007597408
 30
0.0
 11
357.5478015263739
 21
86.41209007597479
 31
0.0
  0
LWPOLYLINE
  5
43F
330
A
100
AcDbEntity
  8
0
  6
Continuous
 62
     7
100
AcDbPolyline
 90
        7
 70
   128
 43
0.0
 10
380.4394320085356
 20
299.1485293426604
 10
380.7759368133979
 20
301.5063538419757
 10
381.8552867104542
 20
303.6171547762998
 10
383.5557932435964
 20
305.2429555034105
 10
385.6857374074441
 20
306.2004593614596
 10
386.9004591930806
 20
306.3961222717446
 10
387.3648081595145
 20
306.4120840759742
  0
LINE
  5
448
330
A
100
AcDbEntity
  8
0
  6
Continuous
 62
     7
100
AcDbLine
 10
466.1342809451915
 20
306.4120840759741
 30
0.0
 11
366.9283726723224
 21
306.4120840759744
 31
0.0
  0
LWPOLYLINE
  5
449
330
A
100
AcDbEntity
  8
0
  6
Continuous
 62
     7
100
AcDbPolyline
 90
        7
 70
   128
 43
0.0
 10
466.1342809451916
 20
306.4120840759741
 10
466.3788429867143
 20
306.4042365668097
 10
467.6959726301728
 20
306.0847144904509
 10
469.2503553289141
 20
304.9978818053429
 10
470.4534241557915
 20
303.2703829494753
 10
471.1695427300599
 20
301.0969800346065
 10
471.3179389291566
 20
298.7227073426186
  0
LWPOLYLINE
  5
452
330
A
100
AcDbEntity
  8
0
  6
Continuous
 62
     7
100
AcDbPolyline
 90
        5
 70
   128
 43
0.0
 10
544.7954196021885
 20
306.4120840759737
 10
546.1645586167219
 20
305.9868491504472
 10
547.423212852269
 20
304.6815798582823
 10
548.3255491073263
 20
302.6979370250086
 10
548.7749188192047
 20
300.2651251752979
  0
LINE
  5
459
330
A
100
AcDbEntity
  8
0
  6
Continuous
 62
     7
100
AcDbLine
 10
534.1772252062762
 20
300.7260021267444
 30
0.0
 11
534.2103374707362
 21
300.7165392962992
 31
0.0
  0
LINE
  5
45A
330
A
100
AcDbEntity
  8
0
  6
Continuous
 62
     7
100
AcDbLine
 10
466.1342809451916
 20
306.4120840759741
 30
0.0
 11
553.8107372314605
 21
306.4120840759738
 31
0.0
  0
LINE
  5
45B
330
A
100
AcDbEntity
  8
0
  6
Continuous
 62
     7
100
AcDbLine
 10
560.9368627948563
 20
249.3037357112188
 30
0.0
 11
599.8109808114755
 21
86.41209007597403
 31
0.0
  0
LINE
  5
45C
330
A
100
AcDbEntity
  8
0
  6
Continuous
 62
     7
100
AcDbLine
 10
599.8109808114756
 20
86.41209007597288
 30
0.0
 11
560.8891983660452
 21
86.41209007597419
 31
0.0
  0
LINE
  5
45D
330
A
100
AcDbEntity
  8
0
  6
Continuous
 62
     7
100
AcDbLine
 10
560.8052765040969
 20
86.41209007597424
 30
0.0
 11
471.3179389250776
 21
86.41209007597408
 31
0.0
  0
LWPOLYLINE
  5
45E
330
A
100
AcDbEntity
  8
0
  6
Continuous
 62
     7
100
AcDbPolyline
 90
        3
 70
   128
 43
0.0
 10
357.326249303974
 20
299.1091619012779
 10
357.3131865308956
 20
299.1159098776261
 10
357.3450434007215
 20
299.1275449640474
  0
LINE
  5
463
330
A
100
AcDbEntity
  8
0
  6
Continuous
 62
     7
100
AcDbLine
 10
364.4067875562223
 20
306.4120840759744
 30
0.0
 11
366.9235807321117
 21
306.4120840759744
 31
0.0
  0
LWPOLYLINE
  5
464
330
A
100
AcDbEntity
  8
0
  6
Continuous
 62
     7
100
AcDbPolyline
 90
        3
 70
   128
 43
0.0
 10
586.1920250572958
 20
299.5941556561181
 10
586.4066859883059
 20
299.5903519085172
 10
586.3883914952269
 20
299.5884735922237
  0
LINE
  5
469
330
A
100
AcDbEntity
  8
0
  6
Continuous
 62
     7
100
AcDbLine
 10
553.9164407312388
 20
306.4120840759737
 30
0.0
 11
579.3180266111808
 21
306.4120840759737
 31
0.0
  0
LINE
  5
46A
330
A
100
AcDbEntity
  8
0
  6
Continuous
 62
     7
100
AcDbLine
 10
608.4188849991477
 20
86.41209007597309
 30
0.0
 11
599.8109808114756
 21
86.4120900759728
 31
0.0
  0
LWPOLYLINE
  5
46B
330
A
100
AcDbEntity
  8
0
  6
PHANTOM
 62
     7
100
AcDbPolyline
 90
       27
 70
   128
 43
0.0
 10
471.3179389291566
 20
298.7227073426186
 10
471.317910079351
 20
298.7227085629772
 10
468.4293685665857
 20
298.8239377339902
 10
465.7798681584398
 20
298.8820370085115
 10
461.8518285422105
 20
298.9339655922536
 10
457.481431922763
 20
298.9856219968846
 10
453.5863688876607
 20
299.0378396886473
 10
449.2462647589771
 20
299.0887942954344
 10
444.8369892748379
 20
299.128021213314
 10
440.157564695625
 20
299.1803954895082
 10
426.0515545718712
 20
299.3766210800353
 10
411.8858005501092
 20
299.2409319415413
 10
404.238306886789
 20
299.062119172987
 10
396.723119177466
 20
299.0282022352688
 10
392.4154748864434
 20
299.0724736379699
 10
388.2716824237291
 20
299.1513614232142
 10
384.406171862427
 20
299.2623909252898
 10
380.5564904983455
 20
299.4243063680576
 10
377.1438654154803
 20
299.5948816582137
 10
374.1488933633239
 20
299.7198799480142
 10
370.0151648966703
 20
299.7761244885704
 10
366.2019421017034
 20
299.6973921375063
 10
363.9691599866355
 20
299.6032844826137
 10
362.0016305076668
 20
299.5098585527443
 10
360.5421121564877
 20
299.4537396020001
 10
359.8426827261044
 20
299.4520177645473
 10
359.8868875248278
 20
299.4513730744691
  0
LWPOLYLINE
  5
488
330
A
100
AcDbEntity
  8
0
  6
PHANTOM
 62
     7
100
AcDbPolyline
 90
        8
 70
   128
 43
0.0
 10
548.7749188192045
 20
300.2651251752979
 10
548.7748836407493
 20
300.2651262708099
 10
544.0668623040574
 20
300.4238424490369
 10
539.907650522387
 20
300.5827138655912
 10
537.6604477053207
 20
300.6715823222194
 10
535.8931657426664
 20
300.730853044892
 10
534.6650608890297
 20
300.7550000542799
 10
534.1369981185667
 20
300.737498232991
  0
LWPOLYLINE
  5
492
330
A
100
AcDbEntity
  8
0
  6
PHANTOM
 62
     7
100
AcDbPolyline
 90
       31
 70
   128
 43
0.0
 10
560.8400539922936
 20
299.3158322204683
 10
560.8819850360672
 20
299.2653329682442
 10
560.2938784618447
 20
299.1750020379204
 10
559.225101312752
 20
299.0960010054592
 10
557.0262271192588
 20
298.981415798271
 10
554.3610745962939
 20
298.856810409147
 10
550.4068131864706
 20
298.6470848704272
 10
547.5550835514805
 20
298.4773257271132
 10
544.2627959946199
 20
298.2798240652828
 10
542.0948542373249
 20
298.1605882565139
 10
539.7600084105447
 20
298.0631312706549
 10
537.336934633346
 20
298.0112362439948
 10
534.8802196039411
 20
297.9966759558219
 10
531.658364459531
 20
298.0056742844293
 10
528.5185943073074
 20
298.0275830148014
 10
524.9804953175035
 20
298.0553835648617
 10
521.5448955268157
 20
298.0821699044295
 10
513.8528794596981
 20
298.1324904641359
 10
507.5335273631647
 20
298.177247565373
 10
501.2109688498274
 20
298.2203858357745
 10
494.7350600622534
 20
298.2586479523113
 10
487.9556571430101
 20
298.2887765919542
 10
484.684422827171
 20
298.3025499753388
 10
481.321172758297
 20
298.3333152167957
 10
479.370129787189
 20
298.368735281246
 10
477.4661325088368
 20
298.4285263360031
 10
475.6872845724172
 20
298.5106494322291
 10
474.0544734670987
 20
298.5949870493341
 10
471.3179678407341
 20
298.7215576096651
 10
471.3179389291566
 20
298.7215587644228
 10
471.3179389291566
 20
298.7215587644228
  0
LWPOLYLINE
  5
4B3
330
A
100
AcDbEntity
  8
0
  6
PHANTOM
 62
     7
100
AcDbPolyline
 90
        4
 70
   128
 43
0.0
 10
359.7998574711539
 20
298.8763900778925
 10
357.9880134367834
 20
298.9552184587112
 10
357.4749744289833
 20
299.032333373374
 10
357.326249303974
 20
299.1091619012779
  0
LWPOLYLINE
  5
4B9
330
A
100
AcDbEntity
  8
0
  6
PHANTOM
 62
     7
100
AcDbPolyline
 90
        9
 70
   128
 43
0.0
 10
586.3883914952269
 20
299.5884735922237
 10
586.0754324031788
 20
299.5563417283194
 10
585.7509652883538
 20
299.5446111796295
 10
584.2884820944272
 20
299.5258813288744
 10
582.3537878444718
 20
299.5291261236464
 10
579.584457975274
 20
299.5551012272348
 10
576.600774215111
 20
299.6002532831504
 10
567.4068225724844
 20
299.7812284944405
 10
560.8055756281808
 20
299.9375562828779
  0
ENDSEC
  0
SECTION
  2
OBJECTS
  0
DICTIONARY
  5
19
330
0
100
AcDbDictionary
281
     1
  3
ACAD_COLOR
350
4C8
  3
ACAD_GROUP
350
1A
  3
ACAD_LAYOUT
350
4C9
  3
ACAD_MATERIAL
350
4C7
  3
ACAD_MLINESTYLE
350
1B
  3
ACAD_PLOTSETTINGS
350
4CA
  3
ACAD_PLOTSTYLENAME
350
4C5
  3
ACDBHEADERROUNDTRIPXREC
350
4E2
  3
AcDbVariableDictionary
350
4DB
  3
ASE_INDEX_DICTIONARY
350
4D0
  0
DICTIONARY
  5
4C8
102
{ACAD_REACTORS
330
19
102
}
330
19
100
AcDbDictionary
281
     1
  0
DICTIONARY
  5
1A
102
{ACAD_REACTORS
330
19
102
}
330
19
100
AcDbDictionary
281
     1
  0
DICTIONARY
  5
4C9
102
{ACAD_REACTORS
330
19
102
}
330
19
100
AcDbDictionary
281
     1
  3
Layout1
350
4CC
  3
Model
350
4CB
  0
DICTIONARY
  5
4C7
102
{ACAD_REACTORS
330
19
102
}
330
19
100
AcDbDictionary
281
     1
  0
DICTIONARY
  5
1B
102
{ACAD_REACTORS
330
19
102
}
330
19
100
AcDbDictionary
281
     1
  3
STANDARD
350
1C
  0
DICTIONARY
  5
4CA
102
{ACAD_REACTORS
330
19
102
}
330
19
100
AcDbDictionary
281
     1
  0
ACDBDICTIONARYWDFLT
  5
4C5
102
{ACAD_REACTORS
330
19
102
}
330
19
100
AcDbDictionary
281
     1
  3
Normal
350
4C6
100
AcDbDictionaryWithDefault
340
4C6
  0
DICTIONARY
  5
4E2
102
{ACAD_REACTORS
330
19
102
}
330
19
100
AcDbDictionary
281
     1
  3
COLORDICT
350
4E4
  3
MATERIALDICT
350
4E3
  0
DICTIONARY
  5
4DB
102
{ACAD_REACTORS
330
19
102
}
330
19
100
AcDbDictionary
281
     1
  3
DIMASSOC
350
4DC
  3
PROJECTNAME
350
4DD
  0
DICTIONARY
  5
4D0
102
{ACAD_REACTORS
330
19
102
}
330
19
100
AcDbDictionary
281
     1
  3
ASEBlockHierarchyIndexRecord
350
4D2
1001
DCO15
1040
1521898527.109
  0
LAYOUT
  5
4CC
102
{ACAD_XDICTIONARY
360
4E7
102
}
102
{ACAD_REACTORS
330
4C9
102
}
330
4C9
100
AcDbPlotSettings
  1

  2
ProgeSOFT PDF Wizard
  4

  6

 40
0.0
 41
0.0
 42
0.0
 43
0.0
 44
0.0
 45
0.0
 46
0.0
 47
0.0
 48
0.0
 49
0.0
140
0.0
141
0.0
142
1.0
143
1.0
 70
   688
 72
     0
 73
     0
 74
     5
  7

 75
    16
147
1.0
148
0.0
149
0.0
100
AcDbLayout
  1
Layout1
 70
     1
 71
     1
 10
0.0
 20
0.0
 11
12.0
 21
9.0
 12
0.0
 22
0.0
 32
0.0
 14
1.000000000000000E+20
 24
1.000000000000000E+20
 34
1.000000000000000E+20
 15
-1.000000000000000E+20
 25
-1.000000000000000E+20
 35
-1.000000000000000E+20
146
0.0
 13
0.0
 23
0.0
 33
0.0
 16
1.0
 26
0.0
 36
0.0
 17
0.0
 27
1.0
 37
0.0
 76
     0
330
B
  0
LAYOUT
  5
4CB
102
{ACAD_XDICTIONARY
360
4E5
102
}
102
{ACAD_REACTORS
330
4C9
102
}
330
4C9
100
AcDbPlotSettings
  1

  2
ProgeSOFT PDF Wizard
  4

  6

 40
0.0
 41
0.0
 42
0.0
 43
0.0
 44
0.0
 45
0.0
 46
0.0
 47
0.0
 48
0.0
 49
0.0
140
0.0
141
0.0
142
1.0
143
1.0
 70
  1712
 72
     0
 73
     0
 74
     0
  7

 75
     0
147
1.0
148
0.0
149
0.0
100
AcDbLayout
  1
Model
 70
     1
 71
     0
 10
0.0
 20
0.0
 11
12.0
 21
9.0
 12
0.0
 22
0.0
 32
0.0
 14
0.0
 24
0.0
 34
0.0
 15
0.0
 25
0.0
 35
0.0
146
0.0
 13
0.0
 23
0.0
 33
0.0
 16
1.0
 26
0.0
 36
0.0
 17
0.0
 27
1.0
 37
0.0
 76
     0
330
A
  0
MLINESTYLE
  5
1C
102
{ACAD_REACTORS
330
1B
102
}
330
1B
100
AcDbMlineStyle
  2
STANDARD
 70
     0
  3

 62
     0
 51
90.0
 52
90.0
 71
     2
 49
0.5
 62
   256
  6
BYLAYER
 49
-0.5
 62
   256
  6
BYLAYER
  0
ACDBPLACEHOLDER
  5
4C6
102
{ACAD_REACTORS
330
4C5
102
}
330
4C5
  0
XRECORD
  5
4E4
102
{ACAD_REACTORS
330
4E2
102
}
330
4E2
100
AcDbXrecord
280
     1
340
4C8
  0
XRECORD
  5
4E3
102
{ACAD_REACTORS
330
4E2
102
}
330
4E2
100
AcDbXrecord
280
     1
340
4C7
  0
DICTIONARYVAR
  5
4DC
102
{ACAD_REACTORS
330
4DB
102
}
330
4DB
100
DictionaryVariables
280
     0
  1
1
  0
DICTIONARYVAR
  5
4DD
102
{ACAD_REACTORS
330
4DB
102
}
330
4DB
100
DictionaryVariables
280
     0
  1

  0
XRECORD
  5
4D2
102
{ACAD_REACTORS
330
4D0
102
}
330
4D0
100
AcDbXrecord
280
     1
  0
DICTIONARY
  5
4E7
330
4CC
100
AcDbDictionary
280
     1
281
     1
  3
ACAD_XREC_ROUNDTRIP
360
4E8
  0
DICTIONARY
  5
4E5
330
4CB
100
AcDbDictionary
280
     1
281
     1
  3
ACAD_XREC_ROUNDTRIP
360
4E6
  0
XRECORD
  5
4E8
102
{ACAD_REACTORS
330
4E7
102
}
330
4E7
100
AcDbXrecord
280
     1
102
SHADEPLOT
 70
     0
102
SHADEPLOTRESLEVEL
 70
     2
102
SHADEPLOTCUSTOMDPI
 70
   300
  0
XRECORD
  5
4E6
102
{ACAD_REACTORS
330
4E5
102
}
330
4E5
100
AcDbXrecord
280
     1
102
SHADEPLOT
 70
     0
102
SHADEPLOTRESLEVEL
 70
     2
102
SHADEPLOTCUSTOMDPI
 70
   300
  0
ENDSEC
  0
EOF
