  0
SECTION
  2
HEADER
  9
$ACADVER
  1
AC1018
  9
$ACADMAINTVER
 70
     0
  9
$DWGCODEPAGE
  3
ANSI_1252
  9
$INSBASE
 10
0.0
 20
0.0
 30
0.0
  9
$EXTMIN
 10
-0.015643699172756
 20
0.007730998207121
 30
0.0
  9
$EXTMAX
 10
2878.88041919678
 20
1432.572579711434
 30
0.0
  9
$LIMMIN
 10
0.0
 20
0.0
  9
$LIMMAX
 10
12.0
 20
9.0
  9
$ORTHOMODE
 70
     0
  9
$REGENMODE
 70
     1
  9
$FILLMODE
 70
     1
  9
$QTEXTMODE
 70
     0
  9
$MIRRTEXT
 70
     1
  9
$LTSCALE
 40
1.0
  9
$ATTMODE
 70
     1
  9
$TEXTSIZE
 40
0.2
  9
$TRACEWID
 40
0.05
  9
$TEXTSTYLE
  7
Standard
  9
$CLAYER
  8
PREDEFINITO
  9
$CELTYPE
  6
ByLayer
  9
$CECOLOR
 62
   256
  9
$CELTSCALE
 40
1.0
  9
$DISPSILH
 70
     0
  9
$DIMSCALE
 40
1.0
  9
$DIMASZ
 40
0.18
  9
$DIMEXO
 40
0.0625
  9
$DIMDLI
 40
0.38
  9
$DIMRND
 40
0.0
  9
$DIMDLE
 40
0.0
  9
$DIMEXE
 40
0.18
  9
$DIMTP
 40
0.0
  9
$DIMTM
 40
0.0
  9
$DIMTXT
 40
0.18
  9
$DIMCEN
 40
0.09
  9
$DIMTSZ
 40
0.0
  9
$DIMTOL
 70
     0
  9
$DIMLIM
 70
     0
  9
$DIMTIH
 70
     1
  9
$DIMTOH
 70
     1
  9
$DIMSE1
 70
     0
  9
$DIMSE2
 70
     0
  9
$DIMTAD
 70
     0
  9
$DIMZIN
 70
     0
  9
$DIMBLK
  1

  9
$DIMASO
 70
     1
  9
$DIMSHO
 70
     1
  9
$DIMPOST
  1

  9
$DIMAPOST
  1

  9
$DIMALT
 70
     0
  9
$DIMALTD
 70
     2
  9
$DIMALTF
 40
25.4
  9
$DIMLFAC
 40
1.0
  9
$DIMTOFL
 70
     0
  9
$DIMTVP
 40
0.0
  9
$DIMTIX
 70
     0
  9
$DIMSOXD
 70
     0
  9
$DIMSAH
 70
     0
  9
$DIMBLK1
  1

  9
$DIMBLK2
  1

  9
$DIMSTYLE
  2
Standard
  9
$DIMCLRD
 70
     0
  9
$DIMCLRE
 70
     0
  9
$DIMCLRT
 70
     0
  9
$DIMTFAC
 40
1.0
  9
$DIMGAP
 40
0.09
  9
$DIMJUST
 70
     0
  9
$DIMSD1
 70
     0
  9
$DIMSD2
 70
     0
  9
$DIMTOLJ
 70
     1
  9
$DIMTZIN
 70
     0
  9
$DIMALTZ
 70
     0
  9
$DIMALTTZ
 70
     0
  9
$DIMUPT
 70
     0
  9
$DIMDEC
 70
     4
  9
$DIMTDEC
 70
     4
  9
$DIMALTU
 70
     2
  9
$DIMALTTD
 70
     2
  9
$DIMTXSTY
  7
Standard
  9
$DIMAUNIT
 70
     0
  9
$DIMADEC
 70
     0
  9
$DIMALTRND
 40
0.0
  9
$DIMAZIN
 70
     0
  9
$DIMDSEP
 70
    46
  9
$DIMATFIT
 70
     3
  9
$DIMFRAC
 70
     0
  9
$DIMLDRBLK
  1

  9
$DIMLUNIT
 70
     2
  9
$DIMLWD
 70
    -2
  9
$DIMLWE
 70
    -2
  9
$DIMTMOVE
 70
     0
  9
$LUNITS
 70
     2
  9
$LUPREC
 70
     3
  9
$SKETCHINC
 40
0.1
  9
$FILLETRAD
 40
0.5
  9
$AUNITS
 70
     0
  9
$AUPREC
 70
     0
  9
$MENU
  1
.
  9
$ELEVATION
 40
0.0
  9
$PELEVATION
 40
0.0
  9
$THICKNESS
 40
0.0
  9
$LIMCHECK
 70
     0
  9
$CHAMFERA
 40
0.5
  9
$CHAMFERB
 40
0.5
  9
$CHAMFERC
 40
1.0
  9
$CHAMFERD
 40
0.0
  9
$SKPOLY
 70
     0
  9
$TDCREATE
 40
2455849.527705857
  9
$TDUCREATE
 40
2455849.444372523
  9
$TDUPDATE
 40
2455849.527705868
  9
$TDUUPDATE
 40
2455849.444372535
  9
$TDINDWG
 40
0.0000000116
  9
$TDUSRTIMER
 40
0.0000000116
  9
$USRTIMER
 70
     1
  9
$ANGBASE
 50
0.0
  9
$ANGDIR
 70
     0
  9
$PDMODE
 70
     0
  9
$PDSIZE
 40
0.0
  9
$PLINEWID
 40
0.0
  9
$SPLFRAME
 70
     0
  9
$SPLINETYPE
 70
     6
  9
$SPLINESEGS
 70
     8
  9
$HANDSEED
  5
3B1
  9
$SURFTAB1
 70
     6
  9
$SURFTAB2
 70
     6
  9
$SURFTYPE
 70
     6
  9
$SURFU
 70
     6
  9
$SURFV
 70
     6
  9
$UCSBASE
  2

  9
$UCSNAME
  2

  9
$UCSORG
 10
0.0
 20
0.0
 30
0.0
  9
$UCSXDIR
 10
1.0
 20
0.0
 30
0.0
  9
$UCSYDIR
 10
0.0
 20
1.0
 30
0.0
  9
$UCSORTHOREF
  2

  9
$UCSORTHOVIEW
 70
     0
  9
$UCSORGTOP
 10
0.0
 20
0.0
 30
0.0
  9
$UCSORGBOTTOM
 10
0.0
 20
0.0
 30
0.0
  9
$UCSORGLEFT
 10
0.0
 20
0.0
 30
0.0
  9
$UCSORGRIGHT
 10
0.0
 20
0.0
 30
0.0
  9
$UCSORGFRONT
 10
0.0
 20
0.0
 30
0.0
  9
$UCSORGBACK
 10
0.0
 20
0.0
 30
0.0
  9
$PUCSBASE
  2

  9
$PUCSNAME
  2

  9
$PUCSORG
 10
0.0
 20
0.0
 30
0.0
  9
$PUCSXDIR
 10
1.0
 20
0.0
 30
0.0
  9
$PUCSYDIR
 10
0.0
 20
1.0
 30
0.0
  9
$PUCSORTHOREF
  2

  9
$PUCSORTHOVIEW
 70
     0
  9
$PUCSORGTOP
 10
0.0
 20
0.0
 30
0.0
  9
$PUCSORGBOTTOM
 10
0.0
 20
0.0
 30
0.0
  9
$PUCSORGLEFT
 10
0.0
 20
0.0
 30
0.0
  9
$PUCSORGRIGHT
 10
0.0
 20
0.0
 30
0.0
  9
$PUCSORGFRONT
 10
0.0
 20
0.0
 30
0.0
  9
$PUCSORGBACK
 10
0.0
 20
0.0
 30
0.0
  9
$USERI1
 70
     0
  9
$USERI2
 70
     0
  9
$USERI3
 70
     0
  9
$USERI4
 70
     0
  9
$USERI5
 70
     0
  9
$USERR1
 40
0.0
  9
$USERR2
 40
0.0
  9
$USERR3
 40
0.0
  9
$USERR4
 40
0.0
  9
$USERR5
 40
0.0
  9
$WORLDVIEW
 70
     1
  9
$SHADEDGE
 70
     3
  9
$SHADEDIF
 70
    70
  9
$TILEMODE
 70
     1
  9
$MAXACTVP
 70
    64
  9
$PINSBASE
 10
0.0
 20
0.0
 30
0.0
  9
$PLIMCHECK
 70
     0
  9
$PEXTMIN
 10
1.000000000000000E+20
 20
1.000000000000000E+20
 30
1.000000000000000E+20
  9
$PEXTMAX
 10
-1.000000000000000E+20
 20
-1.000000000000000E+20
 30
-1.000000000000000E+20
  9
$PLIMMIN
 10
0.0
 20
0.0
  9
$PLIMMAX
 10
12.0
 20
9.0
  9
$UNITMODE
 70
     0
  9
$VISRETAIN
 70
     1
  9
$PLINEGEN
 70
     0
  9
$PSLTSCALE
 70
     1
  9
$TREEDEPTH
 70
  3020
  9
$CMLSTYLE
  2
Standard
  9
$CMLJUST
 70
     0
  9
$CMLSCALE
 40
1.0
  9
$PROXYGRAPHICS
 70
     1
  9
$MEASUREMENT
 70
     0
  9
$CELWEIGHT
370
    -1
  9
$ENDCAPS
280
     0
  9
$JOINSTYLE
280
     0
  9
$LWDISPLAY
290
     0
  9
$INSUNITS
 70
     4
  9
$HYPERLINKBASE
  1

  9
$STYLESHEET
  1

  9
$XEDIT
290
     1
  9
$CEPSNTYPE
380
     0
  9
$PSTYLEMODE
290
     1
  9
$FINGERPRINTGUID
  2
{25E84980-154C-4178-8FC6-C88E7046CACA}
  9
$VERSIONGUID
  2
{FAEB1C32-E019-11D5-929B-00C0DF256EC4}
  9
$EXTNAMES
290
     1
  9
$PSVPSCALE
 40
0.0
  9
$OLESTARTUP
290
     0
  9
$SORTENTS
280
   127
  9
$INDEXCTL
280
     0
  9
$HIDETEXT
280
     1
  9
$XCLIPFRAME
290
     0
  9
$HALOGAP
280
     0
  9
$OBSCOLOR
 70
   257
  9
$OBSLTYPE
280
     0
  9
$INTERSECTIONDISPLAY
280
     0
  9
$INTERSECTIONCOLOR
 70
   257
  9
$DIMASSOC
280
     2
  9
$PROJECTNAME
  1

  0
ENDSEC
  0
SECTION
  2
CLASSES
  0
CLASS
  1
ACDBDICTIONARYWDFLT
  2
AcDbDictionaryWithDefault
  3
ObjectDBX Classes
 90
        0
 91
        3
280
     0
281
     0
  0
CLASS
  1
VISUALSTYLE
  2
AcDbVisualStyle
  3
ObjectDBX Classes
 90
     4095
 91
        3
280
     0
281
     0
  0
CLASS
  1
SCALE
  2
AcDbScale
  3
ObjectDBX Classes
 90
     1153
 91
        3
280
     0
281
     0
  0
ENDSEC
  0
SECTION
  2
TABLES
  0
TABLE
  2
VPORT
  5
8
330
0
100
AcDbSymbolTable
 70
     1
  0
VPORT
  5
29
330
8
100
AcDbSymbolTableRecord
100
AcDbViewportTableRecord
  2
*Active
 70
     0
 10
0.0
 20
0.0
 11
1.0
 21
1.0
 12
0.0
 22
0.0
 13
0.0
 23
0.0
 14
0.5
 24
0.5
 15
0.5
 25
0.5
 16
0.0
 26
0.0
 36
1.0
 17
1439.432387748804
 27
716.2901553548206
 37
0.0
 40
1461.216145687492
 41
2.009609593228442
 42
50.0
 43
0.0
 44
0.0
 50
0.0
 51
0.0
 71
     0
 72
   100
 73
     1
 74
     3
 75
     0
 76
     0
 77
     0
 78
     0
281
     0
 65
     1
110
0.0
120
0.0
130
0.0
111
1.0
121
0.0
131
0.0
112
0.0
122
1.0
132
0.0
 79
     0
146
0.0
  0
ENDTAB
  0
TABLE
  2
LTYPE
  5
5
330
0
100
AcDbSymbolTable
 70
     1
  0
LTYPE
  5
14
330
5
100
AcDbSymbolTableRecord
100
AcDbLinetypeTableRecord
  2
ByBlock
 70
     0
  3

 72
    65
 73
     0
 40
0.0
  0
LTYPE
  5
15
330
5
100
AcDbSymbolTableRecord
100
AcDbLinetypeTableRecord
  2
ByLayer
 70
     0
  3

 72
    65
 73
     0
 40
0.0
  0
LTYPE
  5
16
330
5
100
AcDbSymbolTableRecord
100
AcDbLinetypeTableRecord
  2
Continuous
 70
     0
  3
Solid line
 72
    65
 73
     0
 40
0.0
  0
ENDTAB
  0
TABLE
  2
LAYER
  5
2
330
0
100
AcDbSymbolTable
 70
     3
  0
LAYER
  5
10
330
2
100
AcDbSymbolTableRecord
100
AcDbLayerTableRecord
  2
0
 70
     0
 62
     7
  6
Continuous
370
    -3
390
F
  0
LAYER
  5
5D
330
2
100
AcDbSymbolTableRecord
100
AcDbLayerTableRecord
  2
PREDEFINITO
 70
     0
 62
     7
  6
Continuous
370
    -3
390
F
  0
LAYER
  5
132
330
2
100
AcDbSymbolTableRecord
100
AcDbLayerTableRecord
  2
LINEE VISIBILI 2D
 70
     0
 62
     7
  6
Continuous
370
    -3
390
F
  0
ENDTAB
  0
TABLE
  2
STYLE
  5
3
330
0
100
AcDbSymbolTable
 70
     1
  0
STYLE
  5
11
330
3
100
AcDbSymbolTableRecord
100
AcDbTextStyleTableRecord
  2
Standard
 70
     0
 40
0.0
 41
1.0
 50
0.0
 71
     0
 42
0.2
  3
txt
  4

  0
ENDTAB
  0
TABLE
  2
VIEW
  5
6
330
0
100
AcDbSymbolTable
 70
     0
  0
ENDTAB
  0
TABLE
  2
UCS
  5
7
330
0
100
AcDbSymbolTable
 70
     0
  0
ENDTAB
  0
TABLE
  2
APPID
  5
9
330
0
100
AcDbSymbolTable
 70
     1
  0
APPID
  5
12
330
9
100
AcDbSymbolTableRecord
100
AcDbRegAppTableRecord
  2
ACAD
 70
     0
  0
ENDTAB
  0
TABLE
  2
DIMSTYLE
  5
A
330
0
100
AcDbSymbolTable
 70
     1
100
AcDbDimStyleTable
  0
DIMSTYLE
105
27
330
A
100
AcDbSymbolTableRecord
100
AcDbDimStyleTableRecord
  2
Standard
 70
     0
340
11
  0
ENDTAB
  0
TABLE
  2
BLOCK_RECORD
  5
1
330
0
100
AcDbSymbolTable
 70
     1
  0
BLOCK_RECORD
  5
1F
330
1
100
AcDbSymbolTableRecord
100
AcDbBlockTableRecord
  2
*Model_Space
340
22
  0
BLOCK_RECORD
  5
1B
330
1
100
AcDbSymbolTableRecord
100
AcDbBlockTableRecord
  2
*Paper_Space
340
1E
  0
BLOCK_RECORD
  5
23
330
1
100
AcDbSymbolTableRecord
100
AcDbBlockTableRecord
  2
*Paper_Space0
340
26
  0
ENDTAB
  0
ENDSEC
  0
SECTION
  2
BLOCKS
  0
BLOCK
  5
20
330
1F
100
AcDbEntity
  8
0
100
AcDbBlockBegin
  2
*Model_Space
 70
     0
 10
0.0
 20
0.0
 30
0.0
  3
*Model_Space
  1

  0
ENDBLK
  5
21
330
1F
100
AcDbEntity
  8
0
100
AcDbBlockEnd
  0
BLOCK
  5
1C
330
1B
100
AcDbEntity
 67
     1
  8
0
100
AcDbBlockBegin
  2
*Paper_Space
 70
     0
 10
0.0
 20
0.0
 30
0.0
  3
*Paper_Space
  1

  0
ENDBLK
  5
1D
330
1B
100
AcDbEntity
 67
     1
  8
0
100
AcDbBlockEnd
  0
BLOCK
  5
24
330
23
100
AcDbEntity
  8
0
100
AcDbBlockBegin
  2
*Paper_Space0
 70
     0
 10
0.0
 20
0.0
 30
0.0
  3
*Paper_Space0
  1

  0
ENDBLK
  5
25
330
23
100
AcDbEntity
  8
0
100
AcDbBlockEnd
  0
ENDSEC
  0
SECTION
  2
ENTITIES
  0
POLYLINE
  5
5E
330
1F
100
AcDbEntity
  8
PREDEFINITO
100
AcDb2dPolyline
 66
     1
 10
0.0
 20
0.0
 30
0.0
  0
VERTEX
  5
60
330
5E
100
AcDbEntity
  8
PREDEFINITO
100
AcDbVertex
100
AcDb2dVertex
 10
431.1869261540767
 20
1389.072579711425
 30
0.0
  0
VERTEX
  5
61
330
5E
100
AcDbEntity
  8
PREDEFINITO
100
AcDbVertex
100
AcDb2dVertex
 10
449.1869261540767
 20
1389.072579711425
 30
0.0
  0
VERTEX
  5
62
330
5E
100
AcDbEntity
  8
PREDEFINITO
100
AcDbVertex
100
AcDb2dVertex
 10
449.1869261540767
 20
1432.572579711434
 30
0.0
  0
VERTEX
  5
63
330
5E
100
AcDbEntity
  8
PREDEFINITO
100
AcDbVertex
100
AcDb2dVertex
 10
431.1869261540767
 20
1432.572579711434
 30
0.0
  0
VERTEX
  5
64
330
5E
100
AcDbEntity
  8
PREDEFINITO
100
AcDbVertex
100
AcDb2dVertex
 10
431.1869261540767
 20
1389.072579711425
 30
0.0
  0
SEQEND
  5
5F
330
5E
100
AcDbEntity
  8
PREDEFINITO
  0
POLYLINE
  5
65
330
1F
100
AcDbEntity
  8
PREDEFINITO
100
AcDb2dPolyline
 66
     1
 10
0.0
 20
0.0
 30
0.0
  0
VERTEX
  5
67
330
65
100
AcDbEntity
  8
PREDEFINITO
100
AcDbVertex
100
AcDb2dVertex
 10
233.0849279145061
 20
1389.072579711425
 30
0.0
  0
VERTEX
  5
68
330
65
100
AcDbEntity
  8
PREDEFINITO
100
AcDbVertex
100
AcDb2dVertex
 10
251.0849279145061
 20
1389.072579711425
 30
0.0
  0
VERTEX
  5
69
330
65
100
AcDbEntity
  8
PREDEFINITO
100
AcDbVertex
100
AcDb2dVertex
 10
251.0849279145061
 20
1432.572579711434
 30
0.0
  0
VERTEX
  5
6A
330
65
100
AcDbEntity
  8
PREDEFINITO
100
AcDbVertex
100
AcDb2dVertex
 10
233.0849279145061
 20
1432.572579711434
 30
0.0
  0
VERTEX
  5
6B
330
65
100
AcDbEntity
  8
PREDEFINITO
100
AcDbVertex
100
AcDb2dVertex
 10
233.0849279145061
 20
1389.072579711425
 30
0.0
  0
SEQEND
  5
66
330
65
100
AcDbEntity
  8
PREDEFINITO
  0
POLYLINE
  5
6C
330
1F
100
AcDbEntity
  8
PREDEFINITO
100
AcDb2dPolyline
 66
     1
 10
0.0
 20
0.0
 30
0.0
  0
VERTEX
  5
6E
330
6C
100
AcDbEntity
  8
PREDEFINITO
100
AcDbVertex
100
AcDb2dVertex
 10
0.0767793345897871
 20
1374.939804540449
 30
0.0
  0
VERTEX
  5
6F
330
6C
100
AcDbEntity
  8
PREDEFINITO
100
AcDbVertex
100
AcDb2dVertex
 10
-0.015643699172756
 20
1374.994831547777
 30
0.0
  0
VERTEX
  5
70
330
6C
100
AcDbEntity
  8
PREDEFINITO
100
AcDbVertex
100
AcDb2dVertex
 10
56.48425617392138
 20
1374.99567950142
 30
0.0
  0
VERTEX
  5
71
330
6C
100
AcDbEntity
  8
PREDEFINITO
100
AcDbVertex
100
AcDb2dVertex
 10
56.37870816798988
 20
1374.940650572892
 30
0.0
  0
SEQEND
  5
6D
330
6C
100
AcDbEntity
  8
PREDEFINITO
  0
SPLINE
  5
72
330
1F
100
AcDbEntity
  8
PREDEFINITO
100
AcDbSpline
210
0.0
220
0.0
230
1.0
 70
    24
 71
     2
 72
     6
 73
     3
 74
     0
 42
0.0000000001
 43
0.0000000001
 40
0.0
 40
0.0
 40
0.0
 40
20.03503794271613
 40
20.03503794271613
 40
20.03503794271613
 10
56.37870816798988
 20
1374.940650572892
 30
0.0
 10
47.5402585168589
 20
1370.206870946392
 30
0.0
 10
38.70180886572791
 20
1365.473091319893
 30
0.0
  0
SPLINE
  5
73
330
1F
100
AcDbEntity
  8
PREDEFINITO
100
AcDbSpline
210
0.0
220
0.0
230
1.0
 70
    12
 71
     2
 72
     6
 73
     3
 74
     0
 42
0.0000000001
 43
0.0000000001
 40
5.49778714378214
 40
5.49778714378214
 40
5.49778714378214
 40
6.28318530717959
 40
6.28318530717959
 40
6.28318530717959
 10
38.7018088657278
 20
1365.473091319893
 30
0.0
 41
0.8536927746304102
 10
38.96005448721135
 20
1365.473060974891
 30
0.0
 41
0.858071390111205
 10
36.26628057526443
 20
1365.472993569442
 30
0.0
 41
1.0
  0
SPLINE
  5
74
330
1F
100
AcDbEntity
  8
PREDEFINITO
100
AcDbSpline
210
0.0
220
0.0
230
1.0
 70
    12
 71
     2
 72
     6
 73
     3
 74
     0
 42
0.0000000001
 43
0.0000000001
 40
0.0
 40
0.0
 40
0.0
 40
2.791609426654083
 40
2.791609426654083
 40
2.791609426654083
 10
36.26628057526443
 20
1365.472993569442
 30
0.0
 41
1.0
 10
34.8704758623557
 20
1365.472959273868
 30
0.0
 41
0.9999999999967094
 10
33.47467114928929
 20
1365.472932139891
 30
0.0
 41
1.0
  0
SPLINE
  5
75
330
1F
100
AcDbEntity
  8
PREDEFINITO
100
AcDbSpline
210
0.0
220
0.0
230
1.0
 70
    12
 71
     2
 72
     8
 73
     5
 74
     0
 42
0.0000000001
 43
0.0000000001
 40
0.0
 40
0.0
 40
0.0
 40
11.99296876671814
 40
11.99296876671814
 40
15.70135931269
 40
15.70135931269
 40
15.70135931269
 10
33.47467114928929
 20
1365.472932139891
 30
0.0
 41
1.0
 10
27.47818676701307
 20
1365.472815102686
 30
0.0
 41
0.9999999999851884
 10
21.48170238381829
 20
1365.47276333976
 30
0.0
 41
1.0
 10
19.6275071108813
 20
1365.472732899431
 30
0.0
 41
0.9999999998373552
 10
17.7334197673166
 20
1365.472776573949
 30
0.0
 41
1.0
  0
SPLINE
  5
76
330
1F
100
AcDbEntity
  8
PREDEFINITO
100
AcDbSpline
210
0.0
220
0.0
230
1.0
 70
    24
 71
     2
 72
     6
 73
     3
 74
     0
 42
0.0000000001
 43
0.0000000001
 40
0.0
 40
0.0
 40
0.0
 40
20.03450947463151
 40
20.03450947463151
 40
20.03450947463151
 10
17.7334197673166
 20
1365.472776573949
 30
0.0
 10
8.905099550953196
 20
1370.206290557199
 30
0.0
 10
0.0767793345897871
 20
1374.939804540449
 30
0.0
  0
POLYLINE
  5
77
330
1F
100
AcDbEntity
  8
PREDEFINITO
100
AcDb2dPolyline
 66
     1
 10
0.0
 20
0.0
 30
0.0
  0
VERTEX
  5
79
330
77
100
AcDbEntity
  8
PREDEFINITO
100
AcDbVertex
100
AcDb2dVertex
 10
25.28731251391275
 20
1365.472846362212
 30
0.0
  0
VERTEX
  5
7A
330
77
100
AcDbEntity
  8
PREDEFINITO
100
AcDbVertex
100
AcDb2dVertex
 10
31.14805466899645
 20
1365.472979194939
 30
0.0
  0
SEQEND
  5
78
330
77
100
AcDbEntity
  8
PREDEFINITO
  0
SPLINE
  5
7B
330
1F
100
AcDbEntity
  8
PREDEFINITO
100
AcDbSpline
210
0.0
220
0.0
230
1.0
 70
    12
 71
     2
 72
     6
 73
     3
 74
     0
 42
0.0000000001
 43
0.0000000001
 40
-5.863539798955705
 40
-5.863539798955705
 40
-5.863539798955705
 40
0.0
 40
0.0
 40
0.0
 10
31.14805466899645
 20
1365.472979194939
 30
0.0
 41
1.0
 10
28.21770467894825
 20
1364.552027672286
 30
0.0
 41
0.952653293416618
 10
25.28731251391272
 20
1365.472846362212
 30
0.0
 41
0.9999976469590285
  0
POLYLINE
  5
7C
330
1F
100
AcDbEntity
  8
PREDEFINITO
100
AcDb2dPolyline
 66
     1
 10
0.0
 20
0.0
 30
0.0
  0
VERTEX
  5
7E
330
7C
100
AcDbEntity
  8
PREDEFINITO
100
AcDbVertex
100
AcDb2dVertex
 10
-0.0156271049241923
 20
1374.99567950142
 30
0.0
  0
VERTEX
  5
7F
330
7C
100
AcDbEntity
  8
PREDEFINITO
100
AcDbVertex
100
AcDb2dVertex
 10
56.48425617392138
 20
1374.99567950142
 30
0.0
  0
VERTEX
  5
80
330
7C
100
AcDbEntity
  8
PREDEFINITO
100
AcDbVertex
100
AcDb2dVertex
 10
56.48425617392138
 20
1376.072579711435
 30
0.0
  0
VERTEX
  5
81
330
7C
100
AcDbEntity
  8
PREDEFINITO
100
AcDbVertex
100
AcDb2dVertex
 10
-0.0156271049241923
 20
1376.072579711435
 30
0.0
  0
VERTEX
  5
82
330
7C
100
AcDbEntity
  8
PREDEFINITO
100
AcDbVertex
100
AcDb2dVertex
 10
-0.0156271049241923
 20
1374.99567950142
 30
0.0
  0
SEQEND
  5
7D
330
7C
100
AcDbEntity
  8
PREDEFINITO
  0
POLYLINE
  5
83
330
1F
100
AcDbEntity
  8
PREDEFINITO
100
AcDb2dPolyline
 66
     1
 10
0.0
 20
0.0
 30
0.0
  0
VERTEX
  5
85
330
83
100
AcDbEntity
  8
PREDEFINITO
100
AcDbVertex
100
AcDb2dVertex
 10
98.87485038301986
 20
1374.939804540449
 30
0.0
  0
VERTEX
  5
86
330
83
100
AcDbEntity
  8
PREDEFINITO
100
AcDbVertex
100
AcDb2dVertex
 10
98.78242734925732
 20
1374.994831547777
 30
0.0
  0
VERTEX
  5
87
330
83
100
AcDbEntity
  8
PREDEFINITO
100
AcDbVertex
100
AcDb2dVertex
 10
155.2823272223515
 20
1374.99567950142
 30
0.0
  0
VERTEX
  5
88
330
83
100
AcDbEntity
  8
PREDEFINITO
100
AcDbVertex
100
AcDb2dVertex
 10
155.17677921642
 20
1374.940650572892
 30
0.0
  0
SEQEND
  5
84
330
83
100
AcDbEntity
  8
PREDEFINITO
  0
SPLINE
  5
89
330
1F
100
AcDbEntity
  8
PREDEFINITO
100
AcDbSpline
210
0.0
220
0.0
230
1.0
 70
    24
 71
     2
 72
     6
 73
     3
 74
     0
 42
0.0000000001
 43
0.0000000001
 40
0.0
 40
0.0
 40
0.0
 40
20.03503794271613
 40
20.03503794271613
 40
20.03503794271613
 10
155.17677921642
 20
1374.940650572892
 30
0.0
 10
146.338329565289
 20
1370.206870946392
 30
0.0
 10
137.499879914158
 20
1365.473091319893
 30
0.0
  0
SPLINE
  5
8A
330
1F
100
AcDbEntity
  8
PREDEFINITO
100
AcDbSpline
210
0.0
220
0.0
230
1.0
 70
    12
 71
     2
 72
     6
 73
     3
 74
     0
 42
0.0000000001
 43
0.0000000001
 40
5.49778714378214
 40
5.49778714378214
 40
5.49778714378214
 40
6.28318530717959
 40
6.28318530717959
 40
6.28318530717959
 10
137.4998799141579
 20
1365.473091319893
 30
0.0
 41
0.8536927746304102
 10
137.7581255356414
 20
1365.473060974891
 30
0.0
 41
0.858071390111205
 10
135.0643516236945
 20
1365.472993569442
 30
0.0
 41
1.0
  0
SPLINE
  5
8B
330
1F
100
AcDbEntity
  8
PREDEFINITO
100
AcDbSpline
210
0.0
220
0.0
230
1.0
 70
    12
 71
     2
 72
     6
 73
     3
 74
     0
 42
0.0000000001
 43
0.0000000001
 40
0.0
 40
0.0
 40
0.0
 40
2.791609426654083
 40
2.791609426654083
 40
2.791609426654083
 10
135.0643516236945
 20
1365.472993569442
 30
0.0
 41
1.0
 10
133.6685469107858
 20
1365.472959273868
 30
0.0
 41
0.9999999999967094
 10
132.2727421977194
 20
1365.472932139891
 30
0.0
 41
1.0
  0
SPLINE
  5
8C
330
1F
100
AcDbEntity
  8
PREDEFINITO
100
AcDbSpline
210
0.0
220
0.0
230
1.0
 70
    12
 71
     2
 72
     8
 73
     5
 74
     0
 42
0.0000000001
 43
0.0000000001
 40
0.0
 40
0.0
 40
0.0
 40
11.99296876671814
 40
11.99296876671814
 40
15.70135931269
 40
15.70135931269
 40
15.70135931269
 10
132.2727421977194
 20
1365.472932139891
 30
0.0
 41
1.0
 10
126.2762578154431
 20
1365.472815102686
 30
0.0
 41
0.9999999999851884
 10
120.2797734322484
 20
1365.47276333976
 30
0.0
 41
1.0
 10
118.4255781593114
 20
1365.472732899431
 30
0.0
 41
0.9999999998373552
 10
116.5314908157467
 20
1365.472776573949
 30
0.0
 41
1.0
  0
SPLINE
  5
8D
330
1F
100
AcDbEntity
  8
PREDEFINITO
100
AcDbSpline
210
0.0
220
0.0
230
1.0
 70
    24
 71
     2
 72
     6
 73
     3
 74
     0
 42
0.0000000001
 43
0.0000000001
 40
0.0
 40
0.0
 40
0.0
 40
20.03450947463151
 40
20.03450947463151
 40
20.03450947463151
 10
116.5314908157467
 20
1365.472776573949
 30
0.0
 10
107.7031705993833
 20
1370.206290557199
 30
0.0
 10
98.87485038301986
 20
1374.939804540449
 30
0.0
  0
POLYLINE
  5
8E
330
1F
100
AcDbEntity
  8
PREDEFINITO
100
AcDb2dPolyline
 66
     1
 10
0.0
 20
0.0
 30
0.0
  0
VERTEX
  5
90
330
8E
100
AcDbEntity
  8
PREDEFINITO
100
AcDbVertex
100
AcDb2dVertex
 10
124.0853835623428
 20
1365.472846362212
 30
0.0
  0
VERTEX
  5
91
330
8E
100
AcDbEntity
  8
PREDEFINITO
100
AcDbVertex
100
AcDb2dVertex
 10
129.9461257174265
 20
1365.472979194939
 30
0.0
  0
SEQEND
  5
8F
330
8E
100
AcDbEntity
  8
PREDEFINITO
  0
SPLINE
  5
92
330
1F
100
AcDbEntity
  8
PREDEFINITO
100
AcDbSpline
210
0.0
220
0.0
230
1.0
 70
    12
 71
     2
 72
     6
 73
     3
 74
     0
 42
0.0000000001
 43
0.0000000001
 40
-5.863539798955705
 40
-5.863539798955705
 40
-5.863539798955705
 40
0.0
 40
0.0
 40
0.0
 10
129.9461257174265
 20
1365.472979194939
 30
0.0
 41
1.0
 10
127.0157757273783
 20
1364.552027672286
 30
0.0
 41
0.952653293416618
 10
124.0853835623428
 20
1365.472846362212
 30
0.0
 41
0.9999976469590285
  0
POLYLINE
  5
93
330
1F
100
AcDbEntity
  8
PREDEFINITO
100
AcDb2dPolyline
 66
     1
 10
0.0
 20
0.0
 30
0.0
  0
VERTEX
  5
95
330
93
100
AcDbEntity
  8
PREDEFINITO
100
AcDbVertex
100
AcDb2dVertex
 10
98.78244394350588
 20
1374.99567950142
 30
0.0
  0
VERTEX
  5
96
330
93
100
AcDbEntity
  8
PREDEFINITO
100
AcDbVertex
100
AcDb2dVertex
 10
155.2823272223515
 20
1374.99567950142
 30
0.0
  0
VERTEX
  5
97
330
93
100
AcDbEntity
  8
PREDEFINITO
100
AcDbVertex
100
AcDb2dVertex
 10
155.2823272223515
 20
1376.072579711435
 30
0.0
  0
VERTEX
  5
98
330
93
100
AcDbEntity
  8
PREDEFINITO
100
AcDbVertex
100
AcDb2dVertex
 10
98.78244394350588
 20
1376.072579711435
 30
0.0
  0
VERTEX
  5
99
330
93
100
AcDbEntity
  8
PREDEFINITO
100
AcDbVertex
100
AcDb2dVertex
 10
98.78244394350588
 20
1374.99567950142
 30
0.0
  0
SEQEND
  5
94
330
93
100
AcDbEntity
  8
PREDEFINITO
  0
POLYLINE
  5
9A
330
1F
100
AcDbEntity
  8
PREDEFINITO
100
AcDb2dPolyline
 66
     1
 10
0.0
 20
0.0
 30
0.0
  0
VERTEX
  5
9C
330
9A
100
AcDbEntity
  8
PREDEFINITO
100
AcDbVertex
100
AcDb2dVertex
 10
197.1902979550513
 20
1374.940286282451
 30
0.0
  0
VERTEX
  5
9D
330
9A
100
AcDbEntity
  8
PREDEFINITO
100
AcDbVertex
100
AcDb2dVertex
 10
197.0978749212887
 20
1374.995313289779
 30
0.0
  0
VERTEX
  5
9E
330
9A
100
AcDbEntity
  8
PREDEFINITO
100
AcDbVertex
100
AcDb2dVertex
 10
253.5977747943829
 20
1374.996161243423
 30
0.0
  0
VERTEX
  5
9F
330
9A
100
AcDbEntity
  8
PREDEFINITO
100
AcDbVertex
100
AcDb2dVertex
 10
253.4922267884514
 20
1374.941132314894
 30
0.0
  0
SEQEND
  5
9B
330
9A
100
AcDbEntity
  8
PREDEFINITO
  0
SPLINE
  5
A0
330
1F
100
AcDbEntity
  8
PREDEFINITO
100
AcDbSpline
210
0.0
220
0.0
230
1.0
 70
    24
 71
     2
 72
     6
 73
     3
 74
     0
 42
0.0000000001
 43
0.0000000001
 40
0.0
 40
0.0
 40
0.0
 40
20.03503794271613
 40
20.03503794271613
 40
20.03503794271613
 10
253.4922267884514
 20
1374.941132314894
 30
0.0
 10
244.6537771373204
 20
1370.207352688395
 30
0.0
 10
235.8153274861894
 20
1365.473573061895
 30
0.0
  0
SPLINE
  5
A1
330
1F
100
AcDbEntity
  8
PREDEFINITO
100
AcDbSpline
210
0.0
220
0.0
230
1.0
 70
    12
 71
     2
 72
     6
 73
     3
 74
     0
 42
0.0000000001
 43
0.0000000001
 40
5.49778714378214
 40
5.49778714378214
 40
5.49778714378214
 40
6.28318530717959
 40
6.28318530717959
 40
6.28318530717959
 10
235.8153274861893
 20
1365.473573061895
 30
0.0
 41
0.8536927746304102
 10
236.0735731076728
 20
1365.473542716893
 30
0.0
 41
0.858071390111205
 10
233.3797991957259
 20
1365.473475311444
 30
0.0
 41
1.0
  0
SPLINE
  5
A2
330
1F
100
AcDbEntity
  8
PREDEFINITO
100
AcDbSpline
210
0.0
220
0.0
230
1.0
 70
    12
 71
     2
 72
     6
 73
     3
 74
     0
 42
0.0000000001
 43
0.0000000001
 40
0.0
 40
0.0
 40
0.0
 40
2.791609426654083
 40
2.791609426654083
 40
2.791609426654083
 10
233.3797991957259
 20
1365.473475311444
 30
0.0
 41
1.0
 10
231.9839944828172
 20
1365.47344101587
 30
0.0
 41
0.9999999999967094
 10
230.5881897697508
 20
1365.473413881893
 30
0.0
 41
1.0
  0
SPLINE
  5
A3
330
1F
100
AcDbEntity
  8
PREDEFINITO
100
AcDbSpline
210
0.0
220
0.0
230
1.0
 70
    12
 71
     2
 72
     8
 73
     5
 74
     0
 42
0.0000000001
 43
0.0000000001
 40
0.0
 40
0.0
 40
0.0
 40
11.99296876671814
 40
11.99296876671814
 40
15.70135931269
 40
15.70135931269
 40
15.70135931269
 10
230.5881897697508
 20
1365.473413881893
 30
0.0
 41
1.0
 10
224.5917053874746
 20
1365.473296844689
 30
0.0
 41
0.9999999999851884
 10
218.5952210042798
 20
1365.473245081762
 30
0.0
 41
1.0
 10
216.7410257313428
 20
1365.473214641433
 30
0.0
 41
0.9999999998373552
 10
214.8469383877781
 20
1365.473258315951
 30
0.0
 41
1.0
  0
SPLINE
  5
A4
330
1F
100
AcDbEntity
  8
PREDEFINITO
100
AcDbSpline
210
0.0
220
0.0
230
1.0
 70
    24
 71
     2
 72
     6
 73
     3
 74
     0
 42
0.0000000001
 43
0.0000000001
 40
0.0
 40
0.0
 40
0.0
 40
20.03450947463151
 40
20.03450947463151
 40
20.03450947463151
 10
214.8469383877781
 20
1365.473258315951
 30
0.0
 10
206.0186181714147
 20
1370.206772299201
 30
0.0
 10
197.1902979550513
 20
1374.940286282451
 30
0.0
  0
POLYLINE
  5
A5
330
1F
100
AcDbEntity
  8
PREDEFINITO
100
AcDb2dPolyline
 66
     1
 10
0.0
 20
0.0
 30
0.0
  0
VERTEX
  5
A7
330
A5
100
AcDbEntity
  8
PREDEFINITO
100
AcDbVertex
100
AcDb2dVertex
 10
222.4008311343742
 20
1365.473328104214
 30
0.0
  0
VERTEX
  5
A8
330
A5
100
AcDbEntity
  8
PREDEFINITO
100
AcDbVertex
100
AcDb2dVertex
 10
228.2615732894579
 20
1365.473460936941
 30
0.0
  0
SEQEND
  5
A6
330
A5
100
AcDbEntity
  8
PREDEFINITO
  0
SPLINE
  5
A9
330
1F
100
AcDbEntity
  8
PREDEFINITO
100
AcDbSpline
210
0.0
220
0.0
230
1.0
 70
    12
 71
     2
 72
     6
 73
     3
 74
     0
 42
0.0000000001
 43
0.0000000001
 40
-5.863539798955705
 40
-5.863539798955705
 40
-5.863539798955705
 40
0.0
 40
0.0
 40
0.0
 10
228.2615732894579
 20
1365.473460936941
 30
0.0
 41
1.0
 10
225.3312232994097
 20
1364.552509414289
 30
0.0
 41
0.952653293416618
 10
222.4008311343742
 20
1365.473328104214
 30
0.0
 41
0.9999976469590285
  0
POLYLINE
  5
AA
330
1F
100
AcDbEntity
  8
PREDEFINITO
100
AcDb2dPolyline
 66
     1
 10
0.0
 20
0.0
 30
0.0
  0
VERTEX
  5
AC
330
AA
100
AcDbEntity
  8
PREDEFINITO
100
AcDbVertex
100
AcDb2dVertex
 10
197.0978915155373
 20
1374.996161243423
 30
0.0
  0
VERTEX
  5
AD
330
AA
100
AcDbEntity
  8
PREDEFINITO
100
AcDbVertex
100
AcDb2dVertex
 10
253.5977747943829
 20
1374.996161243423
 30
0.0
  0
VERTEX
  5
AE
330
AA
100
AcDbEntity
  8
PREDEFINITO
100
AcDbVertex
100
AcDb2dVertex
 10
253.5977747943829
 20
1376.073061453437
 30
0.0
  0
VERTEX
  5
AF
330
AA
100
AcDbEntity
  8
PREDEFINITO
100
AcDbVertex
100
AcDb2dVertex
 10
197.0978915155373
 20
1376.073061453437
 30
0.0
  0
VERTEX
  5
B0
330
AA
100
AcDbEntity
  8
PREDEFINITO
100
AcDbVertex
100
AcDb2dVertex
 10
197.0978915155373
 20
1374.996161243423
 30
0.0
  0
SEQEND
  5
AB
330
AA
100
AcDbEntity
  8
PREDEFINITO
  0
POLYLINE
  5
B1
330
1F
100
AcDbEntity
  8
PREDEFINITO
100
AcDb2dPolyline
 66
     1
 10
0.0
 20
0.0
 30
0.0
  0
VERTEX
  5
B3
330
B1
100
AcDbEntity
  8
PREDEFINITO
100
AcDbVertex
100
AcDb2dVertex
 10
296.5896488630262
 20
1374.939804540449
 30
0.0
  0
VERTEX
  5
B4
330
B1
100
AcDbEntity
  8
PREDEFINITO
100
AcDbVertex
100
AcDb2dVertex
 10
296.4972258292637
 20
1374.994831547777
 30
0.0
  0
VERTEX
  5
B5
330
B1
100
AcDbEntity
  8
PREDEFINITO
100
AcDbVertex
100
AcDb2dVertex
 10
352.9971257023578
 20
1374.99567950142
 30
0.0
  0
VERTEX
  5
B6
330
B1
100
AcDbEntity
  8
PREDEFINITO
100
AcDbVertex
100
AcDb2dVertex
 10
352.8915776964263
 20
1374.940650572892
 30
0.0
  0
SEQEND
  5
B2
330
B1
100
AcDbEntity
  8
PREDEFINITO
  0
SPLINE
  5
B7
330
1F
100
AcDbEntity
  8
PREDEFINITO
100
AcDbSpline
210
0.0
220
0.0
230
1.0
 70
    24
 71
     2
 72
     6
 73
     3
 74
     0
 42
0.0000000001
 43
0.0000000001
 40
0.0
 40
0.0
 40
0.0
 40
20.03503794271613
 40
20.03503794271613
 40
20.03503794271613
 10
352.8915776964263
 20
1374.940650572892
 30
0.0
 10
344.0531280452954
 20
1370.206870946392
 30
0.0
 10
335.2146783941644
 20
1365.473091319893
 30
0.0
  0
SPLINE
  5
B8
330
1F
100
AcDbEntity
  8
PREDEFINITO
100
AcDbSpline
210
0.0
220
0.0
230
1.0
 70
    12
 71
     2
 72
     6
 73
     3
 74
     0
 42
0.0000000001
 43
0.0000000001
 40
5.49778714378214
 40
5.49778714378214
 40
5.49778714378214
 40
6.28318530717959
 40
6.28318530717959
 40
6.28318530717959
 10
335.2146783941643
 20
1365.473091319893
 30
0.0
 41
0.8536927746304102
 10
335.4729240156478
 20
1365.473060974891
 30
0.0
 41
0.858071390111205
 10
332.7791501037009
 20
1365.472993569442
 30
0.0
 41
1.0
  0
SPLINE
  5
B9
330
1F
100
AcDbEntity
  8
PREDEFINITO
100
AcDbSpline
210
0.0
220
0.0
230
1.0
 70
    12
 71
     2
 72
     6
 73
     3
 74
     0
 42
0.0000000001
 43
0.0000000001
 40
0.0
 40
0.0
 40
0.0
 40
2.791609426654083
 40
2.791609426654083
 40
2.791609426654083
 10
332.7791501037009
 20
1365.472993569442
 30
0.0
 41
1.0
 10
331.3833453907922
 20
1365.472959273868
 30
0.0
 41
0.9999999999967094
 10
329.9875406777257
 20
1365.472932139891
 30
0.0
 41
1.0
  0
SPLINE
  5
BA
330
1F
100
AcDbEntity
  8
PREDEFINITO
100
AcDbSpline
210
0.0
220
0.0
230
1.0
 70
    12
 71
     2
 72
     8
 73
     5
 74
     0
 42
0.0000000001
 43
0.0000000001
 40
0.0
 40
0.0
 40
0.0
 40
11.99296876671814
 40
11.99296876671814
 40
15.70135931269
 40
15.70135931269
 40
15.70135931269
 10
329.9875406777257
 20
1365.472932139891
 30
0.0
 41
1.0
 10
323.9910562954495
 20
1365.472815102686
 30
0.0
 41
0.9999999999851884
 10
317.9945719122547
 20
1365.47276333976
 30
0.0
 41
1.0
 10
316.1403766393178
 20
1365.472732899431
 30
0.0
 41
0.9999999998373552
 10
314.2462892957531
 20
1365.472776573949
 30
0.0
 41
1.0
  0
SPLINE
  5
BB
330
1F
100
AcDbEntity
  8
PREDEFINITO
100
AcDbSpline
210
0.0
220
0.0
230
1.0
 70
    24
 71
     2
 72
     6
 73
     3
 74
     0
 42
0.0000000001
 43
0.0000000001
 40
0.0
 40
0.0
 40
0.0
 40
20.03450947463151
 40
20.03450947463151
 40
20.03450947463151
 10
314.2462892957531
 20
1365.472776573949
 30
0.0
 10
305.4179690793896
 20
1370.206290557199
 30
0.0
 10
296.5896488630262
 20
1374.939804540449
 30
0.0
  0
POLYLINE
  5
BC
330
1F
100
AcDbEntity
  8
PREDEFINITO
100
AcDb2dPolyline
 66
     1
 10
0.0
 20
0.0
 30
0.0
  0
VERTEX
  5
BE
330
BC
100
AcDbEntity
  8
PREDEFINITO
100
AcDbVertex
100
AcDb2dVertex
 10
321.8001820423492
 20
1365.472846362212
 30
0.0
  0
VERTEX
  5
BF
330
BC
100
AcDbEntity
  8
PREDEFINITO
100
AcDbVertex
100
AcDb2dVertex
 10
327.6609241974329
 20
1365.472979194939
 30
0.0
  0
SEQEND
  5
BD
330
BC
100
AcDbEntity
  8
PREDEFINITO
  0
SPLINE
  5
C0
330
1F
100
AcDbEntity
  8
PREDEFINITO
100
AcDbSpline
210
0.0
220
0.0
230
1.0
 70
    12
 71
     2
 72
     6
 73
     3
 74
     0
 42
0.0000000001
 43
0.0000000001
 40
-5.863539798955705
 40
-5.863539798955705
 40
-5.863539798955705
 40
0.0
 40
0.0
 40
0.0
 10
327.6609241974329
 20
1365.472979194939
 30
0.0
 41
1.0
 10
324.7305742073847
 20
1364.552027672286
 30
0.0
 41
0.952653293416618
 10
321.8001820423491
 20
1365.472846362212
 30
0.0
 41
0.9999976469590285
  0
POLYLINE
  5
C1
330
1F
100
AcDbEntity
  8
PREDEFINITO
100
AcDb2dPolyline
 66
     1
 10
0.0
 20
0.0
 30
0.0
  0
VERTEX
  5
C3
330
C1
100
AcDbEntity
  8
PREDEFINITO
100
AcDbVertex
100
AcDb2dVertex
 10
296.4972424235123
 20
1374.99567950142
 30
0.0
  0
VERTEX
  5
C4
330
C1
100
AcDbEntity
  8
PREDEFINITO
100
AcDbVertex
100
AcDb2dVertex
 10
352.9971257023578
 20
1374.99567950142
 30
0.0
  0
VERTEX
  5
C5
330
C1
100
AcDbEntity
  8
PREDEFINITO
100
AcDbVertex
100
AcDb2dVertex
 10
352.9971257023578
 20
1376.072579711435
 30
0.0
  0
VERTEX
  5
C6
330
C1
100
AcDbEntity
  8
PREDEFINITO
100
AcDbVertex
100
AcDb2dVertex
 10
296.4972424235123
 20
1376.072579711435
 30
0.0
  0
VERTEX
  5
C7
330
C1
100
AcDbEntity
  8
PREDEFINITO
100
AcDbVertex
100
AcDb2dVertex
 10
296.4972424235123
 20
1374.99567950142
 30
0.0
  0
SEQEND
  5
C2
330
C1
100
AcDbEntity
  8
PREDEFINITO
  0
POLYLINE
  5
C8
330
1F
100
AcDbEntity
  8
PREDEFINITO
100
AcDb2dPolyline
 66
     1
 10
0.0
 20
0.0
 30
0.0
  0
VERTEX
  5
CA
330
C8
100
AcDbEntity
  8
PREDEFINITO
100
AcDbVertex
100
AcDb2dVertex
 10
394.9105666266626
 20
1374.940285518608
 30
0.0
  0
VERTEX
  5
CB
330
C8
100
AcDbEntity
  8
PREDEFINITO
100
AcDbVertex
100
AcDb2dVertex
 10
394.8181435929
 20
1374.995312525937
 30
0.0
  0
VERTEX
  5
CC
330
C8
100
AcDbEntity
  8
PREDEFINITO
100
AcDbVertex
100
AcDb2dVertex
 10
451.3180434659942
 20
1374.99616047958
 30
0.0
  0
VERTEX
  5
CD
330
C8
100
AcDbEntity
  8
PREDEFINITO
100
AcDbVertex
100
AcDb2dVertex
 10
451.2124954600627
 20
1374.941131551052
 30
0.0
  0
SEQEND
  5
C9
330
C8
100
AcDbEntity
  8
PREDEFINITO
  0
SPLINE
  5
CE
330
1F
100
AcDbEntity
  8
PREDEFINITO
100
AcDbSpline
210
0.0
220
0.0
230
1.0
 70
    24
 71
     2
 72
     6
 73
     3
 74
     0
 42
0.0000000001
 43
0.0000000001
 40
0.0
 40
0.0
 40
0.0
 40
20.03503794271613
 40
20.03503794271613
 40
20.03503794271613
 10
451.2124954600627
 20
1374.941131551052
 30
0.0
 10
442.3740458089317
 20
1370.207351924552
 30
0.0
 10
433.5355961578007
 20
1365.473572298053
 30
0.0
  0
SPLINE
  5
CF
330
1F
100
AcDbEntity
  8
PREDEFINITO
100
AcDbSpline
210
0.0
220
0.0
230
1.0
 70
    12
 71
     2
 72
     6
 73
     3
 74
     0
 42
0.0000000001
 43
0.0000000001
 40
5.49778714378214
 40
5.49778714378214
 40
5.49778714378214
 40
6.28318530717959
 40
6.28318530717959
 40
6.28318530717959
 10
433.5355961578005
 20
1365.473572298053
 30
0.0
 41
0.8536927746304102
 10
433.7938417792842
 20
1365.473541953051
 30
0.0
 41
0.858071390111205
 10
431.1000678673372
 20
1365.473474547601
 30
0.0
 41
1.0
  0
SPLINE
  5
D0
330
1F
100
AcDbEntity
  8
PREDEFINITO
100
AcDbSpline
210
0.0
220
0.0
230
1.0
 70
    12
 71
     2
 72
     6
 73
     3
 74
     0
 42
0.0000000001
 43
0.0000000001
 40
0.0
 40
0.0
 40
0.0
 40
2.791609426654083
 40
2.791609426654083
 40
2.791609426654083
 10
431.1000678673372
 20
1365.473474547601
 30
0.0
 41
1.0
 10
429.7042631544285
 20
1365.473440252028
 30
0.0
 41
0.9999999999967094
 10
428.3084584413621
 20
1365.473413118051
 30
0.0
 41
1.0
  0
SPLINE
  5
D1
330
1F
100
AcDbEntity
  8
PREDEFINITO
100
AcDbSpline
210
0.0
220
0.0
230
1.0
 70
    12
 71
     2
 72
     8
 73
     5
 74
     0
 42
0.0000000001
 43
0.0000000001
 40
0.0
 40
0.0
 40
0.0
 40
11.99296876671814
 40
11.99296876671814
 40
15.70135931269
 40
15.70135931269
 40
15.70135931269
 10
428.3084584413621
 20
1365.473413118051
 30
0.0
 41
1.0
 10
422.3119740590859
 20
1365.473296080846
 30
0.0
 41
0.9999999999851884
 10
416.3154896758911
 20
1365.47324431792
 30
0.0
 41
1.0
 10
414.4612944029541
 20
1365.47321387759
 30
0.0
 41
0.9999999998373552
 10
412.5672070593894
 20
1365.473257552108
 30
0.0
 41
1.0
  0
SPLINE
  5
D2
330
1F
100
AcDbEntity
  8
PREDEFINITO
100
AcDbSpline
210
0.0
220
0.0
230
1.0
 70
    24
 71
     2
 72
     6
 73
     3
 74
     0
 42
0.0000000001
 43
0.0000000001
 40
0.0
 40
0.0
 40
0.0
 40
20.03450947463151
 40
20.03450947463151
 40
20.03450947463151
 10
412.5672070593894
 20
1365.473257552108
 30
0.0
 10
403.738886843026
 20
1370.206771535358
 30
0.0
 10
394.9105666266626
 20
1374.940285518608
 30
0.0
  0
POLYLINE
  5
D3
330
1F
100
AcDbEntity
  8
PREDEFINITO
100
AcDb2dPolyline
 66
     1
 10
0.0
 20
0.0
 30
0.0
  0
VERTEX
  5
D5
330
D3
100
AcDbEntity
  8
PREDEFINITO
100
AcDbVertex
100
AcDb2dVertex
 10
420.1210998059855
 20
1365.473327340371
 30
0.0
  0
VERTEX
  5
D6
330
D3
100
AcDbEntity
  8
PREDEFINITO
100
AcDbVertex
100
AcDb2dVertex
 10
425.9818419610692
 20
1365.473460173099
 30
0.0
  0
SEQEND
  5
D4
330
D3
100
AcDbEntity
  8
PREDEFINITO
  0
SPLINE
  5
D7
330
1F
100
AcDbEntity
  8
PREDEFINITO
100
AcDbSpline
210
0.0
220
0.0
230
1.0
 70
    12
 71
     2
 72
     6
 73
     3
 74
     0
 42
0.0000000001
 43
0.0000000001
 40
-5.863539798955705
 40
-5.863539798955705
 40
-5.863539798955705
 40
0.0
 40
0.0
 40
0.0
 10
425.9818419610692
 20
1365.473460173099
 30
0.0
 41
1.0
 10
423.0514919710211
 20
1364.552508650446
 30
0.0
 41
0.952653293416618
 10
420.1210998059855
 20
1365.473327340371
 30
0.0
 41
0.9999976469590285
  0
POLYLINE
  5
D8
330
1F
100
AcDbEntity
  8
PREDEFINITO
100
AcDb2dPolyline
 66
     1
 10
0.0
 20
0.0
 30
0.0
  0
VERTEX
  5
DA
330
D8
100
AcDbEntity
  8
PREDEFINITO
100
AcDbVertex
100
AcDb2dVertex
 10
394.8181601871486
 20
1374.99616047958
 30
0.0
  0
VERTEX
  5
DB
330
D8
100
AcDbEntity
  8
PREDEFINITO
100
AcDbVertex
100
AcDb2dVertex
 10
451.3180434659942
 20
1374.99616047958
 30
0.0
  0
VERTEX
  5
DC
330
D8
100
AcDbEntity
  8
PREDEFINITO
100
AcDbVertex
100
AcDb2dVertex
 10
451.3180434659942
 20
1376.073060689594
 30
0.0
  0
VERTEX
  5
DD
330
D8
100
AcDbEntity
  8
PREDEFINITO
100
AcDbVertex
100
AcDb2dVertex
 10
394.8181601871486
 20
1376.073060689594
 30
0.0
  0
VERTEX
  5
DE
330
D8
100
AcDbEntity
  8
PREDEFINITO
100
AcDbVertex
100
AcDb2dVertex
 10
394.8181601871486
 20
1374.99616047958
 30
0.0
  0
SEQEND
  5
D9
330
D8
100
AcDbEntity
  8
PREDEFINITO
  0
POLYLINE
  5
DF
330
1F
100
AcDbEntity
  8
PREDEFINITO
100
AcDb2dPolyline
 66
     1
 10
0.0
 20
0.0
 30
0.0
  0
VERTEX
  5
E1
330
DF
100
AcDbEntity
  8
PREDEFINITO
100
AcDbVertex
100
AcDb2dVertex
 10
494.1366236158037
 20
1374.940004879948
 30
0.0
  0
VERTEX
  5
E2
330
DF
100
AcDbEntity
  8
PREDEFINITO
100
AcDbVertex
100
AcDb2dVertex
 10
494.0442005820412
 20
1374.995031887277
 30
0.0
  0
VERTEX
  5
E3
330
DF
100
AcDbEntity
  8
PREDEFINITO
100
AcDbVertex
100
AcDb2dVertex
 10
550.5441004551353
 20
1374.99587984092
 30
0.0
  0
VERTEX
  5
E4
330
DF
100
AcDbEntity
  8
PREDEFINITO
100
AcDbVertex
100
AcDb2dVertex
 10
550.4385524492038
 20
1374.940850912391
 30
0.0
  0
SEQEND
  5
E0
330
DF
100
AcDbEntity
  8
PREDEFINITO
  0
SPLINE
  5
E5
330
1F
100
AcDbEntity
  8
PREDEFINITO
100
AcDbSpline
210
0.0
220
0.0
230
1.0
 70
    24
 71
     2
 72
     6
 73
     3
 74
     0
 42
0.0000000001
 43
0.0000000001
 40
0.0
 40
0.0
 40
0.0
 40
20.03503794271613
 40
20.03503794271613
 40
20.03503794271613
 10
550.4385524492038
 20
1374.940850912391
 30
0.0
 10
541.6001027980728
 20
1370.207071285892
 30
0.0
 10
532.7616531469419
 20
1365.473291659393
 30
0.0
  0
SPLINE
  5
E6
330
1F
100
AcDbEntity
  8
PREDEFINITO
100
AcDbSpline
210
0.0
220
0.0
230
1.0
 70
    12
 71
     2
 72
     6
 73
     3
 74
     0
 42
0.0000000001
 43
0.0000000001
 40
5.49778714378214
 40
5.49778714378214
 40
5.49778714378214
 40
6.28318530717959
 40
6.28318530717959
 40
6.28318530717959
 10
532.7616531469416
 20
1365.473291659392
 30
0.0
 41
0.8536927746304102
 10
533.0198987684253
 20
1365.473261314391
 30
0.0
 41
0.858071390111205
 10
530.3261248564784
 20
1365.473193908941
 30
0.0
 41
1.0
  0
SPLINE
  5
E7
330
1F
100
AcDbEntity
  8
PREDEFINITO
100
AcDbSpline
210
0.0
220
0.0
230
1.0
 70
    12
 71
     2
 72
     6
 73
     3
 74
     0
 42
0.0000000001
 43
0.0000000001
 40
0.0
 40
0.0
 40
0.0
 40
2.791609426654083
 40
2.791609426654083
 40
2.791609426654083
 10
530.3261248564784
 20
1365.473193908941
 30
0.0
 41
1.0
 10
528.9303201435697
 20
1365.473159613367
 30
0.0
 41
0.9999999999967094
 10
527.5345154305032
 20
1365.47313247939
 30
0.0
 41
1.0
  0
SPLINE
  5
E8
330
1F
100
AcDbEntity
  8
PREDEFINITO
100
AcDbSpline
210
0.0
220
0.0
230
1.0
 70
    12
 71
     2
 72
     8
 73
     5
 74
     0
 42
0.0000000001
 43
0.0000000001
 40
0.0
 40
0.0
 40
0.0
 40
11.99296876671814
 40
11.99296876671814
 40
15.70135931269
 40
15.70135931269
 40
15.70135931269
 10
527.5345154305032
 20
1365.47313247939
 30
0.0
 41
1.0
 10
521.5380310482271
 20
1365.473015442186
 30
0.0
 41
0.9999999999851884
 10
515.5415466650322
 20
1365.472963679259
 30
0.0
 41
1.0
 10
513.6873513920953
 20
1365.47293323893
 30
0.0
 41
0.9999999998373552
 10
511.7932640485305
 20
1365.472976913448
 30
0.0
 41
1.0
  0
SPLINE
  5
E9
330
1F
100
AcDbEntity
  8
PREDEFINITO
100
AcDbSpline
210
0.0
220
0.0
230
1.0
 70
    24
 71
     2
 72
     6
 73
     3
 74
     0
 42
0.0000000001
 43
0.0000000001
 40
0.0
 40
0.0
 40
0.0
 40
20.03450947463151
 40
20.03450947463151
 40
20.03450947463151
 10
511.7932640485305
 20
1365.472976913448
 30
0.0
 10
502.9649438321671
 20
1370.206490896698
 30
0.0
 10
494.1366236158037
 20
1374.940004879948
 30
0.0
  0
POLYLINE
  5
EA
330
1F
100
AcDbEntity
  8
PREDEFINITO
100
AcDb2dPolyline
 66
     1
 10
0.0
 20
0.0
 30
0.0
  0
VERTEX
  5
EC
330
EA
100
AcDbEntity
  8
PREDEFINITO
100
AcDbVertex
100
AcDb2dVertex
 10
519.3471567951267
 20
1365.473046701711
 30
0.0
  0
VERTEX
  5
ED
330
EA
100
AcDbEntity
  8
PREDEFINITO
100
AcDbVertex
100
AcDb2dVertex
 10
525.2078989502104
 20
1365.473179534438
 30
0.0
  0
SEQEND
  5
EB
330
EA
100
AcDbEntity
  8
PREDEFINITO
  0
SPLINE
  5
EE
330
1F
100
AcDbEntity
  8
PREDEFINITO
100
AcDbSpline
210
0.0
220
0.0
230
1.0
 70
    12
 71
     2
 72
     6
 73
     3
 74
     0
 42
0.0000000001
 43
0.0000000001
 40
-5.863539798955705
 40
-5.863539798955705
 40
-5.863539798955705
 40
0.0
 40
0.0
 40
0.0
 10
525.2078989502104
 20
1365.473179534438
 30
0.0
 41
1.0
 10
522.2775489601622
 20
1364.552228011786
 30
0.0
 41
0.952653293416618
 10
519.3471567951266
 20
1365.473046701711
 30
0.0
 41
0.9999976469590285
  0
POLYLINE
  5
EF
330
1F
100
AcDbEntity
  8
PREDEFINITO
100
AcDb2dPolyline
 66
     1
 10
0.0
 20
0.0
 30
0.0
  0
VERTEX
  5
F1
330
EF
100
AcDbEntity
  8
PREDEFINITO
100
AcDbVertex
100
AcDb2dVertex
 10
494.0442171762897
 20
1374.99587984092
 30
0.0
  0
VERTEX
  5
F2
330
EF
100
AcDbEntity
  8
PREDEFINITO
100
AcDbVertex
100
AcDb2dVertex
 10
550.5441004551353
 20
1374.99587984092
 30
0.0
  0
VERTEX
  5
F3
330
EF
100
AcDbEntity
  8
PREDEFINITO
100
AcDbVertex
100
AcDb2dVertex
 10
550.5441004551353
 20
1376.072780050934
 30
0.0
  0
VERTEX
  5
F4
330
EF
100
AcDbEntity
  8
PREDEFINITO
100
AcDbVertex
100
AcDb2dVertex
 10
494.0442171762897
 20
1376.072780050934
 30
0.0
  0
VERTEX
  5
F5
330
EF
100
AcDbEntity
  8
PREDEFINITO
100
AcDbVertex
100
AcDb2dVertex
 10
494.0442171762897
 20
1374.99587984092
 30
0.0
  0
SEQEND
  5
F0
330
EF
100
AcDbEntity
  8
PREDEFINITO
  0
POLYLINE
  5
F6
330
1F
100
AcDbEntity
  8
PREDEFINITO
100
AcDb2dPolyline
 66
     1
 10
0.0
 20
0.0
 30
0.0
  0
VERTEX
  5
F8
330
F6
100
AcDbEntity
  8
PREDEFINITO
100
AcDbVertex
100
AcDb2dVertex
 10
592.6975543513488
 20
1374.939762770593
 30
0.0
  0
VERTEX
  5
F9
330
F6
100
AcDbEntity
  8
PREDEFINITO
100
AcDbVertex
100
AcDb2dVertex
 10
592.6051313175863
 20
1374.994789777922
 30
0.0
  0
VERTEX
  5
FA
330
F6
100
AcDbEntity
  8
PREDEFINITO
100
AcDbVertex
100
AcDb2dVertex
 10
649.1050311906804
 20
1374.995637731565
 30
0.0
  0
VERTEX
  5
FB
330
F6
100
AcDbEntity
  8
PREDEFINITO
100
AcDbVertex
100
AcDb2dVertex
 10
648.9994831847489
 20
1374.940608803037
 30
0.0
  0
SEQEND
  5
F7
330
F6
100
AcDbEntity
  8
PREDEFINITO
  0
SPLINE
  5
FC
330
1F
100
AcDbEntity
  8
PREDEFINITO
100
AcDbSpline
210
0.0
220
0.0
230
1.0
 70
    24
 71
     2
 72
     6
 73
     3
 74
     0
 42
0.0000000001
 43
0.0000000001
 40
0.0
 40
0.0
 40
0.0
 40
20.03503794271613
 40
20.03503794271613
 40
20.03503794271613
 10
648.9994831847489
 20
1374.940608803037
 30
0.0
 10
640.1610335336179
 20
1370.206829176537
 30
0.0
 10
631.3225838824869
 20
1365.473049550038
 30
0.0
  0
SPLINE
  5
FD
330
1F
100
AcDbEntity
  8
PREDEFINITO
100
AcDbSpline
210
0.0
220
0.0
230
1.0
 70
    12
 71
     2
 72
     6
 73
     3
 74
     0
 42
0.0000000001
 43
0.0000000001
 40
5.49778714378214
 40
5.49778714378214
 40
5.49778714378214
 40
6.28318530717959
 40
6.28318530717959
 40
6.28318530717959
 10
631.3225838824868
 20
1365.473049550038
 30
0.0
 41
0.8536927746304102
 10
631.5808295039703
 20
1365.473019205036
 30
0.0
 41
0.858071390111205
 10
628.8870555920234
 20
1365.472951799587
 30
0.0
 41
1.0
  0
SPLINE
  5
FE
330
1F
100
AcDbEntity
  8
PREDEFINITO
100
AcDbSpline
210
0.0
220
0.0
230
1.0
 70
    12
 71
     2
 72
     6
 73
     3
 74
     0
 42
0.0000000001
 43
0.0000000001
 40
0.0
 40
0.0
 40
0.0
 40
2.791609426654083
 40
2.791609426654083
 40
2.791609426654083
 10
628.8870555920234
 20
1365.472951799587
 30
0.0
 41
1.0
 10
627.4912508791148
 20
1365.472917504013
 30
0.0
 41
0.9999999999967094
 10
626.0954461660483
 20
1365.472890370036
 30
0.0
 41
1.0
  0
SPLINE
  5
FF
330
1F
100
AcDbEntity
  8
PREDEFINITO
100
AcDbSpline
210
0.0
220
0.0
230
1.0
 70
    12
 71
     2
 72
     8
 73
     5
 74
     0
 42
0.0000000001
 43
0.0000000001
 40
0.0
 40
0.0
 40
0.0
 40
11.99296876671814
 40
11.99296876671814
 40
15.70135931269
 40
15.70135931269
 40
15.70135931269
 10
626.0954461660483
 20
1365.472890370036
 30
0.0
 41
1.0
 10
620.0989617837722
 20
1365.472773332831
 30
0.0
 41
0.9999999999851884
 10
614.1024774005773
 20
1365.472721569905
 30
0.0
 41
1.0
 10
612.2482821276403
 20
1365.472691129575
 30
0.0
 41
0.9999999998373552
 10
610.3541947840756
 20
1365.472734804093
 30
0.0
 41
1.0
  0
SPLINE
  5
100
330
1F
100
AcDbEntity
  8
PREDEFINITO
100
AcDbSpline
210
0.0
220
0.0
230
1.0
 70
    24
 71
     2
 72
     6
 73
     3
 74
     0
 42
0.0000000001
 43
0.0000000001
 40
0.0
 40
0.0
 40
0.0
 40
20.03450947463151
 40
20.03450947463151
 40
20.03450947463151
 10
610.3541947840756
 20
1365.472734804093
 30
0.0
 10
601.5258745677122
 20
1370.206248787343
 30
0.0
 10
592.6975543513488
 20
1374.939762770593
 30
0.0
  0
POLYLINE
  5
101
330
1F
100
AcDbEntity
  8
PREDEFINITO
100
AcDb2dPolyline
 66
     1
 10
0.0
 20
0.0
 30
0.0
  0
VERTEX
  5
103
330
101
100
AcDbEntity
  8
PREDEFINITO
100
AcDbVertex
100
AcDb2dVertex
 10
617.9080875306718
 20
1365.472804592357
 30
0.0
  0
VERTEX
  5
104
330
101
100
AcDbEntity
  8
PREDEFINITO
100
AcDbVertex
100
AcDb2dVertex
 10
623.7688296857555
 20
1365.472937425084
 30
0.0
  0
SEQEND
  5
102
330
101
100
AcDbEntity
  8
PREDEFINITO
  0
SPLINE
  5
105
330
1F
100
AcDbEntity
  8
PREDEFINITO
100
AcDbSpline
210
0.0
220
0.0
230
1.0
 70
    12
 71
     2
 72
     6
 73
     3
 74
     0
 42
0.0000000001
 43
0.0000000001
 40
-5.863539798955705
 40
-5.863539798955705
 40
-5.863539798955705
 40
0.0
 40
0.0
 40
0.0
 10
623.7688296857555
 20
1365.472937425084
 30
0.0
 41
1.0
 10
620.8384796957073
 20
1364.551985902431
 30
0.0
 41
0.952653293416618
 10
617.9080875306718
 20
1365.472804592357
 30
0.0
 41
0.9999976469590285
  0
POLYLINE
  5
106
330
1F
100
AcDbEntity
  8
PREDEFINITO
100
AcDb2dPolyline
 66
     1
 10
0.0
 20
0.0
 30
0.0
  0
VERTEX
  5
108
330
106
100
AcDbEntity
  8
PREDEFINITO
100
AcDbVertex
100
AcDb2dVertex
 10
592.6051479118348
 20
1374.995637731565
 30
0.0
  0
VERTEX
  5
109
330
106
100
AcDbEntity
  8
PREDEFINITO
100
AcDbVertex
100
AcDb2dVertex
 10
649.1050311906804
 20
1374.995637731565
 30
0.0
  0
VERTEX
  5
10A
330
106
100
AcDbEntity
  8
PREDEFINITO
100
AcDbVertex
100
AcDb2dVertex
 10
649.1050311906804
 20
1376.072537941579
 30
0.0
  0
VERTEX
  5
10B
330
106
100
AcDbEntity
  8
PREDEFINITO
100
AcDbVertex
100
AcDb2dVertex
 10
592.6051479118348
 20
1376.072537941579
 30
0.0
  0
VERTEX
  5
10C
330
106
100
AcDbEntity
  8
PREDEFINITO
100
AcDbVertex
100
AcDb2dVertex
 10
592.6051479118348
 20
1374.995637731565
 30
0.0
  0
SEQEND
  5
107
330
106
100
AcDbEntity
  8
PREDEFINITO
  0
POLYLINE
  5
10D
330
1F
100
AcDbEntity
  8
PREDEFINITO
100
AcDb2dPolyline
 66
     1
 10
0.0
 20
0.0
 30
0.0
  0
VERTEX
  5
10F
330
10D
100
AcDbEntity
  8
PREDEFINITO
100
AcDbVertex
100
AcDb2dVertex
 10
691.2491091743283
 20
1374.995637731565
 30
0.0
  0
VERTEX
  5
110
330
10D
100
AcDbEntity
  8
PREDEFINITO
100
AcDbVertex
100
AcDb2dVertex
 10
747.7489924531739
 20
1374.995637731565
 30
0.0
  0
VERTEX
  5
111
330
10D
100
AcDbEntity
  8
PREDEFINITO
100
AcDbVertex
100
AcDb2dVertex
 10
747.7489924531739
 20
1376.072537941579
 30
0.0
  0
VERTEX
  5
112
330
10D
100
AcDbEntity
  8
PREDEFINITO
100
AcDbVertex
100
AcDb2dVertex
 10
691.2491091743283
 20
1376.072537941579
 30
0.0
  0
VERTEX
  5
113
330
10D
100
AcDbEntity
  8
PREDEFINITO
100
AcDbVertex
100
AcDb2dVertex
 10
691.2491091743283
 20
1374.995637731565
 30
0.0
  0
SEQEND
  5
10E
330
10D
100
AcDbEntity
  8
PREDEFINITO
  0
POLYLINE
  5
114
330
1F
100
AcDbEntity
  8
PREDEFINITO
100
AcDb2dPolyline
 66
     1
 10
0.0
 20
0.0
 30
0.0
  0
VERTEX
  5
116
330
114
100
AcDbEntity
  8
PREDEFINITO
100
AcDbVertex
100
AcDb2dVertex
 10
716.5520487931652
 20
1365.472804592357
 30
0.0
  0
VERTEX
  5
117
330
114
100
AcDbEntity
  8
PREDEFINITO
100
AcDbVertex
100
AcDb2dVertex
 10
722.4127909482489
 20
1365.472937425084
 30
0.0
  0
SEQEND
  5
115
330
114
100
AcDbEntity
  8
PREDEFINITO
  0
SPLINE
  5
118
330
1F
100
AcDbEntity
  8
PREDEFINITO
100
AcDbSpline
210
0.0
220
0.0
230
1.0
 70
    12
 71
     2
 72
     6
 73
     3
 74
     0
 42
0.0000000001
 43
0.0000000001
 40
-5.863539798955705
 40
-5.863539798955705
 40
-5.863539798955705
 40
0.0
 40
0.0
 40
0.0
 10
722.4127909482489
 20
1365.472937425084
 30
0.0
 41
1.0
 10
719.4824409582008
 20
1364.551985902431
 30
0.0
 41
0.952653293416618
 10
716.5520487931652
 20
1365.472804592357
 30
0.0
 41
0.9999976469590285
  0
POLYLINE
  5
119
330
1F
100
AcDbEntity
  8
PREDEFINITO
100
AcDb2dPolyline
 66
     1
 10
0.0
 20
0.0
 30
0.0
  0
VERTEX
  5
11B
330
119
100
AcDbEntity
  8
PREDEFINITO
100
AcDbVertex
100
AcDb2dVertex
 10
691.3415156138423
 20
1374.939762770593
 30
0.0
  0
VERTEX
  5
11C
330
119
100
AcDbEntity
  8
PREDEFINITO
100
AcDbVertex
100
AcDb2dVertex
 10
691.2490925800797
 20
1374.994789777922
 30
0.0
  0
VERTEX
  5
11D
330
119
100
AcDbEntity
  8
PREDEFINITO
100
AcDbVertex
100
AcDb2dVertex
 10
747.7489924531739
 20
1374.995637731565
 30
0.0
  0
VERTEX
  5
11E
330
119
100
AcDbEntity
  8
PREDEFINITO
100
AcDbVertex
100
AcDb2dVertex
 10
747.6434444472424
 20
1374.940608803037
 30
0.0
  0
SEQEND
  5
11A
330
119
100
AcDbEntity
  8
PREDEFINITO
  0
SPLINE
  5
11F
330
1F
100
AcDbEntity
  8
PREDEFINITO
100
AcDbSpline
210
0.0
220
0.0
230
1.0
 70
    24
 71
     2
 72
     6
 73
     3
 74
     0
 42
0.0000000001
 43
0.0000000001
 40
0.0
 40
0.0
 40
0.0
 40
20.03503794271613
 40
20.03503794271613
 40
20.03503794271613
 10
747.6434444472424
 20
1374.940608803037
 30
0.0
 10
738.8049947961114
 20
1370.206829176537
 30
0.0
 10
729.9665451449804
 20
1365.473049550038
 30
0.0
  0
SPLINE
  5
120
330
1F
100
AcDbEntity
  8
PREDEFINITO
100
AcDbSpline
210
0.0
220
0.0
230
1.0
 70
    12
 71
     2
 72
     6
 73
     3
 74
     0
 42
0.0000000001
 43
0.0000000001
 40
5.49778714378214
 40
5.49778714378214
 40
5.49778714378214
 40
6.28318530717959
 40
6.28318530717959
 40
6.28318530717959
 10
729.9665451449802
 20
1365.473049550038
 30
0.0
 41
0.8536927746304102
 10
730.2247907664638
 20
1365.473019205036
 30
0.0
 41
0.858071390111205
 10
727.5310168545169
 20
1365.472951799587
 30
0.0
 41
1.0
  0
SPLINE
  5
121
330
1F
100
AcDbEntity
  8
PREDEFINITO
100
AcDbSpline
210
0.0
220
0.0
230
1.0
 70
    12
 71
     2
 72
     6
 73
     3
 74
     0
 42
0.0000000001
 43
0.0000000001
 40
0.0
 40
0.0
 40
0.0
 40
2.791609426654083
 40
2.791609426654083
 40
2.791609426654083
 10
727.5310168545169
 20
1365.472951799587
 30
0.0
 41
1.0
 10
726.1352121416082
 20
1365.472917504013
 30
0.0
 41
0.9999999999967094
 10
724.7394074285418
 20
1365.472890370036
 30
0.0
 41
1.0
  0
SPLINE
  5
122
330
1F
100
AcDbEntity
  8
PREDEFINITO
100
AcDbSpline
210
0.0
220
0.0
230
1.0
 70
    12
 71
     2
 72
     8
 73
     5
 74
     0
 42
0.0000000001
 43
0.0000000001
 40
0.0
 40
0.0
 40
0.0
 40
11.99296876671814
 40
11.99296876671814
 40
15.70135931269
 40
15.70135931269
 40
15.70135931269
 10
724.7394074285418
 20
1365.472890370036
 30
0.0
 41
1.0
 10
718.7429230462657
 20
1365.472773332831
 30
0.0
 41
0.9999999999851884
 10
712.7464386630708
 20
1365.472721569905
 30
0.0
 41
1.0
 10
710.8922433901338
 20
1365.472691129575
 30
0.0
 41
0.9999999998373552
 10
708.9981560465691
 20
1365.472734804093
 30
0.0
 41
1.0
  0
SPLINE
  5
123
330
1F
100
AcDbEntity
  8
PREDEFINITO
100
AcDbSpline
210
0.0
220
0.0
230
1.0
 70
    24
 71
     2
 72
     6
 73
     3
 74
     0
 42
0.0000000001
 43
0.0000000001
 40
0.0
 40
0.0
 40
0.0
 40
20.03450947463151
 40
20.03450947463151
 40
20.03450947463151
 10
708.9981560465691
 20
1365.472734804093
 30
0.0
 10
700.1698358302057
 20
1370.206248787343
 30
0.0
 10
691.3415156138423
 20
1374.939762770593
 30
0.0
  0
POLYLINE
  5
124
330
1F
100
AcDbEntity
  8
PREDEFINITO
100
AcDb2dPolyline
 66
     1
 10
0.0
 20
0.0
 30
0.0
  0
VERTEX
  5
126
330
124
100
AcDbEntity
  8
PREDEFINITO
100
AcDbVertex
100
AcDb2dVertex
 10
7.861612550820155
 20
1376.072579711433
 30
0.0
  0
VERTEX
  5
127
330
124
100
AcDbEntity
  8
PREDEFINITO
100
AcDbVertex
100
AcDb2dVertex
 10
739.8584341923629
 20
1376.072579711433
 30
0.0
  0
VERTEX
  5
128
330
124
100
AcDbEntity
  8
PREDEFINITO
100
AcDbVertex
100
AcDb2dVertex
 10
739.8584341923629
 20
1389.072579711434
 30
0.0
  0
VERTEX
  5
129
330
124
100
AcDbEntity
  8
PREDEFINITO
100
AcDbVertex
100
AcDb2dVertex
 10
7.861612550820155
 20
1389.072579711434
 30
0.0
  0
VERTEX
  5
12A
330
124
100
AcDbEntity
  8
PREDEFINITO
100
AcDbVertex
100
AcDb2dVertex
 10
7.861612550820155
 20
1376.072579711433
 30
0.0
  0
SEQEND
  5
125
330
124
100
AcDbEntity
  8
PREDEFINITO
  0
POLYLINE
  5
12B
330
1F
100
AcDbEntity
  8
PREDEFINITO
100
AcDb2dPolyline
 66
     1
 10
0.0
 20
0.0
 30
0.0
  0
VERTEX
  5
12D
330
12B
100
AcDbEntity
  8
PREDEFINITO
100
AcDbVertex
100
AcDb2dVertex
 10
639.4725458439734
 20
1389.072579711425
 30
0.0
  0
VERTEX
  5
12E
330
12B
100
AcDbEntity
  8
PREDEFINITO
100
AcDbVertex
100
AcDb2dVertex
 10
800.4678062786631
 20
1389.072579711425
 30
0.0
  0
VERTEX
  5
12F
330
12B
100
AcDbEntity
  8
PREDEFINITO
100
AcDbVertex
100
AcDb2dVertex
 10
843.6712959366421
 20
1432.56893806839
 30
0.0
  0
VERTEX
  5
130
330
12B
100
AcDbEntity
  8
PREDEFINITO
100
AcDbVertex
100
AcDb2dVertex
 10
596.2679829497849
 20
1432.572579711434
 30
0.0
  0
VERTEX
  5
131
330
12B
100
AcDbEntity
  8
PREDEFINITO
100
AcDbVertex
100
AcDb2dVertex
 10
639.4725458439734
 20
1389.072579711425
 30
0.0
  0
SEQEND
  5
12C
330
12B
100
AcDbEntity
  8
PREDEFINITO
  0
SPLINE
  5
133
330
1F
100
AcDbEntity
  8
LINEE VISIBILI 2D
100
AcDbSpline
210
0.0
220
0.0
230
1.0
 70
    24
 71
     2
 72
     6
 73
     3
 74
     0
 42
0.0000000001
 43
0.0000000001
 40
0.0
 40
0.0
 40
0.0
 40
13.00000000000068
 40
13.00000000000068
 40
13.00000000000068
 10
2830.273796135551
 20
1376.071564280673
 30
0.0
 10
2830.273796135551
 20
1382.571564280674
 30
0.0
 10
2830.273796135551
 20
1389.071564280674
 30
0.0
  0
POLYLINE
  5
134
330
1F
100
AcDbEntity
  8
PREDEFINITO
100
AcDb2dPolyline
 66
     1
 10
0.0
 20
0.0
 30
0.0
  0
VERTEX
  5
136
330
134
100
AcDbEntity
  8
PREDEFINITO
100
AcDbVertex
100
AcDb2dVertex
 10
1743.358675300322
 20
1389.071688227073
 30
0.0
  0
VERTEX
  5
137
330
134
100
AcDbEntity
  8
PREDEFINITO
100
AcDbVertex
100
AcDb2dVertex
 10
1904.353935735012
 20
1389.071688227073
 30
0.0
  0
VERTEX
  5
138
330
134
100
AcDbEntity
  8
PREDEFINITO
100
AcDbVertex
100
AcDb2dVertex
 10
1947.557425392991
 20
1432.568046584038
 30
0.0
  0
VERTEX
  5
139
330
134
100
AcDbEntity
  8
PREDEFINITO
100
AcDbVertex
100
AcDb2dVertex
 10
1700.154112406133
 20
1432.571688227082
 30
0.0
  0
VERTEX
  5
13A
330
134
100
AcDbEntity
  8
PREDEFINITO
100
AcDbVertex
100
AcDb2dVertex
 10
1743.358675300322
 20
1389.071688227073
 30
0.0
  0
SEQEND
  5
135
330
134
100
AcDbEntity
  8
PREDEFINITO
  0
POLYLINE
  5
13B
330
1F
100
AcDbEntity
  8
PREDEFINITO
100
AcDb2dPolyline
 66
     1
 10
0.0
 20
0.0
 30
0.0
  0
VERTEX
  5
13D
330
13B
100
AcDbEntity
  8
PREDEFINITO
100
AcDbVertex
100
AcDb2dVertex
 10
2546.68816680302
 20
1389.071688227073
 30
0.0
  0
VERTEX
  5
13E
330
13B
100
AcDbEntity
  8
PREDEFINITO
100
AcDbVertex
100
AcDb2dVertex
 10
2564.68816680302
 20
1389.071688227073
 30
0.0
  0
VERTEX
  5
13F
330
13B
100
AcDbEntity
  8
PREDEFINITO
100
AcDbVertex
100
AcDb2dVertex
 10
2564.68816680302
 20
1432.571688227082
 30
0.0
  0
VERTEX
  5
140
330
13B
100
AcDbEntity
  8
PREDEFINITO
100
AcDbVertex
100
AcDb2dVertex
 10
2546.68816680302
 20
1432.571688227082
 30
0.0
  0
VERTEX
  5
141
330
13B
100
AcDbEntity
  8
PREDEFINITO
100
AcDbVertex
100
AcDb2dVertex
 10
2546.68816680302
 20
1389.071688227073
 30
0.0
  0
SEQEND
  5
13C
330
13B
100
AcDbEntity
  8
PREDEFINITO
  0
POLYLINE
  5
142
330
1F
100
AcDbEntity
  8
PREDEFINITO
100
AcDb2dPolyline
 66
     1
 10
0.0
 20
0.0
 30
0.0
  0
VERTEX
  5
144
330
142
100
AcDbEntity
  8
PREDEFINITO
100
AcDbVertex
100
AcDb2dVertex
 10
2204.643593535915
 20
1389.071688227073
 30
0.0
  0
VERTEX
  5
145
330
142
100
AcDbEntity
  8
PREDEFINITO
100
AcDbVertex
100
AcDb2dVertex
 10
2222.591606704909
 20
1389.071688227073
 30
0.0
  0
VERTEX
  5
146
330
142
100
AcDbEntity
  8
PREDEFINITO
100
AcDbVertex
100
AcDb2dVertex
 10
2222.591606704909
 20
1432.571688227082
 30
0.0
  0
VERTEX
  5
147
330
142
100
AcDbEntity
  8
PREDEFINITO
100
AcDbVertex
100
AcDb2dVertex
 10
2204.643593535915
 20
1432.571688227082
 30
0.0
  0
VERTEX
  5
148
330
142
100
AcDbEntity
  8
PREDEFINITO
100
AcDbVertex
100
AcDb2dVertex
 10
2204.643593535915
 20
1389.071688227073
 30
0.0
  0
SEQEND
  5
143
330
142
100
AcDbEntity
  8
PREDEFINITO
  0
POLYLINE
  5
149
330
1F
100
AcDbEntity
  8
PREDEFINITO
100
AcDb2dPolyline
 66
     1
 10
0.0
 20
0.0
 30
0.0
  0
VERTEX
  5
14B
330
149
100
AcDbEntity
  8
PREDEFINITO
100
AcDbVertex
100
AcDb2dVertex
 10
1803.343832006413
 20
1376.071688227081
 30
0.0
  0
VERTEX
  5
14C
330
149
100
AcDbEntity
  8
PREDEFINITO
100
AcDbVertex
100
AcDb2dVertex
 10
2871.027370859927
 20
1376.071688227081
 30
0.0
  0
VERTEX
  5
14D
330
149
100
AcDbEntity
  8
PREDEFINITO
100
AcDbVertex
100
AcDb2dVertex
 10
2871.027370859927
 20
1389.071688227082
 30
0.0
  0
VERTEX
  5
14E
330
149
100
AcDbEntity
  8
PREDEFINITO
100
AcDbVertex
100
AcDb2dVertex
 10
1803.343832006413
 20
1389.071688227082
 30
0.0
  0
VERTEX
  5
14F
330
149
100
AcDbEntity
  8
PREDEFINITO
100
AcDbVertex
100
AcDb2dVertex
 10
1803.343832006413
 20
1376.071688227081
 30
0.0
  0
SEQEND
  5
14A
330
149
100
AcDbEntity
  8
PREDEFINITO
  0
POLYLINE
  5
150
330
1F
100
AcDbEntity
  8
PREDEFINITO
100
AcDb2dPolyline
 66
     1
 10
0.0
 20
0.0
 30
0.0
  0
VERTEX
  5
152
330
150
100
AcDbEntity
  8
PREDEFINITO
100
AcDbVertex
100
AcDb2dVertex
 10
2765.332119104212
 20
1374.994775795121
 30
0.0
  0
VERTEX
  5
153
330
150
100
AcDbEntity
  8
PREDEFINITO
100
AcDbVertex
100
AcDb2dVertex
 10
2821.832002383057
 20
1374.994775795121
 30
0.0
  0
VERTEX
  5
154
330
150
100
AcDbEntity
  8
PREDEFINITO
100
AcDbVertex
100
AcDb2dVertex
 10
2821.832002383057
 20
1376.071676005135
 30
0.0
  0
VERTEX
  5
155
330
150
100
AcDbEntity
  8
PREDEFINITO
100
AcDbVertex
100
AcDb2dVertex
 10
2765.332119104212
 20
1376.071676005135
 30
0.0
  0
VERTEX
  5
156
330
150
100
AcDbEntity
  8
PREDEFINITO
100
AcDbVertex
100
AcDb2dVertex
 10
2765.332119104212
 20
1374.994775795121
 30
0.0
  0
SEQEND
  5
151
330
150
100
AcDbEntity
  8
PREDEFINITO
  0
POLYLINE
  5
157
330
1F
100
AcDbEntity
  8
PREDEFINITO
100
AcDb2dPolyline
 66
     1
 10
0.0
 20
0.0
 30
0.0
  0
VERTEX
  5
159
330
157
100
AcDbEntity
  8
PREDEFINITO
100
AcDbVertex
100
AcDb2dVertex
 10
2790.635058723049
 20
1365.471942655912
 30
0.0
  0
VERTEX
  5
15A
330
157
100
AcDbEntity
  8
PREDEFINITO
100
AcDbVertex
100
AcDb2dVertex
 10
2796.495800878132
 20
1365.47207548864
 30
0.0
  0
SEQEND
  5
158
330
157
100
AcDbEntity
  8
PREDEFINITO
  0
SPLINE
  5
15B
330
1F
100
AcDbEntity
  8
PREDEFINITO
100
AcDbSpline
210
0.0
220
0.0
230
1.0
 70
    12
 71
     2
 72
     6
 73
     3
 74
     0
 42
0.0000000001
 43
0.0000000001
 40
-5.863539798955705
 40
-5.863539798955705
 40
-5.863539798955705
 40
0.0
 40
0.0
 40
0.0
 10
2796.495800878132
 20
1365.47207548864
 30
0.0
 41
1.0
 10
2793.565450888084
 20
1364.551123965987
 30
0.0
 41
0.952653293416618
 10
2790.635058723049
 20
1365.471942655912
 30
0.0
 41
0.9999976469590285
  0
POLYLINE
  5
15C
330
1F
100
AcDbEntity
  8
PREDEFINITO
100
AcDb2dPolyline
 66
     1
 10
0.0
 20
0.0
 30
0.0
  0
VERTEX
  5
15E
330
15C
100
AcDbEntity
  8
PREDEFINITO
100
AcDbVertex
100
AcDb2dVertex
 10
2822.039142549666
 20
1374.938890000011
 30
0.0
  0
VERTEX
  5
15F
330
15C
100
AcDbEntity
  8
PREDEFINITO
100
AcDbVertex
100
AcDb2dVertex
 10
2821.946719515904
 20
1374.993917007339
 30
0.0
  0
VERTEX
  5
160
330
15C
100
AcDbEntity
  8
PREDEFINITO
100
AcDbVertex
100
AcDb2dVertex
 10
2878.446619388998
 20
1374.994764960982
 30
0.0
  0
VERTEX
  5
161
330
15C
100
AcDbEntity
  8
PREDEFINITO
100
AcDbVertex
100
AcDb2dVertex
 10
2878.341071383066
 20
1374.939736032454
 30
0.0
  0
SEQEND
  5
15D
330
15C
100
AcDbEntity
  8
PREDEFINITO
  0
SPLINE
  5
162
330
1F
100
AcDbEntity
  8
PREDEFINITO
100
AcDbSpline
210
0.0
220
0.0
230
1.0
 70
    24
 71
     2
 72
     6
 73
     3
 74
     0
 42
0.0000000001
 43
0.0000000001
 40
0.0
 40
0.0
 40
0.0
 40
20.03503794271613
 40
20.03503794271613
 40
20.03503794271613
 10
2878.341071383066
 20
1374.939736032454
 30
0.0
 10
2869.502621731936
 20
1370.205956405955
 30
0.0
 10
2860.664172080805
 20
1365.472176779455
 30
0.0
  0
SPLINE
  5
163
330
1F
100
AcDbEntity
  8
PREDEFINITO
100
AcDbSpline
210
0.0
220
0.0
230
1.0
 70
    12
 71
     2
 72
     6
 73
     3
 74
     0
 42
0.0000000001
 43
0.0000000001
 40
5.49778714378214
 40
5.49778714378214
 40
5.49778714378214
 40
6.28318530717959
 40
6.28318530717959
 40
6.28318530717959
 10
2860.664172080804
 20
1365.472176779455
 30
0.0
 41
0.8536927746304102
 10
2860.922417702288
 20
1365.472146434453
 30
0.0
 41
0.858071390111205
 10
2858.228643790341
 20
1365.472079029004
 30
0.0
 41
1.0
  0
SPLINE
  5
164
330
1F
100
AcDbEntity
  8
PREDEFINITO
100
AcDbSpline
210
0.0
220
0.0
230
1.0
 70
    12
 71
     2
 72
     6
 73
     3
 74
     0
 42
0.0000000001
 43
0.0000000001
 40
0.0
 40
0.0
 40
0.0
 40
2.791609426654083
 40
2.791609426654083
 40
2.791609426654083
 10
2858.228643790341
 20
1365.472079029004
 30
0.0
 41
1.0
 10
2856.832839077433
 20
1365.47204473343
 30
0.0
 41
0.9999999999967094
 10
2855.437034364366
 20
1365.472017599453
 30
0.0
 41
1.0
  0
SPLINE
  5
165
330
1F
100
AcDbEntity
  8
PREDEFINITO
100
AcDbSpline
210
0.0
220
0.0
230
1.0
 70
    12
 71
     2
 72
     8
 73
     5
 74
     0
 42
0.0000000001
 43
0.0000000001
 40
0.0
 40
0.0
 40
0.0
 40
11.99296876671814
 40
11.99296876671814
 40
15.70135931269
 40
15.70135931269
 40
15.70135931269
 10
2855.437034364366
 20
1365.472017599453
 30
0.0
 41
1.0
 10
2849.44054998209
 20
1365.471900562248
 30
0.0
 41
0.9999999999851884
 10
2843.444065598895
 20
1365.471848799322
 30
0.0
 41
1.0
 10
2841.589870325958
 20
1365.471818358993
 30
0.0
 41
0.9999999998373552
 10
2839.695782982393
 20
1365.47186203351
 30
0.0
 41
1.0
  0
SPLINE
  5
166
330
1F
100
AcDbEntity
  8
PREDEFINITO
100
AcDbSpline
210
0.0
220
0.0
230
1.0
 70
    24
 71
     2
 72
     6
 73
     3
 74
     0
 42
0.0000000001
 43
0.0000000001
 40
0.0
 40
0.0
 40
0.0
 40
20.03450947463151
 40
20.03450947463151
 40
20.03450947463151
 10
2839.695782982393
 20
1365.47186203351
 30
0.0
 10
2830.86746276603
 20
1370.205376016761
 30
0.0
 10
2822.039142549666
 20
1374.938890000011
 30
0.0
  0
POLYLINE
  5
167
330
1F
100
AcDbEntity
  8
PREDEFINITO
100
AcDb2dPolyline
 66
     1
 10
0.0
 20
0.0
 30
0.0
  0
VERTEX
  5
169
330
167
100
AcDbEntity
  8
PREDEFINITO
100
AcDbVertex
100
AcDb2dVertex
 10
2847.249675728989
 20
1365.471931821774
 30
0.0
  0
VERTEX
  5
16A
330
167
100
AcDbEntity
  8
PREDEFINITO
100
AcDbVertex
100
AcDb2dVertex
 10
2853.110417884073
 20
1365.472064654501
 30
0.0
  0
SEQEND
  5
168
330
167
100
AcDbEntity
  8
PREDEFINITO
  0
SPLINE
  5
16B
330
1F
100
AcDbEntity
  8
PREDEFINITO
100
AcDbSpline
210
0.0
220
0.0
230
1.0
 70
    12
 71
     2
 72
     6
 73
     3
 74
     0
 42
0.0000000001
 43
0.0000000001
 40
-5.863539798955705
 40
-5.863539798955705
 40
-5.863539798955705
 40
0.0
 40
0.0
 40
0.0
 10
2853.110417884073
 20
1365.472064654501
 30
0.0
 41
1.0
 10
2850.180067894025
 20
1364.551113131848
 30
0.0
 41
0.952653293416618
 10
2847.24967572899
 20
1365.471931821774
 30
0.0
 41
0.9999976469590285
  0
POLYLINE
  5
16C
330
1F
100
AcDbEntity
  8
PREDEFINITO
100
AcDb2dPolyline
 66
     1
 10
0.0
 20
0.0
 30
0.0
  0
VERTEX
  5
16E
330
16C
100
AcDbEntity
  8
PREDEFINITO
100
AcDbVertex
100
AcDb2dVertex
 10
2821.946736110152
 20
1374.994764960982
 30
0.0
  0
VERTEX
  5
16F
330
16C
100
AcDbEntity
  8
PREDEFINITO
100
AcDbVertex
100
AcDb2dVertex
 10
2878.446619388998
 20
1374.994764960982
 30
0.0
  0
VERTEX
  5
170
330
16C
100
AcDbEntity
  8
PREDEFINITO
100
AcDbVertex
100
AcDb2dVertex
 10
2878.446619388998
 20
1376.071665170997
 30
0.0
  0
VERTEX
  5
171
330
16C
100
AcDbEntity
  8
PREDEFINITO
100
AcDbVertex
100
AcDb2dVertex
 10
2821.946736110152
 20
1376.071665170997
 30
0.0
  0
VERTEX
  5
172
330
16C
100
AcDbEntity
  8
PREDEFINITO
100
AcDbVertex
100
AcDb2dVertex
 10
2821.946736110152
 20
1374.994764960982
 30
0.0
  0
SEQEND
  5
16D
330
16C
100
AcDbEntity
  8
PREDEFINITO
  0
POLYLINE
  5
173
330
1F
100
AcDbEntity
  8
PREDEFINITO
100
AcDb2dPolyline
 66
     1
 10
0.0
 20
0.0
 30
0.0
  0
VERTEX
  5
175
330
173
100
AcDbEntity
  8
PREDEFINITO
100
AcDbVertex
100
AcDb2dVertex
 10
2765.424525543726
 20
1374.938900834149
 30
0.0
  0
VERTEX
  5
176
330
173
100
AcDbEntity
  8
PREDEFINITO
100
AcDbVertex
100
AcDb2dVertex
 10
2765.332102509963
 20
1374.993927841478
 30
0.0
  0
VERTEX
  5
177
330
173
100
AcDbEntity
  8
PREDEFINITO
100
AcDbVertex
100
AcDb2dVertex
 10
2821.832002383057
 20
1374.994775795121
 30
0.0
  0
VERTEX
  5
178
330
173
100
AcDbEntity
  8
PREDEFINITO
100
AcDbVertex
100
AcDb2dVertex
 10
2821.726454377126
 20
1374.939746866592
 30
0.0
  0
SEQEND
  5
174
330
173
100
AcDbEntity
  8
PREDEFINITO
  0
SPLINE
  5
179
330
1F
100
AcDbEntity
  8
PREDEFINITO
100
AcDbSpline
210
0.0
220
0.0
230
1.0
 70
    24
 71
     2
 72
     6
 73
     3
 74
     0
 42
0.0000000001
 43
0.0000000001
 40
0.0
 40
0.0
 40
0.0
 40
20.03503794271613
 40
20.03503794271613
 40
20.03503794271613
 10
2821.726454377126
 20
1374.939746866592
 30
0.0
 10
2812.888004725995
 20
1370.205967240093
 30
0.0
 10
2804.049555074864
 20
1365.472187613594
 30
0.0
  0
SPLINE
  5
17A
330
1F
100
AcDbEntity
  8
PREDEFINITO
100
AcDbSpline
210
0.0
220
0.0
230
1.0
 70
    12
 71
     2
 72
     6
 73
     3
 74
     0
 42
0.0000000001
 43
0.0000000001
 40
5.49778714378214
 40
5.49778714378214
 40
5.49778714378214
 40
6.28318530717959
 40
6.28318530717959
 40
6.28318530717959
 10
2804.049555074864
 20
1365.472187613593
 30
0.0
 41
0.8536927746304102
 10
2804.307800696348
 20
1365.472157268592
 30
0.0
 41
0.858071390111205
 10
2801.6140267844
 20
1365.472089863142
 30
0.0
 41
1.0
  0
SPLINE
  5
17B
330
1F
100
AcDbEntity
  8
PREDEFINITO
100
AcDbSpline
210
0.0
220
0.0
230
1.0
 70
    12
 71
     2
 72
     6
 73
     3
 74
     0
 42
0.0000000001
 43
0.0000000001
 40
0.0
 40
0.0
 40
0.0
 40
2.791609426654083
 40
2.791609426654083
 40
2.791609426654083
 10
2801.6140267844
 20
1365.472089863142
 30
0.0
 41
1.0
 10
2800.218222071492
 20
1365.472055567569
 30
0.0
 41
0.9999999999967094
 10
2798.822417358425
 20
1365.472028433591
 30
0.0
 41
1.0
  0
SPLINE
  5
17C
330
1F
100
AcDbEntity
  8
PREDEFINITO
100
AcDbSpline
210
0.0
220
0.0
230
1.0
 70
    12
 71
     2
 72
     8
 73
     5
 74
     0
 42
0.0000000001
 43
0.0000000001
 40
0.0
 40
0.0
 40
0.0
 40
11.99296876671814
 40
11.99296876671814
 40
15.70135931269
 40
15.70135931269
 40
15.70135931269
 10
2798.822417358425
 20
1365.472028433591
 30
0.0
 41
1.0
 10
2792.825932976149
 20
1365.471911396387
 30
0.0
 41
0.9999999999851884
 10
2786.829448592955
 20
1365.471859633461
 30
0.0
 41
1.0
 10
2784.975253320017
 20
1365.471829193131
 30
0.0
 41
0.9999999998373552
 10
2783.081165976453
 20
1365.471872867649
 30
0.0
 41
1.0
  0
SPLINE
  5
17D
330
1F
100
AcDbEntity
  8
PREDEFINITO
100
AcDbSpline
210
0.0
220
0.0
230
1.0
 70
    24
 71
     2
 72
     6
 73
     3
 74
     0
 42
0.0000000001
 43
0.0000000001
 40
0.0
 40
0.0
 40
0.0
 40
20.03450947463151
 40
20.03450947463151
 40
20.03450947463151
 10
2783.081165976453
 20
1365.471872867649
 30
0.0
 10
2774.252845760089
 20
1370.205386850899
 30
0.0
 10
2765.424525543726
 20
1374.938900834149
 30
0.0
  0
POLYLINE
  5
17E
330
1F
100
AcDbEntity
  8
PREDEFINITO
100
AcDb2dPolyline
 66
     1
 10
0.0
 20
0.0
 30
0.0
  0
VERTEX
  5
180
330
17E
100
AcDbEntity
  8
PREDEFINITO
100
AcDbVertex
100
AcDb2dVertex
 10
2593.975369376504
 20
1374.994379974355
 30
0.0
  0
VERTEX
  5
181
330
17E
100
AcDbEntity
  8
PREDEFINITO
100
AcDbVertex
100
AcDb2dVertex
 10
2650.47525265535
 20
1374.994379974355
 30
0.0
  0
VERTEX
  5
182
330
17E
100
AcDbEntity
  8
PREDEFINITO
100
AcDbVertex
100
AcDb2dVertex
 10
2650.47525265535
 20
1376.071280184369
 30
0.0
  0
VERTEX
  5
183
330
17E
100
AcDbEntity
  8
PREDEFINITO
100
AcDbVertex
100
AcDb2dVertex
 10
2593.975369376504
 20
1376.071280184369
 30
0.0
  0
VERTEX
  5
184
330
17E
100
AcDbEntity
  8
PREDEFINITO
100
AcDbVertex
100
AcDb2dVertex
 10
2593.975369376504
 20
1374.994379974355
 30
0.0
  0
SEQEND
  5
17F
330
17E
100
AcDbEntity
  8
PREDEFINITO
  0
POLYLINE
  5
185
330
1F
100
AcDbEntity
  8
PREDEFINITO
100
AcDb2dPolyline
 66
     1
 10
0.0
 20
0.0
 30
0.0
  0
VERTEX
  5
187
330
185
100
AcDbEntity
  8
PREDEFINITO
100
AcDbVertex
100
AcDb2dVertex
 10
2619.278308995341
 20
1365.471546835146
 30
0.0
  0
VERTEX
  5
188
330
185
100
AcDbEntity
  8
PREDEFINITO
100
AcDbVertex
100
AcDb2dVertex
 10
2625.139051150425
 20
1365.471679667874
 30
0.0
  0
SEQEND
  5
186
330
185
100
AcDbEntity
  8
PREDEFINITO
  0
SPLINE
  5
189
330
1F
100
AcDbEntity
  8
PREDEFINITO
100
AcDbSpline
210
0.0
220
0.0
230
1.0
 70
    12
 71
     2
 72
     6
 73
     3
 74
     0
 42
0.0000000001
 43
0.0000000001
 40
-5.863539798955705
 40
-5.863539798955705
 40
-5.863539798955705
 40
0.0
 40
0.0
 40
0.0
 10
2625.139051150425
 20
1365.471679667874
 30
0.0
 41
1.0
 10
2622.208701160377
 20
1364.550728145221
 30
0.0
 41
0.952653293416618
 10
2619.278308995341
 20
1365.471546835146
 30
0.0
 41
0.9999976469590285
  0
POLYLINE
  5
18A
330
1F
100
AcDbEntity
  8
PREDEFINITO
100
AcDb2dPolyline
 66
     1
 10
0.0
 20
0.0
 30
0.0
  0
VERTEX
  5
18C
330
18A
100
AcDbEntity
  8
PREDEFINITO
100
AcDbVertex
100
AcDb2dVertex
 10
2650.682392821959
 20
1374.938494179245
 30
0.0
  0
VERTEX
  5
18D
330
18A
100
AcDbEntity
  8
PREDEFINITO
100
AcDbVertex
100
AcDb2dVertex
 10
2650.589969788196
 20
1374.993521186573
 30
0.0
  0
VERTEX
  5
18E
330
18A
100
AcDbEntity
  8
PREDEFINITO
100
AcDbVertex
100
AcDb2dVertex
 10
2707.08986966129
 20
1374.994369140217
 30
0.0
  0
VERTEX
  5
18F
330
18A
100
AcDbEntity
  8
PREDEFINITO
100
AcDbVertex
100
AcDb2dVertex
 10
2706.984321655359
 20
1374.939340211688
 30
0.0
  0
SEQEND
  5
18B
330
18A
100
AcDbEntity
  8
PREDEFINITO
  0
SPLINE
  5
190
330
1F
100
AcDbEntity
  8
PREDEFINITO
100
AcDbSpline
210
0.0
220
0.0
230
1.0
 70
    24
 71
     2
 72
     6
 73
     3
 74
     0
 42
0.0000000001
 43
0.0000000001
 40
0.0
 40
0.0
 40
0.0
 40
20.03503794271613
 40
20.03503794271613
 40
20.03503794271613
 10
2706.984321655359
 20
1374.939340211688
 30
0.0
 10
2698.145872004228
 20
1370.205560585189
 30
0.0
 10
2689.307422353097
 20
1365.471780958689
 30
0.0
  0
SPLINE
  5
191
330
1F
100
AcDbEntity
  8
PREDEFINITO
100
AcDbSpline
210
0.0
220
0.0
230
1.0
 70
    12
 71
     2
 72
     6
 73
     3
 74
     0
 42
0.0000000001
 43
0.0000000001
 40
5.49778714378214
 40
5.49778714378214
 40
5.49778714378214
 40
6.28318530717959
 40
6.28318530717959
 40
6.28318530717959
 10
2689.307422353097
 20
1365.471780958689
 30
0.0
 41
0.8536927746304102
 10
2689.56566797458
 20
1365.471750613687
 30
0.0
 41
0.858071390111205
 10
2686.871894062633
 20
1365.471683208238
 30
0.0
 41
1.0
  0
SPLINE
  5
192
330
1F
100
AcDbEntity
  8
PREDEFINITO
100
AcDbSpline
210
0.0
220
0.0
230
1.0
 70
    12
 71
     2
 72
     6
 73
     3
 74
     0
 42
0.0000000001
 43
0.0000000001
 40
0.0
 40
0.0
 40
0.0
 40
2.791609426654083
 40
2.791609426654083
 40
2.791609426654083
 10
2686.871894062633
 20
1365.471683208238
 30
0.0
 41
1.0
 10
2685.476089349725
 20
1365.471648912664
 30
0.0
 41
0.9999999999967094
 10
2684.080284636658
 20
1365.471621778687
 30
0.0
 41
1.0
  0
SPLINE
  5
193
330
1F
100
AcDbEntity
  8
PREDEFINITO
100
AcDbSpline
210
0.0
220
0.0
230
1.0
 70
    12
 71
     2
 72
     8
 73
     5
 74
     0
 42
0.0000000001
 43
0.0000000001
 40
0.0
 40
0.0
 40
0.0
 40
11.99296876671814
 40
11.99296876671814
 40
15.70135931269
 40
15.70135931269
 40
15.70135931269
 10
2684.080284636658
 20
1365.471621778687
 30
0.0
 41
1.0
 10
2678.083800254382
 20
1365.471504741482
 30
0.0
 41
0.9999999999851884
 10
2672.087315871187
 20
1365.471452978556
 30
0.0
 41
1.0
 10
2670.23312059825
 20
1365.471422538227
 30
0.0
 41
0.9999999998373552
 10
2668.339033254686
 20
1365.471466212745
 30
0.0
 41
1.0
  0
SPLINE
  5
194
330
1F
100
AcDbEntity
  8
PREDEFINITO
100
AcDbSpline
210
0.0
220
0.0
230
1.0
 70
    24
 71
     2
 72
     6
 73
     3
 74
     0
 42
0.0000000001
 43
0.0000000001
 40
0.0
 40
0.0
 40
0.0
 40
20.03450947463151
 40
20.03450947463151
 40
20.03450947463151
 10
2668.339033254686
 20
1365.471466212745
 30
0.0
 10
2659.510713038322
 20
1370.204980195995
 30
0.0
 10
2650.682392821959
 20
1374.938494179245
 30
0.0
  0
POLYLINE
  5
195
330
1F
100
AcDbEntity
  8
PREDEFINITO
100
AcDb2dPolyline
 66
     1
 10
0.0
 20
0.0
 30
0.0
  0
VERTEX
  5
197
330
195
100
AcDbEntity
  8
PREDEFINITO
100
AcDbVertex
100
AcDb2dVertex
 10
2675.892926001282
 20
1365.471536001008
 30
0.0
  0
VERTEX
  5
198
330
195
100
AcDbEntity
  8
PREDEFINITO
100
AcDbVertex
100
AcDb2dVertex
 10
2681.753668156365
 20
1365.471668833735
 30
0.0
  0
SEQEND
  5
196
330
195
100
AcDbEntity
  8
PREDEFINITO
  0
SPLINE
  5
199
330
1F
100
AcDbEntity
  8
PREDEFINITO
100
AcDbSpline
210
0.0
220
0.0
230
1.0
 70
    12
 71
     2
 72
     6
 73
     3
 74
     0
 42
0.0000000001
 43
0.0000000001
 40
-5.863539798955705
 40
-5.863539798955705
 40
-5.863539798955705
 40
0.0
 40
0.0
 40
0.0
 10
2681.753668156365
 20
1365.471668833735
 30
0.0
 41
1.0
 10
2678.823318166317
 20
1364.550717311082
 30
0.0
 41
0.952653293416618
 10
2675.892926001281
 20
1365.471536001008
 30
0.0
 41
0.9999976469590285
  0
POLYLINE
  5
19A
330
1F
100
AcDbEntity
  8
PREDEFINITO
100
AcDb2dPolyline
 66
     1
 10
0.0
 20
0.0
 30
0.0
  0
VERTEX
  5
19C
330
19A
100
AcDbEntity
  8
PREDEFINITO
100
AcDbVertex
100
AcDb2dVertex
 10
2650.589986382445
 20
1374.994369140217
 30
0.0
  0
VERTEX
  5
19D
330
19A
100
AcDbEntity
  8
PREDEFINITO
100
AcDbVertex
100
AcDb2dVertex
 10
2707.08986966129
 20
1374.994369140217
 30
0.0
  0
VERTEX
  5
19E
330
19A
100
AcDbEntity
  8
PREDEFINITO
100
AcDbVertex
100
AcDb2dVertex
 10
2707.08986966129
 20
1376.071269350231
 30
0.0
  0
VERTEX
  5
19F
330
19A
100
AcDbEntity
  8
PREDEFINITO
100
AcDbVertex
100
AcDb2dVertex
 10
2650.589986382445
 20
1376.071269350231
 30
0.0
  0
VERTEX
  5
1A0
330
19A
100
AcDbEntity
  8
PREDEFINITO
100
AcDbVertex
100
AcDb2dVertex
 10
2650.589986382445
 20
1374.994369140217
 30
0.0
  0
SEQEND
  5
19B
330
19A
100
AcDbEntity
  8
PREDEFINITO
  0
POLYLINE
  5
1A1
330
1F
100
AcDbEntity
  8
PREDEFINITO
100
AcDb2dPolyline
 66
     1
 10
0.0
 20
0.0
 30
0.0
  0
VERTEX
  5
1A3
330
1A1
100
AcDbEntity
  8
PREDEFINITO
100
AcDbVertex
100
AcDb2dVertex
 10
2594.067775816018
 20
1374.938505013383
 30
0.0
  0
VERTEX
  5
1A4
330
1A1
100
AcDbEntity
  8
PREDEFINITO
100
AcDbVertex
100
AcDb2dVertex
 10
2593.975352782256
 20
1374.993532020712
 30
0.0
  0
VERTEX
  5
1A5
330
1A1
100
AcDbEntity
  8
PREDEFINITO
100
AcDbVertex
100
AcDb2dVertex
 10
2650.47525265535
 20
1374.994379974355
 30
0.0
  0
VERTEX
  5
1A6
330
1A1
100
AcDbEntity
  8
PREDEFINITO
100
AcDbVertex
100
AcDb2dVertex
 10
2650.369704649418
 20
1374.939351045826
 30
0.0
  0
SEQEND
  5
1A2
330
1A1
100
AcDbEntity
  8
PREDEFINITO
  0
SPLINE
  5
1A7
330
1F
100
AcDbEntity
  8
PREDEFINITO
100
AcDbSpline
210
0.0
220
0.0
230
1.0
 70
    24
 71
     2
 72
     6
 73
     3
 74
     0
 42
0.0000000001
 43
0.0000000001
 40
0.0
 40
0.0
 40
0.0
 40
20.03503794271613
 40
20.03503794271613
 40
20.03503794271613
 10
2650.369704649418
 20
1374.939351045826
 30
0.0
 10
2641.531254998287
 20
1370.205571419327
 30
0.0
 10
2632.692805347157
 20
1365.471791792828
 30
0.0
  0
SPLINE
  5
1A8
330
1F
100
AcDbEntity
  8
PREDEFINITO
100
AcDbSpline
210
0.0
220
0.0
230
1.0
 70
    12
 71
     2
 72
     6
 73
     3
 74
     0
 42
0.0000000001
 43
0.0000000001
 40
5.49778714378214
 40
5.49778714378214
 40
5.49778714378214
 40
6.28318530717959
 40
6.28318530717959
 40
6.28318530717959
 10
2632.692805347156
 20
1365.471791792828
 30
0.0
 41
0.8536927746304102
 10
2632.95105096864
 20
1365.471761447826
 30
0.0
 41
0.858071390111205
 10
2630.257277056693
 20
1365.471694042376
 30
0.0
 41
1.0
  0
SPLINE
  5
1A9
330
1F
100
AcDbEntity
  8
PREDEFINITO
100
AcDbSpline
210
0.0
220
0.0
230
1.0
 70
    12
 71
     2
 72
     6
 73
     3
 74
     0
 42
0.0000000001
 43
0.0000000001
 40
0.0
 40
0.0
 40
0.0
 40
2.791609426654083
 40
2.791609426654083
 40
2.791609426654083
 10
2630.257277056693
 20
1365.471694042376
 30
0.0
 41
1.0
 10
2628.861472343784
 20
1365.471659746803
 30
0.0
 41
0.9999999999967094
 10
2627.465667630718
 20
1365.471632612825
 30
0.0
 41
1.0
  0
SPLINE
  5
1AA
330
1F
100
AcDbEntity
  8
PREDEFINITO
100
AcDbSpline
210
0.0
220
0.0
230
1.0
 70
    12
 71
     2
 72
     8
 73
     5
 74
     0
 42
0.0000000001
 43
0.0000000001
 40
0.0
 40
0.0
 40
0.0
 40
11.99296876671814
 40
11.99296876671814
 40
15.70135931269
 40
15.70135931269
 40
15.70135931269
 10
2627.465667630718
 20
1365.471632612825
 30
0.0
 41
1.0
 10
2621.469183248442
 20
1365.471515575621
 30
0.0
 41
0.9999999999851884
 10
2615.472698865246
 20
1365.471463812695
 30
0.0
 41
1.0
 10
2613.618503592309
 20
1365.471433372365
 30
0.0
 41
0.9999999998373552
 10
2611.724416248745
 20
1365.471477046883
 30
0.0
 41
1.0
  0
SPLINE
  5
1AB
330
1F
100
AcDbEntity
  8
PREDEFINITO
100
AcDbSpline
210
0.0
220
0.0
230
1.0
 70
    24
 71
     2
 72
     6
 73
     3
 74
     0
 42
0.0000000001
 43
0.0000000001
 40
0.0
 40
0.0
 40
0.0
 40
20.03450947463151
 40
20.03450947463151
 40
20.03450947463151
 10
2611.724416248745
 20
1365.471477046883
 30
0.0
 10
2602.896096032382
 20
1370.204991030133
 30
0.0
 10
2594.067775816018
 20
1374.938505013383
 30
0.0
  0
POLYLINE
  5
1AC
330
1F
100
AcDbEntity
  8
PREDEFINITO
100
AcDb2dPolyline
 66
     1
 10
0.0
 20
0.0
 30
0.0
  0
VERTEX
  5
1AE
330
1AC
100
AcDbEntity
  8
PREDEFINITO
100
AcDbVertex
100
AcDb2dVertex
 10
2422.901839955761
 20
1374.994775795121
 30
0.0
  0
VERTEX
  5
1AF
330
1AC
100
AcDbEntity
  8
PREDEFINITO
100
AcDbVertex
100
AcDb2dVertex
 10
2479.401723234606
 20
1374.994775795121
 30
0.0
  0
VERTEX
  5
1B0
330
1AC
100
AcDbEntity
  8
PREDEFINITO
100
AcDbVertex
100
AcDb2dVertex
 10
2479.401723234606
 20
1376.071676005135
 30
0.0
  0
VERTEX
  5
1B1
330
1AC
100
AcDbEntity
  8
PREDEFINITO
100
AcDbVertex
100
AcDb2dVertex
 10
2422.901839955761
 20
1376.071676005135
 30
0.0
  0
VERTEX
  5
1B2
330
1AC
100
AcDbEntity
  8
PREDEFINITO
100
AcDbVertex
100
AcDb2dVertex
 10
2422.901839955761
 20
1374.994775795121
 30
0.0
  0
SEQEND
  5
1AD
330
1AC
100
AcDbEntity
  8
PREDEFINITO
  0
POLYLINE
  5
1B3
330
1F
100
AcDbEntity
  8
PREDEFINITO
100
AcDb2dPolyline
 66
     1
 10
0.0
 20
0.0
 30
0.0
  0
VERTEX
  5
1B5
330
1B3
100
AcDbEntity
  8
PREDEFINITO
100
AcDbVertex
100
AcDb2dVertex
 10
2448.204779574598
 20
1365.471942655912
 30
0.0
  0
VERTEX
  5
1B6
330
1B3
100
AcDbEntity
  8
PREDEFINITO
100
AcDbVertex
100
AcDb2dVertex
 10
2454.065521729682
 20
1365.47207548864
 30
0.0
  0
SEQEND
  5
1B4
330
1B3
100
AcDbEntity
  8
PREDEFINITO
  0
SPLINE
  5
1B7
330
1F
100
AcDbEntity
  8
PREDEFINITO
100
AcDbSpline
210
0.0
220
0.0
230
1.0
 70
    12
 71
     2
 72
     6
 73
     3
 74
     0
 42
0.0000000001
 43
0.0000000001
 40
-5.863539798955705
 40
-5.863539798955705
 40
-5.863539798955705
 40
0.0
 40
0.0
 40
0.0
 10
2454.065521729682
 20
1365.47207548864
 30
0.0
 41
1.0
 10
2451.135171739633
 20
1364.551123965987
 30
0.0
 41
0.952653293416618
 10
2448.204779574598
 20
1365.471942655912
 30
0.0
 41
0.9999976469590285
  0
POLYLINE
  5
1B8
330
1F
100
AcDbEntity
  8
PREDEFINITO
100
AcDb2dPolyline
 66
     1
 10
0.0
 20
0.0
 30
0.0
  0
VERTEX
  5
1BA
330
1B8
100
AcDbEntity
  8
PREDEFINITO
100
AcDbVertex
100
AcDb2dVertex
 10
2479.608863401215
 20
1374.938890000011
 30
0.0
  0
VERTEX
  5
1BB
330
1B8
100
AcDbEntity
  8
PREDEFINITO
100
AcDbVertex
100
AcDb2dVertex
 10
2479.516440367453
 20
1374.993917007339
 30
0.0
  0
VERTEX
  5
1BC
330
1B8
100
AcDbEntity
  8
PREDEFINITO
100
AcDbVertex
100
AcDb2dVertex
 10
2536.016340240547
 20
1374.994764960983
 30
0.0
  0
VERTEX
  5
1BD
330
1B8
100
AcDbEntity
  8
PREDEFINITO
100
AcDbVertex
100
AcDb2dVertex
 10
2535.910792234616
 20
1374.939736032454
 30
0.0
  0
SEQEND
  5
1B9
330
1B8
100
AcDbEntity
  8
PREDEFINITO
  0
SPLINE
  5
1BE
330
1F
100
AcDbEntity
  8
PREDEFINITO
100
AcDbSpline
210
0.0
220
0.0
230
1.0
 70
    24
 71
     2
 72
     6
 73
     3
 74
     0
 42
0.0000000001
 43
0.0000000001
 40
0.0
 40
0.0
 40
0.0
 40
20.03503794271613
 40
20.03503794271613
 40
20.03503794271613
 10
2535.910792234616
 20
1374.939736032454
 30
0.0
 10
2527.072342583484
 20
1370.205956405955
 30
0.0
 10
2518.233892932353
 20
1365.472176779455
 30
0.0
  0
SPLINE
  5
1BF
330
1F
100
AcDbEntity
  8
PREDEFINITO
100
AcDbSpline
210
0.0
220
0.0
230
1.0
 70
    12
 71
     2
 72
     6
 73
     3
 74
     0
 42
0.0000000001
 43
0.0000000001
 40
5.49778714378214
 40
5.49778714378214
 40
5.49778714378214
 40
6.28318530717959
 40
6.28318530717959
 40
6.28318530717959
 10
2518.233892932353
 20
1365.472176779455
 30
0.0
 41
0.8536927746304102
 10
2518.492138553837
 20
1365.472146434453
 30
0.0
 41
0.858071390111205
 10
2515.79836464189
 20
1365.472079029004
 30
0.0
 41
1.0
  0
SPLINE
  5
1C0
330
1F
100
AcDbEntity
  8
PREDEFINITO
100
AcDbSpline
210
0.0
220
0.0
230
1.0
 70
    12
 71
     2
 72
     6
 73
     3
 74
     0
 42
0.0000000001
 43
0.0000000001
 40
0.0
 40
0.0
 40
0.0
 40
2.791609426654083
 40
2.791609426654083
 40
2.791609426654083
 10
2515.79836464189
 20
1365.472079029004
 30
0.0
 41
1.0
 10
2514.402559928982
 20
1365.47204473343
 30
0.0
 41
0.9999999999967094
 10
2513.006755215915
 20
1365.472017599453
 30
0.0
 41
1.0
  0
SPLINE
  5
1C1
330
1F
100
AcDbEntity
  8
PREDEFINITO
100
AcDbSpline
210
0.0
220
0.0
230
1.0
 70
    12
 71
     2
 72
     8
 73
     5
 74
     0
 42
0.0000000001
 43
0.0000000001
 40
0.0
 40
0.0
 40
0.0
 40
11.99296876671814
 40
11.99296876671814
 40
15.70135931269
 40
15.70135931269
 40
15.70135931269
 10
2513.006755215915
 20
1365.472017599453
 30
0.0
 41
1.0
 10
2507.010270833639
 20
1365.471900562248
 30
0.0
 41
0.9999999999851884
 10
2501.013786450444
 20
1365.471848799322
 30
0.0
 41
1.0
 10
2499.159591177507
 20
1365.471818358993
 30
0.0
 41
0.9999999998373552
 10
2497.265503833942
 20
1365.471862033511
 30
0.0
 41
1.0
  0
SPLINE
  5
1C2
330
1F
100
AcDbEntity
  8
PREDEFINITO
100
AcDbSpline
210
0.0
220
0.0
230
1.0
 70
    24
 71
     2
 72
     6
 73
     3
 74
     0
 42
0.0000000001
 43
0.0000000001
 40
0.0
 40
0.0
 40
0.0
 40
20.03450947463151
 40
20.03450947463151
 40
20.03450947463151
 10
2497.265503833942
 20
1365.471862033511
 30
0.0
 10
2488.437183617579
 20
1370.205376016761
 30
0.0
 10
2479.608863401215
 20
1374.938890000011
 30
0.0
  0
POLYLINE
  5
1C3
330
1F
100
AcDbEntity
  8
PREDEFINITO
100
AcDb2dPolyline
 66
     1
 10
0.0
 20
0.0
 30
0.0
  0
VERTEX
  5
1C5
330
1C3
100
AcDbEntity
  8
PREDEFINITO
100
AcDbVertex
100
AcDb2dVertex
 10
2504.819396580539
 20
1365.471931821774
 30
0.0
  0
VERTEX
  5
1C6
330
1C3
100
AcDbEntity
  8
PREDEFINITO
100
AcDbVertex
100
AcDb2dVertex
 10
2510.680138735622
 20
1365.472064654501
 30
0.0
  0
SEQEND
  5
1C4
330
1C3
100
AcDbEntity
  8
PREDEFINITO
  0
SPLINE
  5
1C7
330
1F
100
AcDbEntity
  8
PREDEFINITO
100
AcDbSpline
210
0.0
220
0.0
230
1.0
 70
    12
 71
     2
 72
     6
 73
     3
 74
     0
 42
0.0000000001
 43
0.0000000001
 40
-5.863539798955705
 40
-5.863539798955705
 40
-5.863539798955705
 40
0.0
 40
0.0
 40
0.0
 10
2510.680138735622
 20
1365.472064654501
 30
0.0
 41
1.0
 10
2507.749788745573
 20
1364.551113131849
 30
0.0
 41
0.952653293416618
 10
2504.819396580538
 20
1365.471931821774
 30
0.0
 41
0.9999976469590285
  0
POLYLINE
  5
1C8
330
1F
100
AcDbEntity
  8
PREDEFINITO
100
AcDb2dPolyline
 66
     1
 10
0.0
 20
0.0
 30
0.0
  0
VERTEX
  5
1CA
330
1C8
100
AcDbEntity
  8
PREDEFINITO
100
AcDbVertex
100
AcDb2dVertex
 10
2479.516456961701
 20
1374.994764960983
 30
0.0
  0
VERTEX
  5
1CB
330
1C8
100
AcDbEntity
  8
PREDEFINITO
100
AcDbVertex
100
AcDb2dVertex
 10
2536.016340240547
 20
1374.994764960983
 30
0.0
  0
VERTEX
  5
1CC
330
1C8
100
AcDbEntity
  8
PREDEFINITO
100
AcDbVertex
100
AcDb2dVertex
 10
2536.016340240547
 20
1376.071665170997
 30
0.0
  0
VERTEX
  5
1CD
330
1C8
100
AcDbEntity
  8
PREDEFINITO
100
AcDbVertex
100
AcDb2dVertex
 10
2479.516456961701
 20
1376.071665170997
 30
0.0
  0
VERTEX
  5
1CE
330
1C8
100
AcDbEntity
  8
PREDEFINITO
100
AcDbVertex
100
AcDb2dVertex
 10
2479.516456961701
 20
1374.994764960983
 30
0.0
  0
SEQEND
  5
1C9
330
1C8
100
AcDbEntity
  8
PREDEFINITO
  0
POLYLINE
  5
1CF
330
1F
100
AcDbEntity
  8
PREDEFINITO
100
AcDb2dPolyline
 66
     1
 10
0.0
 20
0.0
 30
0.0
  0
VERTEX
  5
1D1
330
1CF
100
AcDbEntity
  8
PREDEFINITO
100
AcDbVertex
100
AcDb2dVertex
 10
2422.994246395275
 20
1374.938900834149
 30
0.0
  0
VERTEX
  5
1D2
330
1CF
100
AcDbEntity
  8
PREDEFINITO
100
AcDbVertex
100
AcDb2dVertex
 10
2422.901823361512
 20
1374.993927841478
 30
0.0
  0
VERTEX
  5
1D3
330
1CF
100
AcDbEntity
  8
PREDEFINITO
100
AcDbVertex
100
AcDb2dVertex
 10
2479.401723234606
 20
1374.994775795121
 30
0.0
  0
VERTEX
  5
1D4
330
1CF
100
AcDbEntity
  8
PREDEFINITO
100
AcDbVertex
100
AcDb2dVertex
 10
2479.296175228675
 20
1374.939746866592
 30
0.0
  0
SEQEND
  5
1D0
330
1CF
100
AcDbEntity
  8
PREDEFINITO
  0
SPLINE
  5
1D5
330
1F
100
AcDbEntity
  8
PREDEFINITO
100
AcDbSpline
210
0.0
220
0.0
230
1.0
 70
    24
 71
     2
 72
     6
 73
     3
 74
     0
 42
0.0000000001
 43
0.0000000001
 40
0.0
 40
0.0
 40
0.0
 40
20.03503794271613
 40
20.03503794271613
 40
20.03503794271613
 10
2479.296175228675
 20
1374.939746866592
 30
0.0
 10
2470.457725577544
 20
1370.205967240093
 30
0.0
 10
2461.619275926413
 20
1365.472187613594
 30
0.0
  0
SPLINE
  5
1D6
330
1F
100
AcDbEntity
  8
PREDEFINITO
100
AcDbSpline
210
0.0
220
0.0
230
1.0
 70
    12
 71
     2
 72
     6
 73
     3
 74
     0
 42
0.0000000001
 43
0.0000000001
 40
5.49778714378214
 40
5.49778714378214
 40
5.49778714378214
 40
6.28318530717959
 40
6.28318530717959
 40
6.28318530717959
 10
2461.619275926413
 20
1365.472187613594
 30
0.0
 41
0.8536927746304102
 10
2461.877521547897
 20
1365.472157268592
 30
0.0
 41
0.858071390111205
 10
2459.18374763595
 20
1365.472089863142
 30
0.0
 41
1.0
  0
SPLINE
  5
1D7
330
1F
100
AcDbEntity
  8
PREDEFINITO
100
AcDbSpline
210
0.0
220
0.0
230
1.0
 70
    12
 71
     2
 72
     6
 73
     3
 74
     0
 42
0.0000000001
 43
0.0000000001
 40
0.0
 40
0.0
 40
0.0
 40
2.791609426654083
 40
2.791609426654083
 40
2.791609426654083
 10
2459.18374763595
 20
1365.472089863142
 30
0.0
 41
1.0
 10
2457.787942923041
 20
1365.472055567569
 30
0.0
 41
0.9999999999967094
 10
2456.392138209974
 20
1365.472028433592
 30
0.0
 41
1.0
  0
SPLINE
  5
1D8
330
1F
100
AcDbEntity
  8
PREDEFINITO
100
AcDbSpline
210
0.0
220
0.0
230
1.0
 70
    12
 71
     2
 72
     8
 73
     5
 74
     0
 42
0.0000000001
 43
0.0000000001
 40
0.0
 40
0.0
 40
0.0
 40
11.99296876671814
 40
11.99296876671814
 40
15.70135931269
 40
15.70135931269
 40
15.70135931269
 10
2456.392138209974
 20
1365.472028433592
 30
0.0
 41
1.0
 10
2450.395653827698
 20
1365.471911396387
 30
0.0
 41
0.9999999999851884
 10
2444.399169444503
 20
1365.471859633461
 30
0.0
 41
1.0
 10
2442.544974171567
 20
1365.471829193131
 30
0.0
 41
0.9999999998373552
 10
2440.650886828002
 20
1365.471872867649
 30
0.0
 41
1.0
  0
SPLINE
  5
1D9
330
1F
100
AcDbEntity
  8
PREDEFINITO
100
AcDbSpline
210
0.0
220
0.0
230
1.0
 70
    24
 71
     2
 72
     6
 73
     3
 74
     0
 42
0.0000000001
 43
0.0000000001
 40
0.0
 40
0.0
 40
0.0
 40
20.03450947463151
 40
20.03450947463151
 40
20.03450947463151
 10
2440.650886828002
 20
1365.471872867649
 30
0.0
 10
2431.822566611638
 20
1370.205386850899
 30
0.0
 10
2422.994246395275
 20
1374.938900834149
 30
0.0
  0
POLYLINE
  5
1DA
330
1F
100
AcDbEntity
  8
PREDEFINITO
100
AcDb2dPolyline
 66
     1
 10
0.0
 20
0.0
 30
0.0
  0
VERTEX
  5
1DC
330
1DA
100
AcDbEntity
  8
PREDEFINITO
100
AcDbVertex
100
AcDb2dVertex
 10
2251.960587662333
 20
1374.994367999238
 30
0.0
  0
VERTEX
  5
1DD
330
1DA
100
AcDbEntity
  8
PREDEFINITO
100
AcDbVertex
100
AcDb2dVertex
 10
2308.460470941178
 20
1374.994367999238
 30
0.0
  0
VERTEX
  5
1DE
330
1DA
100
AcDbEntity
  8
PREDEFINITO
100
AcDbVertex
100
AcDb2dVertex
 10
2308.460470941178
 20
1376.071268209253
 30
0.0
  0
VERTEX
  5
1DF
330
1DA
100
AcDbEntity
  8
PREDEFINITO
100
AcDbVertex
100
AcDb2dVertex
 10
2251.960587662333
 20
1376.071268209253
 30
0.0
  0
VERTEX
  5
1E0
330
1DA
100
AcDbEntity
  8
PREDEFINITO
100
AcDbVertex
100
AcDb2dVertex
 10
2251.960587662333
 20
1374.994367999238
 30
0.0
  0
SEQEND
  5
1DB
330
1DA
100
AcDbEntity
  8
PREDEFINITO
  0
POLYLINE
  5
1E1
330
1F
100
AcDbEntity
  8
PREDEFINITO
100
AcDb2dPolyline
 66
     1
 10
0.0
 20
0.0
 30
0.0
  0
VERTEX
  5
1E3
330
1E1
100
AcDbEntity
  8
PREDEFINITO
100
AcDbVertex
100
AcDb2dVertex
 10
2277.263527281169
 20
1365.47153486003
 30
0.0
  0
VERTEX
  5
1E4
330
1E1
100
AcDbEntity
  8
PREDEFINITO
100
AcDbVertex
100
AcDb2dVertex
 10
2283.124269436254
 20
1365.471667692757
 30
0.0
  0
SEQEND
  5
1E2
330
1E1
100
AcDbEntity
  8
PREDEFINITO
  0
SPLINE
  5
1E5
330
1F
100
AcDbEntity
  8
PREDEFINITO
100
AcDbSpline
210
0.0
220
0.0
230
1.0
 70
    12
 71
     2
 72
     6
 73
     3
 74
     0
 42
0.0000000001
 43
0.0000000001
 40
-5.863539798955705
 40
-5.863539798955705
 40
-5.863539798955705
 40
0.0
 40
0.0
 40
0.0
 10
2283.124269436254
 20
1365.471667692757
 30
0.0
 41
1.0
 10
2280.193919446206
 20
1364.550716170104
 30
0.0
 41
0.952653293416618
 10
2277.263527281169
 20
1365.47153486003
 30
0.0
 41
0.9999976469590285
  0
POLYLINE
  5
1E6
330
1F
100
AcDbEntity
  8
PREDEFINITO
100
AcDb2dPolyline
 66
     1
 10
0.0
 20
0.0
 30
0.0
  0
VERTEX
  5
1E8
330
1E6
100
AcDbEntity
  8
PREDEFINITO
100
AcDbVertex
100
AcDb2dVertex
 10
2308.667611107787
 20
1374.938482204128
 30
0.0
  0
VERTEX
  5
1E9
330
1E6
100
AcDbEntity
  8
PREDEFINITO
100
AcDbVertex
100
AcDb2dVertex
 10
2308.575188074024
 20
1374.993509211457
 30
0.0
  0
VERTEX
  5
1EA
330
1E6
100
AcDbEntity
  8
PREDEFINITO
100
AcDbVertex
100
AcDb2dVertex
 10
2365.075087947119
 20
1374.9943571651
 30
0.0
  0
VERTEX
  5
1EB
330
1E6
100
AcDbEntity
  8
PREDEFINITO
100
AcDbVertex
100
AcDb2dVertex
 10
2364.969539941188
 20
1374.939328236571
 30
0.0
  0
SEQEND
  5
1E7
330
1E6
100
AcDbEntity
  8
PREDEFINITO
  0
SPLINE
  5
1EC
330
1F
100
AcDbEntity
  8
PREDEFINITO
100
AcDbSpline
210
0.0
220
0.0
230
1.0
 70
    24
 71
     2
 72
     6
 73
     3
 74
     0
 42
0.0000000001
 43
0.0000000001
 40
0.0
 40
0.0
 40
0.0
 40
20.03503794271613
 40
20.03503794271613
 40
20.03503794271613
 10
2364.969539941188
 20
1374.939328236571
 30
0.0
 10
2356.131090290056
 20
1370.205548610072
 30
0.0
 10
2347.292640638925
 20
1365.471768983573
 30
0.0
  0
SPLINE
  5
1ED
330
1F
100
AcDbEntity
  8
PREDEFINITO
100
AcDbSpline
210
0.0
220
0.0
230
1.0
 70
    12
 71
     2
 72
     6
 73
     3
 74
     0
 42
0.0000000001
 43
0.0000000001
 40
5.49778714378214
 40
5.49778714378214
 40
5.49778714378214
 40
6.28318530717959
 40
6.28318530717959
 40
6.28318530717959
 10
2347.292640638925
 20
1365.471768983573
 30
0.0
 41
0.8536927746304102
 10
2347.550886260409
 20
1365.471738638571
 30
0.0
 41
0.858071390111205
 10
2344.857112348462
 20
1365.471671233121
 30
0.0
 41
1.0
  0
SPLINE
  5
1EE
330
1F
100
AcDbEntity
  8
PREDEFINITO
100
AcDbSpline
210
0.0
220
0.0
230
1.0
 70
    12
 71
     2
 72
     6
 73
     3
 74
     0
 42
0.0000000001
 43
0.0000000001
 40
0.0
 40
0.0
 40
0.0
 40
2.791609426654083
 40
2.791609426654083
 40
2.791609426654083
 10
2344.857112348462
 20
1365.471671233121
 30
0.0
 41
1.0
 10
2343.461307635554
 20
1365.471636937548
 30
0.0
 41
0.9999999999967094
 10
2342.065502922487
 20
1365.47160980357
 30
0.0
 41
1.0
  0
SPLINE
  5
1EF
330
1F
100
AcDbEntity
  8
PREDEFINITO
100
AcDbSpline
210
0.0
220
0.0
230
1.0
 70
    12
 71
     2
 72
     8
 73
     5
 74
     0
 42
0.0000000001
 43
0.0000000001
 40
0.0
 40
0.0
 40
0.0
 40
11.99296876671814
 40
11.99296876671814
 40
15.70135931269
 40
15.70135931269
 40
15.70135931269
 10
2342.065502922487
 20
1365.47160980357
 30
0.0
 41
1.0
 10
2336.069018540211
 20
1365.471492766366
 30
0.0
 41
0.9999999999851884
 10
2330.072534157016
 20
1365.47144100344
 30
0.0
 41
1.0
 10
2328.218338884079
 20
1365.47141056311
 30
0.0
 41
0.9999999998373552
 10
2326.324251540514
 20
1365.471454237628
 30
0.0
 41
1.0
  0
SPLINE
  5
1F0
330
1F
100
AcDbEntity
  8
PREDEFINITO
100
AcDbSpline
210
0.0
220
0.0
230
1.0
 70
    24
 71
     2
 72
     6
 73
     3
 74
     0
 42
0.0000000001
 43
0.0000000001
 40
0.0
 40
0.0
 40
0.0
 40
20.03450947463151
 40
20.03450947463151
 40
20.03450947463151
 10
2326.324251540514
 20
1365.471454237628
 30
0.0
 10
2317.495931324151
 20
1370.204968220878
 30
0.0
 10
2308.667611107787
 20
1374.938482204128
 30
0.0
  0
POLYLINE
  5
1F1
330
1F
100
AcDbEntity
  8
PREDEFINITO
100
AcDb2dPolyline
 66
     1
 10
0.0
 20
0.0
 30
0.0
  0
VERTEX
  5
1F3
330
1F1
100
AcDbEntity
  8
PREDEFINITO
100
AcDbVertex
100
AcDb2dVertex
 10
2333.87814428711
 20
1365.471524025891
 30
0.0
  0
VERTEX
  5
1F4
330
1F1
100
AcDbEntity
  8
PREDEFINITO
100
AcDbVertex
100
AcDb2dVertex
 10
2339.738886442194
 20
1365.471656858619
 30
0.0
  0
SEQEND
  5
1F2
330
1F1
100
AcDbEntity
  8
PREDEFINITO
  0
SPLINE
  5
1F5
330
1F
100
AcDbEntity
  8
PREDEFINITO
100
AcDbSpline
210
0.0
220
0.0
230
1.0
 70
    12
 71
     2
 72
     6
 73
     3
 74
     0
 42
0.0000000001
 43
0.0000000001
 40
-5.863539798955705
 40
-5.863539798955705
 40
-5.863539798955705
 40
0.0
 40
0.0
 40
0.0
 10
2339.738886442194
 20
1365.471656858619
 30
0.0
 41
1.0
 10
2336.808536452146
 20
1364.550705335966
 30
0.0
 41
0.952653293416618
 10
2333.87814428711
 20
1365.471524025891
 30
0.0
 41
0.9999976469590285
  0
POLYLINE
  5
1F6
330
1F
100
AcDbEntity
  8
PREDEFINITO
100
AcDb2dPolyline
 66
     1
 10
0.0
 20
0.0
 30
0.0
  0
VERTEX
  5
1F8
330
1F6
100
AcDbEntity
  8
PREDEFINITO
100
AcDbVertex
100
AcDb2dVertex
 10
2308.575204668273
 20
1374.9943571651
 30
0.0
  0
VERTEX
  5
1F9
330
1F6
100
AcDbEntity
  8
PREDEFINITO
100
AcDbVertex
100
AcDb2dVertex
 10
2365.075087947119
 20
1374.9943571651
 30
0.0
  0
VERTEX
  5
1FA
330
1F6
100
AcDbEntity
  8
PREDEFINITO
100
AcDbVertex
100
AcDb2dVertex
 10
2365.075087947119
 20
1376.071257375114
 30
0.0
  0
VERTEX
  5
1FB
330
1F6
100
AcDbEntity
  8
PREDEFINITO
100
AcDbVertex
100
AcDb2dVertex
 10
2308.575204668273
 20
1376.071257375114
 30
0.0
  0
VERTEX
  5
1FC
330
1F6
100
AcDbEntity
  8
PREDEFINITO
100
AcDbVertex
100
AcDb2dVertex
 10
2308.575204668273
 20
1374.9943571651
 30
0.0
  0
SEQEND
  5
1F7
330
1F6
100
AcDbEntity
  8
PREDEFINITO
  0
POLYLINE
  5
1FD
330
1F
100
AcDbEntity
  8
PREDEFINITO
100
AcDb2dPolyline
 66
     1
 10
0.0
 20
0.0
 30
0.0
  0
VERTEX
  5
1FF
330
1FD
100
AcDbEntity
  8
PREDEFINITO
100
AcDbVertex
100
AcDb2dVertex
 10
2252.052994101847
 20
1374.938493038267
 30
0.0
  0
VERTEX
  5
200
330
1FD
100
AcDbEntity
  8
PREDEFINITO
100
AcDbVertex
100
AcDb2dVertex
 10
2251.960571068084
 20
1374.993520045595
 30
0.0
  0
VERTEX
  5
201
330
1FD
100
AcDbEntity
  8
PREDEFINITO
100
AcDbVertex
100
AcDb2dVertex
 10
2308.460470941178
 20
1374.994367999238
 30
0.0
  0
VERTEX
  5
202
330
1FD
100
AcDbEntity
  8
PREDEFINITO
100
AcDbVertex
100
AcDb2dVertex
 10
2308.354922935247
 20
1374.93933907071
 30
0.0
  0
SEQEND
  5
1FE
330
1FD
100
AcDbEntity
  8
PREDEFINITO
  0
SPLINE
  5
203
330
1F
100
AcDbEntity
  8
PREDEFINITO
100
AcDbSpline
210
0.0
220
0.0
230
1.0
 70
    24
 71
     2
 72
     6
 73
     3
 74
     0
 42
0.0000000001
 43
0.0000000001
 40
0.0
 40
0.0
 40
0.0
 40
20.03503794271613
 40
20.03503794271613
 40
20.03503794271613
 10
2308.354922935247
 20
1374.93933907071
 30
0.0
 10
2299.516473284116
 20
1370.20555944421
 30
0.0
 10
2290.678023632985
 20
1365.471779817711
 30
0.0
  0
SPLINE
  5
204
330
1F
100
AcDbEntity
  8
PREDEFINITO
100
AcDbSpline
210
0.0
220
0.0
230
1.0
 70
    12
 71
     2
 72
     6
 73
     3
 74
     0
 42
0.0000000001
 43
0.0000000001
 40
5.49778714378214
 40
5.49778714378214
 40
5.49778714378214
 40
6.28318530717959
 40
6.28318530717959
 40
6.28318530717959
 10
2290.678023632985
 20
1365.471779817711
 30
0.0
 41
0.8536927746304102
 10
2290.936269254468
 20
1365.471749472709
 30
0.0
 41
0.858071390111205
 10
2288.242495342522
 20
1365.47168206726
 30
0.0
 41
1.0
  0
SPLINE
  5
205
330
1F
100
AcDbEntity
  8
PREDEFINITO
100
AcDbSpline
210
0.0
220
0.0
230
1.0
 70
    12
 71
     2
 72
     6
 73
     3
 74
     0
 42
0.0000000001
 43
0.0000000001
 40
0.0
 40
0.0
 40
0.0
 40
2.791609426654083
 40
2.791609426654083
 40
2.791609426654083
 10
2288.242495342522
 20
1365.47168206726
 30
0.0
 41
1.0
 10
2286.846690629613
 20
1365.471647771686
 30
0.0
 41
0.9999999999967094
 10
2285.450885916546
 20
1365.471620637709
 30
0.0
 41
1.0
  0
SPLINE
  5
206
330
1F
100
AcDbEntity
  8
PREDEFINITO
100
AcDbSpline
210
0.0
220
0.0
230
1.0
 70
    12
 71
     2
 72
     8
 73
     5
 74
     0
 42
0.0000000001
 43
0.0000000001
 40
0.0
 40
0.0
 40
0.0
 40
11.99296876671814
 40
11.99296876671814
 40
15.70135931269
 40
15.70135931269
 40
15.70135931269
 10
2285.450885916546
 20
1365.471620637709
 30
0.0
 41
1.0
 10
2279.45440153427
 20
1365.471503600504
 30
0.0
 41
0.9999999999851884
 10
2273.457917151075
 20
1365.471451837578
 30
0.0
 41
1.0
 10
2271.603721878138
 20
1365.471421397249
 30
0.0
 41
0.9999999998373552
 10
2269.709634534574
 20
1365.471465071766
 30
0.0
 41
1.0
  0
SPLINE
  5
207
330
1F
100
AcDbEntity
  8
PREDEFINITO
100
AcDbSpline
210
0.0
220
0.0
230
1.0
 70
    24
 71
     2
 72
     6
 73
     3
 74
     0
 42
0.0000000001
 43
0.0000000001
 40
0.0
 40
0.0
 40
0.0
 40
20.03450947463151
 40
20.03450947463151
 40
20.03450947463151
 10
2269.709634534574
 20
1365.471465071766
 30
0.0
 10
2260.88131431821
 20
1370.204979055017
 30
0.0
 10
2252.052994101847
 20
1374.938493038267
 30
0.0
  0
POLYLINE
  5
208
330
1F
100
AcDbEntity
  8
PREDEFINITO
100
AcDb2dPolyline
 66
     1
 10
0.0
 20
0.0
 30
0.0
  0
VERTEX
  5
20A
330
208
100
AcDbEntity
  8
PREDEFINITO
100
AcDbVertex
100
AcDb2dVertex
 10
2080.922608368965
 20
1374.994775795121
 30
0.0
  0
VERTEX
  5
20B
330
208
100
AcDbEntity
  8
PREDEFINITO
100
AcDbVertex
100
AcDb2dVertex
 10
2137.422491647811
 20
1374.994775795121
 30
0.0
  0
VERTEX
  5
20C
330
208
100
AcDbEntity
  8
PREDEFINITO
100
AcDbVertex
100
AcDb2dVertex
 10
2137.422491647811
 20
1376.071676005135
 30
0.0
  0
VERTEX
  5
20D
330
208
100
AcDbEntity
  8
PREDEFINITO
100
AcDbVertex
100
AcDb2dVertex
 10
2080.922608368965
 20
1376.071676005135
 30
0.0
  0
VERTEX
  5
20E
330
208
100
AcDbEntity
  8
PREDEFINITO
100
AcDbVertex
100
AcDb2dVertex
 10
2080.922608368965
 20
1374.994775795121
 30
0.0
  0
SEQEND
  5
209
330
208
100
AcDbEntity
  8
PREDEFINITO
  0
POLYLINE
  5
20F
330
1F
100
AcDbEntity
  8
PREDEFINITO
100
AcDb2dPolyline
 66
     1
 10
0.0
 20
0.0
 30
0.0
  0
VERTEX
  5
211
330
20F
100
AcDbEntity
  8
PREDEFINITO
100
AcDbVertex
100
AcDb2dVertex
 10
2106.225547987802
 20
1365.471942655912
 30
0.0
  0
VERTEX
  5
212
330
20F
100
AcDbEntity
  8
PREDEFINITO
100
AcDbVertex
100
AcDb2dVertex
 10
2112.086290142885
 20
1365.47207548864
 30
0.0
  0
SEQEND
  5
210
330
20F
100
AcDbEntity
  8
PREDEFINITO
  0
SPLINE
  5
213
330
1F
100
AcDbEntity
  8
PREDEFINITO
100
AcDbSpline
210
0.0
220
0.0
230
1.0
 70
    12
 71
     2
 72
     6
 73
     3
 74
     0
 42
0.0000000001
 43
0.0000000001
 40
-5.863539798955705
 40
-5.863539798955705
 40
-5.863539798955705
 40
0.0
 40
0.0
 40
0.0
 10
2112.086290142885
 20
1365.47207548864
 30
0.0
 41
1.0
 10
2109.155940152838
 20
1364.551123965987
 30
0.0
 41
0.952653293416618
 10
2106.225547987802
 20
1365.471942655912
 30
0.0
 41
0.9999976469590285
  0
POLYLINE
  5
214
330
1F
100
AcDbEntity
  8
PREDEFINITO
100
AcDb2dPolyline
 66
     1
 10
0.0
 20
0.0
 30
0.0
  0
VERTEX
  5
216
330
214
100
AcDbEntity
  8
PREDEFINITO
100
AcDbVertex
100
AcDb2dVertex
 10
2137.62963181442
 20
1374.938890000011
 30
0.0
  0
VERTEX
  5
217
330
214
100
AcDbEntity
  8
PREDEFINITO
100
AcDbVertex
100
AcDb2dVertex
 10
2137.537208780657
 20
1374.993917007339
 30
0.0
  0
VERTEX
  5
218
330
214
100
AcDbEntity
  8
PREDEFINITO
100
AcDbVertex
100
AcDb2dVertex
 10
2194.037108653751
 20
1374.994764960983
 30
0.0
  0
VERTEX
  5
219
330
214
100
AcDbEntity
  8
PREDEFINITO
100
AcDbVertex
100
AcDb2dVertex
 10
2193.931560647819
 20
1374.939736032454
 30
0.0
  0
SEQEND
  5
215
330
214
100
AcDbEntity
  8
PREDEFINITO
  0
SPLINE
  5
21A
330
1F
100
AcDbEntity
  8
PREDEFINITO
100
AcDbSpline
210
0.0
220
0.0
230
1.0
 70
    24
 71
     2
 72
     6
 73
     3
 74
     0
 42
0.0000000001
 43
0.0000000001
 40
0.0
 40
0.0
 40
0.0
 40
20.03503794271613
 40
20.03503794271613
 40
20.03503794271613
 10
2193.931560647819
 20
1374.939736032454
 30
0.0
 10
2185.093110996689
 20
1370.205956405955
 30
0.0
 10
2176.254661345558
 20
1365.472176779455
 30
0.0
  0
SPLINE
  5
21B
330
1F
100
AcDbEntity
  8
PREDEFINITO
100
AcDbSpline
210
0.0
220
0.0
230
1.0
 70
    12
 71
     2
 72
     6
 73
     3
 74
     0
 42
0.0000000001
 43
0.0000000001
 40
5.49778714378214
 40
5.49778714378214
 40
5.49778714378214
 40
6.28318530717959
 40
6.28318530717959
 40
6.28318530717959
 10
2176.254661345557
 20
1365.472176779455
 30
0.0
 41
0.8536927746304102
 10
2176.512906967041
 20
1365.472146434453
 30
0.0
 41
0.858071390111205
 10
2173.819133055094
 20
1365.472079029004
 30
0.0
 41
1.0
  0
SPLINE
  5
21C
330
1F
100
AcDbEntity
  8
PREDEFINITO
100
AcDbSpline
210
0.0
220
0.0
230
1.0
 70
    12
 71
     2
 72
     6
 73
     3
 74
     0
 42
0.0000000001
 43
0.0000000001
 40
0.0
 40
0.0
 40
0.0
 40
2.791609426654083
 40
2.791609426654083
 40
2.791609426654083
 10
2173.819133055094
 20
1365.472079029004
 30
0.0
 41
1.0
 10
2172.423328342185
 20
1365.47204473343
 30
0.0
 41
0.9999999999967094
 10
2171.027523629119
 20
1365.472017599453
 30
0.0
 41
1.0
  0
SPLINE
  5
21D
330
1F
100
AcDbEntity
  8
PREDEFINITO
100
AcDbSpline
210
0.0
220
0.0
230
1.0
 70
    12
 71
     2
 72
     8
 73
     5
 74
     0
 42
0.0000000001
 43
0.0000000001
 40
0.0
 40
0.0
 40
0.0
 40
11.99296876671814
 40
11.99296876671814
 40
15.70135931269
 40
15.70135931269
 40
15.70135931269
 10
2171.027523629119
 20
1365.472017599453
 30
0.0
 41
1.0
 10
2165.031039246843
 20
1365.471900562248
 30
0.0
 41
0.9999999999851884
 10
2159.034554863648
 20
1365.471848799322
 30
0.0
 41
1.0
 10
2157.180359590711
 20
1365.471818358993
 30
0.0
 41
0.9999999998373552
 10
2155.286272247146
 20
1365.471862033511
 30
0.0
 41
1.0
  0
SPLINE
  5
21E
330
1F
100
AcDbEntity
  8
PREDEFINITO
100
AcDbSpline
210
0.0
220
0.0
230
1.0
 70
    24
 71
     2
 72
     6
 73
     3
 74
     0
 42
0.0000000001
 43
0.0000000001
 40
0.0
 40
0.0
 40
0.0
 40
20.03450947463151
 40
20.03450947463151
 40
20.03450947463151
 10
2155.286272247146
 20
1365.471862033511
 30
0.0
 10
2146.457952030783
 20
1370.205376016761
 30
0.0
 10
2137.62963181442
 20
1374.938890000011
 30
0.0
  0
POLYLINE
  5
21F
330
1F
100
AcDbEntity
  8
PREDEFINITO
100
AcDb2dPolyline
 66
     1
 10
0.0
 20
0.0
 30
0.0
  0
VERTEX
  5
221
330
21F
100
AcDbEntity
  8
PREDEFINITO
100
AcDbVertex
100
AcDb2dVertex
 10
2162.840164993742
 20
1365.471931821774
 30
0.0
  0
VERTEX
  5
222
330
21F
100
AcDbEntity
  8
PREDEFINITO
100
AcDbVertex
100
AcDb2dVertex
 10
2168.700907148826
 20
1365.472064654501
 30
0.0
  0
SEQEND
  5
220
330
21F
100
AcDbEntity
  8
PREDEFINITO
  0
SPLINE
  5
223
330
1F
100
AcDbEntity
  8
PREDEFINITO
100
AcDbSpline
210
0.0
220
0.0
230
1.0
 70
    12
 71
     2
 72
     6
 73
     3
 74
     0
 42
0.0000000001
 43
0.0000000001
 40
-5.863539798955705
 40
-5.863539798955705
 40
-5.863539798955705
 40
0.0
 40
0.0
 40
0.0
 10
2168.700907148826
 20
1365.472064654501
 30
0.0
 41
1.0
 10
2165.770557158778
 20
1364.551113131849
 30
0.0
 41
0.952653293416618
 10
2162.840164993742
 20
1365.471931821774
 30
0.0
 41
0.9999976469590285
  0
POLYLINE
  5
224
330
1F
100
AcDbEntity
  8
PREDEFINITO
100
AcDb2dPolyline
 66
     1
 10
0.0
 20
0.0
 30
0.0
  0
VERTEX
  5
226
330
224
100
AcDbEntity
  8
PREDEFINITO
100
AcDbVertex
100
AcDb2dVertex
 10
2137.537225374906
 20
1374.994764960983
 30
0.0
  0
VERTEX
  5
227
330
224
100
AcDbEntity
  8
PREDEFINITO
100
AcDbVertex
100
AcDb2dVertex
 10
2194.037108653751
 20
1374.994764960983
 30
0.0
  0
VERTEX
  5
228
330
224
100
AcDbEntity
  8
PREDEFINITO
100
AcDbVertex
100
AcDb2dVertex
 10
2194.037108653751
 20
1376.071665170997
 30
0.0
  0
VERTEX
  5
229
330
224
100
AcDbEntity
  8
PREDEFINITO
100
AcDbVertex
100
AcDb2dVertex
 10
2137.537225374906
 20
1376.071665170997
 30
0.0
  0
VERTEX
  5
22A
330
224
100
AcDbEntity
  8
PREDEFINITO
100
AcDbVertex
100
AcDb2dVertex
 10
2137.537225374906
 20
1374.994764960983
 30
0.0
  0
SEQEND
  5
225
330
224
100
AcDbEntity
  8
PREDEFINITO
  0
POLYLINE
  5
22B
330
1F
100
AcDbEntity
  8
PREDEFINITO
100
AcDb2dPolyline
 66
     1
 10
0.0
 20
0.0
 30
0.0
  0
VERTEX
  5
22D
330
22B
100
AcDbEntity
  8
PREDEFINITO
100
AcDbVertex
100
AcDb2dVertex
 10
2081.015014808479
 20
1374.938900834149
 30
0.0
  0
VERTEX
  5
22E
330
22B
100
AcDbEntity
  8
PREDEFINITO
100
AcDbVertex
100
AcDb2dVertex
 10
2080.922591774716
 20
1374.993927841478
 30
0.0
  0
VERTEX
  5
22F
330
22B
100
AcDbEntity
  8
PREDEFINITO
100
AcDbVertex
100
AcDb2dVertex
 10
2137.422491647811
 20
1374.994775795121
 30
0.0
  0
VERTEX
  5
230
330
22B
100
AcDbEntity
  8
PREDEFINITO
100
AcDbVertex
100
AcDb2dVertex
 10
2137.316943641879
 20
1374.939746866592
 30
0.0
  0
SEQEND
  5
22C
330
22B
100
AcDbEntity
  8
PREDEFINITO
  0
SPLINE
  5
231
330
1F
100
AcDbEntity
  8
PREDEFINITO
100
AcDbSpline
210
0.0
220
0.0
230
1.0
 70
    24
 71
     2
 72
     6
 73
     3
 74
     0
 42
0.0000000001
 43
0.0000000001
 40
0.0
 40
0.0
 40
0.0
 40
20.03503794271613
 40
20.03503794271613
 40
20.03503794271613
 10
2137.316943641879
 20
1374.939746866592
 30
0.0
 10
2128.478493990748
 20
1370.205967240093
 30
0.0
 10
2119.640044339617
 20
1365.472187613594
 30
0.0
  0
SPLINE
  5
232
330
1F
100
AcDbEntity
  8
PREDEFINITO
100
AcDbSpline
210
0.0
220
0.0
230
1.0
 70
    12
 71
     2
 72
     6
 73
     3
 74
     0
 42
0.0000000001
 43
0.0000000001
 40
5.49778714378214
 40
5.49778714378214
 40
5.49778714378214
 40
6.28318530717959
 40
6.28318530717959
 40
6.28318530717959
 10
2119.640044339617
 20
1365.472187613594
 30
0.0
 41
0.8536927746304102
 10
2119.898289961101
 20
1365.472157268592
 30
0.0
 41
0.858071390111205
 10
2117.204516049153
 20
1365.472089863142
 30
0.0
 41
1.0
  0
SPLINE
  5
233
330
1F
100
AcDbEntity
  8
PREDEFINITO
100
AcDbSpline
210
0.0
220
0.0
230
1.0
 70
    12
 71
     2
 72
     6
 73
     3
 74
     0
 42
0.0000000001
 43
0.0000000001
 40
0.0
 40
0.0
 40
0.0
 40
2.791609426654083
 40
2.791609426654083
 40
2.791609426654083
 10
2117.204516049153
 20
1365.472089863142
 30
0.0
 41
1.0
 10
2115.808711336245
 20
1365.472055567569
 30
0.0
 41
0.9999999999967094
 10
2114.412906623179
 20
1365.472028433592
 30
0.0
 41
1.0
  0
SPLINE
  5
234
330
1F
100
AcDbEntity
  8
PREDEFINITO
100
AcDbSpline
210
0.0
220
0.0
230
1.0
 70
    12
 71
     2
 72
     8
 73
     5
 74
     0
 42
0.0000000001
 43
0.0000000001
 40
0.0
 40
0.0
 40
0.0
 40
11.99296876671814
 40
11.99296876671814
 40
15.70135931269
 40
15.70135931269
 40
15.70135931269
 10
2114.412906623179
 20
1365.472028433592
 30
0.0
 41
1.0
 10
2108.416422240903
 20
1365.471911396387
 30
0.0
 41
0.9999999999851884
 10
2102.419937857708
 20
1365.471859633461
 30
0.0
 41
1.0
 10
2100.565742584771
 20
1365.471829193131
 30
0.0
 41
0.9999999998373552
 10
2098.671655241206
 20
1365.471872867649
 30
0.0
 41
1.0
  0
SPLINE
  5
235
330
1F
100
AcDbEntity
  8
PREDEFINITO
100
AcDbSpline
210
0.0
220
0.0
230
1.0
 70
    24
 71
     2
 72
     6
 73
     3
 74
     0
 42
0.0000000001
 43
0.0000000001
 40
0.0
 40
0.0
 40
0.0
 40
20.03450947463151
 40
20.03450947463151
 40
20.03450947463151
 10
2098.671655241206
 20
1365.471872867649
 30
0.0
 10
2089.843335024842
 20
1370.205386850899
 30
0.0
 10
2081.015014808479
 20
1374.938900834149
 30
0.0
  0
POLYLINE
  5
236
330
1F
100
AcDbEntity
  8
PREDEFINITO
100
AcDb2dPolyline
 66
     1
 10
0.0
 20
0.0
 30
0.0
  0
VERTEX
  5
238
330
236
100
AcDbEntity
  8
PREDEFINITO
100
AcDbVertex
100
AcDb2dVertex
 10
1795.469410893161
 20
1374.9943571651
 30
0.0
  0
VERTEX
  5
239
330
236
100
AcDbEntity
  8
PREDEFINITO
100
AcDbVertex
100
AcDb2dVertex
 10
1851.969294172007
 20
1374.9943571651
 30
0.0
  0
VERTEX
  5
23A
330
236
100
AcDbEntity
  8
PREDEFINITO
100
AcDbVertex
100
AcDb2dVertex
 10
1851.969294172007
 20
1376.071257375114
 30
0.0
  0
VERTEX
  5
23B
330
236
100
AcDbEntity
  8
PREDEFINITO
100
AcDbVertex
100
AcDb2dVertex
 10
1795.469410893161
 20
1376.071257375114
 30
0.0
  0
VERTEX
  5
23C
330
236
100
AcDbEntity
  8
PREDEFINITO
100
AcDbVertex
100
AcDb2dVertex
 10
1795.469410893161
 20
1374.9943571651
 30
0.0
  0
SEQEND
  5
237
330
236
100
AcDbEntity
  8
PREDEFINITO
  0
POLYLINE
  5
23D
330
1F
100
AcDbEntity
  8
PREDEFINITO
100
AcDb2dPolyline
 66
     1
 10
0.0
 20
0.0
 30
0.0
  0
VERTEX
  5
23F
330
23D
100
AcDbEntity
  8
PREDEFINITO
100
AcDbVertex
100
AcDb2dVertex
 10
1820.772350511998
 20
1365.471524025891
 30
0.0
  0
VERTEX
  5
240
330
23D
100
AcDbEntity
  8
PREDEFINITO
100
AcDbVertex
100
AcDb2dVertex
 10
1826.633092667082
 20
1365.471656858619
 30
0.0
  0
SEQEND
  5
23E
330
23D
100
AcDbEntity
  8
PREDEFINITO
  0
SPLINE
  5
241
330
1F
100
AcDbEntity
  8
PREDEFINITO
100
AcDbSpline
210
0.0
220
0.0
230
1.0
 70
    12
 71
     2
 72
     6
 73
     3
 74
     0
 42
0.0000000001
 43
0.0000000001
 40
-5.863539798955705
 40
-5.863539798955705
 40
-5.863539798955705
 40
0.0
 40
0.0
 40
0.0
 10
1826.633092667082
 20
1365.471656858619
 30
0.0
 41
1.0
 10
1823.702742677034
 20
1364.550705335966
 30
0.0
 41
0.952653293416618
 10
1820.772350511998
 20
1365.471524025891
 30
0.0
 41
0.9999976469590285
  0
POLYLINE
  5
242
330
1F
100
AcDbEntity
  8
PREDEFINITO
100
AcDb2dPolyline
 66
     1
 10
0.0
 20
0.0
 30
0.0
  0
VERTEX
  5
244
330
242
100
AcDbEntity
  8
PREDEFINITO
100
AcDbVertex
100
AcDb2dVertex
 10
1795.561817332675
 20
1374.938482204128
 30
0.0
  0
VERTEX
  5
245
330
242
100
AcDbEntity
  8
PREDEFINITO
100
AcDbVertex
100
AcDb2dVertex
 10
1795.469394298913
 20
1374.993509211457
 30
0.0
  0
VERTEX
  5
246
330
242
100
AcDbEntity
  8
PREDEFINITO
100
AcDbVertex
100
AcDb2dVertex
 10
1851.969294172007
 20
1374.9943571651
 30
0.0
  0
VERTEX
  5
247
330
242
100
AcDbEntity
  8
PREDEFINITO
100
AcDbVertex
100
AcDb2dVertex
 10
1851.863746166076
 20
1374.939328236571
 30
0.0
  0
SEQEND
  5
243
330
242
100
AcDbEntity
  8
PREDEFINITO
  0
SPLINE
  5
248
330
1F
100
AcDbEntity
  8
PREDEFINITO
100
AcDbSpline
210
0.0
220
0.0
230
1.0
 70
    24
 71
     2
 72
     6
 73
     3
 74
     0
 42
0.0000000001
 43
0.0000000001
 40
0.0
 40
0.0
 40
0.0
 40
20.03503794271613
 40
20.03503794271613
 40
20.03503794271613
 10
1851.863746166076
 20
1374.939328236571
 30
0.0
 10
1843.025296514945
 20
1370.205548610072
 30
0.0
 10
1834.186846863814
 20
1365.471768983573
 30
0.0
  0
SPLINE
  5
249
330
1F
100
AcDbEntity
  8
PREDEFINITO
100
AcDbSpline
210
0.0
220
0.0
230
1.0
 70
    12
 71
     2
 72
     6
 73
     3
 74
     0
 42
0.0000000001
 43
0.0000000001
 40
5.49778714378214
 40
5.49778714378214
 40
5.49778714378214
 40
6.28318530717959
 40
6.28318530717959
 40
6.28318530717959
 10
1834.186846863813
 20
1365.471768983573
 30
0.0
 41
0.8536927746304102
 10
1834.445092485297
 20
1365.471738638571
 30
0.0
 41
0.858071390111205
 10
1831.75131857335
 20
1365.471671233121
 30
0.0
 41
1.0
  0
SPLINE
  5
24A
330
1F
100
AcDbEntity
  8
PREDEFINITO
100
AcDbSpline
210
0.0
220
0.0
230
1.0
 70
    12
 71
     2
 72
     6
 73
     3
 74
     0
 42
0.0000000001
 43
0.0000000001
 40
0.0
 40
0.0
 40
0.0
 40
2.791609426654083
 40
2.791609426654083
 40
2.791609426654083
 10
1831.75131857335
 20
1365.471671233121
 30
0.0
 41
1.0
 10
1830.355513860442
 20
1365.471636937548
 30
0.0
 41
0.9999999999967094
 10
1828.959709147375
 20
1365.47160980357
 30
0.0
 41
1.0
  0
SPLINE
  5
24B
330
1F
100
AcDbEntity
  8
PREDEFINITO
100
AcDbSpline
210
0.0
220
0.0
230
1.0
 70
    12
 71
     2
 72
     8
 73
     5
 74
     0
 42
0.0000000001
 43
0.0000000001
 40
0.0
 40
0.0
 40
0.0
 40
11.99296876671814
 40
11.99296876671814
 40
15.70135931269
 40
15.70135931269
 40
15.70135931269
 10
1828.959709147375
 20
1365.47160980357
 30
0.0
 41
1.0
 10
1822.963224765099
 20
1365.471492766366
 30
0.0
 41
0.9999999999851884
 10
1816.966740381904
 20
1365.47144100344
 30
0.0
 41
1.0
 10
1815.112545108967
 20
1365.47141056311
 30
0.0
 41
0.9999999998373552
 10
1813.218457765402
 20
1365.471454237628
 30
0.0
 41
1.0
  0
SPLINE
  5
24C
330
1F
100
AcDbEntity
  8
PREDEFINITO
100
AcDbSpline
210
0.0
220
0.0
230
1.0
 70
    24
 71
     2
 72
     6
 73
     3
 74
     0
 42
0.0000000001
 43
0.0000000001
 40
0.0
 40
0.0
 40
0.0
 40
20.03450947463151
 40
20.03450947463151
 40
20.03450947463151
 10
1813.218457765402
 20
1365.471454237628
 30
0.0
 10
1804.390137549039
 20
1370.204968220878
 30
0.0
 10
1795.561817332675
 20
1374.938482204128
 30
0.0
  0
POLYLINE
  5
24D
330
1F
100
AcDbEntity
  8
PREDEFINITO
100
AcDb2dPolyline
 66
     1
 10
0.0
 20
0.0
 30
0.0
  0
VERTEX
  5
24F
330
24D
100
AcDbEntity
  8
PREDEFINITO
100
AcDbVertex
100
AcDb2dVertex
 10
1966.213073576197
 20
1374.9943571651
 30
0.0
  0
VERTEX
  5
250
330
24D
100
AcDbEntity
  8
PREDEFINITO
100
AcDbVertex
100
AcDb2dVertex
 10
2022.712956855042
 20
1374.9943571651
 30
0.0
  0
VERTEX
  5
251
330
24D
100
AcDbEntity
  8
PREDEFINITO
100
AcDbVertex
100
AcDb2dVertex
 10
2022.712956855042
 20
1376.071257375114
 30
0.0
  0
VERTEX
  5
252
330
24D
100
AcDbEntity
  8
PREDEFINITO
100
AcDbVertex
100
AcDb2dVertex
 10
1966.213073576197
 20
1376.071257375114
 30
0.0
  0
VERTEX
  5
253
330
24D
100
AcDbEntity
  8
PREDEFINITO
100
AcDbVertex
100
AcDb2dVertex
 10
1966.213073576197
 20
1374.9943571651
 30
0.0
  0
SEQEND
  5
24E
330
24D
100
AcDbEntity
  8
PREDEFINITO
  0
POLYLINE
  5
254
330
1F
100
AcDbEntity
  8
PREDEFINITO
100
AcDb2dPolyline
 66
     1
 10
0.0
 20
0.0
 30
0.0
  0
VERTEX
  5
256
330
254
100
AcDbEntity
  8
PREDEFINITO
100
AcDbVertex
100
AcDb2dVertex
 10
1991.516013195034
 20
1365.471524025891
 30
0.0
  0
VERTEX
  5
257
330
254
100
AcDbEntity
  8
PREDEFINITO
100
AcDbVertex
100
AcDb2dVertex
 10
1997.376755350117
 20
1365.471656858619
 30
0.0
  0
SEQEND
  5
255
330
254
100
AcDbEntity
  8
PREDEFINITO
  0
SPLINE
  5
258
330
1F
100
AcDbEntity
  8
PREDEFINITO
100
AcDbSpline
210
0.0
220
0.0
230
1.0
 70
    12
 71
     2
 72
     6
 73
     3
 74
     0
 42
0.0000000001
 43
0.0000000001
 40
-5.863539798955705
 40
-5.863539798955705
 40
-5.863539798955705
 40
0.0
 40
0.0
 40
0.0
 10
1997.376755350117
 20
1365.471656858619
 30
0.0
 41
1.0
 10
1994.446405360069
 20
1364.550705335966
 30
0.0
 41
0.952653293416618
 10
1991.516013195034
 20
1365.471524025891
 30
0.0
 41
0.9999976469590285
  0
POLYLINE
  5
259
330
1F
100
AcDbEntity
  8
PREDEFINITO
100
AcDb2dPolyline
 66
     1
 10
0.0
 20
0.0
 30
0.0
  0
VERTEX
  5
25B
330
259
100
AcDbEntity
  8
PREDEFINITO
100
AcDbVertex
100
AcDb2dVertex
 10
1966.305480015711
 20
1374.938482204128
 30
0.0
  0
VERTEX
  5
25C
330
259
100
AcDbEntity
  8
PREDEFINITO
100
AcDbVertex
100
AcDb2dVertex
 10
1966.213056981948
 20
1374.993509211457
 30
0.0
  0
VERTEX
  5
25D
330
259
100
AcDbEntity
  8
PREDEFINITO
100
AcDbVertex
100
AcDb2dVertex
 10
2022.712956855042
 20
1374.9943571651
 30
0.0
  0
VERTEX
  5
25E
330
259
100
AcDbEntity
  8
PREDEFINITO
100
AcDbVertex
100
AcDb2dVertex
 10
2022.607408849111
 20
1374.939328236571
 30
0.0
  0
SEQEND
  5
25A
330
259
100
AcDbEntity
  8
PREDEFINITO
  0
SPLINE
  5
25F
330
1F
100
AcDbEntity
  8
PREDEFINITO
100
AcDbSpline
210
0.0
220
0.0
230
1.0
 70
    24
 71
     2
 72
     6
 73
     3
 74
     0
 42
0.0000000001
 43
0.0000000001
 40
0.0
 40
0.0
 40
0.0
 40
20.03503794271613
 40
20.03503794271613
 40
20.03503794271613
 10
2022.607408849111
 20
1374.939328236571
 30
0.0
 10
2013.76895919798
 20
1370.205548610072
 30
0.0
 10
2004.930509546849
 20
1365.471768983573
 30
0.0
  0
SPLINE
  5
260
330
1F
100
AcDbEntity
  8
PREDEFINITO
100
AcDbSpline
210
0.0
220
0.0
230
1.0
 70
    12
 71
     2
 72
     6
 73
     3
 74
     0
 42
0.0000000001
 43
0.0000000001
 40
5.49778714378214
 40
5.49778714378214
 40
5.49778714378214
 40
6.28318530717959
 40
6.28318530717959
 40
6.28318530717959
 10
2004.930509546848
 20
1365.471768983573
 30
0.0
 41
0.8536927746304102
 10
2005.188755168332
 20
1365.471738638571
 30
0.0
 41
0.858071390111205
 10
2002.494981256385
 20
1365.471671233121
 30
0.0
 41
1.0
  0
SPLINE
  5
261
330
1F
100
AcDbEntity
  8
PREDEFINITO
100
AcDbSpline
210
0.0
220
0.0
230
1.0
 70
    12
 71
     2
 72
     6
 73
     3
 74
     0
 42
0.0000000001
 43
0.0000000001
 40
0.0
 40
0.0
 40
0.0
 40
2.791609426654083
 40
2.791609426654083
 40
2.791609426654083
 10
2002.494981256385
 20
1365.471671233121
 30
0.0
 41
1.0
 10
2001.099176543477
 20
1365.471636937548
 30
0.0
 41
0.9999999999967094
 10
1999.70337183041
 20
1365.47160980357
 30
0.0
 41
1.0
  0
SPLINE
  5
262
330
1F
100
AcDbEntity
  8
PREDEFINITO
100
AcDbSpline
210
0.0
220
0.0
230
1.0
 70
    12
 71
     2
 72
     8
 73
     5
 74
     0
 42
0.0000000001
 43
0.0000000001
 40
0.0
 40
0.0
 40
0.0
 40
11.99296876671814
 40
11.99296876671814
 40
15.70135931269
 40
15.70135931269
 40
15.70135931269
 10
1999.70337183041
 20
1365.47160980357
 30
0.0
 41
1.0
 10
1993.706887448134
 20
1365.471492766366
 30
0.0
 41
0.9999999999851884
 10
1987.710403064939
 20
1365.47144100344
 30
0.0
 41
1.0
 10
1985.856207792002
 20
1365.47141056311
 30
0.0
 41
0.9999999998373552
 10
1983.962120448437
 20
1365.471454237628
 30
0.0
 41
1.0
  0
SPLINE
  5
263
330
1F
100
AcDbEntity
  8
PREDEFINITO
100
AcDbSpline
210
0.0
220
0.0
230
1.0
 70
    24
 71
     2
 72
     6
 73
     3
 74
     0
 42
0.0000000001
 43
0.0000000001
 40
0.0
 40
0.0
 40
0.0
 40
20.03450947463151
 40
20.03450947463151
 40
20.03450947463151
 10
1983.962120448437
 20
1365.471454237628
 30
0.0
 10
1975.133800232074
 20
1370.204968220878
 30
0.0
 10
1966.305480015711
 20
1374.938482204128
 30
0.0
  0
POLYLINE
  5
264
330
1F
100
AcDbEntity
  8
PREDEFINITO
100
AcDb2dPolyline
 66
     1
 10
0.0
 20
0.0
 30
0.0
  0
VERTEX
  5
266
330
264
100
AcDbEntity
  8
PREDEFINITO
100
AcDbVertex
100
AcDb2dVertex
 10
1934.901396189093
 20
1365.47153486003
 30
0.0
  0
VERTEX
  5
267
330
264
100
AcDbEntity
  8
PREDEFINITO
100
AcDbVertex
100
AcDb2dVertex
 10
1940.762138344177
 20
1365.471667692757
 30
0.0
  0
SEQEND
  5
265
330
264
100
AcDbEntity
  8
PREDEFINITO
  0
SPLINE
  5
268
330
1F
100
AcDbEntity
  8
PREDEFINITO
100
AcDbSpline
210
0.0
220
0.0
230
1.0
 70
    12
 71
     2
 72
     6
 73
     3
 74
     0
 42
0.0000000001
 43
0.0000000001
 40
-5.863539798955705
 40
-5.863539798955705
 40
-5.863539798955705
 40
0.0
 40
0.0
 40
0.0
 10
1940.762138344177
 20
1365.471667692757
 30
0.0
 41
1.0
 10
1937.831788354129
 20
1364.550716170104
 30
0.0
 41
0.952653293416618
 10
1934.901396189093
 20
1365.47153486003
 30
0.0
 41
0.9999976469590285
  0
POLYLINE
  5
269
330
1F
100
AcDbEntity
  8
PREDEFINITO
100
AcDb2dPolyline
 66
     1
 10
0.0
 20
0.0
 30
0.0
  0
VERTEX
  5
26B
330
269
100
AcDbEntity
  8
PREDEFINITO
100
AcDbVertex
100
AcDb2dVertex
 10
1909.598456570256
 20
1374.994367999238
 30
0.0
  0
VERTEX
  5
26C
330
269
100
AcDbEntity
  8
PREDEFINITO
100
AcDbVertex
100
AcDb2dVertex
 10
1966.098339849102
 20
1374.994367999238
 30
0.0
  0
VERTEX
  5
26D
330
269
100
AcDbEntity
  8
PREDEFINITO
100
AcDbVertex
100
AcDb2dVertex
 10
1966.098339849102
 20
1376.071268209253
 30
0.0
  0
VERTEX
  5
26E
330
269
100
AcDbEntity
  8
PREDEFINITO
100
AcDbVertex
100
AcDb2dVertex
 10
1909.598456570256
 20
1376.071268209253
 30
0.0
  0
VERTEX
  5
26F
330
269
100
AcDbEntity
  8
PREDEFINITO
100
AcDbVertex
100
AcDb2dVertex
 10
1909.598456570256
 20
1374.994367999238
 30
0.0
  0
SEQEND
  5
26A
330
269
100
AcDbEntity
  8
PREDEFINITO
  0
POLYLINE
  5
270
330
1F
100
AcDbEntity
  8
PREDEFINITO
100
AcDb2dPolyline
 66
     1
 10
0.0
 20
0.0
 30
0.0
  0
VERTEX
  5
272
330
270
100
AcDbEntity
  8
PREDEFINITO
100
AcDbVertex
100
AcDb2dVertex
 10
1909.69086300977
 20
1374.938493038267
 30
0.0
  0
VERTEX
  5
273
330
270
100
AcDbEntity
  8
PREDEFINITO
100
AcDbVertex
100
AcDb2dVertex
 10
1909.598439976008
 20
1374.993520045595
 30
0.0
  0
VERTEX
  5
274
330
270
100
AcDbEntity
  8
PREDEFINITO
100
AcDbVertex
100
AcDb2dVertex
 10
1966.098339849102
 20
1374.994367999238
 30
0.0
  0
VERTEX
  5
275
330
270
100
AcDbEntity
  8
PREDEFINITO
100
AcDbVertex
100
AcDb2dVertex
 10
1965.99279184317
 20
1374.93933907071
 30
0.0
  0
SEQEND
  5
271
330
270
100
AcDbEntity
  8
PREDEFINITO
  0
SPLINE
  5
276
330
1F
100
AcDbEntity
  8
PREDEFINITO
100
AcDbSpline
210
0.0
220
0.0
230
1.0
 70
    24
 71
     2
 72
     6
 73
     3
 74
     0
 42
0.0000000001
 43
0.0000000001
 40
0.0
 40
0.0
 40
0.0
 40
20.03503794271613
 40
20.03503794271613
 40
20.03503794271613
 10
1965.99279184317
 20
1374.93933907071
 30
0.0
 10
1957.154342192039
 20
1370.20555944421
 30
0.0
 10
1948.315892540908
 20
1365.471779817711
 30
0.0
  0
SPLINE
  5
277
330
1F
100
AcDbEntity
  8
PREDEFINITO
100
AcDbSpline
210
0.0
220
0.0
230
1.0
 70
    12
 71
     2
 72
     6
 73
     3
 74
     0
 42
0.0000000001
 43
0.0000000001
 40
5.49778714378214
 40
5.49778714378214
 40
5.49778714378214
 40
6.28318530717959
 40
6.28318530717959
 40
6.28318530717959
 10
1948.315892540908
 20
1365.471779817711
 30
0.0
 41
0.8536927746304102
 10
1948.574138162392
 20
1365.471749472709
 30
0.0
 41
0.858071390111205
 10
1945.880364250445
 20
1365.47168206726
 30
0.0
 41
1.0
  0
SPLINE
  5
278
330
1F
100
AcDbEntity
  8
PREDEFINITO
100
AcDbSpline
210
0.0
220
0.0
230
1.0
 70
    12
 71
     2
 72
     6
 73
     3
 74
     0
 42
0.0000000001
 43
0.0000000001
 40
0.0
 40
0.0
 40
0.0
 40
2.791609426654083
 40
2.791609426654083
 40
2.791609426654083
 10
1945.880364250445
 20
1365.47168206726
 30
0.0
 41
1.0
 10
1944.484559537536
 20
1365.471647771686
 30
0.0
 41
0.9999999999967094
 10
1943.08875482447
 20
1365.471620637709
 30
0.0
 41
1.0
  0
SPLINE
  5
279
330
1F
100
AcDbEntity
  8
PREDEFINITO
100
AcDbSpline
210
0.0
220
0.0
230
1.0
 70
    12
 71
     2
 72
     8
 73
     5
 74
     0
 42
0.0000000001
 43
0.0000000001
 40
0.0
 40
0.0
 40
0.0
 40
11.99296876671814
 40
11.99296876671814
 40
15.70135931269
 40
15.70135931269
 40
15.70135931269
 10
1943.08875482447
 20
1365.471620637709
 30
0.0
 41
1.0
 10
1937.092270442193
 20
1365.471503600504
 30
0.0
 41
0.9999999999851884
 10
1931.095786058999
 20
1365.471451837578
 30
0.0
 41
1.0
 10
1929.241590786062
 20
1365.471421397249
 30
0.0
 41
0.9999999998373552
 10
1927.347503442497
 20
1365.471465071766
 30
0.0
 41
1.0
  0
SPLINE
  5
27A
330
1F
100
AcDbEntity
  8
PREDEFINITO
100
AcDbSpline
210
0.0
220
0.0
230
1.0
 70
    24
 71
     2
 72
     6
 73
     3
 74
     0
 42
0.0000000001
 43
0.0000000001
 40
0.0
 40
0.0
 40
0.0
 40
20.03450947463151
 40
20.03450947463151
 40
20.03450947463151
 10
1927.347503442497
 20
1365.471465071766
 30
0.0
 10
1918.519183226133
 20
1370.204979055017
 30
0.0
 10
1909.69086300977
 20
1374.938493038267
 30
0.0
  0
SPLINE
  5
27B
330
1F
100
AcDbEntity
  8
PREDEFINITO
100
AcDbSpline
210
0.0
220
0.0
230
1.0
 70
    28
 71
     2
 72
     6
 73
     3
 74
     0
 42
0.0000000001
 43
0.0000000001
 40
337.5339545703279
 40
337.5339545703279
 40
337.5339545703279
 40
403.8799835693816
 40
403.8799835693816
 40
403.8799835693816
 10
1858.903680850021
 20
601.3276709929463
 30
0.0
 41
1.0
 10
1847.557841676388
 20
570.1552340584515
 30
0.0
 41
1.0
 10
1836.212002502754
 20
538.9827971239567
 30
0.0
 41
1.0
  0
POLYLINE
  5
27C
330
1F
100
AcDbEntity
  8
PREDEFINITO
100
AcDb2dPolyline
 66
     1
 10
0.0
 20
0.0
 30
0.0
  0
VERTEX
  5
27E
330
27C
100
AcDbEntity
  8
PREDEFINITO
100
AcDbVertex
100
AcDb2dVertex
 10
1836.212002502754
 20
538.9827971239567
 30
0.0
  0
VERTEX
  5
27F
330
27C
100
AcDbEntity
  8
PREDEFINITO
100
AcDbVertex
100
AcDb2dVertex
 10
1836.040915012905
 20
538.512738108844
 30
0.0
  0
SEQEND
  5
27D
330
27C
100
AcDbEntity
  8
PREDEFINITO
  0
SPLINE
  5
280
330
1F
100
AcDbEntity
  8
PREDEFINITO
100
AcDbSpline
210
0.0
220
0.0
230
1.0
 70
    12
 71
     2
 72
     6
 73
     3
 74
     0
 42
0.0000000001
 43
0.0000000001
 40
61.44812088877961
 40
61.44812088877961
 40
61.44812088877961
 40
64.01556548080993
 40
64.01556548080993
 40
64.01556548080993
 10
1836.040915012905
 20
538.5127381088439
 30
0.0
 41
0.9567812695551335
 10
1836.983956627126
 20
537.7975507443409
 30
0.0
 41
0.9765061167534215
 10
1837.837854148022
 20
536.9779902058187
 30
0.0
 41
1.0
  0
SPLINE
  5
281
330
1F
100
AcDbEntity
  8
PREDEFINITO
100
AcDbSpline
210
0.0
220
0.0
230
1.0
 70
    12
 71
     2
 72
     8
 73
     5
 74
     0
 42
0.0000000001
 43
0.0000000001
 40
0.0
 40
0.0
 40
0.0
 40
32.00778274040516
 40
32.00778274040516
 40
64.01556548081027
 40
64.01556548081027
 40
64.01556548081027
 10
1837.837854148022
 20
536.9779902058187
 30
0.0
 41
1.0
 10
1852.538967600756
 20
522.868038878699
 30
0.0
 41
0.7071067811865369
 10
1838.429016273636
 20
508.1669254259662
 30
0.0
 41
1.0
 10
1824.319064946516
 20
493.4658119732328
 30
0.0
 41
0.7071067811865434
 10
1809.617951493783
 20
507.5757633003527
 30
0.0
 41
1.0
  0
SPLINE
  5
282
330
1F
100
AcDbEntity
  8
PREDEFINITO
100
AcDbSpline
210
0.0
220
0.0
230
1.0
 70
    12
 71
     2
 72
     8
 73
     5
 74
     0
 42
0.0000000001
 43
0.0000000001
 40
0.0
 40
0.0
 40
0.0
 40
32.00778274040505
 40
32.00778274040505
 40
49.36069100993044
 40
49.36069100993044
 40
49.36069100993044
 10
1809.617951493783
 20
507.5757633003527
 30
0.0
 41
1.0
 10
1794.916838041051
 20
521.6857146274723
 30
0.0
 41
0.7071067811865552
 10
1809.02678936817
 20
536.3868280802054
 30
0.0
 41
1.0
 10
1815.456972017973
 20
543.0864149508463
 30
0.0
 41
0.8412089584568515
 10
1824.731798772833
 20
542.6289197984781
 30
0.0
 41
0.8545939404932605
  0
POLYLINE
  5
283
330
1F
100
AcDbEntity
  8
PREDEFINITO
100
AcDb2dPolyline
 66
     1
 10
0.0
 20
0.0
 30
0.0
  0
VERTEX
  5
285
330
283
100
AcDbEntity
  8
PREDEFINITO
100
AcDbVertex
100
AcDb2dVertex
 10
1824.731798772833
 20
542.6289197984781
 30
0.0
  0
VERTEX
  5
286
330
283
100
AcDbEntity
  8
PREDEFINITO
100
AcDbVertex
100
AcDb2dVertex
 10
1824.902886261812
 20
543.0989788111697
 30
0.0
  0
SEQEND
  5
284
330
283
100
AcDbEntity
  8
PREDEFINITO
  0
SPLINE
  5
287
330
1F
100
AcDbEntity
  8
PREDEFINITO
100
AcDbSpline
210
0.0
220
0.0
230
1.0
 70
    28
 71
     2
 72
     6
 73
     3
 74
     0
 42
0.0000000001
 43
0.0000000001
 40
415.9148936992084
 40
415.9148936992084
 40
415.9148936992084
 40
474.4077769861378
 40
474.4077769861378
 40
474.4077769861378
 10
1824.902886261812
 20
543.0989788111697
 30
0.0
 41
1.0
 10
1834.905758424435
 20
570.5816442077264
 30
0.0
 41
1.0
 10
1844.908630587047
 20
598.064309604287
 30
0.0
 41
1.0
  0
SPLINE
  5
288
330
1F
100
AcDbEntity
  8
LINEE VISIBILI 2D
100
AcDbSpline
210
0.0
220
0.0
230
1.0
 70
    12
 71
     3
 72
     8
 73
     4
 74
     0
 42
0.0000000001
 43
0.0000000001
 40
76.64927559243107
 40
76.64927559243107
 40
76.64927559243107
 40
76.64927559243107
 40
88.18658205899926
 40
88.18658205899926
 40
88.18658205899926
 40
88.18658205899926
 10
1838.828440639232
 20
546.1714018233702
 30
0.0
 41
1.0
 10
1842.010097709256
 20
544.1624695629475
 30
0.0
 41
1.0
 10
1844.832193818138
 20
541.48786785734
 30
0.0
 41
1.0
 10
1847.067120940543
 20
538.2029386658352
 30
0.0
 41
1.0
  0
SPLINE
  5
289
330
1F
100
AcDbEntity
  8
LINEE VISIBILI 2D
100
AcDbSpline
210
0.0
220
0.0
230
1.0
 70
    12
 71
     2
 72
     6
 73
     3
 74
     0
 42
0.0000000001
 43
0.0000000001
 40
-1.454148741689168
 40
-1.454148741689168
 40
-1.454148741689168
 40
0.0
 40
0.0
 40
0.0
 10
1847.067120940543
 20
538.2029386658352
 30
0.0
 41
1.0
 10
1847.476201570916
 20
537.6016758014785
 30
0.0
 41
0.9996782918526956
 10
1847.854291770768
 20
536.9804578105767
 30
0.0
 41
1.0
  0
SPLINE
  5
28A
330
1F
100
AcDbEntity
  8
LINEE VISIBILI 2D
100
AcDbSpline
210
0.0
220
0.0
230
1.0
 70
    12
 71
     3
 72
     8
 73
     4
 74
     0
 42
0.0000000001
 43
0.0000000001
 40
89.5863688116684
 40
89.5863688116684
 40
89.5863688116684
 40
89.5863688116684
 40
134.379544101583
 40
134.379544101583
 40
134.379544101583
 40
134.379544101583
 10
1847.854291770768
 20
536.9804578105767
 30
0.0
 41
1.0
 10
1855.965263513477
 20
523.6551002730808
 30
0.0
 41
1.0
 10
1851.738187417476
 20
506.2775988232003
 30
0.0
 41
1.0
 10
1838.41282998759
 20
498.1666271393306
 30
0.0
 41
1.0
  0
SPLINE
  5
28B
330
1F
100
AcDbEntity
  8
LINEE VISIBILI 2D
100
AcDbSpline
210
0.0
220
0.0
230
1.0
 70
    12
 71
     2
 72
     6
 73
     3
 74
     0
 42
0.0000000001
 43
0.0000000001
 40
-42.91016307040795
 40
-42.91016307040795
 40
-42.91016307040795
 40
0.0
 40
0.0
 40
0.0
 10
1838.41282998759
 20
498.1666271393306
 30
0.0
 41
1.0
 10
1815.499503950764
 20
484.2320526222658
 30
0.0
 41
0.7253532243353437
 10
1800.386170616101
 20
506.3856084208751
 30
0.0
 41
1.0
  0
SPLINE
  5
28C
330
1F
100
AcDbEntity
  8
LINEE VISIBILI 2D
100
AcDbSpline
210
0.0
220
0.0
230
1.0
 70
    12
 71
     3
 72
     8
 73
     4
 74
     0
 42
0.0000000001
 43
0.0000000001
 40
177.7729388689291
 40
177.7729388689291
 40
177.7729388689291
 40
177.7729388689291
 40
179.172725796908
 40
179.172725796908
 40
179.172725796908
 40
179.172725796908
 10
1800.386170616101
 20
506.3856084208751
 30
0.0
 41
1.0
 10
1800.114984551605
 20
506.7841393033624
 30
0.0
 41
1.0
 10
1799.852467307638
 20
507.1916717423092
 30
0.0
 41
1.0
 10
1799.59899940489
 20
507.6080892241512
 30
0.0
 41
1.0
  0
SPLINE
  5
28D
330
1F
100
AcDbEntity
  8
LINEE VISIBILI 2D
100
AcDbSpline
210
0.0
220
0.0
230
1.0
 70
    12
 71
     2
 72
     6
 73
     3
 74
     0
 42
0.0000000001
 43
0.0000000001
 40
-44.36384075048037
 40
-44.36384075048037
 40
-44.36384075048037
 40
0.0
 40
0.0
 40
0.0
 10
1799.59899940489
 20
507.6080892241512
 30
0.0
 41
1.0
 10
1784.927595077916
 20
531.73214018807
 30
0.0
 41
0.7073760952443257
 10
1809.040461187558
 20
546.4219198950871
 30
0.0
 41
1.0
  0
SPLINE
  5
28E
330
1F
100
AcDbEntity
  8
LINEE VISIBILI 2D
100
AcDbSpline
210
0.0
220
0.0
230
1.0
 70
    12
 71
     3
 72
     8
 73
     4
 74
     0
 42
0.0000000001
 43
0.0000000001
 40
44.7931927262563
 40
44.7931927262563
 40
44.7931927262563
 40
44.7931927262563
 40
64.157886846528
 40
64.157886846528
 40
64.157886846528
 40
64.157886846528
 10
1809.040461187558
 20
546.4219198950871
 30
0.0
 41
1.0
 10
1814.801193018226
 20
549.9284024043
 30
0.0
 41
1.0
 10
1821.319249981851
 20
551.1289660490798
 30
0.0
 41
1.0
 10
1827.518520530753
 20
550.2853749026267
 30
0.0
 41
1.0
  0
SPLINE
  5
28F
330
1F
100
AcDbEntity
  8
PREDEFINITO
100
AcDbSpline
210
0.0
220
0.0
230
1.0
 70
    28
 71
     2
 72
     6
 73
     3
 74
     0
 42
0.0000000001
 43
0.0000000001
 40
712.5541568288597
 40
712.5541568288597
 40
712.5541568288597
 40
770.9498864326242
 40
770.9498864326242
 40
770.9498864326242
 10
1918.792943027759
 20
640.6493271748234
 30
0.0
 41
1.0
 10
1947.547226656061
 20
635.5791711602179
 30
0.0
 41
1.0
 10
1976.301510284364
 20
630.5090151456125
 30
0.0
 41
1.0
  0
POLYLINE
  5
290
330
1F
100
AcDbEntity
  8
PREDEFINITO
100
AcDb2dPolyline
 66
     1
 10
0.0
 20
0.0
 30
0.0
  0
VERTEX
  5
292
330
290
100
AcDbEntity
  8
PREDEFINITO
100
AcDbVertex
100
AcDb2dVertex
 10
1976.301510284364
 20
630.5090151456125
 30
0.0
  0
VERTEX
  5
293
330
290
100
AcDbEntity
  8
PREDEFINITO
100
AcDbVertex
100
AcDb2dVertex
 10
1976.515846929606
 20
630.4712218121281
 30
0.0
  0
SEQEND
  5
291
330
290
100
AcDbEntity
  8
PREDEFINITO
  0
SPLINE
  5
294
330
1F
100
AcDbEntity
  8
PREDEFINITO
100
AcDbSpline
210
0.0
220
0.0
230
1.0
 70
    12
 71
     2
 72
     8
 73
     5
 74
     0
 42
0.0000000001
 43
0.0000000001
 40
26.13640294984325
 40
26.13640294984325
 40
26.13640294984325
 40
32.00778274040508
 40
32.00778274040508
 40
64.01556548081027
 40
64.01556548081027
 40
64.01556548081027
 10
1976.515846929606
 20
630.4712218121281
 30
0.0
 41
0.9122566680442019
 10
1977.836352936428
 20
632.9324733532095
 30
0.0
 41
0.9462728380881259
 10
1979.770452053651
 20
634.9476050777592
 30
0.0
 41
1.0
 10
1993.880403380771
 20
649.648718530492
 30
0.0
 41
0.7071067811865518
 10
2008.581516833504
 20
635.5387672033726
 30
0.0
 41
1.0
  0
SPLINE
  5
295
330
1F
100
AcDbEntity
  8
PREDEFINITO
100
AcDbSpline
210
0.0
220
0.0
230
1.0
 70
    12
 71
     2
 72
     8
 73
     5
 74
     0
 42
0.0000000001
 43
0.0000000001
 40
0.0
 40
0.0
 40
0.0
 40
32.00778274040513
 40
32.00778274040513
 40
64.01556548081014
 40
64.01556548081014
 40
64.01556548081014
 10
2008.581516833504
 20
635.5387672033726
 30
0.0
 41
1.0
 10
2023.282630286237
 20
621.4288158762529
 30
0.0
 41
0.7071067811865377
 10
2009.172678959117
 20
606.72770242352
 30
0.0
 41
1.0
 10
1995.062727631998
 20
592.026588970787
 30
0.0
 41
0.707106781186546
 10
1980.361614179265
 20
606.1365402979065
 30
0.0
 41
1.0
  0
SPLINE
  5
296
330
1F
100
AcDbEntity
  8
PREDEFINITO
100
AcDbSpline
210
0.0
220
0.0
230
1.0
 70
    12
 71
     2
 72
     6
 73
     3
 74
     0
 42
0.0000000001
 43
0.0000000001
 40
0.0
 40
0.0
 40
0.0
 40
14.32773778527532
 40
14.32773778527532
 40
14.32773778527532
 10
1980.361614179265
 20
606.1365402979065
 30
0.0
 41
1.0
 10
1975.006215677917
 20
611.2765871681185
 30
0.0
 41
0.8688913483236443
 10
1974.21180597526
 20
618.6569183368762
 30
0.0
 41
0.8551597982000624
  0
SPLINE
  5
297
330
1F
100
AcDbEntity
  8
PREDEFINITO
100
AcDbSpline
210
0.0
220
0.0
230
1.0
 70
    12
 71
     2
 72
     8
 73
     5
 74
     0
 42
0.0000000001
 43
0.0000000001
 40
-0.0001482935121958
 40
-0.0001482935121958
 40
-0.0001482935121958
 40
0.0
 40
0.0
 40
66.27502684962295
 40
66.27502684962295
 40
66.27502684962295
 10
1974.211805975261
 20
618.6569183368763
 30
0.0
 41
0.999944670954458
 10
1974.211738024585
 20
618.6569303457661
 30
0.0
 41
0.9999723313741513
 10
1974.211670071841
 20
618.6569423429332
 30
0.0
 41
1.0
 10
1941.577589935519
 20
624.4112111615757
 30
0.0
 41
1.0
 10
1908.943509799198
 20
630.1654799802182
 30
0.0
 41
1.0
  0
SPLINE
  5
298
330
1F
100
AcDbEntity
  8
LINEE VISIBILI 2D
100
AcDbSpline
210
0.0
220
0.0
230
1.0
 70
    12
 71
     2
 72
     6
 73
     3
 74
     0
 42
0.0000000001
 43
0.0000000001
 40
0.0
 40
0.0
 40
0.0
 40
14.65494520736784
 40
14.65494520736784
 40
14.65494520736784
 10
1966.23410272495
 20
620.0636027066106
 30
0.0
 41
1.0
 10
1966.434656059427
 20
612.5681028166897
 30
0.0
 41
0.9661970220857651
 10
1970.342662087925
 20
606.1688662121413
 30
0.0
 41
1.0
  0
SPLINE
  5
299
330
1F
100
AcDbEntity
  8
LINEE VISIBILI 2D
100
AcDbSpline
210
0.0
220
0.0
230
1.0
 70
    12
 71
     3
 72
     8
 73
     4
 74
     0
 42
0.0000000001
 43
0.0000000001
 40
-179.172725796908
 40
-179.172725796908
 40
-179.172725796908
 40
-179.172725796908
 40
-177.7729388689291
 40
-177.7729388689291
 40
-177.7729388689291
 40
-177.7729388689291
 10
1970.342662087925
 20
606.1688662121413
 30
0.0
 41
1.0
 10
1970.596129990673
 20
605.7524487302993
 30
0.0
 41
1.0
 10
1970.85864723464
 20
605.3449162913525
 30
0.0
 41
1.0
 10
1971.129833299135
 20
604.9463854088654
 30
0.0
 41
1.0
  0
SPLINE
  5
29A
330
1F
100
AcDbEntity
  8
LINEE VISIBILI 2D
100
AcDbSpline
210
0.0
220
0.0
230
1.0
 70
    12
 71
     2
 72
     6
 73
     3
 74
     0
 42
0.0000000001
 43
0.0000000001
 40
0.0
 40
0.0
 40
0.0
 40
42.91016307037552
 40
42.91016307037552
 40
42.91016307037552
 10
1971.129833299135
 20
604.9463854088654
 30
0.0
 41
1.0
 10
1986.243166633822
 20
582.7928296103598
 30
0.0
 41
0.7253532243373118
 10
2009.156492670625
 20
596.7274041273213
 30
0.0
 41
1.0
  0
SPLINE
  5
29B
330
1F
100
AcDbEntity
  8
LINEE VISIBILI 2D
100
AcDbSpline
210
0.0
220
0.0
230
1.0
 70
    12
 71
     3
 72
     8
 73
     4
 74
     0
 42
0.0000000001
 43
0.0000000001
 40
-134.379544101583
 40
-134.379544101583
 40
-134.379544101583
 40
-134.379544101583
 40
-89.5863688116684
 40
-89.5863688116684
 40
-89.5863688116684
 40
-89.5863688116684
 10
2009.156492670625
 20
596.7274041273213
 30
0.0
 41
1.0
 10
2022.481850100511
 20
604.8383758111909
 30
0.0
 41
1.0
 10
2026.708926196512
 20
622.2158772610711
 30
0.0
 41
1.0
 10
2018.597954453804
 20
635.5412347985671
 30
0.0
 41
1.0
  0
SPLINE
  5
29C
330
1F
100
AcDbEntity
  8
LINEE VISIBILI 2D
100
AcDbSpline
210
0.0
220
0.0
230
1.0
 70
    12
 71
     2
 72
     6
 73
     3
 74
     0
 42
0.0000000001
 43
0.0000000001
 40
0.0
 40
0.0
 40
0.0
 40
1.454148741689445
 40
1.454148741689445
 40
1.454148741689445
 10
2018.597954453804
 20
635.5412347985671
 30
0.0
 41
1.0
 10
2018.219864253951
 20
636.1624527894687
 30
0.0
 41
0.9996782918527158
 10
2017.810783623578
 20
636.7637156538258
 30
0.0
 41
1.0
  0
SPLINE
  5
29D
330
1F
100
AcDbEntity
  8
LINEE VISIBILI 2D
100
AcDbSpline
210
0.0
220
0.0
230
1.0
 70
    12
 71
     3
 72
     8
 73
     4
 74
     0
 42
0.0000000001
 43
0.0000000001
 40
-88.18658205899926
 40
-88.18658205899926
 40
-88.18658205899926
 40
-88.18658205899926
 40
-44.79319272626649
 40
-44.79319272626649
 40
-44.79319272626649
 40
-44.79319272626649
 10
2017.810783623578
 20
636.7637156538258
 30
0.0
 41
1.0
 10
2009.404845923953
 20
649.1187359563967
 30
0.0
 41
1.0
 10
1992.693064110365
 20
652.8402008415552
 30
0.0
 41
1.0
 10
1979.784123870598
 20
644.9826968830803
 30
0.0
 41
1.0
  0
SPLINE
  5
29E
330
1F
100
AcDbEntity
  8
LINEE VISIBILI 2D
100
AcDbSpline
210
0.0
220
0.0
230
1.0
 70
    12
 71
     2
 72
     6
 73
     3
 74
     0
 42
0.0000000001
 43
0.0000000001
 40
0.0
 40
0.0
 40
0.0
 40
17.58895396407456
 40
17.58895396407456
 40
17.58895396407456
 10
1979.784123870598
 20
644.9826968830803
 30
0.0
 41
1.0
 10
1972.009981171266
 20
640.2659773092654
 30
0.0
 41
0.9514569705420196
 10
1968.471220863042
 20
631.8897064373455
 30
0.0
 41
1.0
  0
SPLINE
  5
29F
330
1F
100
AcDbEntity
  8
LINEE VISIBILI 2D
100
AcDbSpline
210
0.0
220
0.0
230
1.0
 70
    12
 71
     2
 72
     6
 73
     3
 74
     0
 42
0.0000000001
 43
0.0000000001
 40
0.0
 40
0.0
 40
0.0
 40
38.95031354335692
 40
38.95031354335692
 40
38.95031354335692
 10
1918.837655546932
 20
543.1843483511453
 30
0.0
 41
1.0
 10
1901.633058641637
 20
527.5002828639504
 30
0.0
 41
0.7719143963718739
 10
1913.728045081818
 20
507.6080892219168
 30
0.0
 41
1.0
  0
SPLINE
  5
2A0
330
1F
100
AcDbEntity
  8
LINEE VISIBILI 2D
100
AcDbSpline
210
0.0
220
0.0
230
1.0
 70
    12
 71
     2
 72
     8
 73
     5
 74
     0
 42
0.0000000001
 43
0.0000000001
 40
0.0
 40
0.0
 40
0.0
 40
33.61502993402398
 40
33.61502993402398
 40
67.23005986804796
 40
67.23005986804796
 40
67.23005986804796
 10
1913.728045081818
 20
507.6080892219168
 30
0.0
 41
1.0
 10
1923.663817346939
 20
491.2718950412493
 30
0.0
 41
0.8280479220083277
 10
1942.521428474739
 20
494.4312167034889
 30
0.0
 41
1.0
 10
1961.379039602539
 20
497.5905383657284
 30
0.0
 41
0.8280479220083277
 10
1965.447937197826
 20
516.2730136613603
 30
0.0
 41
1.0
  0
SPLINE
  5
2A1
330
1F
100
AcDbEntity
  8
LINEE VISIBILI 2D
100
AcDbSpline
210
0.0
220
0.0
230
1.0
 70
    12
 71
     2
 72
     6
 73
     3
 74
     0
 42
0.0000000001
 43
0.0000000001
 40
0.0
 40
0.0
 40
0.0
 40
9.386782094407666
 40
9.386782094407666
 40
9.386782094407666
 10
1965.460000974953
 20
528.3079237912383
 30
0.0
 41
1.0
 10
1964.450600831076
 20
532.9364064280315
 30
0.0
 41
0.986163557686481
 10
1961.983337447695
 20
536.9804578083415
 30
0.0
 41
1.0
  0
SPLINE
  5
2A2
330
1F
100
AcDbEntity
  8
LINEE VISIBILI 2D
100
AcDbSpline
210
0.0
220
0.0
230
1.0
 70
    12
 71
     2
 72
     6
 73
     3
 74
     0
 42
0.0000000001
 43
0.0000000001
 40
0.0
 40
0.0
 40
0.0
 40
37.65717079009933
 40
37.65717079009933
 40
37.65717079009933
 10
1961.983337447695
 20
536.9804578083415
 30
0.0
 41
1.0
 10
1950.423951873072
 20
555.9508625609062
 30
0.0
 41
0.7862838736415281
 10
1929.258021063862
 20
549.2055661019895
 30
0.0
 41
1.0
  0
SPLINE
  5
2A3
330
1F
100
AcDbEntity
  8
LINEE VISIBILI 2D
100
AcDbSpline
210
0.0
220
0.0
230
1.0
 70
    12
 71
     2
 72
     6
 73
     3
 74
     0
 42
0.0000000001
 43
0.0000000001
 40
0.0
 40
0.0
 40
0.0
 40
14.65494520736812
 40
14.65494520736812
 40
14.65494520736812
 10
2095.751144497759
 20
595.7591681444178
 30
0.0
 41
1.0
 10
2102.342714483732
 20
592.1851024819282
 30
0.0
 41
0.9661970220857765
 10
2109.838618962348
 20
592.369916678476
 30
0.0
 41
1.0
  0
SPLINE
  5
2A4
330
1F
100
AcDbEntity
  8
LINEE VISIBILI 2D
100
AcDbSpline
210
0.0
220
0.0
230
1.0
 70
    12
 71
     3
 72
     8
 73
     4
 74
     0
 42
0.0000000001
 43
0.0000000001
 40
-179.172725796908
 40
-179.172725796908
 40
-179.172725796908
 40
-179.172725796908
 40
-177.7729388689291
 40
-177.7729388689291
 40
-177.7729388689291
 40
-177.7729388689291
 10
2109.838618962348
 20
592.369916678476
 30
0.0
 41
1.0
 10
2110.325981031577
 20
592.3812175803781
 30
0.0
 41
1.0
 10
2110.810173098555
 20
592.4047979631117
 30
0.0
 41
1.0
 10
2111.290903999229
 20
592.4403865428736
 30
0.0
 41
1.0
  0
SPLINE
  5
2A5
330
1F
100
AcDbEntity
  8
LINEE VISIBILI 2D
100
AcDbSpline
210
0.0
220
0.0
230
1.0
 70
    12
 71
     2
 72
     6
 73
     3
 74
     0
 42
0.0000000001
 43
0.0000000001
 40
0.0
 40
0.0
 40
0.0
 40
42.91016307037475
 40
42.91016307037475
 40
42.91016307037475
 10
2111.290903999229
 20
592.4403865428736
 30
0.0
 41
1.0
 10
2138.033112772232
 20
594.4521392473234
 30
0.0
 41
0.7253532243373524
 10
2137.422080268019
 20
621.2629489388696
 30
0.0
 41
1.0
  0
SPLINE
  5
2A6
330
1F
100
AcDbEntity
  8
LINEE VISIBILI 2D
100
AcDbSpline
210
0.0
220
0.0
230
1.0
 70
    12
 71
     3
 72
     8
 73
     4
 74
     0
 42
0.0000000001
 43
0.0000000001
 40
-134.379544101583
 40
-134.379544101583
 40
-134.379544101583
 40
-134.379544101583
 40
-89.58636881167858
 40
-89.58636881167858
 40
-89.58636881167858
 40
-89.58636881167858
 10
2137.422080268019
 20
621.2629489388696
 30
0.0
 41
1.0
 10
2137.060451455355
 20
636.8585328295899
 30
0.0
 41
1.0
 10
2124.124631793464
 20
649.2080388373945
 30
0.0
 41
1.0
 10
2108.529047780128
 20
648.8464100275849
 30
0.0
 41
1.0
  0
SPLINE
  5
2A7
330
1F
100
AcDbEntity
  8
LINEE VISIBILI 2D
100
AcDbSpline
210
0.0
220
0.0
230
1.0
 70
    12
 71
     2
 72
     6
 73
     3
 74
     0
 42
0.0000000001
 43
0.0000000001
 40
0.0
 40
0.0
 40
0.0
 40
1.45414874168929
 40
1.45414874168929
 40
1.45414874168929
 10
2108.529047780128
 20
648.8464100275849
 30
0.0
 41
1.0
 10
2107.802012118787
 20
648.8295833050411
 30
0.0
 41
0.9996782918527242
 10
2107.076762888715
 20
648.7759405191205
 30
0.0
 41
1.0
  0
SPLINE
  5
2A8
330
1F
100
AcDbEntity
  8
LINEE VISIBILI 2D
100
AcDbSpline
210
0.0
220
0.0
230
1.0
 70
    12
 71
     3
 72
     8
 73
     4
 74
     0
 42
0.0000000001
 43
0.0000000001
 40
-88.18658205899926
 40
-88.18658205899926
 40
-88.18658205899926
 40
-88.18658205899926
 40
-44.7931927262563
 40
-44.7931927262563
 40
-44.7931927262563
 40
-44.7931927262563
 10
2107.076762888715
 20
648.7759405191205
 30
0.0
 41
1.0
 10
2092.1740325926
 20
647.6736950799018
 30
0.0
 41
1.0
 10
2080.595258555965
 20
635.061599929405
 30
0.0
 41
1.0
 10
2080.945586474464
 20
619.9533777665949
 30
0.0
 41
1.0
  0
SPLINE
  5
2A9
330
1F
100
AcDbEntity
  8
LINEE VISIBILI 2D
100
AcDbSpline
210
0.0
220
0.0
230
1.0
 70
    12
 71
     2
 72
     6
 73
     3
 74
     0
 42
0.0000000001
 43
0.0000000001
 40
0.0
 40
0.0
 40
0.0
 40
17.58895396407486
 40
17.58895396407486
 40
17.58895396407486
 10
2080.945586474464
 20
619.9533777665949
 30
0.0
 41
1.0
 10
2081.143314098249
 20
610.8624129094255
 30
0.0
 41
0.9514569705420123
 10
2086.627997308199
 20
603.6096211486399
 30
0.0
 41
1.0
  0
SPLINE
  5
2AA
330
1F
100
AcDbEntity
  8
LINEE VISIBILI 2D
100
AcDbSpline
210
0.0
220
0.0
230
1.0
 70
    12
 71
     2
 72
     8
 73
     5
 74
     0
 42
0.0000000001
 43
0.0000000001
 40
0.0
 40
0.0
 40
0.0
 40
34.34460004416628
 40
34.34460004416628
 40
68.68920008833256
 40
68.68920008833256
 40
68.68920008833256
 10
2185.133517329408
 20
501.3130859191675
 30
0.0
 41
1.0
 10
2199.744814467923
 20
514.4626002453683
 30
0.0
 41
0.8207437381074751
 10
2192.487149490734
 20
532.730770108927
 30
0.0
 41
1.0
 10
2185.229484513544
 20
550.9989399724856
 30
0.0
 41
0.8207437381074751
 10
2165.577875967337
 20
550.5363249796558
 30
0.0
 41
1.0
  0
SPLINE
  5
2AB
330
1F
100
AcDbEntity
  8
LINEE VISIBILI 2D
100
AcDbSpline
210
0.0
220
0.0
230
1.0
 70
    12
 71
     2
 72
     6
 73
     3
 74
     0
 42
0.0000000001
 43
0.0000000001
 40
0.0
 40
0.0
 40
0.0
 40
37.65717079010248
 40
37.65717079010248
 40
37.65717079010248
 10
2165.577875967337
 20
550.5363249796558
 30
0.0
 41
1.0
 10
2143.369330744229
 20
550.0108057961747
 30
0.0
 41
0.7862838736415059
 10
2138.627963429105
 20
528.3079237911942
 30
0.0
 41
1.0
  0
SPLINE
  5
2AC
330
1F
100
AcDbEntity
  8
LINEE VISIBILI 2D
100
AcDbSpline
210
0.0
220
0.0
230
1.0
 70
    12
 71
     2
 72
     6
 73
     3
 74
     0
 42
0.0000000001
 43
0.0000000001
 40
0.0
 40
0.0
 40
0.0
 40
38.95031354335676
 40
38.95031354335676
 40
38.95031354335676
 10
2138.632308204589
 20
516.2730136613944
 30
0.0
 41
1.0
 10
2143.612808898471
 20
493.53136293594
 30
0.0
 41
0.7719143963718698
 10
2166.887447149561
 20
494.0598316305478
 30
0.0
 41
1.0
  0
SPLINE
  5
2AD
330
1F
100
AcDbEntity
  8
LINEE VISIBILI 2D
100
AcDbSpline
210
0.0
220
0.0
230
1.0
 70
    12
 71
     2
 72
     6
 73
     3
 74
     0
 42
0.0000000001
 43
0.0000000001
 40
0.0
 40
0.0
 40
0.0
 40
7.928147146213684
 40
7.928147146213684
 40
7.928147146213684
 10
2166.887447149561
 20
494.0598316305478
 30
0.0
 41
1.0
 10
2170.87678381019
 20
494.1490440739703
 30
0.0
 41
0.9901576367797964
 10
2174.685109417701
 20
495.3404390206953
 30
0.0
 41
1.0
  0
SPLINE
  5
2AE
330
1F
100
AcDbEntity
  8
LINEE VISIBILI 2D
100
AcDbSpline
210
0.0
220
0.0
230
1.0
 70
    12
 71
     3
 72
     8
 73
     4
 74
     0
 42
0.0000000001
 43
0.0000000001
 40
76.64927559243101
 40
76.64927559243101
 40
76.64927559243101
 40
76.64927559243101
 40
88.18658205899926
 40
88.18658205899926
 40
88.18658205899926
 40
88.18658205899926
 10
2096.040836561329
 20
448.47652775059
 30
0.0
 41
1.0
 10
2099.371451468349
 20
450.2274574691496
 30
0.0
 41
1.0
 10
2103.098772544851
 20
451.3341635385589
 30
0.0
 41
1.0
 10
2107.06106823553
 20
451.6272026064157
 30
0.0
 41
1.0
  0
SPLINE
  5
2AF
330
1F
100
AcDbEntity
  8
LINEE VISIBILI 2D
100
AcDbSpline
210
0.0
220
0.0
230
1.0
 70
    12
 71
     2
 72
     6
 73
     3
 74
     0
 42
0.0000000001
 43
0.0000000001
 40
-1.454148741689775
 40
-1.454148741689775
 40
-1.454148741689775
 40
0.0
 40
0.0
 40
0.0
 10
2107.06106823553
 20
451.6272026064157
 30
0.0
 41
1.0
 10
2107.786317465603
 20
451.6808453923367
 30
0.0
 41
0.999678291852707
 10
2108.513353126943
 20
451.6976721148803
 30
0.0
 41
1.0
  0
SPLINE
  5
2B0
330
1F
100
AcDbEntity
  8
LINEE VISIBILI 2D
100
AcDbSpline
210
0.0
220
0.0
230
1.0
 70
    12
 71
     3
 72
     8
 73
     4
 74
     0
 42
0.0000000001
 43
0.0000000001
 40
89.58636881167858
 40
89.58636881167858
 40
89.58636881167858
 40
89.58636881167858
 40
134.379544101583
 40
134.379544101583
 40
134.379544101583
 40
134.379544101583
 10
2108.513353126943
 20
451.6976721148803
 30
0.0
 41
1.0
 10
2124.108937140279
 20
452.0593009246903
 30
0.0
 41
1.0
 10
2137.04475680217
 20
439.7097949168854
 30
0.0
 41
1.0
 10
2137.406385614835
 20
424.1142110261649
 30
0.0
 41
1.0
  0
SPLINE
  5
2B1
330
1F
100
AcDbEntity
  8
LINEE VISIBILI 2D
100
AcDbSpline
210
0.0
220
0.0
230
1.0
 70
    12
 71
     2
 72
     6
 73
     3
 74
     0
 42
0.0000000001
 43
0.0000000001
 40
-42.91016307040794
 40
-42.91016307040794
 40
-42.91016307040794
 40
0.0
 40
0.0
 40
0.0
 10
2137.406385614835
 20
424.1142110261649
 30
0.0
 41
1.0
 10
2138.017418119127
 20
397.3034013345461
 30
0.0
 41
0.7253532243353473
 10
2111.275209346044
 20
395.2916486301694
 30
0.0
 41
1.0
  0
SPLINE
  5
2B2
330
1F
100
AcDbEntity
  8
LINEE VISIBILI 2D
100
AcDbSpline
210
0.0
220
0.0
230
1.0
 70
    12
 71
     3
 72
     8
 73
     4
 74
     0
 42
0.0000000001
 43
0.0000000001
 40
177.7729388689291
 40
177.7729388689291
 40
177.7729388689291
 40
177.7729388689291
 40
179.172725796908
 40
179.172725796908
 40
179.172725796908
 40
179.172725796908
 10
2111.275209346044
 20
395.2916486301694
 30
0.0
 41
1.0
 10
2110.794478445369
 20
395.2560600504079
 30
0.0
 41
1.0
 10
2110.310286378392
 20
395.2324796676742
 30
0.0
 41
1.0
 10
2109.822924309163
 20
395.2211787657716
 30
0.0
 41
1.0
  0
SPLINE
  5
2B3
330
1F
100
AcDbEntity
  8
LINEE VISIBILI 2D
100
AcDbSpline
210
0.0
220
0.0
230
1.0
 70
    12
 71
     2
 72
     6
 73
     3
 74
     0
 42
0.0000000001
 43
0.0000000001
 40
-44.36384075048064
 40
-44.36384075048064
 40
-44.36384075048064
 40
0.0
 40
0.0
 40
0.0
 10
2109.822924309163
 20
395.2211787657716
 30
0.0
 41
1.0
 10
2081.595181168731
 20
394.5773953913783
 30
0.0
 41
0.7073760952443228
 10
2080.929891821279
 20
422.8046398538901
 30
0.0
 41
1.0
  0
SPLINE
  5
2B4
330
1F
100
AcDbEntity
  8
LINEE VISIBILI 2D
100
AcDbSpline
210
0.0
220
0.0
230
1.0
 70
    12
 71
     3
 72
     8
 73
     4
 74
     0
 42
0.0000000001
 43
0.0000000001
 40
44.7931927262563
 40
44.7931927262563
 40
44.7931927262563
 40
44.7931927262563
 40
64.15788684652796
 40
64.15788684652796
 40
64.15788684652796
 40
64.15788684652796
 10
2080.929891821279
 20
422.8046398538901
 30
0.0
 41
1.0
 10
2080.773554805708
 20
429.546821218244
 30
0.0
 41
1.0
 10
2082.992864672281
 20
435.7919059544471
 30
0.0
 41
1.0
 10
2086.823071309968
 20
440.7388361615028
 30
0.0
 41
1.0
  0
SPLINE
  5
2B5
330
1F
100
AcDbEntity
  8
LINEE VISIBILI 2D
100
AcDbSpline
210
0.0
220
0.0
230
1.0
 70
    12
 71
     3
 72
     8
 73
     4
 74
     0
 42
0.0000000001
 43
0.0000000001
 40
76.64927559243104
 40
76.64927559243104
 40
76.64927559243104
 40
76.64927559243104
 40
88.18658205899926
 40
88.18658205899926
 40
88.18658205899926
 40
88.18658205899926
 10
2181.190571731309
 20
348.4796759452597
 30
0.0
 41
1.0
 10
2184.372228801333
 20
346.4707436848371
 30
0.0
 41
1.0
 10
2187.194324910215
 20
343.7961419792295
 30
0.0
 41
1.0
 10
2189.42925203262
 20
340.5112127877246
 30
0.0
 41
1.0
  0
SPLINE
  5
2B6
330
1F
100
AcDbEntity
  8
LINEE VISIBILI 2D
100
AcDbSpline
210
0.0
220
0.0
230
1.0
 70
    12
 71
     2
 72
     6
 73
     3
 74
     0
 42
0.0000000001
 43
0.0000000001
 40
-1.454148741689403
 40
-1.454148741689403
 40
-1.454148741689403
 40
0.0
 40
0.0
 40
0.0
 10
2189.42925203262
 20
340.5112127877246
 30
0.0
 41
1.0
 10
2189.838332662993
 20
339.9099499233675
 30
0.0
 41
0.9996782918527181
 10
2190.216422862848
 20
339.2887319324617
 30
0.0
 41
1.0
  0
SPLINE
  5
2B7
330
1F
100
AcDbEntity
  8
LINEE VISIBILI 2D
100
AcDbSpline
210
0.0
220
0.0
230
1.0
 70
    12
 71
     3
 72
     8
 73
     4
 74
     0
 42
0.0000000001
 43
0.0000000001
 40
89.58636881167858
 40
89.58636881167858
 40
89.58636881167858
 40
89.58636881167858
 40
134.379544101583
 40
134.379544101583
 40
134.379544101583
 40
134.379544101583
 10
2190.216422862848
 20
339.2887319324617
 30
0.0
 41
1.0
 10
2198.327394605552
 20
325.9633743949624
 30
0.0
 41
1.0
 10
2194.10031850955
 20
308.5858729450881
 30
0.0
 41
1.0
 10
2180.774961079667
 20
300.47490126122
 30
0.0
 41
1.0
  0
SPLINE
  5
2B8
330
1F
100
AcDbEntity
  8
LINEE VISIBILI 2D
100
AcDbSpline
210
0.0
220
0.0
230
1.0
 70
    12
 71
     2
 72
     6
 73
     3
 74
     0
 42
0.0000000001
 43
0.0000000001
 40
-42.91016307040872
 40
-42.91016307040872
 40
-42.91016307040872
 40
0.0
 40
0.0
 40
0.0
 10
2180.774961079667
 20
300.47490126122
 30
0.0
 41
1.0
 10
2157.861635042841
 20
286.5403267441551
 30
0.0
 41
0.7253532243353454
 10
2142.748301708178
 20
308.6938825427646
 30
0.0
 41
1.0
  0
SPLINE
  5
2B9
330
1F
100
AcDbEntity
  8
LINEE VISIBILI 2D
100
AcDbSpline
210
0.0
220
0.0
230
1.0
 70
    12
 71
     3
 72
     8
 73
     4
 74
     0
 42
0.0000000001
 43
0.0000000001
 40
177.7729388689291
 40
177.7729388689291
 40
177.7729388689291
 40
177.7729388689291
 40
179.172725796908
 40
179.172725796908
 40
179.172725796908
 40
179.172725796908
 10
2142.748301708178
 20
308.6938825427646
 30
0.0
 41
1.0
 10
2142.477115643682
 20
309.0924134252519
 30
0.0
 41
1.0
 10
2142.214598399715
 20
309.4999458641987
 30
0.0
 41
1.0
 10
2141.961130496968
 20
309.9163633460406
 30
0.0
 41
1.0
  0
SPLINE
  5
2BA
330
1F
100
AcDbEntity
  8
LINEE VISIBILI 2D
100
AcDbSpline
210
0.0
220
0.0
230
1.0
 70
    12
 71
     2
 72
     6
 73
     3
 74
     0
 42
0.0000000001
 43
0.0000000001
 40
-44.36384075048032
 40
-44.36384075048032
 40
-44.36384075048032
 40
0.0
 40
0.0
 40
0.0
 10
2141.961130496968
 20
309.9163633460406
 30
0.0
 41
1.0
 10
2127.289726169994
 20
334.0404143099594
 30
0.0
 41
0.7073760952443371
 10
2151.402592279635
 20
348.7301940169765
 30
0.0
 41
1.0
  0
SPLINE
  5
2BB
330
1F
100
AcDbEntity
  8
LINEE VISIBILI 2D
100
AcDbSpline
210
0.0
220
0.0
230
1.0
 70
    12
 71
     3
 72
     8
 73
     4
 74
     0
 42
0.0000000001
 43
0.0000000001
 40
44.7931927262563
 40
44.7931927262563
 40
44.7931927262563
 40
44.7931927262563
 40
64.1578868465279
 40
64.1578868465279
 40
64.1578868465279
 40
64.1578868465279
 10
2151.402592279635
 20
348.7301940169765
 30
0.0
 41
1.0
 10
2157.163324110303
 20
352.2366765261895
 30
0.0
 41
1.0
 10
2163.681381073927
 20
353.4372401709694
 30
0.0
 41
1.0
 10
2169.88065162283
 20
352.5936490245163
 30
0.0
 41
1.0
  0
SPLINE
  5
2BC
330
1F
100
AcDbEntity
  8
LINEE VISIBILI 2D
100
AcDbSpline
210
0.0
220
0.0
230
1.0
 70
    12
 71
     2
 72
     6
 73
     3
 74
     0
 42
0.0000000001
 43
0.0000000001
 40
0.0
 40
0.0
 40
0.0
 40
9.22745555526826
 40
9.22745555526826
 40
9.22745555526826
 10
2307.787813306833
 20
330.7717817491781
 30
0.0
 41
1.0
 10
2306.769999894058
 20
335.3145374825255
 30
0.0
 41
0.9866328334768407
 10
2304.345468539773
 20
339.2887319302309
 30
0.0
 41
1.0
  0
SPLINE
  5
2BD
330
1F
100
AcDbEntity
  8
LINEE VISIBILI 2D
100
AcDbSpline
210
0.0
220
0.0
230
1.0
 70
    12
 71
     2
 72
     6
 73
     3
 74
     0
 42
0.0000000001
 43
0.0000000001
 40
0.0
 40
0.0
 40
0.0
 40
37.65717079010009
 40
37.65717079010009
 40
37.65717079010009
 10
2304.345468539773
 20
339.2887319302309
 30
0.0
 41
1.0
 10
2292.786082965149
 20
358.2591366827958
 30
0.0
 41
0.7862838736415328
 10
2271.620152155939
 20
351.5138402238788
 30
0.0
 41
1.0
  0
SPLINE
  5
2BE
330
1F
100
AcDbEntity
  8
LINEE VISIBILI 2D
100
AcDbSpline
210
0.0
220
0.0
230
1.0
 70
    12
 71
     2
 72
     6
 73
     3
 74
     0
 42
0.0000000001
 43
0.0000000001
 40
0.0
 40
0.0
 40
0.0
 40
38.9503135433572
 40
38.9503135433572
 40
38.9503135433572
 10
2261.199786639009
 20
345.4926224730348
 30
0.0
 41
1.0
 10
2243.995189733714
 20
329.8085569858397
 30
0.0
 41
0.7719143963718725
 10
2256.090176173895
 20
309.916363343806
 30
0.0
 41
1.0
  0
SPLINE
  5
2BF
330
1F
100
AcDbEntity
  8
LINEE VISIBILI 2D
100
AcDbSpline
210
0.0
220
0.0
230
1.0
 70
    12
 71
     2
 72
     8
 73
     5
 74
     0
 42
0.0000000001
 43
0.0000000001
 40
0.0
 40
0.0
 40
0.0
 40
33.69467388644964
 40
33.69467388644964
 40
67.38934777289928
 40
67.38934777289928
 40
67.38934777289928
 10
2256.090176173895
 20
309.916363343806
 30
0.0
 41
1.0
 10
2266.056132462057
 20
293.5304953857311
 30
0.0
 41
0.8272569899342378
 10
2284.962067227121
 20
296.7526971385975
 30
0.0
 41
1.0
 10
2303.868001992185
 20
299.974898891464
 30
0.0
 41
0.8272569899342378
 10
2307.843594128828
 20
318.7368716193011
 30
0.0
 41
1.0
  0
SPLINE
  5
2C0
330
1F
100
AcDbEntity
  8
LINEE VISIBILI 2D
100
AcDbSpline
210
0.0
220
0.0
230
1.0
 70
    12
 71
     2
 72
     6
 73
     3
 74
     0
 42
0.0000000001
 43
0.0000000001
 40
0.0
 40
0.0
 40
0.0
 40
14.65494520736771
 40
14.65494520736771
 40
14.65494520736771
 10
2437.730376084555
 20
398.2230261023581
 30
0.0
 41
1.0
 10
2444.321946070528
 20
394.6489604398684
 30
0.0
 41
0.9661970220857796
 10
2451.817850549143
 20
394.8337746364161
 30
0.0
 41
1.0
  0
SPLINE
  5
2C1
330
1F
100
AcDbEntity
  8
LINEE VISIBILI 2D
100
AcDbSpline
210
0.0
220
0.0
230
1.0
 70
    12
 71
     3
 72
     8
 73
     4
 74
     0
 42
0.0000000001
 43
0.0000000001
 40
-179.172725796908
 40
-179.172725796908
 40
-179.172725796908
 40
-179.172725796908
 40
-177.7729388689291
 40
-177.7729388689291
 40
-177.7729388689291
 40
-177.7729388689291
 10
2451.817850549143
 20
394.8337746364161
 30
0.0
 41
1.0
 10
2452.305212618372
 20
394.8450755383186
 30
0.0
 41
1.0
 10
2452.78940468535
 20
394.8686559210522
 30
0.0
 41
1.0
 10
2453.270135586024
 20
394.904244500814
 30
0.0
 41
1.0
  0
SPLINE
  5
2C2
330
1F
100
AcDbEntity
  8
LINEE VISIBILI 2D
100
AcDbSpline
210
0.0
220
0.0
230
1.0
 70
    12
 71
     2
 72
     6
 73
     3
 74
     0
 42
0.0000000001
 43
0.0000000001
 40
0.0
 40
0.0
 40
0.0
 40
42.91016307037583
 40
42.91016307037583
 40
42.91016307037583
 10
2453.270135586024
 20
394.904244500814
 30
0.0
 41
1.0
 10
2480.01234435903
 20
396.915997205262
 30
0.0
 41
0.7253532243373211
 10
2479.401311854816
 20
423.72680689681
 30
0.0
 41
1.0
  0
SPLINE
  5
2C3
330
1F
100
AcDbEntity
  8
LINEE VISIBILI 2D
100
AcDbSpline
210
0.0
220
0.0
230
1.0
 70
    12
 71
     3
 72
     8
 73
     4
 74
     0
 42
0.0000000001
 43
0.0000000001
 40
-134.379544101583
 40
-134.379544101583
 40
-134.379544101583
 40
-134.379544101583
 40
-89.5863688116684
 40
-89.5863688116684
 40
-89.5863688116684
 40
-89.5863688116684
 10
2479.401311854816
 20
423.72680689681
 30
0.0
 41
1.0
 10
2479.039683042151
 20
439.3223907875337
 30
0.0
 41
1.0
 10
2466.103863380255
 20
451.6718967953405
 30
0.0
 41
1.0
 10
2450.508279366918
 20
451.3102679855251
 30
0.0
 41
1.0
  0
SPLINE
  5
2C4
330
1F
100
AcDbEntity
  8
LINEE VISIBILI 2D
100
AcDbSpline
210
0.0
220
0.0
230
1.0
 70
    12
 71
     2
 72
     6
 73
     3
 74
     0
 42
0.0000000001
 43
0.0000000001
 40
0.0
 40
0.0
 40
0.0
 40
1.454148741689294
 40
1.454148741689294
 40
1.454148741689294
 10
2450.508279366918
 20
451.3102679855251
 30
0.0
 41
1.0
 10
2449.781243705583
 20
451.2934412629818
 30
0.0
 41
0.9996782918527165
 10
2449.055994475511
 20
451.2397984770607
 30
0.0
 41
1.0
  0
SPLINE
  5
2C5
330
1F
100
AcDbEntity
  8
LINEE VISIBILI 2D
100
AcDbSpline
210
0.0
220
0.0
230
1.0
 70
    12
 71
     3
 72
     8
 73
     4
 74
     0
 42
0.0000000001
 43
0.0000000001
 40
-88.18658205899926
 40
-88.18658205899926
 40
-88.18658205899926
 40
-88.18658205899926
 40
-44.79319272626649
 40
-44.79319272626649
 40
-44.79319272626649
 40
-44.79319272626649
 10
2449.055994475511
 20
451.2397984770607
 30
0.0
 41
1.0
 10
2434.1532641794
 20
450.1375530378425
 30
0.0
 41
1.0
 10
2422.574490142767
 20
437.5254578873513
 30
0.0
 41
1.0
 10
2422.92481806126
 20
422.4172357245405
 30
0.0
 41
1.0
  0
SPLINE
  5
2C6
330
1F
100
AcDbEntity
  8
LINEE VISIBILI 2D
100
AcDbSpline
210
0.0
220
0.0
230
1.0
 70
    12
 71
     2
 72
     6
 73
     3
 74
     0
 42
0.0000000001
 43
0.0000000001
 40
0.0
 40
0.0
 40
0.0
 40
17.5889539640748
 40
17.5889539640748
 40
17.5889539640748
 10
2422.92481806126
 20
422.4172357245405
 30
0.0
 41
1.0
 10
2423.122545685044
 20
413.3262708673659
 30
0.0
 41
0.9514569705420142
 10
2428.607228894995
 20
406.0734791065801
 30
0.0
 41
1.0
  0
SPLINE
  5
2C7
330
1F
100
AcDbEntity
  8
LINEE VISIBILI 2D
100
AcDbSpline
210
0.0
220
0.0
230
1.0
 70
    12
 71
     2
 72
     6
 73
     3
 74
     0
 42
0.0000000001
 43
0.0000000001
 40
0.0
 40
0.0
 40
0.0
 40
0.0204092773294536
 40
0.0204092773294536
 40
0.0204092773294536
 10
2607.239168087591
 20
140.8851029776311
 30
0.0
 41
1.0
 10
2607.246097082785
 20
140.8925943859345
 30
0.0
 41
0.9999976881176708
 10
2607.253033577766
 20
140.9000788505215
 30
0.0
 41
0.9999956270314254
  0
SPLINE
  5
2C8
330
1F
100
AcDbEntity
  8
LINEE VISIBILI 2D
100
AcDbSpline
210
0.0
220
0.0
230
1.0
 70
    12
 71
     3
 72
     8
 73
     4
 74
     0
 42
0.0000000001
 43
0.0000000001
 40
76.6492755924311
 40
76.6492755924311
 40
76.6492755924311
 40
76.6492755924311
 40
88.18658205899926
 40
88.18658205899926
 40
88.18658205899926
 40
88.18658205899926
 10
2780.450347296576
 20
53.26307998302541
 30
0.0
 41
1.0
 10
2783.780962203596
 20
55.01400970158495
 30
0.0
 41
1.0
 10
2787.508283280098
 20
56.12071577099423
 30
0.0
 41
1.0
 10
2791.470578970777
 20
56.41375483885102
 30
0.0
 41
1.0
  0
SPLINE
  5
2C9
330
1F
100
AcDbEntity
  8
LINEE VISIBILI 2D
100
AcDbSpline
210
0.0
220
0.0
230
1.0
 70
    12
 71
     2
 72
     6
 73
     3
 74
     0
 42
0.0000000001
 43
0.0000000001
 40
-1.454148741689775
 40
-1.454148741689775
 40
-1.454148741689775
 40
0.0
 40
0.0
 40
0.0
 10
2791.470578970777
 20
56.41375483885102
 30
0.0
 41
1.0
 10
2792.19582820085
 20
56.46739762477198
 30
0.0
 41
0.9996782918527092
 10
2792.922863862184
 20
56.48422434731557
 30
0.0
 41
1.0
  0
SPLINE
  5
2CA
330
1F
100
AcDbEntity
  8
LINEE VISIBILI 2D
100
AcDbSpline
210
0.0
220
0.0
230
1.0
 70
    12
 71
     3
 72
     8
 73
     4
 74
     0
 42
0.0000000001
 43
0.0000000001
 40
89.5863688116684
 40
89.5863688116684
 40
89.5863688116684
 40
89.5863688116684
 40
134.379544101583
 40
134.379544101583
 40
134.379544101583
 40
134.379544101583
 10
2792.922863862184
 20
56.48422434731557
 30
0.0
 41
1.0
 10
2808.51844787552
 20
56.8458531571311
 30
0.0
 41
1.0
 10
2821.454267537418
 20
44.4963471493242
 30
0.0
 41
1.0
 10
2821.815896350082
 20
28.90076325860013
 30
0.0
 41
1.0
  0
SPLINE
  5
2CB
330
1F
100
AcDbEntity
  8
LINEE VISIBILI 2D
100
AcDbSpline
210
0.0
220
0.0
230
1.0
 70
    12
 71
     2
 72
     6
 73
     3
 74
     0
 42
0.0000000001
 43
0.0000000001
 40
-42.91016307040832
 40
-42.91016307040832
 40
-42.91016307040832
 40
0.0
 40
0.0
 40
0.0
 10
2821.815896350082
 20
28.90076325860013
 30
0.0
 41
1.0
 10
2822.426928854375
 20
2.089953566980268
 30
0.0
 41
0.7253532243353189
 10
2795.684720081291
 20
0.0782008626048182
 30
0.0
 41
1.0
  0
SPLINE
  5
2CC
330
1F
100
AcDbEntity
  8
LINEE VISIBILI 2D
100
AcDbSpline
210
0.0
220
0.0
230
1.0
 70
    12
 71
     3
 72
     8
 73
     4
 74
     0
 42
0.0000000001
 43
0.0000000001
 40
177.7729388689291
 40
177.7729388689291
 40
177.7729388689291
 40
177.7729388689291
 40
179.172725796908
 40
179.172725796908
 40
179.172725796908
 40
179.172725796908
 10
2795.684720081291
 20
0.0782008626048182
 30
0.0
 41
1.0
 10
2795.203989180616
 20
0.0426122828432196
 30
0.0
 41
1.0
 10
2794.719797113639
 20
0.0190319001095788
 30
0.0
 41
1.0
 10
2794.23243504441
 20
0.007730998207121
 30
0.0
 41
1.0
  0
SPLINE
  5
2CD
330
1F
100
AcDbEntity
  8
LINEE VISIBILI 2D
100
AcDbSpline
210
0.0
220
0.0
230
1.0
 70
    12
 71
     2
 72
     6
 73
     3
 74
     0
 42
0.0000000001
 43
0.0000000001
 40
-44.36384075048056
 40
-44.36384075048056
 40
-44.36384075048056
 40
0.0
 40
0.0
 40
0.0
 10
2794.23243504441
 20
0.007730998207121
 30
0.0
 41
1.0
 10
2766.004691903977
 20
-0.6360523761866084
 30
0.0
 41
0.7073760952443149
 10
2765.339402556526
 20
27.59119208632541
 30
0.0
 41
1.0
  0
SPLINE
  5
2CE
330
1F
100
AcDbEntity
  8
LINEE VISIBILI 2D
100
AcDbSpline
210
0.0
220
0.0
230
1.0
 70
    12
 71
     3
 72
     8
 73
     4
 74
     0
 42
0.0000000001
 43
0.0000000001
 40
44.7931927262563
 40
44.7931927262563
 40
44.7931927262563
 40
44.7931927262563
 40
64.15788684652814
 40
64.15788684652814
 40
64.15788684652814
 40
64.15788684652814
 10
2765.339402556526
 20
27.59119208632541
 30
0.0
 41
1.0
 10
2765.183065540955
 20
34.33337345067937
 30
0.0
 41
1.0
 10
2767.402375407528
 20
40.57845818688256
 30
0.0
 41
1.0
 10
2771.232582045215
 20
45.52538839393825
 30
0.0
 41
1.0
  0
SPLINE
  5
2CF
330
1F
100
AcDbEntity
  8
LINEE VISIBILI 2D
100
AcDbSpline
210
0.0
220
0.0
230
1.0
 70
    12
 71
     2
 72
     6
 73
     3
 74
     0
 42
0.0000000001
 43
0.0000000001
 40
0.0
 40
0.0
 40
0.0
 40
38.95031354335733
 40
38.95031354335733
 40
38.95031354335733
 10
2823.041818939836
 20
121.0595658938297
 30
0.0
 41
1.0
 10
2828.022319633717
 20
98.31791516837522
 30
0.0
 41
0.7719143963718789
 10
2851.296957884809
 20
98.84638386298292
 30
0.0
 41
1.0
  0
SPLINE
  5
2D0
330
1F
100
AcDbEntity
  8
LINEE VISIBILI 2D
100
AcDbSpline
210
0.0
220
0.0
230
1.0
 70
    12
 71
     2
 72
     8
 73
     5
 74
     0
 42
0.0000000001
 43
0.0000000001
 40
0.0
 40
0.0
 40
0.0
 40
44.36845755778393
 40
44.36845755778393
 40
88.73691511556785
 40
88.73691511556785
 40
88.73691511556785
 10
2851.296957884809
 20
98.84638386298292
 30
0.0
 41
1.0
 10
2879.535204793192
 20
99.50116923086479
 30
0.0
 41
0.7071067783252654
 10
2878.88041919678
 20
127.739416133949
 30
0.0
 41
1.0
 10
2878.225633600369
 20
155.9776630370332
 30
0.0
 41
0.7071067783252654
 10
2849.987386702584
 20
155.3228772120913
 30
0.0
 41
1.0
  0
SPLINE
  5
2D1
330
1F
100
AcDbEntity
  8
LINEE VISIBILI 2D
100
AcDbSpline
210
0.0
220
0.0
230
1.0
 70
    12
 71
     2
 72
     6
 73
     3
 74
     0
 42
0.0000000001
 43
0.0000000001
 40
0.0
 40
0.0
 40
0.0
 40
37.65717079009929
 40
37.65717079009929
 40
37.65717079009929
 10
2849.987386702584
 20
155.3228772120913
 30
0.0
 41
1.0
 10
2827.778841479478
 20
154.7973580286101
 30
0.0
 41
0.7862838736415331
 10
2823.037474164352
 20
133.0944760236323
 30
0.0
 41
1.0
  0
SPLINE
  5
2D2
330
1F
100
AcDbEntity
  8
LINEE VISIBILI 2D
100
AcDbSpline
210
0.0
220
0.0
230
1.0
 70
    28
 71
     2
 72
     6
 73
     3
 74
     0
 42
0.0000000001
 43
0.0000000001
 40
112.2826750003236
 40
112.2826750003236
 40
112.2826750003236
 40
195.8437146579279
 40
195.8437146579279
 40
195.8437146579279
 10
1890.749895559985
 20
615.903595978946
 30
0.0
 41
1.0
 10
1912.04205218295
 20
579.0244989052557
 30
0.0
 41
1.0
 10
1933.334208805914
 20
542.1454018315652
 30
0.0
 41
1.0
  0
SPLINE
  5
2D3
330
1F
100
AcDbEntity
  8
LINEE VISIBILI 2D
100
AcDbSpline
210
0.0
220
0.0
230
1.0
 70
    12
 71
     2
 72
     6
 73
     3
 74
     0
 42
0.0000000001
 43
0.0000000001
 40
44.07058446775575
 40
44.07058446775575
 40
44.07058446775575
 40
64.01556548081027
 40
64.01556548081027
 40
64.01556548081027
 10
1933.334208805914
 20
542.1454018315652
 30
0.0
 41
0.8624343678542205
 10
1944.043146027653
 20
544.58311350036
 30
0.0
 41
0.8174897106911316
 10
1951.96689982495
 20
536.9779902035837
 30
0.0
 41
1.0
  0
SPLINE
  5
2D4
330
1F
100
AcDbEntity
  8
LINEE VISIBILI 2D
100
AcDbSpline
210
0.0
220
0.0
230
1.0
 70
    12
 71
     2
 72
     6
 73
     3
 74
     0
 42
0.0000000001
 43
0.0000000001
 40
0.0
 40
0.0
 40
0.0
 40
10.55987132433428
 40
10.55987132433428
 40
10.55987132433428
 10
1951.96689982495
 20
536.9779902035837
 30
0.0
 41
1.0
 10
1955.763305753587
 20
533.3342455958507
 30
0.0
 41
0.9033699170128425
 10
1957.320759399099
 20
528.3079237912448
 30
0.0
 41
0.8704994046701099
  0
SPLINE
  5
2D5
330
1F
100
AcDbEntity
  8
LINEE VISIBILI 2D
100
AcDbSpline
210
0.0
220
0.0
230
1.0
 70
    12
 71
     2
 72
    10
 73
     7
 74
     0
 42
0.0000000001
 43
0.0000000001
 40
599.7757734798777
 40
599.7757734798777
 40
599.7757734798777
 40
656.5793711766819
 40
656.5793711766819
 40
674.0174312779867
 40
674.0174312779867
 40
770.9498864326242
 40
770.9498864326242
 40
770.9498864326242
 10
1957.320759399099
 20
528.3079237912448
 30
0.0
 41
1.0
 10
1985.722558247617
 20
528.3079237912212
 30
0.0
 41
1.0
 10
2014.124357096135
 20
528.3079237911979
 30
0.0
 41
1.0
 10
2023.442370828274
 20
528.3079237912697
 30
0.0
 41
0.906307787044641
 10
2029.431874602396
 20
535.4459364315019
 30
0.0
 41
1.0
 10
2060.58536517734
 20
572.5732207460624
 30
0.0
 41
1.0
 10
2091.738855752285
 20
609.7005050606228
 30
0.0
 41
1.0
  0
POLYLINE
  5
2D6
330
1F
100
AcDbEntity
  8
LINEE VISIBILI 2D
100
AcDb2dPolyline
 66
     1
 10
0.0
 20
0.0
 30
0.0
  0
VERTEX
  5
2D8
330
2D6
100
AcDbEntity
  8
LINEE VISIBILI 2D
100
AcDbVertex
100
AcDb2dVertex
 10
2091.738855752285
 20
609.7005050606228
 30
0.0
  0
VERTEX
  5
2D9
330
2D6
100
AcDbEntity
  8
LINEE VISIBILI 2D
100
AcDbVertex
100
AcDb2dVertex
 10
2091.878754061811
 20
609.8672293735985
 30
0.0
  0
SEQEND
  5
2D7
330
2D6
100
AcDbEntity
  8
LINEE VISIBILI 2D
  0
SPLINE
  5
2DA
330
1F
100
AcDbEntity
  8
LINEE VISIBILI 2D
100
AcDbSpline
210
0.0
220
0.0
230
1.0
 70
    12
 71
     2
 72
     8
 73
     5
 74
     0
 42
0.0000000001
 43
0.0000000001
 40
26.13640294981625
 40
26.13640294981625
 40
26.13640294981625
 40
32.00778274040541
 40
32.00778274040541
 40
64.01556548081052
 40
64.01556548081052
 40
64.01556548081052
 10
2091.878754061811
 20
609.8672293735985
 30
0.0
 41
0.912256668043882
 10
2090.407500705532
 20
612.2414468919071
 30
0.0
 41
0.9462728380878739
 10
2089.629394998708
 20
614.9239917231478
 30
0.0
 41
1.0
 10
2083.952832948283
 20
634.4941247449619
 30
0.0
 41
0.7071067811865356
 10
2103.522965970097
 20
640.170686795386
 30
0.0
 41
1.0
  0
SPLINE
  5
2DB
330
1F
100
AcDbEntity
  8
LINEE VISIBILI 2D
100
AcDbSpline
210
0.0
220
0.0
230
1.0
 70
    12
 71
     2
 72
     8
 73
     5
 74
     0
 42
0.0000000001
 43
0.0000000001
 40
0.0
 40
0.0
 40
0.0
 40
32.00778274040523
 40
32.00778274040523
 40
64.01556548081035
 40
64.01556548081035
 40
64.01556548081035
 10
2103.522965970097
 20
640.170686795386
 30
0.0
 41
1.0
 10
2123.093098991911
 20
645.8472488458107
 30
0.0
 41
0.707106781186532
 10
2128.769661042335
 20
626.2771158239959
 30
0.0
 41
1.0
 10
2134.44622309276
 20
606.706982802182
 30
0.0
 41
0.7071067811865356
 10
2114.876090070946
 20
601.0304207517579
 30
0.0
 41
1.0
  0
SPLINE
  5
2DC
330
1F
100
AcDbEntity
  8
LINEE VISIBILI 2D
100
AcDbSpline
210
0.0
220
0.0
230
1.0
 70
    12
 71
     2
 72
     6
 73
     3
 74
     0
 42
0.0000000001
 43
0.0000000001
 40
0.0
 40
0.0
 40
0.0
 40
14.3277377852752
 40
14.3277377852752
 40
14.3277377852752
 10
2114.876090070946
 20
601.0304207517579
 30
0.0
 41
1.0
 10
2107.746979654026
 20
598.9625330373074
 30
0.0
 41
0.8688913483236409
 10
2100.958220522211
 20
601.9647196381728
 30
0.0
 41
0.8551597982000564
  0
SPLINE
  5
2DD
330
1F
100
AcDbEntity
  8
LINEE VISIBILI 2D
100
AcDbSpline
210
0.0
220
0.0
230
1.0
 70
    12
 71
     2
 72
    14
 73
    11
 74
     0
 42
0.0000000001
 43
0.0000000001
 40
-0.0001482935117505
 40
-0.0001482935117505
 40
-0.0001482935117505
 40
0.0
 40
0.0
 40
89.7558919823765
 40
89.7558919823765
 40
93.13948188018094
 40
93.13948188018094
 40
96.52307177798536
 40
96.52307177798536
 40
195.843714657928
 40
195.843714657928
 40
195.843714657928
 10
2100.958220522211
 20
601.9647196381727
 30
0.0
 41
0.9999446709546242
 10
2100.958176146869
 20
601.9646667956065
 30
0.0
 41
0.9999723313742345
 10
2100.958131780646
 20
601.9646139453879
 30
0.0
 41
1.0
 10
2072.111144149302
 20
567.5861128002268
 30
0.0
 41
1.0
 10
2043.264156517958
 20
533.2076116550659
 30
0.0
 41
1.0
 10
2042.04280177257
 20
531.7520577483509
 30
0.0
 41
0.843391445864004
 10
2042.845814792885
 20
530.0299907697938
 30
0.0
 41
1.0
 10
2043.6488278132
 20
528.3079237912369
 30
0.0
 41
0.843391445864004
 10
2045.548918492466
 20
528.3079237911988
 30
0.0
 41
1.0
 10
2096.164628702838
 20
528.3079237911978
 30
0.0
 41
1.0
 10
2146.78033891321
 20
528.3079237911968
 30
0.0
 41
1.0
  0
SPLINE
  5
2DE
330
1F
100
AcDbEntity
  8
LINEE VISIBILI 2D
100
AcDbSpline
210
0.0
220
0.0
230
1.0
 70
    12
 71
     2
 72
     6
 73
     3
 74
     0
 42
0.0000000001
 43
0.0000000001
 40
44.07058446775656
 40
44.07058446775656
 40
44.07058446775656
 40
64.01556548081045
 40
64.01556548081045
 40
64.01556548081045
 10
2146.78033891321
 20
528.3079237911968
 30
0.0
 41
0.8624343678542239
 10
2150.023687291802
 20
538.800991307153
 30
0.0
 41
0.8174897106911425
 10
2160.571794164371
 20
541.8606017405568
 30
0.0
 41
1.0
  0
SPLINE
  5
2DF
330
1F
100
AcDbEntity
  8
LINEE VISIBILI 2D
100
AcDbSpline
210
0.0
220
0.0
230
1.0
 70
    12
 71
     2
 72
     8
 73
     5
 74
     0
 42
0.0000000001
 43
0.0000000001
 40
0.0
 40
0.0
 40
0.0
 40
32.00778274040555
 40
32.00778274040555
 40
52.90757375143973
 40
52.90757375143973
 40
52.90757375143973
 10
2160.571794164371
 20
541.8606017405568
 30
0.0
 41
1.0
 10
2180.141927186185
 20
547.5371637909819
 30
0.0
 41
0.707106781186524
 10
2185.818489236609
 20
527.9670307691671
 30
0.0
 41
1.0
 10
2189.059206072928
 20
516.7945536590009
 30
0.0
 41
0.8087525427363412
 10
2181.085796726505
 20
508.3239436582536
 30
0.0
 41
0.8672588357164638
  0
SPLINE
  5
2E0
330
1F
100
AcDbEntity
  8
LINEE VISIBILI 2D
100
AcDbSpline
210
0.0
220
0.0
230
1.0
 70
    12
 71
     2
 72
    10
 73
     7
 74
     0
 42
0.0000000001
 43
0.0000000001
 40
600.0142666509315
 40
600.0142666509315
 40
600.0142666509315
 40
656.5793711766819
 40
656.5793711766819
 40
674.0174312779867
 40
674.0174312779867
 40
770.9498864326242
 40
770.9498864326242
 40
770.9498864326242
 10
2181.085796726505
 20
508.3239436582536
 30
0.0
 41
1.0
 10
2195.22707285798
 20
483.8305349146308
 30
0.0
 41
1.0
 10
2209.368348989455
 20
459.3371261710082
 30
0.0
 41
1.0
 10
2214.027355855587
 20
451.2674895661997
 30
0.0
 41
0.906307787044641
 10
2223.203808021623
 20
449.6494334618635
 30
0.0
 41
1.0
 10
2270.933724699032
 20
441.2333613646827
 30
0.0
 41
1.0
 10
2318.663641376441
 20
432.817289267502
 30
0.0
 41
1.0
  0
POLYLINE
  5
2E1
330
1F
100
AcDbEntity
  8
LINEE VISIBILI 2D
100
AcDb2dPolyline
 66
     1
 10
0.0
 20
0.0
 30
0.0
  0
VERTEX
  5
2E3
330
2E1
100
AcDbEntity
  8
LINEE VISIBILI 2D
100
AcDbVertex
100
AcDb2dVertex
 10
2318.663641376441
 20
432.817289267502
 30
0.0
  0
VERTEX
  5
2E4
330
2E1
100
AcDbEntity
  8
LINEE VISIBILI 2D
100
AcDbVertex
100
AcDb2dVertex
 10
2318.877978021671
 20
432.7794959339936
 30
0.0
  0
SEQEND
  5
2E2
330
2E1
100
AcDbEntity
  8
LINEE VISIBILI 2D
  0
SPLINE
  5
2E5
330
1F
100
AcDbEntity
  8
LINEE VISIBILI 2D
100
AcDbSpline
210
0.0
220
0.0
230
1.0
 70
    12
 71
     2
 72
     8
 73
     5
 74
     0
 42
0.0000000001
 43
0.0000000001
 40
26.13640294981567
 40
26.13640294981567
 40
26.13640294981567
 40
32.0077827404048
 40
32.0077827404048
 40
64.01556548080902
 40
64.01556548080902
 40
64.01556548080902
 10
2318.877978021671
 20
432.7794959339935
 30
0.0
 41
0.9122566680438825
 10
2320.198484028497
 20
435.2407474750889
 30
0.0
 41
0.946272838087874
 10
2322.132583145729
 20
437.2558791996485
 30
0.0
 41
1.0
 10
2336.242534472849
 20
451.9569926523811
 30
0.0
 41
0.7071067811865488
 10
2350.943647925581
 20
437.8470413252619
 30
0.0
 41
1.0
  0
SPLINE
  5
2E6
330
1F
100
AcDbEntity
  8
LINEE VISIBILI 2D
100
AcDbSpline
210
0.0
220
0.0
230
1.0
 70
    12
 71
     2
 72
     8
 73
     5
 74
     0
 42
0.0000000001
 43
0.0000000001
 40
0.0
 40
0.0
 40
0.0
 40
32.00778274040528
 40
32.00778274040528
 40
64.01556548081066
 40
64.01556548081066
 40
64.01556548081066
 10
2350.943647925581
 20
437.8470413252619
 30
0.0
 41
1.0
 10
2365.644761378314
 20
423.7370899981425
 30
0.0
 41
0.7071067811865406
 10
2351.534810051195
 20
409.0359765454094
 30
0.0
 41
1.0
 10
2337.424858724075
 20
394.3348630926761
 30
0.0
 41
0.7071067811865376
 10
2322.723745271342
 20
408.4448144197962
 30
0.0
 41
1.0
  0
SPLINE
  5
2E7
330
1F
100
AcDbEntity
  8
LINEE VISIBILI 2D
100
AcDbSpline
210
0.0
220
0.0
230
1.0
 70
    12
 71
     2
 72
     6
 73
     3
 74
     0
 42
0.0000000001
 43
0.0000000001
 40
0.0
 40
0.0
 40
0.0
 40
14.3277377852749
 40
14.3277377852749
 40
14.3277377852749
 10
2322.723745271342
 20
408.4448144197962
 30
0.0
 41
1.0
 10
2317.368346769994
 20
413.5848612900078
 30
0.0
 41
0.8688913483236433
 10
2316.573937067338
 20
420.9651924587655
 30
0.0
 41
0.8551597982000588
  0
SPLINE
  5
2E8
330
1F
100
AcDbEntity
  8
LINEE VISIBILI 2D
100
AcDbSpline
210
0.0
220
0.0
230
1.0
 70
    12
 71
     2
 72
    14
 73
    11
 74
     0
 42
0.0000000001
 43
0.0000000001
 40
-0.0001482935121362
 40
-0.0001482935121362
 40
-0.0001482935121362
 40
0.0000000000000915
 40
0.0000000000000915
 40
89.7558919823848
 40
89.7558919823848
 40
93.13948188018955
 40
93.13948188018955
 40
96.52307177799429
 40
96.52307177799429
 40
195.8437146579459
 40
195.8437146579459
 40
195.8437146579459
 10
2316.573937067338
 20
420.9651924587655
 30
0.0
 41
0.9999446709544463
 10
2316.573869116662
 20
420.9652044676555
 30
0.0
 41
0.9999723313741454
 10
2316.573801163918
 20
420.9652164648227
 30
0.0
 41
1.0
 10
2272.377652012504
 20
428.7581900036417
 30
0.0
 41
1.0
 10
2228.18150286109
 20
436.5511635424606
 30
0.0
 41
1.0
 10
2226.310278828604
 20
436.8811108256415
 30
0.0
 41
0.843391445864004
 10
2225.220431588313
 20
435.3246476612003
 30
0.0
 41
1.0
 10
2224.130584348021
 20
433.7681844967593
 30
0.0
 41
0.843391445864004
 10
2225.080629687622
 20
432.122657699002
 30
0.0
 41
1.0
 10
2250.388484792807
 20
388.2881668262283
 30
0.0
 41
1.0
 10
2275.696339897991
 20
344.4536759534546
 30
0.0
 41
1.0
  0
SPLINE
  5
2E9
330
1F
100
AcDbEntity
  8
LINEE VISIBILI 2D
100
AcDbSpline
210
0.0
220
0.0
230
1.0
 70
    12
 71
     2
 72
     6
 73
     3
 74
     0
 42
0.0000000001
 43
0.0000000001
 40
44.07058446775585
 40
44.07058446775585
 40
44.07058446775585
 40
64.01556548081032
 40
64.01556548081032
 40
64.01556548081032
 10
2275.696339897991
 20
344.4536759534546
 30
0.0
 41
0.8624343678542209
 10
2286.40527711973
 20
346.8913876222493
 30
0.0
 41
0.8174897106911304
 10
2294.329030917027
 20
339.286264325473
 30
0.0
 41
1.0
  0
SPLINE
  5
2EA
330
1F
100
AcDbEntity
  8
LINEE VISIBILI 2D
100
AcDbSpline
210
0.0
220
0.0
230
1.0
 70
    12
 71
     2
 72
     6
 73
     3
 74
     0
 42
0.0000000001
 43
0.0000000001
 40
0.0
 40
0.0
 40
0.0
 40
10.40209696387101
 40
10.40209696387101
 40
10.40209696387101
 10
2294.329030917027
 20
339.286264325473
 30
0.0
 41
1.0
 10
2298.062747852291
 20
335.7026878572555
 30
0.0
 41
0.9048136608877977
 10
2299.633998121862
 20
330.7717817491847
 30
0.0
 41
0.871495870254034
  0
SPLINE
  5
2EB
330
1F
100
AcDbEntity
  8
LINEE VISIBILI 2D
100
AcDbSpline
210
0.0
220
0.0
230
1.0
 70
    12
 71
     2
 72
    10
 73
     7
 74
     0
 42
0.0000000001
 43
0.0000000001
 40
600.1097806158434
 40
600.1097806158434
 40
600.1097806158434
 40
656.5793711766819
 40
656.5793711766819
 40
674.0174312779867
 40
674.0174312779867
 40
770.9498864326242
 40
770.9498864326242
 40
770.9498864326242
 10
2299.633998121862
 20
330.7717817491847
 30
0.0
 41
1.0
 10
2327.868793402396
 20
330.7717817491614
 30
0.0
 41
1.0
 10
2356.103588682931
 20
330.7717817491382
 30
0.0
 41
1.0
 10
2365.421602415069
 20
330.77178174921
 30
0.0
 41
0.906307787044641
 10
2371.411106189192
 20
337.9097943894422
 30
0.0
 41
1.0
 10
2402.564596764136
 20
375.0370787040027
 30
0.0
 41
1.0
 10
2433.718087339072
 20
412.1643630185706
 30
0.0
 41
1.0
  0
POLYLINE
  5
2EC
330
1F
100
AcDbEntity
  8
LINEE VISIBILI 2D
100
AcDb2dPolyline
 66
     1
 10
0.0
 20
0.0
 30
0.0
  0
VERTEX
  5
2EE
330
2EC
100
AcDbEntity
  8
LINEE VISIBILI 2D
100
AcDbVertex
100
AcDb2dVertex
 10
2433.718087339072
 20
412.1643630185706
 30
0.0
  0
VERTEX
  5
2EF
330
2EC
100
AcDbEntity
  8
LINEE VISIBILI 2D
100
AcDbVertex
100
AcDb2dVertex
 10
2433.857985648593
 20
412.3310873315588
 30
0.0
  0
SEQEND
  5
2ED
330
2EC
100
AcDbEntity
  8
LINEE VISIBILI 2D
  0
SPLINE
  5
2F0
330
1F
100
AcDbEntity
  8
LINEE VISIBILI 2D
100
AcDbSpline
210
0.0
220
0.0
230
1.0
 70
    12
 71
     2
 72
     8
 73
     5
 74
     0
 42
0.0000000001
 43
0.0000000001
 40
26.13640294984004
 40
26.13640294984004
 40
26.13640294984004
 40
32.00778274040542
 40
32.00778274040542
 40
64.01556548081008
 40
64.01556548081008
 40
64.01556548081008
 10
2433.857985648593
 20
412.3310873315588
 30
0.0
 41
0.9122566680441578
 10
2432.386732292323
 20
414.7053048498591
 30
0.0
 41
0.9462728380880917
 10
2431.608626585502
 20
417.3878496810881
 30
0.0
 41
1.0
 10
2425.932064535081
 20
436.9579827029013
 30
0.0
 41
0.7071067811866039
 10
2445.502197556893
 20
442.6345447533265
 30
0.0
 41
1.0
  0
SPLINE
  5
2F1
330
1F
100
AcDbEntity
  8
LINEE VISIBILI 2D
100
AcDbSpline
210
0.0
220
0.0
230
1.0
 70
    12
 71
     2
 72
     8
 73
     5
 74
     0
 42
0.0000000001
 43
0.0000000001
 40
0.0
 40
0.0
 40
0.0
 40
32.00778274040611
 40
32.00778274040611
 40
64.01556548081115
 40
64.01556548081115
 40
64.01556548081115
 10
2445.502197556893
 20
442.6345447533265
 30
0.0
 41
1.0
 10
2465.072330578708
 20
448.3111068037524
 30
0.0
 41
0.7071067811865057
 10
2470.748892629132
 20
428.7409737819365
 30
0.0
 41
1.0
 10
2476.425454679555
 20
409.1708407601224
 30
0.0
 41
0.7071067811865557
 10
2456.855321657741
 20
403.4942787096982
 30
0.0
 41
1.0
  0
SPLINE
  5
2F2
330
1F
100
AcDbEntity
  8
LINEE VISIBILI 2D
100
AcDbSpline
210
0.0
220
0.0
230
1.0
 70
    12
 71
     2
 72
     6
 73
     3
 74
     0
 42
0.0000000001
 43
0.0000000001
 40
0.0
 40
0.0
 40
0.0
 40
14.32773778527523
 40
14.32773778527523
 40
14.32773778527523
 10
2456.855321657741
 20
403.4942787096982
 30
0.0
 41
1.0
 10
2449.726211240821
 20
401.4263909952477
 30
0.0
 41
0.8688913483236412
 10
2442.937452109006
 20
404.4285775961131
 30
0.0
 41
0.8551597982000568
  0
SPLINE
  5
2F3
330
1F
100
AcDbEntity
  8
LINEE VISIBILI 2D
100
AcDbSpline
210
0.0
220
0.0
230
1.0
 70
    12
 71
     2
 72
    14
 73
    11
 74
     0
 42
0.0000000001
 43
0.0000000001
 40
-0.0001482935118513
 40
-0.0001482935118513
 40
-0.0001482935118513
 40
0.0
 40
0.0
 40
89.75589198238471
 40
89.75589198238471
 40
93.13948188018946
 40
93.13948188018946
 40
96.52307177799419
 40
96.52307177799419
 40
195.8437146579462
 40
195.8437146579462
 40
195.8437146579462
 10
2442.937452109007
 20
404.4285775961131
 30
0.0
 41
0.9999446709545866
 10
2442.937407733665
 20
404.4285247535469
 30
0.0
 41
0.9999723313742156
 10
2442.937363367441
 20
404.4284719033282
 30
0.0
 41
1.0
 10
2414.090375736097
 20
370.0499707581672
 30
0.0
 41
1.0
 10
2385.243388104754
 20
335.6714696130062
 30
0.0
 41
1.0
 10
2384.022033359366
 20
334.2159157062912
 30
0.0
 41
0.843391445864004
 10
2384.825046379681
 20
332.4938487277342
 30
0.0
 41
1.0
 10
2385.628059399996
 20
330.7717817491771
 30
0.0
 41
0.843391445864004
 10
2387.528150079262
 20
330.7717817491392
 30
0.0
 41
1.0
 10
2438.143860289634
 20
330.7717817491381
 30
0.0
 41
1.0
 10
2488.759570500006
 20
330.7717817491372
 30
0.0
 41
1.0
  0
SPLINE
  5
2F4
330
1F
100
AcDbEntity
  8
LINEE VISIBILI 2D
100
AcDbSpline
210
0.0
220
0.0
230
1.0
 70
    12
 71
     2
 72
     6
 73
     3
 74
     0
 42
0.0000000001
 43
0.0000000001
 40
44.07058446775522
 40
44.07058446775522
 40
44.07058446775522
 40
64.01556548080927
 40
64.01556548080927
 40
64.01556548080927
 10
2488.759570500006
 20
330.7717817491372
 30
0.0
 41
0.8624343678542165
 10
2492.002918878597
 20
341.2648492650934
 30
0.0
 41
0.8174897106911293
 10
2502.551025751166
 20
344.3244596984972
 30
0.0
 41
1.0
  0
SPLINE
  5
2F5
330
1F
100
AcDbEntity
  8
LINEE VISIBILI 2D
100
AcDbSpline
210
0.0
220
0.0
230
1.0
 70
    12
 71
     2
 72
     8
 73
     5
 74
     0
 42
0.0000000001
 43
0.0000000001
 40
0.0
 40
0.0
 40
0.0
 40
32.0077827404054
 40
32.0077827404054
 40
52.90757375143929
 40
52.90757375143929
 40
52.90757375143929
 10
2502.551025751166
 20
344.3244596984972
 30
0.0
 41
1.0
 10
2522.12115877298
 20
350.0010217489216
 30
0.0
 41
0.7071067811865409
 10
2527.797720823404
 20
330.4308887271072
 30
0.0
 41
1.0
 10
2531.038437659724
 20
319.2584116169413
 30
0.0
 41
0.8087525427363148
 10
2523.065028313301
 20
310.7878016161942
 30
0.0
 41
0.8672588357164396
  0
SPLINE
  5
2F6
330
1F
100
AcDbEntity
  8
LINEE VISIBILI 2D
100
AcDbSpline
210
0.0
220
0.0
230
1.0
 70
    12
 71
     2
 72
    10
 73
     7
 74
     0
 42
0.0000000001
 43
0.0000000001
 40
600.0142666509311
 40
600.0142666509311
 40
600.0142666509311
 40
656.5793711766819
 40
656.5793711766819
 40
674.0174312779867
 40
674.0174312779867
 40
770.9498864326242
 40
770.9498864326242
 40
770.9498864326242
 10
2523.065028313301
 20
310.7878016161942
 30
0.0
 41
1.0
 10
2537.206304444776
 20
286.2943928725713
 30
0.0
 41
1.0
 10
2551.347580576251
 20
261.8009841289484
 30
0.0
 41
1.0
 10
2556.006587442382
 20
253.73134752414
 30
0.0
 41
0.906307787044641
 10
2565.183039608419
 20
252.1132914198037
 30
0.0
 41
1.0
 10
2612.912956285828
 20
243.697219322623
 30
0.0
 41
1.0
 10
2660.642872963237
 20
235.2811472254422
 30
0.0
 41
1.0
  0
POLYLINE
  5
2F7
330
1F
100
AcDbEntity
  8
LINEE VISIBILI 2D
100
AcDb2dPolyline
 66
     1
 10
0.0
 20
0.0
 30
0.0
  0
VERTEX
  5
2F9
330
2F7
100
AcDbEntity
  8
LINEE VISIBILI 2D
100
AcDbVertex
100
AcDb2dVertex
 10
2660.642872963237
 20
235.2811472254422
 30
0.0
  0
VERTEX
  5
2FA
330
2F7
100
AcDbEntity
  8
LINEE VISIBILI 2D
100
AcDbVertex
100
AcDb2dVertex
 10
2660.857209608465
 20
235.2433538919339
 30
0.0
  0
SEQEND
  5
2F8
330
2F7
100
AcDbEntity
  8
LINEE VISIBILI 2D
  0
SPLINE
  5
2FB
330
1F
100
AcDbEntity
  8
LINEE VISIBILI 2D
100
AcDbSpline
210
0.0
220
0.0
230
1.0
 70
    12
 71
     2
 72
     8
 73
     5
 74
     0
 42
0.0000000001
 43
0.0000000001
 40
26.13640294981581
 40
26.13640294981581
 40
26.13640294981581
 40
32.0077827404052
 40
32.0077827404052
 40
64.0155654808102
 40
64.0155654808102
 40
64.0155654808102
 10
2660.857209608465
 20
235.2433538919339
 30
0.0
 41
0.9122566680438803
 10
2662.177715615291
 20
237.7046054330293
 30
0.0
 41
0.9462728380878723
 10
2664.111814732524
 20
239.7197371575891
 30
0.0
 41
1.0
 10
2678.221766059643
 20
254.420850610322
 30
0.0
 41
0.7071067811865468
 10
2692.922879512377
 20
240.3108992832023
 30
0.0
 41
1.0
  0
SPLINE
  5
2FC
330
1F
100
AcDbEntity
  8
LINEE VISIBILI 2D
100
AcDbSpline
210
0.0
220
0.0
230
1.0
 70
    12
 71
     2
 72
     8
 73
     5
 74
     0
 42
0.0000000001
 43
0.0000000001
 40
0.0
 40
0.0
 40
0.0
 40
32.00778274040543
 40
32.00778274040543
 40
64.01556548081035
 40
64.01556548081035
 40
64.01556548081035
 10
2692.922879512377
 20
240.3108992832023
 30
0.0
 41
1.0
 10
2707.623992965111
 20
226.2009479560826
 30
0.0
 41
0.7071067811865238
 10
2693.51404163799
 20
211.4998345033497
 30
0.0
 41
1.0
 10
2679.404090310871
 20
196.7987210506162
 30
0.0
 41
0.7071067811865344
 10
2664.702976858138
 20
210.9086723777362
 30
0.0
 41
1.0
  0
SPLINE
  5
2FD
330
1F
100
AcDbEntity
  8
LINEE VISIBILI 2D
100
AcDbSpline
210
0.0
220
0.0
230
1.0
 70
    12
 71
     2
 72
     6
 73
     3
 74
     0
 42
0.0000000001
 43
0.0000000001
 40
0.0
 40
0.0
 40
0.0
 40
14.32773778527526
 40
14.32773778527526
 40
14.32773778527526
 10
2664.702976858138
 20
210.9086723777362
 30
0.0
 41
1.0
 10
2659.34757835679
 20
216.048719247948
 30
0.0
 41
0.8688913483236417
 10
2658.553168654134
 20
223.4290504167058
 30
0.0
 41
0.8551597982000585
  0
SPLINE
  5
2FE
330
1F
100
AcDbEntity
  8
LINEE VISIBILI 2D
100
AcDbSpline
210
0.0
220
0.0
230
1.0
 70
    12
 71
     2
 72
    14
 73
    11
 74
     0
 42
0.0000000001
 43
0.0000000001
 40
-0.0001482935120945
 40
-0.0001482935120945
 40
-0.0001482935120945
 40
0.0000000000000915
 40
0.0000000000000915
 40
89.7558919823848
 40
89.7558919823848
 40
93.13948188018955
 40
93.13948188018955
 40
96.52307177799429
 40
96.52307177799429
 40
195.843714657946
 40
195.843714657946
 40
195.843714657946
 10
2658.553168654134
 20
223.4290504167058
 30
0.0
 41
0.9999446709544618
 10
2658.553100703457
 20
223.4290624255958
 30
0.0
 41
0.9999723313741532
 10
2658.553032750714
 20
223.429074422763
 30
0.0
 41
1.0
 10
2614.3568835993
 20
231.2220479615819
 30
0.0
 41
1.0
 10
2570.160734447886
 20
239.0150215004009
 30
0.0
 41
1.0
 10
2568.289510415399
 20
239.3449687835817
 30
0.0
 41
0.843391445864004
 10
2567.199663175108
 20
237.7885056191406
 30
0.0
 41
1.0
 10
2566.109815934817
 20
236.2320424546995
 30
0.0
 41
0.843391445864004
 10
2567.059861274417
 20
234.5865156569423
 30
0.0
 41
1.0
 10
2592.367716379602
 20
190.7520247841686
 30
0.0
 41
1.0
 10
2617.675571484788
 20
146.9175339113949
 30
0.0
 41
1.0
  0
SPLINE
  5
2FF
330
1F
100
AcDbEntity
  8
LINEE VISIBILI 2D
100
AcDbSpline
210
0.0
220
0.0
230
1.0
 70
    12
 71
     2
 72
     6
 73
     3
 74
     0
 42
0.0000000001
 43
0.0000000001
 40
44.07058446775651
 40
44.07058446775651
 40
44.07058446775651
 40
64.0155654808099
 40
64.0155654808099
 40
64.0155654808099
 10
2617.675571484787
 20
146.9175339113949
 30
0.0
 41
0.8624343678542212
 10
2628.384508706527
 20
149.3552455801892
 30
0.0
 41
0.8174897106911437
 10
2636.308262503822
 20
141.7501222834134
 30
0.0
 41
1.0
  0
SPLINE
  5
300
330
1F
100
AcDbEntity
  8
LINEE VISIBILI 2D
100
AcDbSpline
210
0.0
220
0.0
230
1.0
 70
    12
 71
     2
 72
     6
 73
     3
 74
     0
 42
0.0000000001
 43
0.0000000001
 40
0.0
 40
0.0
 40
0.0
 40
10.54527230647006
 40
10.54527230647006
 40
10.54527230647006
 10
2636.308262503822
 20
141.7501222834134
 30
0.0
 41
1.0
 10
2640.098859346358
 20
138.1119531664359
 30
0.0
 41
0.9035035080637597
 10
2641.657648000504
 20
133.0944760236801
 30
0.0
 41
0.8705904134743278
  0
SPLINE
  5
301
330
1F
100
AcDbEntity
  8
LINEE VISIBILI 2D
100
AcDbSpline
210
0.0
220
0.0
230
1.0
 70
    12
 71
     2
 72
    10
 73
     7
 74
     0
 42
0.0000000001
 43
0.0000000001
 40
599.703151346037
 40
599.703151346037
 40
599.703151346037
 40
656.58081269077
 40
656.58081269077
 40
674.0193147555067
 40
674.0193147555067
 40
770.9498864326243
 40
770.9498864326243
 40
770.9498864326243
 10
2641.657648000504
 20
133.0944760236801
 30
0.0
 41
1.0
 10
2670.095757915943
 20
133.0944760236567
 30
0.0
 41
1.0
 10
2698.533867831382
 20
133.0944760236333
 30
0.0
 41
1.0
 10
2707.85188156352
 20
133.0944760237051
 30
0.0
 41
0.906307787044641
 10
2713.841385337643
 20
140.2324886639373
 30
0.0
 41
1.0
 10
2744.993481032221
 20
177.3581106248101
 30
0.0
 41
1.0
 10
2776.145576726799
 20
214.4837325856829
 30
0.0
 41
1.0
  0
POLYLINE
  5
302
330
1F
100
AcDbEntity
  8
LINEE VISIBILI 2D
100
AcDb2dPolyline
 66
     1
 10
0.0
 20
0.0
 30
0.0
  0
VERTEX
  5
304
330
302
100
AcDbEntity
  8
LINEE VISIBILI 2D
100
AcDbVertex
100
AcDb2dVertex
 10
2776.145576726799
 20
214.4837325856829
 30
0.0
  0
VERTEX
  5
305
330
302
100
AcDbEntity
  8
LINEE VISIBILI 2D
100
AcDbVertex
100
AcDb2dVertex
 10
2776.288264797058
 20
214.6537816060342
 30
0.0
  0
SEQEND
  5
303
330
302
100
AcDbEntity
  8
LINEE VISIBILI 2D
  0
SPLINE
  5
306
330
1F
100
AcDbEntity
  8
LINEE VISIBILI 2D
100
AcDbSpline
210
0.0
220
0.0
230
1.0
 70
    12
 71
     2
 72
     8
 73
     5
 74
     0
 42
0.0000000001
 43
0.0000000001
 40
26.13640294981629
 40
26.13640294981629
 40
26.13640294981629
 40
32.00778274040523
 40
32.00778274040523
 40
64.01556548081024
 40
64.01556548081024
 40
64.01556548081024
 10
2776.288264797057
 20
214.6537816060342
 30
0.0
 41
0.9122566680438814
 10
2774.817011440779
 20
217.0279991243429
 30
0.0
 41
0.9462728380878739
 10
2774.038905733954
 20
219.7105439555833
 30
0.0
 41
1.0
 10
2768.36234368353
 20
239.2806769773975
 30
0.0
 41
0.7071067811865256
 10
2787.932476705344
 20
244.9572390278213
 30
0.0
 41
1.0
  0
SPLINE
  5
307
330
1F
100
AcDbEntity
  8
LINEE VISIBILI 2D
100
AcDbSpline
210
0.0
220
0.0
230
1.0
 70
    12
 71
     2
 72
     8
 73
     5
 74
     0
 42
0.0000000001
 43
0.0000000001
 40
0.0
 40
0.0
 40
0.0
 40
32.00778274040542
 40
32.00778274040542
 40
64.01556548081044
 40
64.01556548081044
 40
64.01556548081044
 10
2787.932476705344
 20
244.9572390278213
 30
0.0
 41
1.0
 10
2807.502609727158
 20
250.6338010782458
 30
0.0
 41
0.7071067811865421
 10
2813.179171777582
 20
231.0636680564315
 30
0.0
 41
1.0
 10
2818.855733828007
 20
211.493535034617
 30
0.0
 41
0.7071067811865146
 10
2799.285600806193
 20
205.8169729841935
 30
0.0
 41
1.0
  0
SPLINE
  5
308
330
1F
100
AcDbEntity
  8
LINEE VISIBILI 2D
100
AcDbSpline
210
0.0
220
0.0
230
1.0
 70
    12
 71
     2
 72
     6
 73
     3
 74
     0
 42
0.0000000001
 43
0.0000000001
 40
0.0
 40
0.0
 40
0.0
 40
14.32773778527532
 40
14.32773778527532
 40
14.32773778527532
 10
2799.285600806193
 20
205.8169729841935
 30
0.0
 41
1.0
 10
2792.156490389272
 20
203.7490852697427
 30
0.0
 41
0.8688913483236351
 10
2785.367731257458
 20
206.7512718706084
 30
0.0
 41
0.8551597982000516
  0
SPLINE
  5
309
330
1F
100
AcDbEntity
  8
LINEE VISIBILI 2D
100
AcDbSpline
210
0.0
220
0.0
230
1.0
 70
    12
 71
     2
 72
    14
 73
    11
 74
     0
 42
0.0000000001
 43
0.0000000001
 40
-0.0001482935124041
 40
-0.0001482935124041
 40
-0.0001482935124041
 40
0.0000000000000915
 40
0.0000000000000915
 40
89.7558919823848
 40
89.7558919823848
 40
93.13948188018955
 40
93.13948188018955
 40
96.52307177799429
 40
96.52307177799429
 40
195.843714657946
 40
195.843714657946
 40
195.843714657946
 10
2785.367731257458
 20
206.7512718706085
 30
0.0
 41
0.9999446709543464
 10
2785.367686882116
 20
206.7512190280421
 30
0.0
 41
0.9999723313740955
 10
2785.367642515893
 20
206.7511661778232
 30
0.0
 41
1.0
 10
2756.520654884549
 20
172.3726650326623
 30
0.0
 41
1.0
 10
2727.673667253205
 20
137.9941638875013
 30
0.0
 41
1.0
 10
2726.452312507817
 20
136.5386099807863
 30
0.0
 41
0.843391445864004
 10
2727.255325528132
 20
134.8165430022293
 30
0.0
 41
1.0
 10
2728.058338548447
 20
133.0944760236722
 30
0.0
 41
0.843391445864004
 10
2729.958429227713
 20
133.0944760236343
 30
0.0
 41
1.0
 10
2780.574139438085
 20
133.0944760236333
 30
0.0
 41
1.0
 10
2831.189849648456
 20
133.0944760236322
 30
0.0
 41
1.0
  0
SPLINE
  5
30A
330
1F
100
AcDbEntity
  8
LINEE VISIBILI 2D
100
AcDbSpline
210
0.0
220
0.0
230
1.0
 70
    12
 71
     2
 72
     6
 73
     3
 74
     0
 42
0.0000000001
 43
0.0000000001
 40
44.07058446775544
 40
44.07058446775544
 40
44.07058446775544
 40
64.01556548080961
 40
64.01556548080961
 40
64.01556548080961
 10
2831.189849648456
 20
133.0944760236322
 30
0.0
 41
0.8624343678542299
 10
2834.433198027048
 20
143.5875435395885
 30
0.0
 41
0.8174897106911467
 10
2844.981304899617
 20
146.6471539729924
 30
0.0
 41
1.0
  0
SPLINE
  5
30B
330
1F
100
AcDbEntity
  8
LINEE VISIBILI 2D
100
AcDbSpline
210
0.0
220
0.0
230
1.0
 70
    12
 71
     2
 72
     8
 73
     5
 74
     0
 42
0.0000000001
 43
0.0000000001
 40
0.0
 40
0.0
 40
0.0
 40
32.00778274040554
 40
32.00778274040554
 40
64.0155654808105
 40
64.0155654808105
 40
64.0155654808105
 10
2844.981304899617
 20
146.6471539729924
 30
0.0
 41
1.0
 10
2864.551437921432
 20
152.3237160234166
 30
0.0
 41
0.7071067811865467
 10
2870.227999971856
 20
132.7535830016023
 30
0.0
 41
1.0
 10
2875.904562022278
 20
113.1834499797884
 30
0.0
 41
0.7071067811865759
 10
2856.334429000465
 20
107.5068879293641
 30
0.0
 41
1.0
  0
SPLINE
  5
30C
330
1F
100
AcDbEntity
  8
LINEE VISIBILI 2D
100
AcDbSpline
210
0.0
220
0.0
230
1.0
 70
    12
 71
     2
 72
     6
 73
     3
 74
     0
 42
0.0000000001
 43
0.0000000001
 40
0.0
 40
0.0
 40
0.0
 40
31.61393222100205
 40
31.61393222100205
 40
31.61393222100205
 10
2856.334429000465
 20
107.5068879293641
 30
0.0
 41
1.0
 10
2837.103121959534
 20
101.928606595921
 30
0.0
 41
0.7107107842284164
 10
2831.189849643793
 20
121.0595658938102
 30
0.0
 41
0.9928806872495199
  0
SPLINE
  5
30D
330
1F
100
AcDbEntity
  8
LINEE VISIBILI 2D
100
AcDbSpline
210
0.0
220
0.0
230
1.0
 70
    24
 71
     2
 72
     6
 73
     3
 74
     0
 42
0.0000000001
 43
0.0000000001
 40
0.0401533106410454
 40
0.0401533106410454
 40
0.0401533106410454
 40
101.2314204207323
 40
101.2314204207323
 40
101.2314204207323
 10
2831.189849643794
 20
121.0595658938102
 30
0.0
 10
2780.574139435756
 20
121.0595658938326
 30
0.0
 10
2729.958429227719
 20
121.0595658938549
 30
0.0
  0
SPLINE
  5
30E
330
1F
100
AcDbEntity
  8
LINEE VISIBILI 2D
100
AcDbSpline
210
0.0
220
0.0
230
1.0
 70
    12
 71
     2
 72
    10
 73
     7
 74
     0
 42
0.0000000001
 43
0.0000000001
 40
307.356911791616
 40
307.356911791616
 40
307.356911791616
 40
310.740501689879
 40
310.740501689879
 40
314.1240915881442
 40
314.1240915881442
 40
403.8799835693816
 40
403.8799835693816
 40
403.8799835693816
 10
2729.958429227719
 20
121.0595658938549
 30
0.0
 41
1.0
 10
2728.058338548102
 20
121.0595658937292
 30
0.0
 41
0.843391445824422
 10
2727.255325527934
 20
119.3374989147592
 30
0.0
 41
1.0
 10
2726.452312507765
 20
117.6154319357873
 30
0.0
 41
0.843391445824235
 10
2727.673667253684
 20
116.1598780291093
 30
0.0
 41
1.0
 10
2756.520654884739
 20
81.78137688440364
 30
0.0
 41
1.0
 10
2785.367642515794
 20
47.40287573969811
 30
0.0
 41
1.0
  0
POLYLINE
  5
30F
330
1F
100
AcDbEntity
  8
LINEE VISIBILI 2D
100
AcDb2dPolyline
 66
     1
 10
0.0
 20
0.0
 30
0.0
  0
VERTEX
  5
311
330
30F
100
AcDbEntity
  8
LINEE VISIBILI 2D
100
AcDbVertex
100
AcDb2dVertex
 10
2785.367642515794
 20
47.40287573969811
 30
0.0
  0
VERTEX
  5
312
330
30F
100
AcDbEntity
  8
LINEE VISIBILI 2D
100
AcDbVertex
100
AcDb2dVertex
 10
2785.689181819234
 20
47.01968011966315
 30
0.0
  0
SEQEND
  5
310
330
30F
100
AcDbEntity
  8
LINEE VISIBILI 2D
  0
SPLINE
  5
313
330
1F
100
AcDbEntity
  8
LINEE VISIBILI 2D
100
AcDbSpline
210
0.0
220
0.0
230
1.0
 70
    12
 71
     2
 72
     6
 73
     3
 74
     0
 42
0.0000000001
 43
0.0000000001
 40
61.44812088877963
 40
61.44812088877963
 40
61.44812088877963
 40
64.0155654808107
 40
64.0155654808107
 40
64.0155654808107
 10
2785.689181819235
 20
47.01968011966315
 30
0.0
 41
0.9567812695551231
 10
2786.78007305247
 20
47.47878443215256
 30
0.0
 41
0.9765061167534153
 10
2787.916782059218
 20
47.80850110821635
 30
0.0
 41
1.0
  0
SPLINE
  5
314
330
1F
100
AcDbEntity
  8
LINEE VISIBILI 2D
100
AcDbSpline
210
0.0
220
0.0
230
1.0
 70
    12
 71
     2
 72
     8
 73
     5
 74
     0
 42
0.0000000001
 43
0.0000000001
 40
0.0
 40
0.0
 40
0.0
 40
32.00778274040519
 40
32.00778274040519
 40
64.01556548081012
 40
64.01556548081012
 40
64.01556548081012
 10
2787.916782059218
 20
47.80850110821635
 30
0.0
 41
1.0
 10
2807.486915081033
 20
53.48506315864058
 30
0.0
 41
0.7071067811865398
 10
2813.163477131457
 20
33.91493013682626
 30
0.0
 41
1.0
 10
2818.84003918188
 20
14.3447971150124
 30
0.0
 41
0.7071067811865651
 10
2799.269906160066
 20
8.668235064588337
 30
0.0
 41
1.0
  0
SPLINE
  5
315
330
1F
100
AcDbEntity
  8
LINEE VISIBILI 2D
100
AcDbSpline
210
0.0
220
0.0
230
1.0
 70
    12
 71
     2
 72
     8
 73
     5
 74
     0
 42
0.0000000001
 43
0.0000000001
 40
0.0
 40
0.0
 40
0.0
 40
32.00778274040522
 40
32.00778274040522
 40
49.36069100995333
 40
49.36069100995333
 40
49.36069100995333
 10
2799.269906160066
 20
8.668235064588337
 30
0.0
 41
1.0
 10
2779.699773138252
 20
2.991673014163849
 30
0.0
 41
0.707106781186542
 10
2774.023211087828
 20
22.56180603597811
 30
0.0
 41
1.0
 10
2771.43628998789
 20
31.48030099701611
 30
0.0
 41
0.8412089584566478
 10
2776.469905789396
 20
39.28378900624609
 30
0.0
 41
0.8545939404932961
  0
POLYLINE
  5
316
330
1F
100
AcDbEntity
  8
LINEE VISIBILI 2D
100
AcDb2dPolyline
 66
     1
 10
0.0
 20
0.0
 30
0.0
  0
VERTEX
  5
318
330
316
100
AcDbEntity
  8
LINEE VISIBILI 2D
100
AcDbVertex
100
AcDb2dVertex
 10
2776.469905789396
 20
39.2837890062461
 30
0.0
  0
VERTEX
  5
319
330
316
100
AcDbEntity
  8
LINEE VISIBILI 2D
100
AcDbVertex
100
AcDb2dVertex
 10
2776.148366487694
 20
39.66698462420816
 30
0.0
  0
SEQEND
  5
317
330
316
100
AcDbEntity
  8
LINEE VISIBILI 2D
  0
SPLINE
  5
31A
330
1F
100
AcDbEntity
  8
LINEE VISIBILI 2D
100
AcDbSpline
210
0.0
220
0.0
230
1.0
 70
    12
 71
     2
 72
    10
 73
     7
 74
     0
 42
0.0000000001
 43
0.0000000001
 40
415.9148936992084
 40
415.9148936992084
 40
415.9148936992084
 40
512.8473488531587
 40
512.8473488531587
 40
530.2854089553828
 40
530.2854089553828
 40
587.1443119830756
 40
587.1443119830756
 40
587.1443119830756
 10
2776.148366487694
 20
39.66698462420816
 30
0.0
 41
1.0
 10
2744.994875912927
 20
76.79426893845567
 30
0.0
 41
1.0
 10
2713.841385338158
 20
113.9215532527032
 30
0.0
 41
1.0
 10
2707.851881564123
 20
121.0595658936642
 30
0.0
 41
0.906307787037036
 10
2698.533867831382
 20
121.0595658938773
 30
0.0
 41
1.0
 10
2670.104416317586
 20
121.0595658938295
 30
0.0
 41
1.0
 10
2641.674964803788
 20
121.0595658937818
 30
0.0
 41
1.0
  0
SPLINE
  5
31B
330
1F
100
AcDbEntity
  8
LINEE VISIBILI 2D
100
AcDbSpline
210
0.0
220
0.0
230
1.0
 70
    12
 71
     2
 72
     8
 73
     5
 74
     0
 42
0.0000000001
 43
0.0000000001
 40
22.21641327652099
 40
22.21641327652099
 40
22.21641327652099
 40
32.00778274040512
 40
32.00778274040512
 40
64.01556548081017
 40
64.01556548081017
 40
64.01556548081017
 10
2641.674964803788
 20
121.0595658937818
 30
0.0
 41
0.8756214425473278
 10
2640.251895780343
 20
116.431986543065
 30
0.0
 41
0.9104022374143206
 10
2636.899424629436
 20
112.9390575035607
 30
0.0
 41
1.0
 10
2622.789473302316
 20
98.23794405082859
 30
0.0
 41
0.7071067811865662
 10
2608.088359849583
 20
112.3478953779476
 30
0.0
 41
1.0
  0
SPLINE
  5
31C
330
1F
100
AcDbEntity
  8
LINEE VISIBILI 2D
100
AcDbSpline
210
0.0
220
0.0
230
1.0
 70
    12
 71
     2
 72
     6
 73
     3
 74
     0
 42
0.0000000001
 43
0.0000000001
 40
0.0
 40
0.0
 40
0.0
 40
31.61393222100224
 40
31.61393222100224
 40
31.61393222100224
 10
2608.088359849583
 20
112.3478953779476
 30
0.0
 41
1.0
 10
2593.641772984898
 20
126.2135551566506
 30
0.0
 41
0.7107107842283916
 10
2607.253033577766
 20
140.9000788505219
 30
0.0
 41
0.9928806872495113
  0
SPLINE
  5
31D
330
1F
100
AcDbEntity
  8
LINEE VISIBILI 2D
100
AcDbSpline
210
0.0
220
0.0
230
1.0
 70
    24
 71
     2
 72
     6
 73
     3
 74
     0
 42
0.0000000001
 43
0.0000000001
 40
0.040153310641017
 40
0.040153310641017
 40
0.040153310641017
 40
101.2314204207322
 40
101.2314204207322
 40
101.2314204207322
 10
2607.253033577766
 20
140.9000788505219
 30
0.0
 10
2581.945178473768
 20
184.7345697212849
 30
0.0
 10
2556.637323369768
 20
228.5690605920478
 30
0.0
  0
SPLINE
  5
31E
330
1F
100
AcDbEntity
  8
LINEE VISIBILI 2D
100
AcDbSpline
210
0.0
220
0.0
230
1.0
 70
    12
 71
     2
 72
    10
 73
     7
 74
     0
 42
0.0000000001
 43
0.0000000001
 40
307.356911791616
 40
307.356911791616
 40
307.356911791616
 40
310.740501689879
 40
310.740501689879
 40
314.1240915881442
 40
314.1240915881442
 40
403.8799835693815
 40
403.8799835693815
 40
403.8799835693815
 10
2556.637323369768
 20
228.5690605920478
 30
0.0
 41
1.0
 10
2555.687278029851
 20
230.2145873900271
 30
0.0
 41
0.843391445824422
 10
2553.794417768961
 20
230.0489835755771
 30
0.0
 41
1.0
 10
2551.901557508068
 20
229.8833797611267
 30
0.0
 41
0.843391445824235
 10
2551.251688221267
 20
228.0978785707894
 30
0.0
 41
1.0
 10
2535.902526701447
 20
185.926403887288
 30
0.0
 41
1.0
 10
2520.553365181627
 20
143.7549292037866
 30
0.0
 41
1.0
  0
POLYLINE
  5
31F
330
1F
100
AcDbEntity
  8
LINEE VISIBILI 2D
100
AcDb2dPolyline
 66
     1
 10
0.0
 20
0.0
 30
0.0
  0
VERTEX
  5
321
330
31F
100
AcDbEntity
  8
LINEE VISIBILI 2D
100
AcDbVertex
100
AcDb2dVertex
 10
2520.553365181627
 20
143.7549292037866
 30
0.0
  0
VERTEX
  5
322
330
31F
100
AcDbEntity
  8
LINEE VISIBILI 2D
100
AcDbVertex
100
AcDb2dVertex
 10
2520.382277691778
 20
143.2848701886741
 30
0.0
  0
SEQEND
  5
320
330
31F
100
AcDbEntity
  8
LINEE VISIBILI 2D
  0
SPLINE
  5
323
330
1F
100
AcDbEntity
  8
LINEE VISIBILI 2D
100
AcDbSpline
210
0.0
220
0.0
230
1.0
 70
    12
 71
     2
 72
     6
 73
     3
 74
     0
 42
0.0000000001
 43
0.0000000001
 40
61.44812088877893
 40
61.44812088877893
 40
61.44812088877893
 40
64.0155654808097
 40
64.0155654808097
 40
64.0155654808097
 10
2520.382277691778
 20
143.2848701886741
 30
0.0
 41
0.9567812695551267
 10
2521.325319305998
 20
142.5696828241709
 30
0.0
 41
0.9765061167534174
 10
2522.179216826895
 20
141.7501222856484
 30
0.0
 41
1.0
  0
SPLINE
  5
324
330
1F
100
AcDbEntity
  8
LINEE VISIBILI 2D
100
AcDbSpline
210
0.0
220
0.0
230
1.0
 70
    12
 71
     2
 72
     8
 73
     5
 74
     0
 42
0.0000000001
 43
0.0000000001
 40
0.0
 40
0.0
 40
0.0
 40
32.00778274040578
 40
32.00778274040578
 40
64.01556548081066
 40
64.01556548081066
 40
64.01556548081066
 10
2522.179216826895
 20
141.7501222856484
 30
0.0
 41
1.0
 10
2536.88033027963
 20
127.6401709585287
 30
0.0
 41
0.7071067811864903
 10
2522.770378952509
 20
112.9390575057958
 30
0.0
 41
1.0
 10
2508.660427625389
 20
98.2379440530625
 30
0.0
 41
0.7071067811865407
 10
2493.959314172656
 20
112.3478953801824
 30
0.0
 41
1.0
  0
SPLINE
  5
325
330
1F
100
AcDbEntity
  8
LINEE VISIBILI 2D
100
AcDbSpline
210
0.0
220
0.0
230
1.0
 70
    12
 71
     2
 72
     8
 73
     5
 74
     0
 42
0.0000000001
 43
0.0000000001
 40
0.0
 40
0.0
 40
0.0
 40
32.00778274040478
 40
32.00778274040478
 40
49.36069100995224
 40
49.36069100995224
 40
49.36069100995224
 10
2493.959314172656
 20
112.3478953801824
 30
0.0
 41
1.0
 10
2479.258200719925
 20
126.457846707302
 30
0.0
 41
0.7071067811865852
 10
2493.368152047043
 20
141.1589601600352
 30
0.0
 41
1.0
 10
2499.798334696856
 20
147.8585470306862
 30
0.0
 41
0.8412089584566502
 10
2509.073161451729
 20
147.4010518783067
 30
0.0
 41
0.854593940493295
  0
POLYLINE
  5
326
330
1F
100
AcDbEntity
  8
LINEE VISIBILI 2D
100
AcDb2dPolyline
 66
     1
 10
0.0
 20
0.0
 30
0.0
  0
VERTEX
  5
328
330
326
100
AcDbEntity
  8
LINEE VISIBILI 2D
100
AcDbVertex
100
AcDb2dVertex
 10
2509.073161451729
 20
147.4010518783067
 30
0.0
  0
VERTEX
  5
329
330
326
100
AcDbEntity
  8
LINEE VISIBILI 2D
100
AcDbVertex
100
AcDb2dVertex
 10
2509.244248940653
 20
147.8711108908767
 30
0.0
  0
SEQEND
  5
327
330
326
100
AcDbEntity
  8
LINEE VISIBILI 2D
  0
SPLINE
  5
32A
330
1F
100
AcDbEntity
  8
LINEE VISIBILI 2D
100
AcDbSpline
210
0.0
220
0.0
230
1.0
 70
    12
 71
     2
 72
    10
 73
     7
 74
     0
 42
0.0000000001
 43
0.0000000001
 40
415.9148936992085
 40
415.9148936992085
 40
415.9148936992085
 40
512.8473488531587
 40
512.8473488531587
 40
530.2854089553828
 40
530.2854089553828
 40
586.9439355151698
 40
586.9439355151698
 40
586.9439355151698
 10
2509.244248940653
 20
147.8711108908767
 30
0.0
 41
1.0
 10
2525.820675042934
 20
193.4144673023083
 30
0.0
 41
1.0
 10
2542.397101145216
 20
238.95782371374
 30
0.0
 41
1.0
 10
2545.584049537806
 20
247.7138924585977
 30
0.0
 41
0.906307787037036
 10
2540.925042671619
 20
255.7835290640704
 30
0.0
 41
1.0
 10
2526.760411031656
 20
280.3173907348891
 30
0.0
 41
1.0
 10
2512.595779391693
 20
304.8512524057078
 30
0.0
 41
1.0
  0
SPLINE
  5
32B
330
1F
100
AcDbEntity
  8
LINEE VISIBILI 2D
100
AcDbSpline
210
0.0
220
0.0
230
1.0
 70
    12
 71
     2
 72
     6
 73
     3
 74
     0
 42
0.0000000001
 43
0.0000000001
 40
1.480051566186971
 40
1.480051566186971
 40
1.480051566186971
 40
31.61393222100183
 40
31.61393222100183
 40
31.61393222100183
 10
2512.595779391693
 20
304.8512524057078
 30
0.0
 41
0.974165532936739
 10
2494.293150228801
 20
300.8343156401801
 30
0.0
 41
0.7239209728243013
 10
2488.759570495343
 20
318.7368716193152
 30
0.0
 41
0.992880687249519
  0
SPLINE
  5
32C
330
1F
100
AcDbEntity
  8
LINEE VISIBILI 2D
100
AcDbSpline
210
0.0
220
0.0
230
1.0
 70
    24
 71
     2
 72
     6
 73
     3
 74
     0
 42
0.0000000001
 43
0.0000000001
 40
0.0401533106406191
 40
0.0401533106406191
 40
0.0401533106406191
 40
101.2314204207319
 40
101.2314204207319
 40
101.2314204207319
 10
2488.759570495343
 20
318.7368716193152
 30
0.0
 10
2438.143860287305
 20
318.7368716193375
 30
0.0
 10
2387.528150079268
 20
318.7368716193598
 30
0.0
  0
SPLINE
  5
32D
330
1F
100
AcDbEntity
  8
LINEE VISIBILI 2D
100
AcDbSpline
210
0.0
220
0.0
230
1.0
 70
    12
 71
     2
 72
    10
 73
     7
 74
     0
 42
0.0000000001
 43
0.0000000001
 40
307.356911791616
 40
307.356911791616
 40
307.356911791616
 40
310.740501689879
 40
310.740501689879
 40
314.1240915881442
 40
314.1240915881442
 40
403.8799835693816
 40
403.8799835693816
 40
403.8799835693816
 10
2387.528150079268
 20
318.7368716193598
 30
0.0
 41
1.0
 10
2385.628059399651
 20
318.7368716192342
 30
0.0
 41
0.843391445824422
 10
2384.825046379483
 20
317.0148046402642
 30
0.0
 41
1.0
 10
2384.022033359315
 20
315.2927376612922
 30
0.0
 41
0.843391445824235
 10
2385.243388105233
 20
313.8371837546142
 30
0.0
 41
1.0
 10
2414.090375736288
 20
279.4586826099086
 30
0.0
 41
1.0
 10
2442.937363367342
 20
245.0801814652031
 30
0.0
 41
1.0
  0
POLYLINE
  5
32E
330
1F
100
AcDbEntity
  8
LINEE VISIBILI 2D
100
AcDb2dPolyline
 66
     1
 10
0.0
 20
0.0
 30
0.0
  0
VERTEX
  5
330
330
32E
100
AcDbEntity
  8
LINEE VISIBILI 2D
100
AcDbVertex
100
AcDb2dVertex
 10
2442.937363367342
 20
245.0801814652031
 30
0.0
  0
VERTEX
  5
331
330
32E
100
AcDbEntity
  8
LINEE VISIBILI 2D
100
AcDbVertex
100
AcDb2dVertex
 10
2443.258902670783
 20
244.6969858451677
 30
0.0
  0
SEQEND
  5
32F
330
32E
100
AcDbEntity
  8
LINEE VISIBILI 2D
  0
SPLINE
  5
332
330
1F
100
AcDbEntity
  8
LINEE VISIBILI 2D
100
AcDbSpline
210
0.0
220
0.0
230
1.0
 70
    12
 71
     2
 72
     6
 73
     3
 74
     0
 42
0.0000000001
 43
0.0000000001
 40
61.4481208887795
 40
61.4481208887795
 40
61.4481208887795
 40
64.01556548081027
 40
64.01556548081027
 40
64.01556548081027
 10
2443.258902670783
 20
244.6969858451677
 30
0.0
 41
0.9567812695551248
 10
2444.349793904019
 20
245.156090157657
 30
0.0
 41
0.9765061167534164
 10
2445.486502910767
 20
245.4858068337211
 30
0.0
 41
1.0
  0
SPLINE
  5
333
330
1F
100
AcDbEntity
  8
LINEE VISIBILI 2D
100
AcDbSpline
210
0.0
220
0.0
230
1.0
 70
    12
 71
     2
 72
     8
 73
     5
 74
     0
 42
0.0000000001
 43
0.0000000001
 40
0.0
 40
0.0
 40
0.0
 40
32.00778274040538
 40
32.00778274040538
 40
64.01556548081072
 40
64.01556548081072
 40
64.01556548081072
 10
2445.486502910767
 20
245.4858068337211
 30
0.0
 41
1.0
 10
2465.056635932581
 20
251.1623688841455
 30
0.0
 41
0.7071067811865442
 10
2470.733197983005
 20
231.5922358623312
 30
0.0
 41
1.0
 10
2476.40976003343
 20
212.0221028405164
 30
0.0
 41
0.7071067811865084
 10
2456.839627011615
 20
206.3455407900933
 30
0.0
 41
1.0
  0
SPLINE
  5
334
330
1F
100
AcDbEntity
  8
LINEE VISIBILI 2D
100
AcDbSpline
210
0.0
220
0.0
230
1.0
 70
    12
 71
     2
 72
     8
 73
     5
 74
     0
 42
0.0000000001
 43
0.0000000001
 40
0.0
 40
0.0
 40
0.0
 40
32.00778274040533
 40
32.00778274040533
 40
49.36069100995277
 40
49.36069100995277
 40
49.36069100995277
 10
2456.839627011615
 20
206.3455407900933
 30
0.0
 41
1.0
 10
2437.269493989801
 20
200.6689787396687
 30
0.0
 41
0.70710678118654
 10
2431.592931939377
 20
220.2391117614831
 30
0.0
 41
1.0
 10
2429.006010839439
 20
229.1576067225207
 30
0.0
 41
0.8412089584566438
 10
2434.039626640944
 20
236.9610947317506
 30
0.0
 41
0.8545939404932887
  0
POLYLINE
  5
335
330
1F
100
AcDbEntity
  8
LINEE VISIBILI 2D
100
AcDb2dPolyline
 66
     1
 10
0.0
 20
0.0
 30
0.0
  0
VERTEX
  5
337
330
335
100
AcDbEntity
  8
LINEE VISIBILI 2D
100
AcDbVertex
100
AcDb2dVertex
 10
2434.039626640944
 20
236.9610947317506
 30
0.0
  0
VERTEX
  5
338
330
335
100
AcDbEntity
  8
LINEE VISIBILI 2D
100
AcDbVertex
100
AcDb2dVertex
 10
2433.718087339243
 20
237.3442903497132
 30
0.0
  0
SEQEND
  5
336
330
335
100
AcDbEntity
  8
LINEE VISIBILI 2D
  0
SPLINE
  5
339
330
1F
100
AcDbEntity
  8
LINEE VISIBILI 2D
100
AcDbSpline
210
0.0
220
0.0
230
1.0
 70
    12
 71
     2
 72
    10
 73
     7
 74
     0
 42
0.0000000001
 43
0.0000000001
 40
415.9148936992084
 40
415.9148936992084
 40
415.9148936992084
 40
512.8473488531587
 40
512.8473488531587
 40
530.2854089553828
 40
530.2854089553828
 40
586.6504125994047
 40
586.6504125994047
 40
586.6504125994047
 10
2433.718087339243
 20
237.3442903497132
 30
0.0
 41
1.0
 10
2402.564596764475
 20
274.4715746639607
 30
0.0
 41
1.0
 10
2371.411106189707
 20
311.5988589782082
 30
0.0
 41
1.0
 10
2365.421602415672
 20
318.7368716191692
 30
0.0
 41
0.906307787037036
 10
2356.103588682931
 20
318.7368716193822
 30
0.0
 41
1.0
 10
2327.921086860969
 20
318.7368716193348
 30
0.0
 41
1.0
 10
2299.738585039007
 20
318.7368716192875
 30
0.0
 41
1.0
  0
SPLINE
  5
33A
330
1F
100
AcDbEntity
  8
LINEE VISIBILI 2D
100
AcDbSpline
210
0.0
220
0.0
230
1.0
 70
    12
 71
     2
 72
     8
 73
     5
 74
     0
 42
0.0000000001
 43
0.0000000001
 40
22.07301781260331
 40
22.07301781260331
 40
22.07301781260331
 40
32.00778274040493
 40
32.00778274040493
 40
64.01556548080941
 40
64.01556548080941
 40
64.01556548080941
 10
2299.738585039007
 20
318.7368716192875
 30
0.0
 41
0.8746144640353257
 10
2298.326671200574
 20
314.0243983141369
 30
0.0
 41
0.9090900703288748
 10
2294.92019304264
 20
310.4751995456206
 30
0.0
 41
1.0
 10
2280.81024171552
 20
295.7740860928874
 30
0.0
 41
0.7071067811865335
 10
2266.109128262788
 20
309.8840374200074
 30
0.0
 41
1.0
  0
SPLINE
  5
33B
330
1F
100
AcDbEntity
  8
LINEE VISIBILI 2D
100
AcDbSpline
210
0.0
220
0.0
230
1.0
 70
    12
 71
     2
 72
     6
 73
     3
 74
     0
 42
0.0000000001
 43
0.0000000001
 40
0.0
 40
0.0
 40
0.0
 40
31.61393222100305
 40
31.61393222100305
 40
31.61393222100305
 10
2266.109128262788
 20
309.8840374200074
 30
0.0
 41
1.0
 10
2251.662541398102
 20
323.7496971987105
 30
0.0
 41
0.7107107842283902
 10
2265.273801990971
 20
338.4362208925822
 30
0.0
 41
0.992880687249525
  0
SPLINE
  5
33C
330
1F
100
AcDbEntity
  8
LINEE VISIBILI 2D
100
AcDbSpline
210
0.0
220
0.0
230
1.0
 70
    24
 71
     2
 72
     6
 73
     3
 74
     0
 42
0.0000000001
 43
0.0000000001
 40
0.0401533106416423
 40
0.0401533106416423
 40
0.0401533106416423
 40
101.2314204207322
 40
101.2314204207322
 40
101.2314204207322
 10
2265.273801990971
 20
338.4362208925822
 30
0.0
 10
2239.965946886972
 20
382.2707117633449
 30
0.0
 10
2214.658091782973
 20
426.1052026341076
 30
0.0
  0
SPLINE
  5
33D
330
1F
100
AcDbEntity
  8
LINEE VISIBILI 2D
100
AcDbSpline
210
0.0
220
0.0
230
1.0
 70
    12
 71
     2
 72
    10
 73
     7
 74
     0
 42
0.0000000001
 43
0.0000000001
 40
307.356911791616
 40
307.356911791616
 40
307.356911791616
 40
310.740501689879
 40
310.740501689879
 40
314.1240915881442
 40
314.1240915881442
 40
403.8799835693816
 40
403.8799835693816
 40
403.8799835693816
 10
2214.658091782973
 20
426.1052026341076
 30
0.0
 41
1.0
 10
2213.708046443056
 20
427.7507294320868
 30
0.0
 41
0.843391445824422
 10
2211.815186182165
 20
427.5851256176368
 30
0.0
 41
1.0
 10
2209.922325921273
 20
427.4195218031864
 30
0.0
 41
0.843391445824235
 10
2209.272456634471
 20
425.6340206128492
 30
0.0
 41
1.0
 10
2193.923295114651
 20
383.4625459293477
 30
0.0
 41
1.0
 10
2178.574133594831
 20
341.2910712458462
 30
0.0
 41
1.0
  0
POLYLINE
  5
33E
330
1F
100
AcDbEntity
  8
LINEE VISIBILI 2D
100
AcDb2dPolyline
 66
     1
 10
0.0
 20
0.0
 30
0.0
  0
VERTEX
  5
340
330
33E
100
AcDbEntity
  8
LINEE VISIBILI 2D
100
AcDbVertex
100
AcDb2dVertex
 10
2178.574133594831
 20
341.2910712458462
 30
0.0
  0
VERTEX
  5
341
330
33E
100
AcDbEntity
  8
LINEE VISIBILI 2D
100
AcDbVertex
100
AcDb2dVertex
 10
2178.403046104982
 20
340.8210122307332
 30
0.0
  0
SEQEND
  5
33F
330
33E
100
AcDbEntity
  8
LINEE VISIBILI 2D
  0
SPLINE
  5
342
330
1F
100
AcDbEntity
  8
LINEE VISIBILI 2D
100
AcDbSpline
210
0.0
220
0.0
230
1.0
 70
    12
 71
     2
 72
     6
 73
     3
 74
     0
 42
0.0000000001
 43
0.0000000001
 40
61.44812088877875
 40
61.44812088877875
 40
61.44812088877875
 40
64.01556548080882
 40
64.01556548080882
 40
64.01556548080882
 10
2178.403046104982
 20
340.8210122307332
 30
0.0
 41
0.9567812695551359
 10
2179.346087719203
 20
340.1058248662301
 30
0.0
 41
0.9765061167534229
 10
2180.1999852401
 20
339.286264327708
 30
0.0
 41
1.0
  0
SPLINE
  5
343
330
1F
100
AcDbEntity
  8
LINEE VISIBILI 2D
100
AcDbSpline
210
0.0
220
0.0
230
1.0
 70
    12
 71
     2
 72
     8
 73
     5
 74
     0
 42
0.0000000001
 43
0.0000000001
 40
0.0
 40
0.0
 40
0.0
 40
32.00778274040513
 40
32.00778274040513
 40
64.01556548081102
 40
64.01556548081102
 40
64.01556548081102
 10
2180.1999852401
 20
339.286264327708
 30
0.0
 41
1.0
 10
2194.901098692832
 20
325.1763130005886
 30
0.0
 41
0.7071067811865517
 10
2180.791147365713
 20
310.4751995478554
 30
0.0
 41
1.0
 10
2166.681196038594
 20
295.7740860951218
 30
0.0
 41
0.7071067811865407
 10
2151.98008258586
 20
309.8840374222421
 30
0.0
 41
1.0
  0
SPLINE
  5
344
330
1F
100
AcDbEntity
  8
LINEE VISIBILI 2D
100
AcDbSpline
210
0.0
220
0.0
230
1.0
 70
    12
 71
     2
 72
     8
 73
     5
 74
     0
 42
0.0000000001
 43
0.0000000001
 40
0.0
 40
0.0
 40
0.0
 40
32.0077827404046
 40
32.0077827404046
 40
49.360691009952
 40
49.360691009952
 40
49.360691009952
 10
2151.98008258586
 20
309.8840374222421
 30
0.0
 41
1.0
 10
2137.278969133129
 20
323.9939887493622
 30
0.0
 41
0.7071067811865851
 10
2151.388920460248
 20
338.6951022020948
 30
0.0
 41
1.0
 10
2157.81910311006
 20
345.3946890727458
 30
0.0
 41
0.8412089584566446
 10
2167.093929864934
 20
344.9371939203663
 30
0.0
 41
0.854593940493293
  0
POLYLINE
  5
345
330
1F
100
AcDbEntity
  8
LINEE VISIBILI 2D
100
AcDb2dPolyline
 66
     1
 10
0.0
 20
0.0
 30
0.0
  0
VERTEX
  5
347
330
345
100
AcDbEntity
  8
LINEE VISIBILI 2D
100
AcDbVertex
100
AcDb2dVertex
 10
2167.093929864933
 20
344.9371939203662
 30
0.0
  0
VERTEX
  5
348
330
345
100
AcDbEntity
  8
LINEE VISIBILI 2D
100
AcDbVertex
100
AcDb2dVertex
 10
2167.265017353857
 20
345.4072529329364
 30
0.0
  0
SEQEND
  5
346
330
345
100
AcDbEntity
  8
LINEE VISIBILI 2D
  0
SPLINE
  5
349
330
1F
100
AcDbEntity
  8
LINEE VISIBILI 2D
100
AcDbSpline
210
0.0
220
0.0
230
1.0
 70
    12
 71
     2
 72
    10
 73
     7
 74
     0
 42
0.0000000001
 43
0.0000000001
 40
415.9148936992084
 40
415.9148936992084
 40
415.9148936992084
 40
512.8473488531587
 40
512.8473488531587
 40
530.2854089553828
 40
530.2854089553828
 40
586.9439355151695
 40
586.9439355151695
 40
586.9439355151695
 10
2167.265017353857
 20
345.4072529329364
 30
0.0
 41
1.0
 10
2183.841443456139
 20
390.950609344368
 30
0.0
 41
1.0
 10
2200.417869558421
 20
436.4939657557997
 30
0.0
 41
1.0
 10
2203.60481795101
 20
445.2500345006574
 30
0.0
 41
0.906307787037036
 10
2198.945811084824
 20
453.3196711061301
 30
0.0
 41
1.0
 10
2184.781179444861
 20
477.8535327769487
 30
0.0
 41
1.0
 10
2170.616547804897
 20
502.3873944477673
 30
0.0
 41
1.0
  0
SPLINE
  5
34A
330
1F
100
AcDbEntity
  8
LINEE VISIBILI 2D
100
AcDbSpline
210
0.0
220
0.0
230
1.0
 70
    12
 71
     2
 72
     6
 73
     3
 74
     0
 42
0.0000000001
 43
0.0000000001
 40
1.480051566187707
 40
1.480051566187707
 40
1.480051566187707
 40
31.61393222102513
 40
31.61393222102513
 40
31.61393222102513
 10
2170.616547804897
 20
502.3873944477674
 30
0.0
 41
0.9741655329367239
 10
2152.313918642607
 20
498.370457682371
 30
0.0
 41
0.7239209728303982
 10
2146.780338910875
 20
516.2730136613939
 30
0.0
 41
0.9928806872363422
  0
SPLINE
  5
34B
330
1F
100
AcDbEntity
  8
LINEE VISIBILI 2D
100
AcDbSpline
210
0.0
220
0.0
230
1.0
 70
    24
 71
     2
 72
     6
 73
     3
 74
     0
 42
0.0000000001
 43
0.0000000001
 40
0.0
 40
0.0
 40
0.0
 40
101.2314204207323
 40
101.2314204207323
 40
101.2314204207323
 10
2146.780338910875
 20
516.2730136613939
 30
0.0
 10
2096.164628701673
 20
516.2730136614067
 30
0.0
 10
2045.548918492472
 20
516.2730136614196
 30
0.0
  0
SPLINE
  5
34C
330
1F
100
AcDbEntity
  8
LINEE VISIBILI 2D
100
AcDbSpline
210
0.0
220
0.0
230
1.0
 70
    12
 71
     2
 72
    10
 73
     7
 74
     0
 42
0.0000000001
 43
0.0000000001
 40
307.356911791616
 40
307.356911791616
 40
307.356911791616
 40
310.740501689879
 40
310.740501689879
 40
314.1240915881442
 40
314.1240915881442
 40
403.8799835693816
 40
403.8799835693816
 40
403.8799835693816
 10
2045.548918492472
 20
516.2730136614196
 30
0.0
 41
1.0
 10
2043.648827812855
 20
516.2730136612939
 30
0.0
 41
0.843391445824422
 10
2042.845814792687
 20
514.5509466823239
 30
0.0
 41
1.0
 10
2042.042801772518
 20
512.828879703352
 30
0.0
 41
0.843391445824235
 10
2043.264156518438
 20
511.373325796674
 30
0.0
 41
1.0
 10
2072.111144149492
 20
476.9948246519684
 30
0.0
 41
1.0
 10
2100.958131780547
 20
442.6163235072628
 30
0.0
 41
1.0
  0
POLYLINE
  5
34D
330
1F
100
AcDbEntity
  8
LINEE VISIBILI 2D
100
AcDb2dPolyline
 66
     1
 10
0.0
 20
0.0
 30
0.0
  0
VERTEX
  5
34F
330
34D
100
AcDbEntity
  8
LINEE VISIBILI 2D
100
AcDbVertex
100
AcDb2dVertex
 10
2100.958131780547
 20
442.6163235072628
 30
0.0
  0
VERTEX
  5
350
330
34D
100
AcDbEntity
  8
LINEE VISIBILI 2D
100
AcDbVertex
100
AcDb2dVertex
 10
2101.279671083988
 20
442.2331278872277
 30
0.0
  0
SEQEND
  5
34E
330
34D
100
AcDbEntity
  8
LINEE VISIBILI 2D
  0
SPLINE
  5
351
330
1F
100
AcDbEntity
  8
LINEE VISIBILI 2D
100
AcDbSpline
210
0.0
220
0.0
230
1.0
 70
    12
 71
     2
 72
     6
 73
     3
 74
     0
 42
0.0000000001
 43
0.0000000001
 40
61.4481208887799
 40
61.4481208887799
 40
61.4481208887799
 40
64.01556548080995
 40
64.01556548080995
 40
64.01556548080995
 10
2101.279671083988
 20
442.2331278872278
 30
0.0
 41
0.9567812695551358
 10
2102.370562317223
 20
442.692232199717
 30
0.0
 41
0.9765061167534229
 10
2103.507271323971
 20
443.0219488757808
 30
0.0
 41
1.0
  0
SPLINE
  5
352
330
1F
100
AcDbEntity
  8
LINEE VISIBILI 2D
100
AcDbSpline
210
0.0
220
0.0
230
1.0
 70
    12
 71
     2
 72
     8
 73
     5
 74
     0
 42
0.0000000001
 43
0.0000000001
 40
0.0
 40
0.0
 40
0.0
 40
32.00778274040525
 40
32.00778274040525
 40
64.01556548081027
 40
64.01556548081027
 40
64.01556548081027
 10
2103.507271323971
 20
443.0219488757808
 30
0.0
 41
1.0
 10
2123.077404345785
 20
448.6985109262054
 30
0.0
 41
0.7071067811865345
 10
2128.753966396209
 20
429.1283779043908
 30
0.0
 41
1.0
 10
2134.430528446633
 20
409.5582448825769
 30
0.0
 41
0.7071067811865562
 10
2114.860395424819
 20
403.8816828321528
 30
0.0
 41
1.0
  0
SPLINE
  5
353
330
1F
100
AcDbEntity
  8
LINEE VISIBILI 2D
100
AcDbSpline
210
0.0
220
0.0
230
1.0
 70
    12
 71
     2
 72
     8
 73
     5
 74
     0
 42
0.0000000001
 43
0.0000000001
 40
0.0
 40
0.0
 40
0.0
 40
32.00778274040494
 40
32.00778274040494
 40
49.36069100995332
 40
49.36069100995332
 40
49.36069100995332
 10
2114.860395424819
 20
403.8816828321528
 30
0.0
 41
1.0
 10
2095.290262403005
 20
398.2051207817291
 30
0.0
 41
0.7071067811865558
 10
2089.613700352581
 20
417.7752538035429
 30
0.0
 41
1.0
 10
2087.026779252643
 20
426.693748764581
 30
0.0
 41
0.8412089584566353
 10
2092.060395054149
 20
434.4972367738109
 30
0.0
 41
0.8545939404932898
  0
POLYLINE
  5
354
330
1F
100
AcDbEntity
  8
LINEE VISIBILI 2D
100
AcDb2dPolyline
 66
     1
 10
0.0
 20
0.0
 30
0.0
  0
VERTEX
  5
356
330
354
100
AcDbEntity
  8
LINEE VISIBILI 2D
100
AcDbVertex
100
AcDb2dVertex
 10
2092.060395054149
 20
434.4972367738109
 30
0.0
  0
VERTEX
  5
357
330
354
100
AcDbEntity
  8
LINEE VISIBILI 2D
100
AcDbVertex
100
AcDb2dVertex
 10
2091.738855752447
 20
434.8804323917729
 30
0.0
  0
SEQEND
  5
355
330
354
100
AcDbEntity
  8
LINEE VISIBILI 2D
  0
SPLINE
  5
358
330
1F
100
AcDbEntity
  8
LINEE VISIBILI 2D
100
AcDbSpline
210
0.0
220
0.0
230
1.0
 70
    12
 71
     2
 72
    10
 73
     7
 74
     0
 42
0.0000000001
 43
0.0000000001
 40
415.9148936992084
 40
415.9148936992084
 40
415.9148936992084
 40
512.8473488531587
 40
512.8473488531587
 40
530.2854089553828
 40
530.2854089553828
 40
587.0806042433725
 40
587.0806042433725
 40
587.0806042433725
 10
2091.738855752447
 20
434.8804323917729
 30
0.0
 41
1.0
 10
2060.585365177679
 20
472.0077167060204
 30
0.0
 41
1.0
 10
2029.431874602912
 20
509.1350010202679
 30
0.0
 41
1.0
 10
2023.442370828877
 20
516.2730136612289
 30
0.0
 41
0.906307787037036
 10
2014.124357096135
 20
516.2730136614418
 30
0.0
 41
1.0
 10
1985.72675945219
 20
516.2730136613941
 30
0.0
 41
1.0
 10
1957.329161808244
 20
516.2730136613463
 30
0.0
 41
1.0
  0
SPLINE
  5
359
330
1F
100
AcDbEntity
  8
LINEE VISIBILI 2D
100
AcDbSpline
210
0.0
220
0.0
230
1.0
 70
    12
 71
     2
 72
     8
 73
     5
 74
     0
 42
0.0000000001
 43
0.0000000001
 40
22.23108860596877
 40
22.23108860596877
 40
22.23108860596877
 40
32.00778274040495
 40
32.00778274040495
 40
64.0155654808099
 40
64.0155654808099
 40
64.0155654808099
 10
1957.329161808244
 20
516.2730136613462
 30
0.0
 41
0.8757258247762192
 10
1955.90501471518
 20
511.6541048740957
 30
0.0
 41
0.9105365267686932
 10
1952.558061950563
 20
508.1669254237312
 30
0.0
 41
1.0
 10
1938.448110623443
 20
493.4658119709983
 30
0.0
 41
0.7071067811865503
 10
1923.746997170711
 20
507.5757632981179
 30
0.0
 41
1.0
  0
SPLINE
  5
35A
330
1F
100
AcDbEntity
  8
LINEE VISIBILI 2D
100
AcDbSpline
210
0.0
220
0.0
230
1.0
 70
    12
 71
     2
 72
     6
 73
     3
 74
     0
 42
0.0000000001
 43
0.0000000001
 40
0.0
 40
0.0
 40
0.0
 40
31.61393222102447
 40
31.61393222102447
 40
31.61393222102447
 10
1923.746997170711
 20
507.5757632981179
 30
0.0
 41
1.0
 10
1909.3004103065
 20
521.4414230763655
 30
0.0
 41
0.7107107842351607
 10
1922.911670900075
 20
536.1279467686854
 30
0.0
 41
0.9928806872363404
  0
SPLINE
  5
35B
330
1F
100
AcDbEntity
  8
LINEE VISIBILI 2D
100
AcDbSpline
210
0.0
220
0.0
230
1.0
 70
    24
 71
     2
 72
     6
 73
     3
 74
     0
 42
0.0000000001
 43
0.0000000001
 40
0.0
 40
0.0
 40
0.0
 40
85.19024884093028
 40
85.19024884093028
 40
85.19024884093028
 10
1922.911670900075
 20
536.1279467686854
 30
0.0
 10
1901.614108690428
 20
573.0164065931575
 30
0.0
 10
1880.316546480781
 20
609.9048664176296
 30
0.0
  0
SPLINE
  5
35C
330
1F
100
AcDbEntity
  8
LINEE VISIBILI 2D
100
AcDbSpline
210
0.0
220
0.0
230
1.0
 70
    12
 71
     2
 72
     6
 73
     3
 74
     0
 42
0.0000000001
 43
0.0000000001
 40
0.0
 40
0.0
 40
0.0
 40
14.65494520736773
 40
14.65494520736773
 40
14.65494520736773
 10
2780.160655233006
 20
200.5457203768531
 30
0.0
 41
1.0
 10
2786.75222521898
 20
196.9716547143634
 30
0.0
 41
0.9661970220857716
 10
2794.248129697595
 20
197.1564689109113
 30
0.0
 41
1.0
  0
SPLINE
  5
35D
330
1F
100
AcDbEntity
  8
LINEE VISIBILI 2D
100
AcDbSpline
210
0.0
220
0.0
230
1.0
 70
    12
 71
     3
 72
     8
 73
     4
 74
     0
 42
0.0000000001
 43
0.0000000001
 40
-179.172725796908
 40
-179.172725796908
 40
-179.172725796908
 40
-179.172725796908
 40
-177.7729388689291
 40
-177.7729388689291
 40
-177.7729388689291
 40
-177.7729388689291
 10
2794.248129697595
 20
197.1564689109113
 30
0.0
 41
1.0
 10
2794.735491766824
 20
197.1677698128136
 30
0.0
 41
1.0
 10
2795.219683833801
 20
197.1913501955473
 30
0.0
 41
1.0
 10
2795.700414734476
 20
197.2269387753091
 30
0.0
 41
1.0
  0
SPLINE
  5
35E
330
1F
100
AcDbEntity
  8
LINEE VISIBILI 2D
100
AcDbSpline
210
0.0
220
0.0
230
1.0
 70
    12
 71
     2
 72
     6
 73
     3
 74
     0
 42
0.0000000001
 43
0.0000000001
 40
0.0
 40
0.0
 40
0.0
 40
42.91016307037607
 40
42.91016307037607
 40
42.91016307037607
 10
2795.700414734476
 20
197.2269387753091
 30
0.0
 41
1.0
 10
2822.44262350748
 20
199.2386914797567
 30
0.0
 41
0.7253532243373133
 10
2821.831591003267
 20
226.049501171305
 30
0.0
 41
1.0
  0
SPLINE
  5
35F
330
1F
100
AcDbEntity
  8
LINEE VISIBILI 2D
100
AcDbSpline
210
0.0
220
0.0
230
1.0
 70
    12
 71
     3
 72
     8
 73
     4
 74
     0
 42
0.0000000001
 43
0.0000000001
 40
-134.379544101583
 40
-134.379544101583
 40
-134.379544101583
 40
-134.379544101583
 40
-89.5863688116684
 40
-89.5863688116684
 40
-89.5863688116684
 40
-89.5863688116684
 10
2821.831591003267
 20
226.049501171305
 30
0.0
 41
1.0
 10
2821.469962190602
 20
241.6450850620288
 30
0.0
 41
1.0
 10
2808.534142528706
 20
253.9945910698356
 30
0.0
 41
1.0
 10
2792.93855851537
 20
253.6329622600202
 30
0.0
 41
1.0
  0
SPLINE
  5
360
330
1F
100
AcDbEntity
  8
LINEE VISIBILI 2D
100
AcDbSpline
210
0.0
220
0.0
230
1.0
 70
    12
 71
     2
 72
     6
 73
     3
 74
     0
 42
0.0000000001
 43
0.0000000001
 40
0.0
 40
0.0
 40
0.0
 40
1.454148741690203
 40
1.454148741690203
 40
1.454148741690203
 10
2792.93855851537
 20
253.6329622600202
 30
0.0
 41
1.0
 10
2792.211522854034
 20
253.6161355374767
 30
0.0
 41
0.9996782918527186
 10
2791.486273623962
 20
253.5624927515559
 30
0.0
 41
1.0
  0
SPLINE
  5
361
330
1F
100
AcDbEntity
  8
LINEE VISIBILI 2D
100
AcDbSpline
210
0.0
220
0.0
230
1.0
 70
    12
 71
     3
 72
     8
 73
     4
 74
     0
 42
0.0000000001
 43
0.0000000001
 40
-88.18658205899926
 40
-88.18658205899926
 40
-88.18658205899926
 40
-88.18658205899926
 40
-44.7931927262563
 40
-44.7931927262563
 40
-44.7931927262563
 40
-44.7931927262563
 10
2791.486273623962
 20
253.5624927515559
 30
0.0
 41
1.0
 10
2776.583543327847
 20
252.4602473123372
 30
0.0
 41
1.0
 10
2765.004769291212
 20
239.8481521618405
 30
0.0
 41
1.0
 10
2765.355097209711
 20
224.7399299990304
 30
0.0
 41
1.0
  0
SPLINE
  5
362
330
1F
100
AcDbEntity
  8
LINEE VISIBILI 2D
100
AcDbSpline
210
0.0
220
0.0
230
1.0
 70
    12
 71
     2
 72
     6
 73
     3
 74
     0
 42
0.0000000001
 43
0.0000000001
 40
0.0
 40
0.0
 40
0.0
 40
17.58895396407435
 40
17.58895396407435
 40
17.58895396407435
 10
2765.355097209711
 20
224.7399299990304
 30
0.0
 41
1.0
 10
2765.552824833495
 20
215.6489651418611
 30
0.0
 41
0.9514569705419978
 10
2771.037508043446
 20
208.3961733810757
 30
0.0
 41
1.0
  0
SPLINE
  5
363
330
1F
100
AcDbEntity
  8
LINEE VISIBILI 2D
100
AcDbSpline
210
0.0
220
0.0
230
1.0
 70
    12
 71
     3
 72
     8
 73
     4
 74
     0
 42
0.0000000001
 43
0.0000000001
 40
76.64927559243111
 40
76.64927559243111
 40
76.64927559243111
 40
76.64927559243111
 40
88.18658205899926
 40
88.18658205899926
 40
88.18658205899926
 40
88.18658205899926
 10
2438.020068148125
 20
250.9403857085304
 30
0.0
 41
1.0
 10
2441.350683055145
 20
252.6913154270899
 30
0.0
 41
1.0
 10
2445.078004131647
 20
253.7980214964992
 30
0.0
 41
1.0
 10
2449.040299822326
 20
254.091060564356
 30
0.0
 41
1.0
  0
SPLINE
  5
364
330
1F
100
AcDbEntity
  8
LINEE VISIBILI 2D
100
AcDbSpline
210
0.0
220
0.0
230
1.0
 70
    12
 71
     2
 72
     6
 73
     3
 74
     0
 42
0.0000000001
 43
0.0000000001
 40
-1.454148741689318
 40
-1.454148741689318
 40
-1.454148741689318
 40
0.0
 40
0.0
 40
0.0
 10
2449.040299822326
 20
254.091060564356
 30
0.0
 41
1.0
 10
2449.765549052398
 20
254.1447033502769
 30
0.0
 41
0.9996782918527088
 10
2450.492584713733
 20
254.1615300728205
 30
0.0
 41
1.0
  0
SPLINE
  5
365
330
1F
100
AcDbEntity
  8
LINEE VISIBILI 2D
100
AcDbSpline
210
0.0
220
0.0
230
1.0
 70
    12
 71
     3
 72
     8
 73
     4
 74
     0
 42
0.0000000001
 43
0.0000000001
 40
89.5863688116684
 40
89.5863688116684
 40
89.5863688116684
 40
89.5863688116684
 40
134.379544101583
 40
134.379544101583
 40
134.379544101583
 40
134.379544101583
 10
2450.492584713733
 20
254.1615300728205
 30
0.0
 41
1.0
 10
2466.088168727069
 20
254.5231588826361
 30
0.0
 41
1.0
 10
2479.023988388966
 20
242.1736528748292
 30
0.0
 41
1.0
 10
2479.38561720163
 20
226.5780689841052
 30
0.0
 41
1.0
  0
SPLINE
  5
366
330
1F
100
AcDbEntity
  8
LINEE VISIBILI 2D
100
AcDbSpline
210
0.0
220
0.0
230
1.0
 70
    12
 71
     2
 72
     6
 73
     3
 74
     0
 42
0.0000000001
 43
0.0000000001
 40
-42.91016307040813
 40
-42.91016307040813
 40
-42.91016307040813
 40
0.0
 40
0.0
 40
0.0
 10
2479.38561720163
 20
226.5780689841052
 30
0.0
 41
1.0
 10
2479.996649705923
 20
199.7672592924859
 30
0.0
 41
0.7253532243353376
 10
2453.254440932839
 20
197.7555065881097
 30
0.0
 41
1.0
  0
SPLINE
  5
367
330
1F
100
AcDbEntity
  8
LINEE VISIBILI 2D
100
AcDbSpline
210
0.0
220
0.0
230
1.0
 70
    12
 71
     3
 72
     8
 73
     4
 74
     0
 42
0.0000000001
 43
0.0000000001
 40
177.7729388689291
 40
177.7729388689291
 40
177.7729388689291
 40
177.7729388689291
 40
179.172725796908
 40
179.172725796908
 40
179.172725796908
 40
179.172725796908
 10
2453.254440932839
 20
197.7555065881097
 30
0.0
 41
1.0
 10
2452.773710032165
 20
197.7199180083481
 30
0.0
 41
1.0
 10
2452.289517965187
 20
197.6963376256145
 30
0.0
 41
1.0
 10
2451.802155895959
 20
197.6850367237123
 30
0.0
 41
1.0
  0
SPLINE
  5
368
330
1F
100
AcDbEntity
  8
LINEE VISIBILI 2D
100
AcDbSpline
210
0.0
220
0.0
230
1.0
 70
    12
 71
     2
 72
     6
 73
     3
 74
     0
 42
0.0000000001
 43
0.0000000001
 40
-44.36384075048034
 40
-44.36384075048034
 40
-44.36384075048034
 40
0.0
 40
0.0
 40
0.0
 10
2451.802155895959
 20
197.6850367237123
 30
0.0
 41
1.0
 10
2423.574412755527
 20
197.0412533493183
 30
0.0
 41
0.7073760952443088
 10
2422.909123408074
 20
225.2684978118357
 30
0.0
 41
1.0
  0
SPLINE
  5
369
330
1F
100
AcDbEntity
  8
LINEE VISIBILI 2D
100
AcDbSpline
210
0.0
220
0.0
230
1.0
 70
    12
 71
     3
 72
     8
 73
     4
 74
     0
 42
0.0000000001
 43
0.0000000001
 40
44.79319272626649
 40
44.79319272626649
 40
44.79319272626649
 40
44.79319272626649
 40
64.15788684652802
 40
64.15788684652802
 40
64.15788684652802
 40
64.15788684652802
 10
2422.909123408074
 20
225.2684978118357
 30
0.0
 41
1.0
 10
2422.752786392507
 20
232.0106791761909
 30
0.0
 41
1.0
 10
2424.972096259079
 20
238.2557639123901
 30
0.0
 41
1.0
 10
2428.802302896764
 20
243.2026941194431
 30
0.0
 41
1.0
  0
SPLINE
  5
36A
330
1F
100
AcDbEntity
  8
LINEE VISIBILI 2D
100
AcDbSpline
210
0.0
220
0.0
230
1.0
 70
    12
 71
     2
 72
     6
 73
     3
 74
     0
 42
0.0000000001
 43
0.0000000001
 40
0.0
 40
0.0
 40
0.0
 40
38.95031354335715
 40
38.95031354335715
 40
38.95031354335715
 10
2480.611539791385
 20
318.7368716193346
 30
0.0
 41
1.0
 10
2485.592040485267
 20
295.9952208938802
 30
0.0
 41
0.7719143963718738
 10
2508.866678736357
 20
296.5236895884881
 30
0.0
 41
1.0
  0
SPLINE
  5
36B
330
1F
100
AcDbEntity
  8
LINEE VISIBILI 2D
100
AcDbSpline
210
0.0
220
0.0
230
1.0
 70
    12
 71
     2
 72
     6
 73
     3
 74
     0
 42
0.0000000001
 43
0.0000000001
 40
0.0
 40
0.0
 40
0.0
 40
7.928147146213699
 40
7.928147146213699
 40
7.928147146213699
 10
2508.866678736357
 20
296.5236895884881
 30
0.0
 41
1.0
 10
2512.856015396986
 20
296.6129020319107
 30
0.0
 41
0.9901576367797985
 10
2516.664341004497
 20
297.8042969786356
 30
0.0
 41
1.0
  0
SPLINE
  5
36C
330
1F
100
AcDbEntity
  8
LINEE VISIBILI 2D
100
AcDbSpline
210
0.0
220
0.0
230
1.0
 70
    12
 71
     2
 72
     8
 73
     5
 74
     0
 42
0.0000000001
 43
0.0000000001
 40
0.0
 40
0.0
 40
0.0
 40
34.34460004416713
 40
34.34460004416713
 40
68.68920008833426
 40
68.68920008833426
 40
68.68920008833426
 10
2527.112748916204
 20
303.7769438771078
 30
0.0
 41
1.0
 10
2541.72404605472
 20
316.9264582033088
 30
0.0
 41
0.8207437381074633
 10
2534.466381077531
 20
335.1946280668678
 30
0.0
 41
1.0
 10
2527.20871610034
 20
353.462797930427
 30
0.0
 41
0.8207437381074633
 10
2507.557107554132
 20
353.0001829375963
 30
0.0
 41
1.0
  0
SPLINE
  5
36D
330
1F
100
AcDbEntity
  8
LINEE VISIBILI 2D
100
AcDbSpline
210
0.0
220
0.0
230
1.0
 70
    12
 71
     2
 72
     6
 73
     3
 74
     0
 42
0.0000000001
 43
0.0000000001
 40
0.0
 40
0.0
 40
0.0
 40
37.65717079009966
 40
37.65717079009966
 40
37.65717079009966
 10
2507.557107554132
 20
353.0001829375963
 30
0.0
 41
1.0
 10
2485.348562331026
 20
352.4746637541155
 30
0.0
 41
0.7862838736415267
 10
2480.6071950159
 20
330.7717817491373
 30
0.0
 41
1.0
  0
SPLINE
  5
36E
330
1F
100
AcDbEntity
  8
LINEE VISIBILI 2D
100
AcDbSpline
210
0.0
220
0.0
230
1.0
 70
    12
 71
     2
 72
     6
 73
     3
 74
     0
 42
0.0000000001
 43
0.0000000001
 40
0.0
 40
0.0
 40
0.0
 40
38.95031354335733
 40
38.95031354335733
 40
38.95031354335733
 10
2603.179018225805
 20
147.9564804309751
 30
0.0
 41
1.0
 10
2585.974421320509
 20
132.2724149437799
 30
0.0
 41
0.7719143963718625
 10
2598.06940776069
 20
112.3802213017463
 30
0.0
 41
1.0
  0
SPLINE
  5
36F
330
1F
100
AcDbEntity
  8
LINEE VISIBILI 2D
100
AcDbSpline
210
0.0
220
0.0
230
1.0
 70
    12
 71
     2
 72
     8
 73
     5
 74
     0
 42
0.0000000001
 43
0.0000000001
 40
0.0
 40
0.0
 40
0.0
 40
33.62241570618199
 40
33.62241570618199
 40
67.24483141236398
 40
67.24483141236398
 40
67.24483141236398
 10
2598.06940776069
 20
112.3802213017463
 30
0.0
 41
1.0
 10
2608.007976595243
 20
96.03942448852787
 30
0.0
 41
0.8279746409982582
 10
2626.870073040519
 20
99.20456408404554
 30
0.0
 41
1.0
 10
2645.732169485796
 20
102.3697036795632
 30
0.0
 41
0.8279746409982582
 10
2649.792445508807
 20
121.0595658937955
 30
0.0
 41
1.0
  0
SPLINE
  5
370
330
1F
100
AcDbEntity
  8
LINEE VISIBILI 2D
100
AcDbSpline
210
0.0
220
0.0
230
1.0
 70
    12
 71
     3
 72
     8
 73
     4
 74
     0
 42
0.0000000001
 43
0.0000000001
 40
76.64927559243121
 40
76.64927559243121
 40
76.64927559243121
 40
76.64927559243121
 40
88.18658205899926
 40
88.18658205899926
 40
88.18658205899926
 40
88.18658205899926
 10
2523.169803318105
 20
150.9435339031998
 30
0.0
 41
1.0
 10
2526.351460388129
 20
148.9346016427773
 30
0.0
 41
1.0
 10
2529.173556497011
 20
146.2599999371697
 30
0.0
 41
1.0
 10
2531.408483619415
 20
142.975070745665
 30
0.0
 41
1.0
  0
SPLINE
  5
371
330
1F
100
AcDbEntity
  8
LINEE VISIBILI 2D
100
AcDbSpline
210
0.0
220
0.0
230
1.0
 70
    12
 71
     2
 72
     6
 73
     3
 74
     0
 42
0.0000000001
 43
0.0000000001
 40
-1.454148741689537
 40
-1.454148741689537
 40
-1.454148741689537
 40
0.0
 40
0.0
 40
0.0
 10
2531.408483619415
 20
142.975070745665
 30
0.0
 41
1.0
 10
2531.817564249789
 20
142.3738078813083
 30
0.0
 41
0.9996782918526917
 10
2532.195654449642
 20
141.7525898904065
 30
0.0
 41
1.0
  0
SPLINE
  5
372
330
1F
100
AcDbEntity
  8
LINEE VISIBILI 2D
100
AcDbSpline
210
0.0
220
0.0
230
1.0
 70
    12
 71
     3
 72
     8
 73
     4
 74
     0
 42
0.0000000001
 43
0.0000000001
 40
89.5863688116684
 40
89.5863688116684
 40
89.5863688116684
 40
89.5863688116684
 40
134.379544101583
 40
134.379544101583
 40
134.379544101583
 40
134.379544101583
 10
2532.195654449642
 20
141.7525898904065
 30
0.0
 41
1.0
 10
2540.30662619235
 20
128.4272323529106
 30
0.0
 41
1.0
 10
2536.07955009635
 20
111.0497309030301
 30
0.0
 41
1.0
 10
2522.754192666463
 20
102.9387592191603
 30
0.0
 41
1.0
  0
SPLINE
  5
373
330
1F
100
AcDbEntity
  8
LINEE VISIBILI 2D
100
AcDbSpline
210
0.0
220
0.0
230
1.0
 70
    12
 71
     2
 72
     6
 73
     3
 74
     0
 42
0.0000000001
 43
0.0000000001
 40
-42.91016307040856
 40
-42.91016307040856
 40
-42.91016307040856
 40
0.0
 40
0.0
 40
0.0
 10
2522.754192666463
 20
102.9387592191603
 30
0.0
 41
1.0
 10
2499.840866629636
 20
89.00418470209452
 30
0.0
 41
0.725353224335326
 10
2484.727533294973
 20
111.1577405007049
 30
0.0
 41
1.0
  0
SPLINE
  5
374
330
1F
100
AcDbEntity
  8
LINEE VISIBILI 2D
100
AcDbSpline
210
0.0
220
0.0
230
1.0
 70
    12
 71
     3
 72
     8
 73
     4
 74
     0
 42
0.0000000001
 43
0.0000000001
 40
177.7729388689291
 40
177.7729388689291
 40
177.7729388689291
 40
177.7729388689291
 40
179.172725796908
 40
179.172725796908
 40
179.172725796908
 40
179.172725796908
 10
2484.727533294973
 20
111.1577405007049
 30
0.0
 41
1.0
 10
2484.456347230478
 20
111.5562713831923
 30
0.0
 41
1.0
 10
2484.193829986511
 20
111.963803822139
 30
0.0
 41
1.0
 10
2483.940362083763
 20
112.3802213039809
 30
0.0
 41
1.0
  0
SPLINE
  5
375
330
1F
100
AcDbEntity
  8
LINEE VISIBILI 2D
100
AcDbSpline
210
0.0
220
0.0
230
1.0
 70
    12
 71
     2
 72
     6
 73
     3
 74
     0
 42
0.0000000001
 43
0.0000000001
 40
-44.36384075048041
 40
-44.36384075048041
 40
-44.36384075048041
 40
0.0
 40
0.0
 40
0.0
 10
2483.940362083763
 20
112.3802213039809
 30
0.0
 41
1.0
 10
2469.268957756789
 20
136.5042722679
 30
0.0
 41
0.7073760952443318
 10
2493.381823866432
 20
151.1940519749168
 30
0.0
 41
1.0
  0
SPLINE
  5
376
330
1F
100
AcDbEntity
  8
LINEE VISIBILI 2D
100
AcDbSpline
210
0.0
220
0.0
230
1.0
 70
    12
 71
     3
 72
     8
 73
     4
 74
     0
 42
0.0000000001
 43
0.0000000001
 40
44.7931927262563
 40
44.7931927262563
 40
44.7931927262563
 40
44.7931927262563
 40
64.15788684652813
 40
64.15788684652813
 40
64.15788684652813
 40
64.15788684652813
 10
2493.381823866432
 20
151.1940519749168
 30
0.0
 41
1.0
 10
2499.142555697098
 20
154.7005344841297
 30
0.0
 41
1.0
 10
2505.660612660723
 20
155.9010981289097
 30
0.0
 41
1.0
 10
2511.859883209626
 20
155.0575069824565
 30
0.0
 41
1.0
  0
SPLINE
  5
377
330
1F
100
AcDbEntity
  8
LINEE VISIBILI 2D
100
AcDbSpline
210
0.0
220
0.0
230
1.0
 70
    12
 71
     2
 72
     8
 73
     5
 74
     0
 42
0.0000000001
 43
0.0000000001
 40
0.0
 40
0.0
 40
0.0
 40
194.318668930313
 40
194.318668930313
 40
388.637337860626
 40
388.637337860626
 40
388.637337860626
 10
1700.161395858436
 20
718.6253972417504
 30
0.0
 41
1.0
 10
1698.819018648122
 20
842.3252205706357
 30
0.0
 41
0.7071067811865439
 10
1822.518841977007
 20
843.6675977809484
 30
0.0
 41
1.0
 10
1946.218665305892
 20
845.0099749912628
 30
0.0
 41
0.7071067811865459
 10
1947.561042516206
 20
721.3101516623777
 30
0.0
 41
1.0
  0
SPLINE
  5
378
330
1F
100
AcDbEntity
  8
LINEE VISIBILI 2D
100
AcDbSpline
210
0.0
220
0.0
230
1.0
 70
    12
 71
     2
 72
     8
 73
     5
 74
     0
 42
0.0000000001
 43
0.0000000001
 40
0.0
 40
0.0
 40
0.0
 40
194.3186689303131
 40
194.3186689303131
 40
388.6373378606263
 40
388.6373378606263
 40
388.6373378606263
 10
1947.561042516206
 20
721.3101516623777
 30
0.0
 41
1.0
 10
1948.903419726519
 20
597.6103283334926
 30
0.0
 41
0.7071067811865456
 10
1825.203596397634
 20
596.2679511231796
 30
0.0
 41
1.0
 10
1701.503773068749
 20
594.9255739128648
 30
0.0
 41
0.7071067811865417
 10
1700.161395858436
 20
718.6253972417504
 30
0.0
 41
1.0
  0
SPLINE
  5
379
330
1F
100
AcDbEntity
  8
LINEE VISIBILI 2D
100
AcDbSpline
210
0.0
220
0.0
230
1.0
 70
    12
 71
     2
 72
     6
 73
     3
 74
     0
 42
0.0000000001
 43
0.0000000001
 40
0.0
 40
0.0
 40
0.0
 40
14.65494520736774
 40
14.65494520736774
 40
14.65494520736774
 10
2650.575465403823
 20
224.8357347864404
 30
0.0
 41
1.0
 10
2650.776018738301
 20
217.3402348965199
 30
0.0
 41
0.966197022085805
 10
2654.684024766798
 20
210.9409982919711
 30
0.0
 41
1.0
  0
SPLINE
  5
37A
330
1F
100
AcDbEntity
  8
LINEE VISIBILI 2D
100
AcDbSpline
210
0.0
220
0.0
230
1.0
 70
    12
 71
     3
 72
     8
 73
     4
 74
     0
 42
0.0000000001
 43
0.0000000001
 40
-179.172725796908
 40
-179.172725796908
 40
-179.172725796908
 40
-179.172725796908
 40
-177.7729388689291
 40
-177.7729388689291
 40
-177.7729388689291
 40
-177.7729388689291
 10
2654.684024766798
 20
210.9409982919711
 30
0.0
 41
1.0
 10
2654.937492669545
 20
210.5245808101291
 30
0.0
 41
1.0
 10
2655.200009913513
 20
210.1170483711824
 30
0.0
 41
1.0
 10
2655.471195978008
 20
209.7185174886951
 30
0.0
 41
1.0
  0
SPLINE
  5
37B
330
1F
100
AcDbEntity
  8
LINEE VISIBILI 2D
100
AcDbSpline
210
0.0
220
0.0
230
1.0
 70
    12
 71
     2
 72
     6
 73
     3
 74
     0
 42
0.0000000001
 43
0.0000000001
 40
0.0
 40
0.0
 40
0.0
 40
42.9101630703753
 40
42.9101630703753
 40
42.9101630703753
 10
2655.471195978008
 20
209.7185174886951
 30
0.0
 41
1.0
 10
2670.584529312695
 20
187.5649616901906
 30
0.0
 41
0.7253532243373351
 10
2693.497855349498
 20
201.499536207151
 30
0.0
 41
1.0
  0
SPLINE
  5
37C
330
1F
100
AcDbEntity
  8
LINEE VISIBILI 2D
100
AcDbSpline
210
0.0
220
0.0
230
1.0
 70
    12
 71
     3
 72
     8
 73
     4
 74
     0
 42
0.0000000001
 43
0.0000000001
 40
-134.379544101583
 40
-134.379544101583
 40
-134.379544101583
 40
-134.379544101583
 40
-89.5863688116684
 40
-89.5863688116684
 40
-89.5863688116684
 40
-89.5863688116684
 10
2693.497855349498
 20
201.499536207151
 30
0.0
 41
1.0
 10
2706.823212779384
 20
209.6105078910205
 30
0.0
 41
1.0
 10
2711.050288875385
 20
226.9880093409008
 30
0.0
 41
1.0
 10
2702.939317132676
 20
240.3133668783968
 30
0.0
 41
1.0
  0
SPLINE
  5
37D
330
1F
100
AcDbEntity
  8
LINEE VISIBILI 2D
100
AcDbSpline
210
0.0
220
0.0
230
1.0
 70
    12
 71
     2
 72
     6
 73
     3
 74
     0
 42
0.0000000001
 43
0.0000000001
 40
0.0
 40
0.0
 40
0.0
 40
1.454148741689341
 40
1.454148741689341
 40
1.454148741689341
 10
2702.939317132676
 20
240.3133668783968
 30
0.0
 41
1.0
 10
2702.561226932824
 20
240.9345848692982
 30
0.0
 41
0.9996782918527315
 10
2702.152146302451
 20
241.5358477336554
 30
0.0
 41
1.0
  0
SPLINE
  5
37E
330
1F
100
AcDbEntity
  8
LINEE VISIBILI 2D
100
AcDbSpline
210
0.0
220
0.0
230
1.0
 70
    12
 71
     3
 72
     8
 73
     4
 74
     0
 42
0.0000000001
 43
0.0000000001
 40
-88.18658205899926
 40
-88.18658205899926
 40
-88.18658205899926
 40
-88.18658205899926
 40
-44.7931927262563
 40
-44.7931927262563
 40
-44.7931927262563
 40
-44.7931927262563
 10
2702.152146302451
 20
241.5358477336554
 30
0.0
 41
1.0
 10
2693.746208602824
 20
253.8908680362294
 30
0.0
 41
1.0
 10
2677.03442678923
 20
257.6123329213868
 30
0.0
 41
1.0
 10
2664.125486549467
 20
249.7548289629073
 30
0.0
 41
1.0
  0
SPLINE
  5
37F
330
1F
100
AcDbEntity
  8
LINEE VISIBILI 2D
100
AcDbSpline
210
0.0
220
0.0
230
1.0
 70
    12
 71
     2
 72
     6
 73
     3
 74
     0
 42
0.0000000001
 43
0.0000000001
 40
0.0
 40
0.0
 40
0.0
 40
17.58895396407449
 40
17.58895396407449
 40
17.58895396407449
 10
2664.125486549467
 20
249.7548289629073
 30
0.0
 41
1.0
 10
2656.351343850138
 20
245.0381093890952
 30
0.0
 41
0.9514569705420125
 10
2652.812583541915
 20
236.6618385171752
 30
0.0
 41
1.0
  0
SPLINE
  5
380
330
1F
100
AcDbEntity
  8
LINEE VISIBILI 2D
100
AcDbSpline
210
0.0
220
0.0
230
1.0
 70
    12
 71
     2
 72
     6
 73
     3
 74
     0
 42
0.0000000001
 43
0.0000000001
 40
0.0
 40
0.0
 40
0.0
 40
9.372023415562039
 40
9.372023415562039
 40
9.372023415562039
 10
2649.798221835897
 20
133.0944760236734
 30
0.0
 41
1.0
 10
2648.788003385787
 20
137.7150122381843
 30
0.0
 41
0.9862073652866004
 10
2646.324700126568
 20
141.7525898881713
 30
0.0
 41
1.0
  0
SPLINE
  5
381
330
1F
100
AcDbEntity
  8
LINEE VISIBILI 2D
100
AcDbSpline
210
0.0
220
0.0
230
1.0
 70
    12
 71
     2
 72
     6
 73
     3
 74
     0
 42
0.0000000001
 43
0.0000000001
 40
0.0
 40
0.0
 40
0.0
 40
37.65717079010238
 40
37.65717079010238
 40
37.65717079010238
 10
2646.324700126568
 20
141.7525898881713
 30
0.0
 41
1.0
 10
2634.765314551943
 20
160.7229946407375
 30
0.0
 41
0.7862838736415099
 10
2613.599383742732
 20
153.9776981818182
 30
0.0
 41
1.0
  0
SPLINE
  5
382
330
1F
100
AcDbEntity
  8
LINEE VISIBILI 2D
100
AcDbSpline
210
0.0
220
0.0
230
1.0
 70
    12
 71
     2
 72
     6
 73
     3
 74
     0
 42
0.0000000001
 43
0.0000000001
 40
0.0
 40
0.0
 40
0.0
 40
14.65494520736796
 40
14.65494520736796
 40
14.65494520736796
 10
2308.596233817027
 20
422.3718768285001
 30
0.0
 41
1.0
 10
2308.796787151504
 20
414.8763769385795
 30
0.0
 41
0.9661970220857931
 10
2312.704793180002
 20
408.4771403340308
 30
0.0
 41
1.0
  0
SPLINE
  5
383
330
1F
100
AcDbEntity
  8
LINEE VISIBILI 2D
100
AcDbSpline
210
0.0
220
0.0
230
1.0
 70
    12
 71
     3
 72
     8
 73
     4
 74
     0
 42
0.0000000001
 43
0.0000000001
 40
-179.172725796908
 40
-179.172725796908
 40
-179.172725796908
 40
-179.172725796908
 40
-177.7729388689291
 40
-177.7729388689291
 40
-177.7729388689291
 40
-177.7729388689291
 10
2312.704793180002
 20
408.4771403340308
 30
0.0
 41
1.0
 10
2312.95826108275
 20
408.0607228521887
 30
0.0
 41
1.0
 10
2313.220778326717
 20
407.653190413242
 30
0.0
 41
1.0
 10
2313.491964391213
 20
407.2546595307549
 30
0.0
 41
1.0
  0
SPLINE
  5
384
330
1F
100
AcDbEntity
  8
LINEE VISIBILI 2D
100
AcDbSpline
210
0.0
220
0.0
230
1.0
 70
    12
 71
     2
 72
     6
 73
     3
 74
     0
 42
0.0000000001
 43
0.0000000001
 40
0.0
 40
0.0
 40
0.0
 40
42.91016307037566
 40
42.91016307037566
 40
42.91016307037566
 10
2313.491964391213
 20
407.2546595307549
 30
0.0
 41
1.0
 10
2328.605297725899
 20
385.1011037322491
 30
0.0
 41
0.7253532243373065
 10
2351.518623762702
 20
399.0356782492108
 30
0.0
 41
1.0
  0
SPLINE
  5
385
330
1F
100
AcDbEntity
  8
LINEE VISIBILI 2D
100
AcDbSpline
210
0.0
220
0.0
230
1.0
 70
    12
 71
     3
 72
     8
 73
     4
 74
     0
 42
0.0000000001
 43
0.0000000001
 40
-134.379544101583
 40
-134.379544101583
 40
-134.379544101583
 40
-134.379544101583
 40
-89.58636881167858
 40
-89.58636881167858
 40
-89.58636881167858
 40
-89.58636881167858
 10
2351.518623762702
 20
399.0356782492108
 30
0.0
 41
1.0
 10
2364.843981192585
 20
407.1466499330784
 30
0.0
 41
1.0
 10
2369.071057288587
 20
424.5241513829525
 30
0.0
 41
1.0
 10
2360.960085545883
 20
437.8495089204521
 30
0.0
 41
1.0
  0
SPLINE
  5
386
330
1F
100
AcDbEntity
  8
LINEE VISIBILI 2D
100
AcDbSpline
210
0.0
220
0.0
230
1.0
 70
    12
 71
     2
 72
     6
 73
     3
 74
     0
 42
0.0000000001
 43
0.0000000001
 40
0.0
 40
0.0
 40
0.0
 40
1.454148741689438
 40
1.454148741689438
 40
1.454148741689438
 10
2360.960085545883
 20
437.8495089204521
 30
0.0
 41
1.0
 10
2360.581995346027
 20
438.470726911358
 30
0.0
 41
0.9996782918527315
 10
2360.172914715655
 20
439.0719897757151
 30
0.0
 41
1.0
  0
SPLINE
  5
387
330
1F
100
AcDbEntity
  8
LINEE VISIBILI 2D
100
AcDbSpline
210
0.0
220
0.0
230
1.0
 70
    12
 71
     3
 72
     8
 73
     4
 74
     0
 42
0.0000000001
 43
0.0000000001
 40
-88.18658205899926
 40
-88.18658205899926
 40
-88.18658205899926
 40
-88.18658205899926
 40
-44.79319272626649
 40
-44.79319272626649
 40
-44.79319272626649
 40
-44.79319272626649
 10
2360.172914715655
 20
439.0719897757151
 30
0.0
 41
1.0
 10
2351.76697701603
 20
451.4270100782863
 30
0.0
 41
1.0
 10
2335.055195202443
 20
455.1484749634448
 30
0.0
 41
1.0
 10
2322.146254962676
 20
447.2909710049697
 30
0.0
 41
1.0
  0
SPLINE
  5
388
330
1F
100
AcDbEntity
  8
LINEE VISIBILI 2D
100
AcDbSpline
210
0.0
220
0.0
230
1.0
 70
    12
 71
     2
 72
     6
 73
     3
 74
     0
 42
0.0000000001
 43
0.0000000001
 40
0.0
 40
0.0
 40
0.0
 40
17.58895396407489
 40
17.58895396407489
 40
17.58895396407489
 10
2322.146254962676
 20
447.2909710049697
 30
0.0
 41
1.0
 10
2314.372112263342
 20
442.5742514311552
 30
0.0
 41
0.9514569705420042
 10
2310.833351955119
 20
434.1979805592348
 30
0.0
 41
1.0
  0
SPLINE
  5
389
330
1F
100
AcDbEntity
  8
LINEE VISIBILI 2D
100
AcDbSpline
210
0.0
220
0.0
230
1.0
 70
    24
 71
     2
 72
     6
 73
     3
 74
     0
 42
0.0000000001
 43
0.0000000001
 40
0.0
 40
0.0
 40
0.0
 40
12.99994748739164
 40
12.99994748739164
 40
12.99994748739164
 10
542.6672879075361
 20
1389.072579711434
 30
0.0
 10
542.6672879075361
 20
1382.572605967738
 30
0.0
 10
542.6672879075361
 20
1376.072632224043
 30
0.0
  0
SPLINE
  5
38A
330
1F
100
AcDbEntity
  8
LINEE VISIBILI 2D
100
AcDbSpline
210
0.0
220
0.0
230
1.0
 70
    24
 71
     2
 72
     6
 73
     3
 74
     0
 42
0.0000000001
 43
0.0000000001
 40
0.0
 40
0.0
 40
0.0
 40
12.99984997625188
 40
12.99984997625188
 40
12.99984997625188
 10
345.1311458654762
 20
1389.072579711434
 30
0.0
 10
345.1311458654763
 20
1382.572654723308
 30
0.0
 10
345.1311458654764
 20
1376.072729735182
 30
0.0
  0
SPLINE
  5
38B
330
1F
100
AcDbEntity
  8
LINEE VISIBILI 2D
100
AcDbSpline
210
0.0
220
0.0
230
1.0
 70
    24
 71
     2
 72
     6
 73
     3
 74
     0
 42
0.0000000001
 43
0.0000000001
 40
0.0
 40
0.0
 40
0.0
 40
12.99994748739164
 40
12.99994748739164
 40
12.99994748739164
 10
739.8584341923629
 20
1389.072579711434
 30
0.0
 10
739.8584341923629
 20
1382.572605967738
 30
0.0
 10
739.8584341923629
 20
1376.072632224043
 30
0.0
  0
SPLINE
  5
38C
330
1F
100
AcDbEntity
  8
LINEE VISIBILI 2D
100
AcDbSpline
210
0.0
220
0.0
230
1.0
 70
    24
 71
     2
 72
     6
 73
     3
 74
     0
 42
0.0000000001
 43
0.0000000001
 40
0.0
 40
0.0
 40
0.0
 40
12.99849821933708
 40
12.99849821933708
 40
12.99849821933708
 10
48.61518727519524
 20
1389.072579711434
 30
0.0
 10
48.61518727519524
 20
1382.573330601766
 30
0.0
 10
48.61518727519524
 20
1376.074081492097
 30
0.0
  0
SPLINE
  5
38D
330
1F
100
AcDbEntity
  8
LINEE VISIBILI 2D
100
AcDbSpline
210
0.0
220
0.0
230
1.0
 70
    24
 71
     2
 72
     6
 73
     3
 74
     0
 42
0.0000000001
 43
0.0000000001
 40
0.0
 40
0.0
 40
0.0
 40
13.00000000000068
 40
13.00000000000068
 40
13.00000000000068
 10
205.0103504704252
 20
1376.072579711433
 30
0.0
 10
205.0103504704252
 20
1382.572579711434
 30
0.0
 10
205.0103504704251
 20
1389.072579711434
 30
0.0
  0
SPLINE
  5
38E
330
1F
100
AcDbEntity
  8
LINEE VISIBILI 2D
100
AcDbSpline
210
0.0
220
0.0
230
1.0
 70
    24
 71
     2
 72
     6
 73
     3
 74
     0
 42
0.0000000001
 43
0.0000000001
 40
0.0
 40
0.0
 40
0.0
 40
12.99994748739073
 40
12.99994748739073
 40
12.99994748739073
 10
147.4538401399714
 20
1389.072579711434
 30
0.0
 10
147.4538401399714
 20
1382.572605967739
 30
0.0
 10
147.4538401399714
 20
1376.072632224043
 30
0.0
  0
SPLINE
  5
38F
330
1F
100
AcDbEntity
  8
LINEE VISIBILI 2D
100
AcDbSpline
210
0.0
220
0.0
230
1.0
 70
    24
 71
     2
 72
     6
 73
     3
 74
     0
 42
0.0000000001
 43
0.0000000001
 40
0.0
 40
0.0
 40
0.0
 40
13.00000000000068
 40
13.00000000000068
 40
13.00000000000068
 10
106.700265415596
 20
1376.072579711433
 30
0.0
 10
106.700265415596
 20
1382.572579711434
 30
0.0
 10
106.700265415596
 20
1389.072579711434
 30
0.0
  0
SPLINE
  5
390
330
1F
100
AcDbEntity
  8
LINEE VISIBILI 2D
100
AcDbSpline
210
0.0
220
0.0
230
1.0
 70
    24
 71
     2
 72
     6
 73
     3
 74
     0
 42
0.0000000001
 43
0.0000000001
 40
0.0
 40
0.0
 40
0.0
 40
12.99988097772734
 40
12.99988097772734
 40
12.99988097772734
 10
640.9773729623653
 20
1389.072579711434
 30
0.0
 10
640.9773729623653
 20
1382.572639222571
 30
0.0
 10
640.9773729623653
 20
1376.072698733707
 30
0.0
  0
SPLINE
  5
391
330
1F
100
AcDbEntity
  8
LINEE VISIBILI 2D
100
AcDbSpline
210
0.0
220
0.0
230
1.0
 70
    24
 71
     2
 72
     6
 73
     3
 74
     0
 42
0.0000000001
 43
0.0000000001
 40
0.0
 40
0.0
 40
0.0
 40
13.00000000000068
 40
13.00000000000068
 40
13.00000000000068
 10
600.2237982379897
 20
1376.072579711433
 30
0.0
 10
600.2237982379897
 20
1382.572579711434
 30
0.0
 10
600.2237982379899
 20
1389.072579711434
 30
0.0
  0
SPLINE
  5
392
330
1F
100
AcDbEntity
  8
LINEE VISIBILI 2D
100
AcDbSpline
210
0.0
220
0.0
230
1.0
 70
    24
 71
     2
 72
     6
 73
     3
 74
     0
 42
0.0000000001
 43
0.0000000001
 40
0.0
 40
0.0
 40
0.0
 40
12.99961469246568
 40
12.99961469246568
 40
12.99961469246568
 10
443.4412309203055
 20
1389.072579711434
 30
0.0
 10
443.4412309203055
 20
1382.572772365201
 30
0.0
 10
443.4412309203055
 20
1376.072965018968
 30
0.0
  0
SPLINE
  5
393
330
1F
100
AcDbEntity
  8
LINEE VISIBILI 2D
100
AcDbSpline
210
0.0
220
0.0
230
1.0
 70
    24
 71
     2
 72
     6
 73
     3
 74
     0
 42
0.0000000001
 43
0.0000000001
 40
0.0
 40
0.0
 40
0.0
 40
13.00000000000068
 40
13.00000000000068
 40
13.00000000000068
 10
402.68765619593
 20
1376.072579711433
 30
0.0
 10
402.6876561959301
 20
1382.572579711434
 30
0.0
 10
402.6876561959301
 20
1389.072579711434
 30
0.0
  0
SPLINE
  5
394
330
1F
100
AcDbEntity
  8
LINEE VISIBILI 2D
100
AcDbSpline
210
0.0
220
0.0
230
1.0
 70
    24
 71
     2
 72
     6
 73
     3
 74
     0
 42
0.0000000001
 43
0.0000000001
 40
0.0
 40
0.0
 40
0.0
 40
12.99985914636409
 40
12.99985914636409
 40
12.99985914636409
 10
245.9866050192626
 20
1389.072579711434
 30
0.0
 10
245.9866050192626
 20
1382.572650138252
 30
0.0
 10
245.9866050192626
 20
1376.07272056507
 30
0.0
  0
SPLINE
  5
395
330
1F
100
AcDbEntity
  8
LINEE VISIBILI 2D
100
AcDbSpline
210
0.0
220
0.0
230
1.0
 70
    24
 71
     2
 72
     6
 73
     3
 74
     0
 42
0.0000000001
 43
0.0000000001
 40
0.0
 40
0.0
 40
0.0
 40
43.50000000000887
 40
43.50000000000887
 40
43.50000000000887
 10
2564.68816680302
 20
1432.571688227082
 30
0.0
 10
2564.68816680302
 20
1410.821688227078
 30
0.0
 10
2564.68816680302
 20
1389.071688227073
 30
0.0
  0
SPLINE
  5
396
330
1F
100
AcDbEntity
  8
LINEE VISIBILI 2D
100
AcDbSpline
210
0.0
220
0.0
230
1.0
 70
    24
 71
     2
 72
     6
 73
     3
 74
     0
 42
0.0000000001
 43
0.0000000001
 40
0.0
 40
0.0
 40
0.0
 40
43.50000000000887
 40
43.50000000000887
 40
43.50000000000887
 10
2546.68816680302
 20
1389.071688227073
 30
0.0
 10
2546.68816680302
 20
1410.821688227078
 30
0.0
 10
2546.68816680302
 20
1432.571688227082
 30
0.0
  0
SPLINE
  5
397
330
1F
100
AcDbEntity
  8
LINEE VISIBILI 2D
100
AcDbSpline
210
0.0
220
0.0
230
1.0
 70
    24
 71
     2
 72
     6
 73
     3
 74
     0
 42
0.0000000001
 43
0.0000000001
 40
0.0
 40
0.0
 40
0.0
 40
43.50000000000887
 40
43.50000000000887
 40
43.50000000000887
 10
2222.643593535915
 20
1432.571688227082
 30
0.0
 10
2222.643593535915
 20
1410.821688227078
 30
0.0
 10
2222.643593535915
 20
1389.071688227073
 30
0.0
  0
SPLINE
  5
398
330
1F
100
AcDbEntity
  8
LINEE VISIBILI 2D
100
AcDbSpline
210
0.0
220
0.0
230
1.0
 70
    24
 71
     2
 72
     6
 73
     3
 74
     0
 42
0.0000000001
 43
0.0000000001
 40
0.0
 40
0.0
 40
0.0
 40
43.50000000000887
 40
43.50000000000887
 40
43.50000000000887
 10
2204.643593535915
 20
1389.071688227073
 30
0.0
 10
2204.643593535915
 20
1410.821688227078
 30
0.0
 10
2204.643593535915
 20
1432.571688227082
 30
0.0
  0
SPLINE
  5
399
330
1F
100
AcDbEntity
  8
LINEE VISIBILI 2D
100
AcDbSpline
210
0.0
220
0.0
230
1.0
 70
    24
 71
     2
 72
     6
 73
     3
 74
     0
 42
0.0000000001
 43
0.0000000001
 40
0.0
 40
0.0
 40
0.0
 40
13.00000000000068
 40
13.00000000000068
 40
13.00000000000068
 10
1917.47287768334
 20
1376.071688227081
 30
0.0
 10
1917.47287768334
 20
1382.571688227082
 30
0.0
 10
1917.47287768334
 20
1389.071688227082
 30
0.0
  0
SPLINE
  5
39A
330
1F
100
AcDbEntity
  8
LINEE VISIBILI 2D
100
AcDbSpline
210
0.0
220
0.0
230
1.0
 70
    24
 71
     2
 72
     6
 73
     3
 74
     0
 42
0.0000000001
 43
0.0000000001
 40
0.0
 40
0.0
 40
0.0
 40
12.99981364883843
 40
12.99981364883843
 40
12.99981364883843
 10
2186.459537822865
 20
1389.071688227082
 30
0.0
 10
2186.459537822865
 20
1382.571781402663
 30
0.0
 10
2186.459537822865
 20
1376.071874578244
 30
0.0
  0
SPLINE
  5
39B
330
1F
100
AcDbEntity
  8
LINEE VISIBILI 2D
100
AcDbSpline
210
0.0
220
0.0
230
1.0
 70
    24
 71
     2
 72
     6
 73
     3
 74
     0
 42
0.0000000001
 43
0.0000000001
 40
0.0
 40
0.0
 40
0.0
 40
13.00000000000068
 40
13.00000000000068
 40
13.00000000000068
 10
2145.70596309849
 20
1376.071688227081
 30
0.0
 10
2145.70596309849
 20
1382.571688227082
 30
0.0
 10
2145.70596309849
 20
1389.071688227082
 30
0.0
  0
SPLINE
  5
39C
330
1F
100
AcDbEntity
  8
LINEE VISIBILI 2D
100
AcDbSpline
210
0.0
220
0.0
230
1.0
 70
    24
 71
     2
 72
     6
 73
     3
 74
     0
 42
0.0000000001
 43
0.0000000001
 40
0.0
 40
0.0
 40
0.0
 40
13.00000000000068
 40
13.00000000000068
 40
13.00000000000068
 10
2259.835008775417
 20
1376.071688227081
 30
0.0
 10
2259.835008775417
 20
1382.571688227082
 30
0.0
 10
2259.835008775417
 20
1389.071688227082
 30
0.0
  0
SPLINE
  5
39D
330
1F
100
AcDbEntity
  8
LINEE VISIBILI 2D
100
AcDbSpline
210
0.0
220
0.0
230
1.0
 70
    24
 71
     2
 72
     6
 73
     3
 74
     0
 42
0.0000000001
 43
0.0000000001
 40
0.0
 40
0.0
 40
0.0
 40
12.99987978619083
 40
12.99987978619083
 40
12.99987978619083
 10
2129.553337284281
 20
1389.071688227082
 30
0.0
 10
2129.55333728428
 20
1382.571748333987
 30
0.0
 10
2129.55333728428
 20
1376.071808440891
 30
0.0
  0
SPLINE
  5
39E
330
1F
100
AcDbEntity
  8
LINEE VISIBILI 2D
100
AcDbSpline
210
0.0
220
0.0
230
1.0
 70
    24
 71
     2
 72
     6
 73
     3
 74
     0
 42
0.0000000001
 43
0.0000000001
 40
0.0
 40
0.0
 40
0.0
 40
13.00000000000068
 40
13.00000000000068
 40
13.00000000000068
 10
2088.799762559905
 20
1376.071688227081
 30
0.0
 10
2088.799762559905
 20
1382.571688227082
 30
0.0
 10
2088.799762559905
 20
1389.071688227082
 30
0.0
  0
SPLINE
  5
39F
330
1F
100
AcDbEntity
  8
LINEE VISIBILI 2D
100
AcDbSpline
210
0.0
220
0.0
230
1.0
 70
    24
 71
     2
 72
     6
 73
     3
 74
     0
 42
0.0000000001
 43
0.0000000001
 40
0.0
 40
0.0
 40
0.0
 40
12.99976469176613
 40
12.99976469176613
 40
12.99976469176613
 10
1844.097406730788
 20
1389.071688227082
 30
0.0
 10
1844.097406730788
 20
1382.571805881199
 30
0.0
 10
1844.097406730788
 20
1376.071923535316
 30
0.0
  0
SPLINE
  5
3A0
330
1F
100
AcDbEntity
  8
LINEE VISIBILI 2D
100
AcDbSpline
210
0.0
220
0.0
230
1.0
 70
    24
 71
     2
 72
     6
 73
     3
 74
     0
 42
0.0000000001
 43
0.0000000001
 40
0.0
 40
0.0
 40
0.0
 40
13.00000000000068
 40
13.00000000000068
 40
13.00000000000068
 10
1803.343832006413
 20
1376.071688227081
 30
0.0
 10
1803.343832006413
 20
1382.571688227082
 30
0.0
 10
1803.343832006413
 20
1389.071688227082
 30
0.0
  0
SPLINE
  5
3A1
330
1F
100
AcDbEntity
  8
LINEE VISIBILI 2D
100
AcDbSpline
210
0.0
220
0.0
230
1.0
 70
    24
 71
     2
 72
     6
 73
     3
 74
     0
 42
0.0000000001
 43
0.0000000001
 40
0.0
 40
0.0
 40
0.0
 40
12.99987605359252
 40
12.99987605359252
 40
12.99987605359252
 10
2813.962848019528
 20
1389.071688227082
 30
0.0
 10
2813.962848019527
 20
1382.571750200286
 30
0.0
 10
2813.962848019527
 20
1376.07181217349
 30
0.0
  0
SPLINE
  5
3A2
330
1F
100
AcDbEntity
  8
LINEE VISIBILI 2D
100
AcDbSpline
210
0.0
220
0.0
230
1.0
 70
    24
 71
     2
 72
     6
 73
     3
 74
     0
 42
0.0000000001
 43
0.0000000001
 40
0.0
 40
0.0
 40
0.0
 40
13.00000000000068
 40
13.00000000000068
 40
13.00000000000068
 10
2773.209273295151
 20
1376.071688227081
 30
0.0
 10
2773.209273295151
 20
1382.571688227082
 30
0.0
 10
2773.209273295152
 20
1389.071688227082
 30
0.0
  0
SPLINE
  5
3A3
330
1F
100
AcDbEntity
  8
LINEE VISIBILI 2D
100
AcDbSpline
210
0.0
220
0.0
230
1.0
 70
    24
 71
     2
 72
     6
 73
     3
 74
     0
 42
0.0000000001
 43
0.0000000001
 40
0.0
 40
0.0
 40
0.0
 40
13.00000000000068
 40
13.00000000000068
 40
13.00000000000068
 10
2871.027370859927
 20
1389.071688227082
 30
0.0
 10
2871.027370859927
 20
1382.571688227082
 30
0.0
 10
2871.027370859927
 20
1376.071688227081
 30
0.0
  0
SPLINE
  5
3A4
330
1F
100
AcDbEntity
  8
LINEE VISIBILI 2D
100
AcDbSpline
210
0.0
220
0.0
230
1.0
 70
    24
 71
     2
 72
     6
 73
     3
 74
     0
 42
0.0000000001
 43
0.0000000001
 40
0.0
 40
0.0
 40
0.0
 40
12.99987978619083
 40
12.99987978619083
 40
12.99987978619083
 10
2471.532568871076
 20
1389.071688227082
 30
0.0
 10
2471.532568871076
 20
1382.571748333987
 30
0.0
 10
2471.532568871076
 20
1376.071808440891
 30
0.0
  0
SPLINE
  5
3A5
330
1F
100
AcDbEntity
  8
LINEE VISIBILI 2D
100
AcDbSpline
210
0.0
220
0.0
230
1.0
 70
    24
 71
     2
 72
     6
 73
     3
 74
     0
 42
0.0000000001
 43
0.0000000001
 40
0.0
 40
0.0
 40
0.0
 40
13.00000000000068
 40
13.00000000000068
 40
13.00000000000068
 10
2430.778994146701
 20
1376.071688227081
 30
0.0
 10
2430.778994146701
 20
1382.571688227082
 30
0.0
 10
2430.778994146701
 20
1389.071688227082
 30
0.0
  0
SPLINE
  5
3A6
330
1F
100
AcDbEntity
  8
LINEE VISIBILI 2D
100
AcDbSpline
210
0.0
220
0.0
230
1.0
 70
    24
 71
     2
 72
     6
 73
     3
 74
     0
 42
0.0000000001
 43
0.0000000001
 40
0.0
 40
0.0
 40
0.0
 40
12.9998261924793
 40
12.9998261924793
 40
12.9998261924793
 10
2528.438769409661
 20
1389.071688227082
 30
0.0
 10
2528.438769409661
 20
1382.571775130843
 30
0.0
 10
2528.438769409661
 20
1376.071862034603
 30
0.0
  0
SPLINE
  5
3A7
330
1F
100
AcDbEntity
  8
LINEE VISIBILI 2D
100
AcDbSpline
210
0.0
220
0.0
230
1.0
 70
    24
 71
     2
 72
     6
 73
     3
 74
     0
 42
0.0000000001
 43
0.0000000001
 40
0.0
 40
0.0
 40
0.0
 40
13.00000000000068
 40
13.00000000000068
 40
13.00000000000068
 10
2487.685194685286
 20
1376.071688227081
 30
0.0
 10
2487.685194685286
 20
1382.571688227082
 30
0.0
 10
2487.685194685286
 20
1389.071688227082
 30
0.0
  0
SPLINE
  5
3A8
330
1F
100
AcDbEntity
  8
LINEE VISIBILI 2D
100
AcDbSpline
210
0.0
220
0.0
230
1.0
 70
    24
 71
     2
 72
     6
 73
     3
 74
     0
 42
0.0000000001
 43
0.0000000001
 40
0.0
 40
0.0
 40
0.0
 40
13.00000000000068
 40
13.00000000000068
 40
13.00000000000068
 10
2601.814240362213
 20
1376.071688227081
 30
0.0
 10
2601.814240362212
 20
1382.571688227082
 30
0.0
 10
2601.814240362212
 20
1389.071688227082
 30
0.0
  0
SPLINE
  5
3A9
330
1F
100
AcDbEntity
  8
LINEE VISIBILI 2D
100
AcDbSpline
210
0.0
220
0.0
230
1.0
 70
    28
 71
     2
 72
    10
 73
     7
 74
     0
 42
0.0000000001
 43
0.0000000001
 40
8.835729338221293
 40
8.835729338221293
 40
8.835729338221293
 40
14.13716694115407
 40
14.13716694115407
 40
28.27433388230814
 40
28.27433388230814
 40
37.11006322052943
 40
37.11006322052943
 40
37.11006322052943
 10
2546.740153634026
 20
1432.571688227082
 30
0.0
 41
0.8627063036811942
 10
2546.452413397285
 20
1432.571688227082
 30
0.0
 41
0.8901650429449554
 10
2547.670142422955
 20
1432.571688227082
 30
0.0
 41
1.0
 10
2551.758086287623
 20
1432.571688227082
 30
0.0
 41
0.7071067811865476
 10
2559.776110667689
 20
1432.571688227082
 30
0.0
 41
1.0
 10
2564.113628835651
 20
1432.571688227082
 30
0.0
 41
0.8169417382415923
 10
2564.636179972014
 20
1432.571688227082
 30
0.0
 41
0.8627063036811942
  0
SPLINE
  5
3AA
330
1F
100
AcDbEntity
  8
LINEE VISIBILI 2D
100
AcDbSpline
210
0.0
220
0.0
230
1.0
 70
    24
 71
     2
 72
     6
 73
     3
 74
     0
 42
0.0000000001
 43
0.0000000001
 40
0.0
 40
0.0
 40
0.0
 40
0.1970353852438184
 40
0.1970353852438184
 40
0.1970353852438184
 10
2145.70596309849
 20
1376.23077813993
 30
0.0
 10
2145.607445406807
 20
1376.2307645378
 30
0.0
 10
2145.508927715124
 20
1376.230750935669
 30
0.0
  0
SPLINE
  5
3AB
330
1F
100
AcDbEntity
  8
LINEE VISIBILI 2D
100
AcDbSpline
210
0.0
220
0.0
230
1.0
 70
    24
 71
     2
 72
     6
 73
     3
 74
     0
 42
0.0000000001
 43
0.0000000001
 40
0.0
 40
0.0
 40
0.0
 40
0.1970353852438184
 40
0.1970353852438184
 40
0.1970353852438184
 10
2487.685194685286
 20
1376.23077813993
 30
0.0
 10
2487.586676993603
 20
1376.2307645378
 30
0.0
 10
2487.48815930192
 20
1376.230750935669
 30
0.0
  0
SPLINE
  5
3AC
330
1F
100
AcDbEntity
  8
LINEE VISIBILI 2D
100
AcDbSpline
210
0.0
220
0.0
230
1.0
 70
    28
 71
     2
 72
    10
 73
     7
 74
     0
 42
0.0000000001
 43
0.0000000001
 40
8.835729338221293
 40
8.835729338221293
 40
8.835729338221293
 40
14.13716694115407
 40
14.13716694115407
 40
28.27433388230814
 40
28.27433388230814
 40
37.11006322052943
 40
37.11006322052943
 40
37.11006322052943
 10
2204.695580366922
 20
1432.571688227082
 30
0.0
 41
0.8627063036811942
 10
2204.407840130179
 20
1432.571688227082
 30
0.0
 41
0.8901650429449554
 10
2205.62556915585
 20
1432.571688227082
 30
0.0
 41
1.0
 10
2209.713513020518
 20
1432.571688227082
 30
0.0
 41
0.7071067811865476
 10
2217.731537400584
 20
1432.571688227082
 30
0.0
 41
1.0
 10
2222.069055568546
 20
1432.571688227082
 30
0.0
 41
0.8169417382415923
 10
2222.591606704909
 20
1432.571688227082
 30
0.0
 41
0.8627063036811942
  0
SPLINE
  5
3AD
330
1F
100
AcDbEntity
  8
LINEE VISIBILI 2D
100
AcDbSpline
210
0.0
220
0.0
230
1.0
 70
    15
 71
     2
 72
    12
 73
     9
 74
     0
 42
0.0000000001
 43
0.0000000001
 40
0.0
 40
0.0
 40
0.0
 40
14.13716694115415
 40
14.13716694115415
 40
28.27433388230808
 40
28.27433388230808
 40
42.41150082346266
 40
42.41150082346266
 40
56.54866776461651
 40
56.54866776461651
 40
56.54866776461651
 10
2551.607506390654
 20
250.1029204679656
 30
0.0
 41
1.0
 10
2543.58948201059
 20
246.014976603297
 30
0.0
 41
0.7071067811865694
 10
2547.677425875257
 20
237.9969522232318
 30
0.0
 41
1.0
 10
2551.765369739927
 20
229.9789278431673
 30
0.0
 41
0.7071067811865681
 10
2559.783394119991
 20
234.0668717078358
 30
0.0
 41
1.0
 10
2567.801418500058
 20
238.1548155725037
 30
0.0
 41
0.7071067811864487
 10
2563.713474635388
 20
246.1728399525693
 30
0.0
 41
1.0
 10
2559.625530770719
 20
254.1908643326341
 30
0.0
 41
0.707106781186557
 10
2551.607506390654
 20
250.1029204679657
 30
0.0
 41
1.0
  0
SPLINE
  5
3AE
330
1F
100
AcDbEntity
  8
LINEE VISIBILI 2D
100
AcDbSpline
210
0.0
220
0.0
230
1.0
 70
    15
 71
     2
 72
    12
 73
     9
 74
     0
 42
0.0000000001
 43
0.0000000001
 40
0.0
 40
0.0
 40
0.0
 40
14.13716694115407
 40
14.13716694115407
 40
28.27433388230814
 40
28.27433388230814
 40
42.41150082346221
 40
42.41150082346221
 40
56.54866776461628
 40
56.54866776461628
 40
56.54866776461628
 10
2209.56293312355
 20
448.2049187075363
 30
0.0
 41
1.0
 10
2201.544908743484
 20
444.1169748428676
 30
0.0
 41
0.7071067811865476
 10
2205.632852608152
 20
436.0989504628026
 30
0.0
 41
1.0
 10
2209.720796472821
 20
428.0809260827374
 30
0.0
 41
0.7071067811865476
 10
2217.738820852886
 20
432.1688699474061
 30
0.0
 41
1.0
 10
2225.756845232951
 20
436.2568138120745
 30
0.0
 41
0.7071067811865476
 10
2221.668901368283
 20
444.2748381921397
 30
0.0
 41
1.0
 10
2217.580957503615
 20
452.2928625722047
 30
0.0
 41
0.7071067811865476
 10
2209.56293312355
 20
448.2049187075363
 30
0.0
 41
1.0
  0
ENDSEC
  0
SECTION
  2
OBJECTS
  0
DICTIONARY
  5
C
330
0
100
AcDbDictionary
281
     1
  3
ACAD_GROUP
350
D
  3
ACAD_LAYOUT
350
1A
  3
ACAD_MLEADERSTYLE
350
3B0
  3
ACAD_MLINESTYLE
350
17
  3
ACAD_PLOTSETTINGS
350
19
  3
ACAD_PLOTSTYLENAME
350
E
  3
ACAD_SCALELIST
350
3B
  3
ACAD_TABLESTYLE
350
3AF
  3
ACAD_VISUALSTYLE
350
2A
  0
DICTIONARY
  5
D
102
{ACAD_REACTORS
330
C
102
}
330
C
100
AcDbDictionary
281
     1
  0
DICTIONARY
  5
1A
102
{ACAD_REACTORS
330
C
102
}
330
C
100
AcDbDictionary
281
     1
  3
Layout1
350
1E
  3
Layout2
350
26
  3
Model
350
22
  0
DICTIONARY
  5
3B0
102
{ACAD_REACTORS
330
C
102
}
330
C
100
AcDbDictionary
281
     1
  0
DICTIONARY
  5
17
102
{ACAD_REACTORS
330
C
102
}
330
C
100
AcDbDictionary
281
     1
  3
Standard
350
18
  0
DICTIONARY
  5
19
102
{ACAD_REACTORS
330
C
102
}
330
C
100
AcDbDictionary
281
     1
  0
ACDBDICTIONARYWDFLT
  5
E
102
{ACAD_REACTORS
330
C
102
}
330
C
100
AcDbDictionary
281
     1
  3
Normal
350
F
100
AcDbDictionaryWithDefault
340
F
  0
DICTIONARY
  5
3B
102
{ACAD_REACTORS
330
C
102
}
330
C
100
AcDbDictionary
281
     1
  3
A0
350
3C
  3
A1
350
3D
  3
A2
350
3E
  3
A3
350
3F
  3
A4
350
40
  3
A5
350
41
  3
A6
350
42
  3
A7
350
43
  3
A8
350
44
  3
A9
350
45
  3
B0
350
46
  3
B1
350
47
  3
B2
350
48
  3
B3
350
49
  3
B4
350
4A
  3
B5
350
4B
  3
B6
350
4C
  3
B7
350
4D
  3
B8
350
4E
  3
B9
350
4F
  3
C0
350
50
  3
C1
350
51
  3
C2
350
52
  3
C3
350
53
  3
C4
350
54
  3
C5
350
55
  3
C6
350
56
  3
C7
350
57
  3
C8
350
58
  3
C9
350
59
  3
D0
350
5A
  3
D1
350
5B
  3
D2
350
5C
  0
DICTIONARY
  5
3AF
102
{ACAD_REACTORS
330
C
102
}
330
C
100
AcDbDictionary
281
     1
  0
DICTIONARY
  5
2A
102
{ACAD_REACTORS
330
C
102
}
330
C
100
AcDbDictionary
281
     1
  3
2dWireframe
350
2F
  3
3D Hidden
350
31
  3
3dWireframe
350
30
  3
Basic
350
32
  3
Brighten
350
36
  3
ColorChange
350
3A
  3
Conceptual
350
34
  3
Dim
350
35
  3
Facepattern
350
39
  3
Flat
350
2B
  3
FlatWithEdges
350
2C
  3
Gouraud
350
2D
  3
GouraudWithEdges
350
2E
  3
Linepattern
350
38
  3
Realistic
350
33
  3
Thicken
350
37
  0
LAYOUT
  5
1E
102
{ACAD_REACTORS
330
1A
102
}
330
1A
100
AcDbPlotSettings
  1

  2
none_device
  4

  6

 40
0.0
 41
0.0
 42
0.0
 43
0.0
 44
0.0
 45
0.0
 46
0.0
 47
0.0
 48
0.0
 49
0.0
140
0.0
141
0.0
142
1.0
143
1.0
 70
   688
 72
     0
 73
     0
 74
     5
  7

 75
    16
 76
     0
 77
     2
 78
   300
147
1.0
148
0.0
149
0.0
100
AcDbLayout
  1
Layout1
 70
     1
 71
     1
 10
0.0
 20
0.0
 11
12.0
 21
9.0
 12
0.0
 22
0.0
 32
0.0
 14
1.000000000000000E+20
 24
1.000000000000000E+20
 34
1.000000000000000E+20
 15
-1.000000000000000E+20
 25
-1.000000000000000E+20
 35
-1.000000000000000E+20
146
0.0
 13
0.0
 23
0.0
 33
0.0
 16
1.0
 26
0.0
 36
0.0
 17
0.0
 27
1.0
 37
0.0
 76
     0
330
1B
  0
LAYOUT
  5
26
102
{ACAD_REACTORS
330
1A
102
}
330
1A
100
AcDbPlotSettings
  1

  2
none_device
  4

  6

 40
0.0
 41
0.0
 42
0.0
 43
0.0
 44
0.0
 45
0.0
 46
0.0
 47
0.0
 48
0.0
 49
0.0
140
0.0
141
0.0
142
1.0
143
1.0
 70
   688
 72
     0
 73
     0
 74
     5
  7

 75
    16
 76
     0
 77
     2
 78
   300
147
1.0
148
0.0
149
0.0
100
AcDbLayout
  1
Layout2
 70
     1
 71
     2
 10
0.0
 20
0.0
 11
0.0
 21
0.0
 12
0.0
 22
0.0
 32
0.0
 14
0.0
 24
0.0
 34
0.0
 15
0.0
 25
0.0
 35
0.0
146
0.0
 13
0.0
 23
0.0
 33
0.0
 16
1.0
 26
0.0
 36
0.0
 17
0.0
 27
1.0
 37
0.0
 76
     0
330
23
  0
LAYOUT
  5
22
102
{ACAD_REACTORS
330
1A
102
}
330
1A
100
AcDbPlotSettings
  1

  2
none_device
  4

  6

 40
0.0
 41
0.0
 42
0.0
 43
0.0
 44
0.0
 45
0.0
 46
0.0
 47
0.0
 48
0.0
 49
0.0
140
0.0
141
0.0
142
1.0
143
1.0
 70
  1712
 72
     0
 73
     0
 74
     0
  7

 75
     0
 76
     0
 77
     2
 78
   300
147
1.0
148
0.0
149
0.0
100
AcDbLayout
  1
Model
 70
     1
 71
     0
 10
0.0
 20
0.0
 11
12.0
 21
9.0
 12
0.0
 22
0.0
 32
0.0
 14
-0.015643699172756
 24
0.007730998207121
 34
0.0
 15
2878.88041919678
 25
1432.572579711434
 35
0.0
146
0.0
 13
0.0
 23
0.0
 33
0.0
 16
1.0
 26
0.0
 36
0.0
 17
0.0
 27
1.0
 37
0.0
 76
     0
330
1F
331
29
  0
MLINESTYLE
  5
18
102
{ACAD_REACTORS
330
17
102
}
330
17
100
AcDbMlineStyle
  2
Standard
 70
     0
  3

 62
   256
 51
90.0
 52
90.0
 71
     2
 49
0.5
 62
   256
  6
BYLAYER
 49
-0.5
 62
   256
  6
BYLAYER
  0
ACDBPLACEHOLDER
  5
F
102
{ACAD_REACTORS
330
E
102
}
330
E
  0
SCALE
  5
3C
102
{ACAD_REACTORS
330
3B
102
}
330
3B
100
AcDbScale
 70
     0
300
1:1
140
1.0
141
1.0
290
     1
  0
SCALE
  5
3D
102
{ACAD_REACTORS
330
3B
102
}
330
3B
100
AcDbScale
 70
     0
300
1:2
140
1.0
141
2.0
290
     0
  0
SCALE
  5
3E
102
{ACAD_REACTORS
330
3B
102
}
330
3B
100
AcDbScale
 70
     0
300
1:4
140
1.0
141
4.0
290
     0
  0
SCALE
  5
3F
102
{ACAD_REACTORS
330
3B
102
}
330
3B
100
AcDbScale
 70
     0
300
1:5
140
1.0
141
5.0
290
     0
  0
SCALE
  5
40
102
{ACAD_REACTORS
330
3B
102
}
330
3B
100
AcDbScale
 70
     0
300
1:8
140
1.0
141
8.0
290
     0
  0
SCALE
  5
41
102
{ACAD_REACTORS
330
3B
102
}
330
3B
100
AcDbScale
 70
     0
300
1:10
140
1.0
141
10.0
290
     0
  0
SCALE
  5
42
102
{ACAD_REACTORS
330
3B
102
}
330
3B
100
AcDbScale
 70
     0
300
1:16
140
1.0
141
16.0
290
     0
  0
SCALE
  5
43
102
{ACAD_REACTORS
330
3B
102
}
330
3B
100
AcDbScale
 70
     0
300
1:20
140
1.0
141
20.0
290
     0
  0
SCALE
  5
44
102
{ACAD_REACTORS
330
3B
102
}
330
3B
100
AcDbScale
 70
     0
300
1:30
140
1.0
141
30.0
290
     0
  0
SCALE
  5
45
102
{ACAD_REACTORS
330
3B
102
}
330
3B
100
AcDbScale
 70
     0
300
1:40
140
1.0
141
40.0
290
     0
  0
SCALE
  5
46
102
{ACAD_REACTORS
330
3B
102
}
330
3B
100
AcDbScale
 70
     0
300
1:50
140
1.0
141
50.0
290
     0
  0
SCALE
  5
47
102
{ACAD_REACTORS
330
3B
102
}
330
3B
100
AcDbScale
 70
     0
300
1:100
140
1.0
141
100.0
290
     0
  0
SCALE
  5
48
102
{ACAD_REACTORS
330
3B
102
}
330
3B
100
AcDbScale
 70
     0
300
2:1
140
2.0
141
1.0
290
     0
  0
SCALE
  5
49
102
{ACAD_REACTORS
330
3B
102
}
330
3B
100
AcDbScale
 70
     0
300
4:1
140
4.0
141
1.0
290
     0
  0
SCALE
  5
4A
102
{ACAD_REACTORS
330
3B
102
}
330
3B
100
AcDbScale
 70
     0
300
8:1
140
8.0
141
1.0
290
     0
  0
SCALE
  5
4B
102
{ACAD_REACTORS
330
3B
102
}
330
3B
100
AcDbScale
 70
     0
300
10:1
140
10.0
141
1.0
290
     0
  0
SCALE
  5
4C
102
{ACAD_REACTORS
330
3B
102
}
330
3B
100
AcDbScale
 70
     0
300
100:1
140
100.0
141
1.0
290
     0
  0
SCALE
  5
4D
102
{ACAD_REACTORS
330
3B
102
}
330
3B
100
AcDbScale
 70
     0
300
1/128" = 1'-0"
140
0.0078125
141
12.0
290
     0
  0
SCALE
  5
4E
102
{ACAD_REACTORS
330
3B
102
}
330
3B
100
AcDbScale
 70
     0
300
1/64" = 1'-0"
140
0.015625
141
12.0
290
     0
  0
SCALE
  5
4F
102
{ACAD_REACTORS
330
3B
102
}
330
3B
100
AcDbScale
 70
     0
300
1/32" = 1'-0"
140
0.03125
141
12.0
290
     0
  0
SCALE
  5
50
102
{ACAD_REACTORS
330
3B
102
}
330
3B
100
AcDbScale
 70
     0
300
1/16" = 1'-0"
140
0.0625
141
12.0
290
     0
  0
SCALE
  5
51
102
{ACAD_REACTORS
330
3B
102
}
330
3B
100
AcDbScale
 70
     0
300
3/32" = 1'-0"
140
0.09375
141
12.0
290
     0
  0
SCALE
  5
52
102
{ACAD_REACTORS
330
3B
102
}
330
3B
100
AcDbScale
 70
     0
300
1/8" = 1'-0"
140
0.125
141
12.0
290
     0
  0
SCALE
  5
53
102
{ACAD_REACTORS
330
3B
102
}
330
3B
100
AcDbScale
 70
     0
300
3/16" = 1'-0"
140
0.1875
141
12.0
290
     0
  0
SCALE
  5
54
102
{ACAD_REACTORS
330
3B
102
}
330
3B
100
AcDbScale
 70
     0
300
1/4" = 1'-0"
140
0.25
141
12.0
290
     0
  0
SCALE
  5
55
102
{ACAD_REACTORS
330
3B
102
}
330
3B
100
AcDbScale
 70
     0
300
3/8" = 1'-0"
140
0.375
141
12.0
290
     0
  0
SCALE
  5
56
102
{ACAD_REACTORS
330
3B
102
}
330
3B
100
AcDbScale
 70
     0
300
1/2" = 1'-0"
140
0.5
141
12.0
290
     0
  0
SCALE
  5
57
102
{ACAD_REACTORS
330
3B
102
}
330
3B
100
AcDbScale
 70
     0
300
3/4" = 1'-0"
140
0.75
141
12.0
290
     0
  0
SCALE
  5
58
102
{ACAD_REACTORS
330
3B
102
}
330
3B
100
AcDbScale
 70
     0
300
1" = 1'-0"
140
1.0
141
12.0
290
     0
  0
SCALE
  5
59
102
{ACAD_REACTORS
330
3B
102
}
330
3B
100
AcDbScale
 70
     0
300
1-1/2" = 1'-0"
140
1.5
141
12.0
290
     0
  0
SCALE
  5
5A
102
{ACAD_REACTORS
330
3B
102
}
330
3B
100
AcDbScale
 70
     0
300
3" = 1'-0"
140
3.0
141
12.0
290
     0
  0
SCALE
  5
5B
102
{ACAD_REACTORS
330
3B
102
}
330
3B
100
AcDbScale
 70
     0
300
6" = 1'-0"
140
6.0
141
12.0
290
     0
  0
SCALE
  5
5C
102
{ACAD_REACTORS
330
3B
102
}
330
3B
100
AcDbScale
 70
     0
300
1'-0" = 1'-0"
140
12.0
141
12.0
290
     0
  0
VISUALSTYLE
  5
2F
102
{ACAD_REACTORS
330
2A
102
}
330
2A
100
AcDbVisualStyle
  2
2dWireframe
 70
     4
 71
     0
 72
     2
 73
     0
 90
        0
 40
-0.6
 41
-30.0
 62
     5
 63
     7
421
 16777215
 74
     1
 91
        4
 64
     7
 65
   257
 75
     1
175
     1
 42
1.0
 92
        0
 66
   257
 43
1.0
 76
     1
 77
     6
 78
     2
 67
     7
 79
     5
170
     0
171
     0
290
     0
174
     0
 93
        1
 44
0.0
173
     0
291
     0
 45
0.0
1001
ACAD
1000
AcDbSavedByObjectVersion
1070
     0
  0
VISUALSTYLE
  5
31
102
{ACAD_REACTORS
330
2A
102
}
330
2A
100
AcDbVisualStyle
  2
3D Hidden
 70
     6
 71
     1
 72
     2
 73
     2
 90
        0
 40
-0.6
 41
-30.0
 62
     5
 63
     7
421
 16777215
 74
     2
 91
        2
 64
     7
 65
   257
 75
     2
175
     1
 42
40.0
 92
        0
 66
   257
 43
1.0
 76
     1
 77
     6
 78
     2
 67
     7
 79
     3
170
     0
171
     0
290
     0
174
     0
 93
        1
 44
0.0
173
     0
291
     0
 45
0.0
1001
ACAD
1000
AcDbSavedByObjectVersion
1070
     0
  0
VISUALSTYLE
  5
30
102
{ACAD_REACTORS
330
2A
102
}
330
2A
100
AcDbVisualStyle
  2
3dWireframe
 70
     5
 71
     0
 72
     2
 73
     0
 90
        0
 40
-0.6
 41
-30.0
 62
     5
 63
     7
421
 16777215
 74
     1
 91
        4
 64
     7
 65
   257
 75
     1
175
     1
 42
1.0
 92
        0
 66
   257
 43
1.0
 76
     1
 77
     6
 78
     2
 67
     7
 79
     5
170
     0
171
     0
290
     0
174
     0
 93
        1
 44
0.0
173
     0
291
     0
 45
0.0
1001
ACAD
1000
AcDbSavedByObjectVersion
1070
     0
  0
VISUALSTYLE
  5
32
102
{ACAD_REACTORS
330
2A
102
}
330
2A
100
AcDbVisualStyle
  2
Basic
 70
     7
 71
     1
 72
     0
 73
     1
 90
        0
 40
-0.6
 41
-30.0
 62
     5
 63
     7
421
 16777215
 74
     0
 91
        4
 64
     7
 65
   257
 75
     1
175
     1
 42
1.0
 92
        8
 66
     7
 43
1.0
 76
     1
 77
     6
 78
     2
 67
     7
 79
     5
170
     0
171
     0
290
     0
174
     0
 93
        1
 44
0.0
173
     0
291
     1
 45
0.0
1001
ACAD
1000
AcDbSavedByObjectVersion
1070
     0
  0
VISUALSTYLE
  5
36
102
{ACAD_REACTORS
330
2A
102
}
330
2A
100
AcDbVisualStyle
  2
Brighten
 70
    12
 71
     2
 72
     2
 73
     0
 90
        0
 40
-0.6
 41
-30.0
 62
     5
 63
     7
421
 16777215
 74
     1
 91
        4
 64
     7
 65
   257
 75
     1
175
     1
 42
1.0
 92
        8
 66
     7
 43
1.0
 76
     1
 77
     6
 78
     2
 67
     7
 79
     5
170
     0
171
     0
290
     0
174
     0
 93
        1
 44
50.0
173
     0
291
     1
 45
0.0
1001
ACAD
1000
AcDbSavedByObjectVersion
1070
     0
  0
VISUALSTYLE
  5
3A
102
{ACAD_REACTORS
330
2A
102
}
330
2A
100
AcDbVisualStyle
  2
ColorChange
 70
    16
 71
     2
 72
     2
 73
     3
 90
        0
 40
-0.6
 41
-30.0
 62
     5
 63
     8
421
  8421504
 74
     1
 91
        4
 64
     7
 65
   257
 75
     1
175
     1
 42
1.0
 92
        8
 66
     8
424
  8421504
 43
1.0
 76
     1
 77
     6
 78
     2
 67
     7
 79
     5
170
     0
171
     0
290
     0
174
     0
 93
        1
 44
0.0
173
     0
291
     1
 45
0.0
1001
ACAD
1000
AcDbSavedByObjectVersion
1070
     0
  0
VISUALSTYLE
  5
34
102
{ACAD_REACTORS
330
2A
102
}
330
2A
100
AcDbVisualStyle
  2
Conceptual
 70
     9
 71
     3
 72
     2
 73
     0
 90
        0
 40
-0.6
 41
-30.0
 62
     5
 63
     7
421
 16777215
 74
     2
 91
        2
 64
     7
 65
   257
 75
     1
175
     1
 42
40.0
 92
        8
 66
     7
 43
1.0
 76
     1
 77
     6
 78
     2
 67
     7
 79
     3
170
     0
171
     0
290
     0
174
     0
 93
        1
 44
0.0
173
     0
291
     0
 45
0.0
1001
ACAD
1000
AcDbSavedByObjectVersion
1070
     0
  0
VISUALSTYLE
  5
35
102
{ACAD_REACTORS
330
2A
102
}
330
2A
100
AcDbVisualStyle
  2
Dim
 70
    11
 71
     2
 72
     2
 73
     0
 90
        0
 40
-0.6
 41
-30.0
 62
     5
 63
     7
421
 16777215
 74
     1
 91
        4
 64
     7
 65
   257
 75
     1
175
     1
 42
1.0
 92
        8
 66
     7
 43
1.0
 76
     1
 77
     6
 78
     2
 67
     7
 79
     5
170
     0
171
     0
290
     0
174
     0
 93
        1
 44
-50.0
173
     0
291
     1
 45
0.0
1001
ACAD
1000
AcDbSavedByObjectVersion
1070
     0
  0
VISUALSTYLE
  5
39
102
{ACAD_REACTORS
330
2A
102
}
330
2A
100
AcDbVisualStyle
  2
Facepattern
 70
    15
 71
     2
 72
     2
 73
     0
 90
        0
 40
-0.6
 41
-30.0
 62
     5
 63
     7
421
 16777215
 74
     1
 91
        4
 64
     7
 65
   257
 75
     1
175
     1
 42
1.0
 92
        8
 66
     7
 43
1.0
 76
     1
 77
     6
 78
     2
 67
     7
 79
     5
170
     0
171
     0
290
     0
174
     0
 93
        1
 44
0.0
173
     0
291
     1
 45
0.0
1001
ACAD
1000
AcDbSavedByObjectVersion
1070
     0
  0
VISUALSTYLE
  5
2B
102
{ACAD_REACTORS
330
2A
102
}
330
2A
100
AcDbVisualStyle
  2
Flat
 70
     0
 71
     2
 72
     1
 73
     1
 90
        2
 40
-0.6
 41
30.0
 62
     5
 63
     7
421
 16777215
 74
     0
 91
        4
 64
     7
 65
   257
 75
     1
175
     1
 42
1.0
 92
        8
 66
     7
 43
1.0
 76
     1
 77
     6
 78
     2
 67
     7
 79
     5
170
     0
171
     0
290
     0
174
     0
 93
       13
 44
0.0
173
     0
291
     1
 45
0.0
1001
ACAD
1000
AcDbSavedByObjectVersion
1070
     0
  0
VISUALSTYLE
  5
2C
102
{ACAD_REACTORS
330
2A
102
}
330
2A
100
AcDbVisualStyle
  2
FlatWithEdges
 70
     1
 71
     2
 72
     1
 73
     1
 90
        2
 40
-0.6
 41
30.0
 62
     5
 63
     7
421
 16777215
 74
     1
 91
        4
 64
     7
 65
   257
 75
     1
175
     1
 42
1.0
 92
        0
 66
   257
 43
1.0
 76
     1
 77
     6
 78
     2
 67
     7
 79
     5
170
     0
171
     0
290
     0
174
     0
 93
       13
 44
0.0
173
     0
291
     1
 45
0.0
1001
ACAD
1000
AcDbSavedByObjectVersion
1070
     0
  0
VISUALSTYLE
  5
2D
102
{ACAD_REACTORS
330
2A
102
}
330
2A
100
AcDbVisualStyle
  2
Gouraud
 70
     2
 71
     2
 72
     2
 73
     1
 90
        2
 40
-0.6
 41
30.0
 62
     5
 63
     7
421
 16777215
 74
     0
 91
        4
 64
     7
 65
   257
 75
     1
175
     1
 42
1.0
 92
        0
 66
     7
 43
1.0
 76
     1
 77
     6
 78
     2
 67
     7
 79
     5
170
     0
171
     0
290
     0
174
     0
 93
       13
 44
0.0
173
     0
291
     1
 45
0.0
1001
ACAD
1000
AcDbSavedByObjectVersion
1070
     0
  0
VISUALSTYLE
  5
2E
102
{ACAD_REACTORS
330
2A
102
}
330
2A
100
AcDbVisualStyle
  2
GouraudWithEdges
 70
     3
 71
     2
 72
     2
 73
     1
 90
        2
 40
-0.6
 41
30.0
 62
     5
 63
     7
421
 16777215
 74
     1
 91
        4
 64
     7
 65
   257
 75
     1
175
     1
 42
1.0
 92
        0
 66
   257
 43
1.0
 76
     1
 77
     6
 78
     2
 67
     7
 79
     5
170
     0
171
     0
290
     0
174
     0
 93
       13
 44
0.0
173
     0
291
     1
 45
0.0
1001
ACAD
1000
AcDbSavedByObjectVersion
1070
     0
  0
VISUALSTYLE
  5
38
102
{ACAD_REACTORS
330
2A
102
}
330
2A
100
AcDbVisualStyle
  2
Linepattern
 70
    14
 71
     2
 72
     2
 73
     0
 90
        0
 40
-0.6
 41
-30.0
 62
     5
 63
     7
421
 16777215
 74
     1
 91
        4
 64
     7
 65
   257
 75
     7
175
     7
 42
1.0
 92
        8
 66
     7
 43
1.0
 76
     1
 77
     6
 78
     2
 67
     7
 79
     5
170
     0
171
     0
290
     0
174
     0
 93
        1
 44
0.0
173
     0
291
     1
 45
0.0
1001
ACAD
1000
AcDbSavedByObjectVersion
1070
     0
  0
VISUALSTYLE
  5
33
102
{ACAD_REACTORS
330
2A
102
}
330
2A
100
AcDbVisualStyle
  2
Realistic
 70
     8
 71
     2
 72
     2
 73
     0
 90
        0
 40
-0.6
 41
-30.0
 62
     5
 63
     7
421
 16777215
 74
     1
 91
        0
 64
     7
 65
   257
 75
     1
175
     1
 42
1.0
 92
        8
 66
     8
424
  7895160
 43
1.0
 76
     1
 77
     6
 78
     2
 67
     7
 79
     5
170
     0
171
     0
290
     0
174
     0
 93
       13
 44
0.0
173
     0
291
     0
 45
0.0
1001
ACAD
1000
AcDbSavedByObjectVersion
1070
     0
  0
VISUALSTYLE
  5
37
102
{ACAD_REACTORS
330
2A
102
}
330
2A
100
AcDbVisualStyle
  2
Thicken
 70
    13
 71
     2
 72
     2
 73
     0
 90
        0
 40
-0.6
 41
-30.0
 62
     5
 63
     7
421
 16777215
 74
     1
 91
        4
 64
     7
 65
   257
 75
     1
175
     1
 42
1.0
 92
       12
 66
     7
 43
1.0
 76
     1
 77
     6
 78
     2
 67
     7
 79
     5
170
     0
171
     0
290
     0
174
     0
 93
        1
 44
0.0
173
     0
291
     1
 45
0.0
1001
ACAD
1000
AcDbSavedByObjectVersion
1070
     0
  0
ENDSEC
  0
EOF
