  0
SECTION
  2
HEADER
  9
$ACADVER
  1
AC1018
  9
$ACADMAINTVER
 70
     0
  9
$DWGCODEPAGE
  3
ANSI_1252
  9
$INSBASE
 10
0.0
 20
0.0
 30
0.0
  9
$EXTMIN
 10
0.0000165941682155
 20
0.0080485887876184
 30
0.0
  9
$EXTMAX
 10
1684.985537295362
 20
1080.964600573796
 30
0.0
  9
$LIMMIN
 10
0.0
 20
0.0
  9
$LIMMAX
 10
12.0
 20
9.0
  9
$ORTHOMODE
 70
     0
  9
$REGENMODE
 70
     1
  9
$FILLMODE
 70
     1
  9
$QTEXTMODE
 70
     0
  9
$MIRRTEXT
 70
     1
  9
$LTSCALE
 40
1.0
  9
$ATTMODE
 70
     1
  9
$TEXTSIZE
 40
0.2
  9
$TRACEWID
 40
0.05
  9
$TEXTSTYLE
  7
Standard
  9
$CLAYER
  8
PREDEFINITO
  9
$CELTYPE
  6
ByLayer
  9
$CECOLOR
 62
   256
  9
$CELTSCALE
 40
1.0
  9
$DISPSILH
 70
     0
  9
$DIMSCALE
 40
1.0
  9
$DIMASZ
 40
0.18
  9
$DIMEXO
 40
0.0625
  9
$DIMDLI
 40
0.38
  9
$DIMRND
 40
0.0
  9
$DIMDLE
 40
0.0
  9
$DIMEXE
 40
0.18
  9
$DIMTP
 40
0.0
  9
$DIMTM
 40
0.0
  9
$DIMTXT
 40
0.18
  9
$DIMCEN
 40
0.09
  9
$DIMTSZ
 40
0.0
  9
$DIMTOL
 70
     0
  9
$DIMLIM
 70
     0
  9
$DIMTIH
 70
     1
  9
$DIMTOH
 70
     1
  9
$DIMSE1
 70
     0
  9
$DIMSE2
 70
     0
  9
$DIMTAD
 70
     0
  9
$DIMZIN
 70
     0
  9
$DIMBLK
  1

  9
$DIMASO
 70
     1
  9
$DIMSHO
 70
     1
  9
$DIMPOST
  1

  9
$DIMAPOST
  1

  9
$DIMALT
 70
     0
  9
$DIMALTD
 70
     2
  9
$DIMALTF
 40
25.4
  9
$DIMLFAC
 40
1.0
  9
$DIMTOFL
 70
     0
  9
$DIMTVP
 40
0.0
  9
$DIMTIX
 70
     0
  9
$DIMSOXD
 70
     0
  9
$DIMSAH
 70
     0
  9
$DIMBLK1
  1

  9
$DIMBLK2
  1

  9
$DIMSTYLE
  2
Standard
  9
$DIMCLRD
 70
     0
  9
$DIMCLRE
 70
     0
  9
$DIMCLRT
 70
     0
  9
$DIMTFAC
 40
1.0
  9
$DIMGAP
 40
0.09
  9
$DIMJUST
 70
     0
  9
$DIMSD1
 70
     0
  9
$DIMSD2
 70
     0
  9
$DIMTOLJ
 70
     1
  9
$DIMTZIN
 70
     0
  9
$DIMALTZ
 70
     0
  9
$DIMALTTZ
 70
     0
  9
$DIMUPT
 70
     0
  9
$DIMDEC
 70
     4
  9
$DIMTDEC
 70
     4
  9
$DIMALTU
 70
     2
  9
$DIMALTTD
 70
     2
  9
$DIMTXSTY
  7
Standard
  9
$DIMAUNIT
 70
     0
  9
$DIMADEC
 70
     0
  9
$DIMALTRND
 40
0.0
  9
$DIMAZIN
 70
     0
  9
$DIMDSEP
 70
    46
  9
$DIMATFIT
 70
     3
  9
$DIMFRAC
 70
     0
  9
$DIMLDRBLK
  1

  9
$DIMLUNIT
 70
     2
  9
$DIMLWD
 70
    -2
  9
$DIMLWE
 70
    -2
  9
$DIMTMOVE
 70
     0
  9
$LUNITS
 70
     2
  9
$LUPREC
 70
     3
  9
$SKETCHINC
 40
0.1
  9
$FILLETRAD
 40
0.5
  9
$AUNITS
 70
     0
  9
$AUPREC
 70
     0
  9
$MENU
  1
.
  9
$ELEVATION
 40
0.0
  9
$PELEVATION
 40
0.0
  9
$THICKNESS
 40
0.0
  9
$LIMCHECK
 70
     0
  9
$CHAMFERA
 40
0.5
  9
$CHAMFERB
 40
0.5
  9
$CHAMFERC
 40
1.0
  9
$CHAMFERD
 40
0.0
  9
$SKPOLY
 70
     0
  9
$TDCREATE
 40
2455852.47533081
  9
$TDUCREATE
 40
2455852.391997477
  9
$TDUPDATE
 40
2455852.475330822
  9
$TDUUPDATE
 40
2455852.391997488
  9
$TDINDWG
 40
0.0000000116
  9
$TDUSRTIMER
 40
0.0000000116
  9
$USRTIMER
 70
     1
  9
$ANGBASE
 50
0.0
  9
$ANGDIR
 70
     0
  9
$PDMODE
 70
     0
  9
$PDSIZE
 40
0.0
  9
$PLINEWID
 40
0.0
  9
$SPLFRAME
 70
     0
  9
$SPLINETYPE
 70
     6
  9
$SPLINESEGS
 70
     8
  9
$HANDSEED
  5
319
  9
$SURFTAB1
 70
     6
  9
$SURFTAB2
 70
     6
  9
$SURFTYPE
 70
     6
  9
$SURFU
 70
     6
  9
$SURFV
 70
     6
  9
$UCSBASE
  2

  9
$UCSNAME
  2

  9
$UCSORG
 10
0.0
 20
0.0
 30
0.0
  9
$UCSXDIR
 10
1.0
 20
0.0
 30
0.0
  9
$UCSYDIR
 10
0.0
 20
1.0
 30
0.0
  9
$UCSORTHOREF
  2

  9
$UCSORTHOVIEW
 70
     0
  9
$UCSORGTOP
 10
0.0
 20
0.0
 30
0.0
  9
$UCSORGBOTTOM
 10
0.0
 20
0.0
 30
0.0
  9
$UCSORGLEFT
 10
0.0
 20
0.0
 30
0.0
  9
$UCSORGRIGHT
 10
0.0
 20
0.0
 30
0.0
  9
$UCSORGFRONT
 10
0.0
 20
0.0
 30
0.0
  9
$UCSORGBACK
 10
0.0
 20
0.0
 30
0.0
  9
$PUCSBASE
  2

  9
$PUCSNAME
  2

  9
$PUCSORG
 10
0.0
 20
0.0
 30
0.0
  9
$PUCSXDIR
 10
1.0
 20
0.0
 30
0.0
  9
$PUCSYDIR
 10
0.0
 20
1.0
 30
0.0
  9
$PUCSORTHOREF
  2

  9
$PUCSORTHOVIEW
 70
     0
  9
$PUCSORGTOP
 10
0.0
 20
0.0
 30
0.0
  9
$PUCSORGBOTTOM
 10
0.0
 20
0.0
 30
0.0
  9
$PUCSORGLEFT
 10
0.0
 20
0.0
 30
0.0
  9
$PUCSORGRIGHT
 10
0.0
 20
0.0
 30
0.0
  9
$PUCSORGFRONT
 10
0.0
 20
0.0
 30
0.0
  9
$PUCSORGBACK
 10
0.0
 20
0.0
 30
0.0
  9
$USERI1
 70
     0
  9
$USERI2
 70
     0
  9
$USERI3
 70
     0
  9
$USERI4
 70
     0
  9
$USERI5
 70
     0
  9
$USERR1
 40
0.0
  9
$USERR2
 40
0.0
  9
$USERR3
 40
0.0
  9
$USERR4
 40
0.0
  9
$USERR5
 40
0.0
  9
$WORLDVIEW
 70
     1
  9
$SHADEDGE
 70
     3
  9
$SHADEDIF
 70
    70
  9
$TILEMODE
 70
     1
  9
$MAXACTVP
 70
    64
  9
$PINSBASE
 10
0.0
 20
0.0
 30
0.0
  9
$PLIMCHECK
 70
     0
  9
$PEXTMIN
 10
1.000000000000000E+20
 20
1.000000000000000E+20
 30
1.000000000000000E+20
  9
$PEXTMAX
 10
-1.000000000000000E+20
 20
-1.000000000000000E+20
 30
-1.000000000000000E+20
  9
$PLIMMIN
 10
0.0
 20
0.0
  9
$PLIMMAX
 10
12.0
 20
9.0
  9
$UNITMODE
 70
     0
  9
$VISRETAIN
 70
     1
  9
$PLINEGEN
 70
     0
  9
$PSLTSCALE
 70
     1
  9
$TREEDEPTH
 70
  3020
  9
$CMLSTYLE
  2
Standard
  9
$CMLJUST
 70
     0
  9
$CMLSCALE
 40
1.0
  9
$PROXYGRAPHICS
 70
     1
  9
$MEASUREMENT
 70
     0
  9
$CELWEIGHT
370
    -1
  9
$ENDCAPS
280
     0
  9
$JOINSTYLE
280
     0
  9
$LWDISPLAY
290
     0
  9
$INSUNITS
 70
     4
  9
$HYPERLINKBASE
  1

  9
$STYLESHEET
  1

  9
$XEDIT
290
     1
  9
$CEPSNTYPE
380
     0
  9
$PSTYLEMODE
290
     1
  9
$FINGERPRINTGUID
  2
{415CF8C6-3F96-4446-B6C6-E2BAABBCAA22}
  9
$VERSIONGUID
  2
{FAEB1C32-E019-11D5-929B-00C0DF256EC4}
  9
$EXTNAMES
290
     1
  9
$PSVPSCALE
 40
0.0
  9
$OLESTARTUP
290
     0
  9
$SORTENTS
280
   127
  9
$INDEXCTL
280
     0
  9
$HIDETEXT
280
     1
  9
$XCLIPFRAME
290
     0
  9
$HALOGAP
280
     0
  9
$OBSCOLOR
 70
   257
  9
$OBSLTYPE
280
     0
  9
$INTERSECTIONDISPLAY
280
     0
  9
$INTERSECTIONCOLOR
 70
   257
  9
$DIMASSOC
280
     2
  9
$PROJECTNAME
  1

  0
ENDSEC
  0
SECTION
  2
CLASSES
  0
CLASS
  1
ACDBDICTIONARYWDFLT
  2
AcDbDictionaryWithDefault
  3
ObjectDBX Classes
 90
        0
 91
        3
280
     0
281
     0
  0
CLASS
  1
VISUALSTYLE
  2
AcDbVisualStyle
  3
ObjectDBX Classes
 90
     4095
 91
        3
280
     0
281
     0
  0
CLASS
  1
SCALE
  2
AcDbScale
  3
ObjectDBX Classes
 90
     1153
 91
        3
280
     0
281
     0
  0
ENDSEC
  0
SECTION
  2
TABLES
  0
TABLE
  2
VPORT
  5
8
330
0
100
AcDbSymbolTable
 70
     1
  0
VPORT
  5
29
330
8
100
AcDbSymbolTableRecord
100
AcDbViewportTableRecord
  2
*Active
 70
     0
 10
0.0
 20
0.0
 11
1.0
 21
1.0
 12
0.0
 22
0.0
 13
0.0
 23
0.0
 14
0.5
 24
0.5
 15
0.5
 25
0.5
 16
0.0
 26
0.0
 36
1.0
 17
842.4927769447652
 27
540.4863245812919
 37
0.0
 40
1102.575683024709
 41
1.558791162888999
 42
50.0
 43
0.0
 44
0.0
 50
0.0
 51
0.0
 71
     0
 72
   100
 73
     1
 74
     3
 75
     0
 76
     0
 77
     0
 78
     0
281
     0
 65
     1
110
0.0
120
0.0
130
0.0
111
1.0
121
0.0
131
0.0
112
0.0
122
1.0
132
0.0
 79
     0
146
0.0
  0
ENDTAB
  0
TABLE
  2
LTYPE
  5
5
330
0
100
AcDbSymbolTable
 70
     1
  0
LTYPE
  5
14
330
5
100
AcDbSymbolTableRecord
100
AcDbLinetypeTableRecord
  2
ByBlock
 70
     0
  3

 72
    65
 73
     0
 40
0.0
  0
LTYPE
  5
15
330
5
100
AcDbSymbolTableRecord
100
AcDbLinetypeTableRecord
  2
ByLayer
 70
     0
  3

 72
    65
 73
     0
 40
0.0
  0
LTYPE
  5
16
330
5
100
AcDbSymbolTableRecord
100
AcDbLinetypeTableRecord
  2
Continuous
 70
     0
  3
Solid line
 72
    65
 73
     0
 40
0.0
  0
ENDTAB
  0
TABLE
  2
LAYER
  5
2
330
0
100
AcDbSymbolTable
 70
     3
  0
LAYER
  5
10
330
2
100
AcDbSymbolTableRecord
100
AcDbLayerTableRecord
  2
0
 70
     0
 62
     7
  6
Continuous
370
    -3
390
F
  0
LAYER
  5
5D
330
2
100
AcDbSymbolTableRecord
100
AcDbLayerTableRecord
  2
LINEE VISIBILI 2D
 70
     0
 62
     7
  6
Continuous
370
    -3
390
F
  0
LAYER
  5
66
330
2
100
AcDbSymbolTableRecord
100
AcDbLayerTableRecord
  2
PREDEFINITO
 70
     0
 62
     7
  6
Continuous
370
    -3
390
F
  0
ENDTAB
  0
TABLE
  2
STYLE
  5
3
330
0
100
AcDbSymbolTable
 70
     1
  0
STYLE
  5
11
330
3
100
AcDbSymbolTableRecord
100
AcDbTextStyleTableRecord
  2
Standard
 70
     0
 40
0.0
 41
1.0
 50
0.0
 71
     0
 42
0.2
  3
txt
  4

  0
ENDTAB
  0
TABLE
  2
VIEW
  5
6
330
0
100
AcDbSymbolTable
 70
     0
  0
ENDTAB
  0
TABLE
  2
UCS
  5
7
330
0
100
AcDbSymbolTable
 70
     0
  0
ENDTAB
  0
TABLE
  2
APPID
  5
9
330
0
100
AcDbSymbolTable
 70
     1
  0
APPID
  5
12
330
9
100
AcDbSymbolTableRecord
100
AcDbRegAppTableRecord
  2
ACAD
 70
     0
  0
ENDTAB
  0
TABLE
  2
DIMSTYLE
  5
A
330
0
100
AcDbSymbolTable
 70
     1
100
AcDbDimStyleTable
  0
DIMSTYLE
105
27
330
A
100
AcDbSymbolTableRecord
100
AcDbDimStyleTableRecord
  2
Standard
 70
     0
340
11
  0
ENDTAB
  0
TABLE
  2
BLOCK_RECORD
  5
1
330
0
100
AcDbSymbolTable
 70
     1
  0
BLOCK_RECORD
  5
1F
330
1
100
AcDbSymbolTableRecord
100
AcDbBlockTableRecord
  2
*Model_Space
340
22
  0
BLOCK_RECORD
  5
1B
330
1
100
AcDbSymbolTableRecord
100
AcDbBlockTableRecord
  2
*Paper_Space
340
1E
  0
BLOCK_RECORD
  5
23
330
1
100
AcDbSymbolTableRecord
100
AcDbBlockTableRecord
  2
*Paper_Space0
340
26
  0
ENDTAB
  0
ENDSEC
  0
SECTION
  2
BLOCKS
  0
BLOCK
  5
20
330
1F
100
AcDbEntity
  8
0
100
AcDbBlockBegin
  2
*Model_Space
 70
     0
 10
0.0
 20
0.0
 30
0.0
  3
*Model_Space
  1

  0
ENDBLK
  5
21
330
1F
100
AcDbEntity
  8
0
100
AcDbBlockEnd
  0
BLOCK
  5
1C
330
1B
100
AcDbEntity
 67
     1
  8
0
100
AcDbBlockBegin
  2
*Paper_Space
 70
     0
 10
0.0
 20
0.0
 30
0.0
  3
*Paper_Space
  1

  0
ENDBLK
  5
1D
330
1B
100
AcDbEntity
 67
     1
  8
0
100
AcDbBlockEnd
  0
BLOCK
  5
24
330
23
100
AcDbEntity
  8
0
100
AcDbBlockBegin
  2
*Paper_Space0
 70
     0
 10
0.0
 20
0.0
 30
0.0
  3
*Paper_Space0
  1

  0
ENDBLK
  5
25
330
23
100
AcDbEntity
  8
0
100
AcDbBlockEnd
  0
ENDSEC
  0
SECTION
  2
ENTITIES
  0
SPLINE
  5
5E
330
1F
100
AcDbEntity
  8
LINEE VISIBILI 2D
100
AcDbSpline
210
0.0
220
0.0
230
1.0
 70
    24
 71
     2
 72
     6
 73
     3
 74
     0
 42
0.0000000001
 43
0.0000000001
 40
0.0
 40
0.0
 40
0.0
 40
13.00000000000091
 40
13.00000000000091
 40
13.00000000000091
 10
7.859957647612049
 20
1024.754804654099
 30
0.0
 10
7.859957647612049
 20
1031.2548046541
 30
0.0
 10
7.859957647612049
 20
1037.7548046541
 30
0.0
  0
SPLINE
  5
5F
330
1F
100
AcDbEntity
  8
LINEE VISIBILI 2D
100
AcDbSpline
210
0.0
220
0.0
230
1.0
 70
    24
 71
     2
 72
     6
 73
     3
 74
     0
 42
0.0000000001
 43
0.0000000001
 40
0.0
 40
0.0
 40
0.0
 40
12.99974444386112
 40
12.99974444386112
 40
12.99974444386112
 10
48.61353237198787
 20
1037.754681116205
 30
0.0
 10
48.61353237198787
 20
1031.254808894274
 30
0.0
 10
48.61353237198787
 20
1024.754936672344
 30
0.0
  0
SPLINE
  5
60
330
1F
100
AcDbEntity
  8
LINEE VISIBILI 2D
100
AcDbSpline
210
0.0
220
0.0
230
1.0
 70
    24
 71
     2
 72
     6
 73
     3
 74
     0
 42
0.0000000001
 43
0.0000000001
 40
0.0
 40
0.0
 40
0.0
 40
12.99999066201531
 40
12.99999066201531
 40
12.99999066201531
 10
179.379137411218
 20
1024.755286054212
 30
0.0
 10
179.379137411218
 20
1031.25528138522
 30
0.0
 10
179.379137411218
 20
1037.755276716228
 30
0.0
  0
SPLINE
  5
61
330
1F
100
AcDbEntity
  8
LINEE VISIBILI 2D
100
AcDbSpline
210
0.0
220
0.0
230
1.0
 70
    24
 71
     2
 72
     6
 73
     3
 74
     0
 42
0.0000000001
 43
0.0000000001
 40
0.0
 40
0.0
 40
0.0
 40
12.9998206735454
 40
12.9998206735454
 40
12.9998206735454
 10
447.9337407559177
 20
1037.7548046541
 30
0.0
 10
447.9337407559177
 20
1031.254894317328
 30
0.0
 10
447.9337407559177
 20
1024.754983980555
 30
0.0
  0
SPLINE
  5
62
330
1F
100
AcDbEntity
  8
LINEE VISIBILI 2D
100
AcDbSpline
210
0.0
220
0.0
230
1.0
 70
    24
 71
     2
 72
     6
 73
     3
 74
     0
 42
0.0000000001
 43
0.0000000001
 40
0.0
 40
0.0
 40
0.0
 40
12.99999899754175
 40
12.99999899754175
 40
12.99999899754175
 10
106.0036664586665
 20
1037.755285051754
 30
0.0
 10
106.0036664586665
 20
1031.255285552983
 30
0.0
 10
106.0036664586665
 20
1024.755286054212
 30
0.0
  0
SPLINE
  5
63
330
1F
100
AcDbEntity
  8
LINEE VISIBILI 2D
100
AcDbSpline
210
0.0
220
0.0
230
1.0
 70
    24
 71
     2
 72
     6
 73
     3
 74
     0
 42
0.0000000001
 43
0.0000000001
 40
0.0
 40
0.0
 40
0.0
 40
12.99999038566625
 40
12.99999038566625
 40
12.99999038566625
 10
65.25009173429103
 20
1024.755286054212
 30
0.0
 10
65.25009173429103
 20
1031.255281247045
 30
0.0
 10
65.25009173429103
 20
1037.755276439879
 30
0.0
  0
SPLINE
  5
64
330
1F
100
AcDbEntity
  8
LINEE VISIBILI 2D
100
AcDbSpline
210
0.0
220
0.0
230
1.0
 70
    24
 71
     2
 72
     6
 73
     3
 74
     0
 42
0.0000000001
 43
0.0000000001
 40
0.0
 40
0.0
 40
0.0
 40
12.99998704915151
 40
12.99998704915151
 40
12.99998704915151
 10
390.8692179155186
 20
1037.7548046541
 30
0.0
 10
390.8692179155186
 20
1031.254811129525
 30
0.0
 10
390.8692179155186
 20
1024.754817604949
 30
0.0
  0
SPLINE
  5
65
330
1F
100
AcDbEntity
  8
LINEE VISIBILI 2D
100
AcDbSpline
210
0.0
220
0.0
230
1.0
 70
    24
 71
     2
 72
     6
 73
     3
 74
     0
 42
0.0000000001
 43
0.0000000001
 40
0.0
 40
0.0
 40
0.0
 40
12.9998483537895
 40
12.9998483537895
 40
12.9998483537895
 10
350.115643191143
 20
1024.754956300311
 30
0.0
 10
350.115643191143
 20
1031.254880477205
 30
0.0
 10
350.115643191143
 20
1037.7548046541
 30
0.0
  0
SPLINE
  5
67
330
1F
100
AcDbEntity
  8
PREDEFINITO
100
AcDbSpline
210
0.0
220
0.0
230
1.0
 70
    12
 71
     2
 72
     6
 73
     3
 74
     0
 42
0.0000000001
 43
0.0000000001
 40
0.0
 40
0.0
 40
0.0
 40
8.087611422871037
 40
8.087611422871037
 40
8.087611422871037
 10
579.699297722138
 20
1037.755286053609
 30
0.0
 41
1.0
 10
579.7367587649646
 20
1033.711653860543
 30
0.0
 41
0.9999999995095061
 10
579.7744731066664
 20
1029.668024022023
 30
0.0
 41
1.0
  0
SPLINE
  5
68
330
1F
100
AcDbEntity
  8
PREDEFINITO
100
AcDbSpline
210
0.0
220
0.0
230
1.0
 70
    12
 71
     2
 72
     6
 73
     3
 74
     0
 42
0.0000000001
 43
0.0000000001
 40
0.0
 40
0.0
 40
0.0
 40
2.867846766225719
 40
2.867846766225719
 40
2.867846766225719
 10
579.7744731066664
 20
1029.668024022023
 30
0.0
 41
1.0
 10
579.8076317471581
 20
1028.219353649004
 30
0.0
 41
0.9844150166089458
 10
579.3371512836868
 20
1026.84880869221
 30
0.0
 41
1.0
  0
SPLINE
  5
69
330
1F
100
AcDbEntity
  8
PREDEFINITO
100
AcDbSpline
210
0.0
220
0.0
230
1.0
 70
    12
 71
     2
 72
     6
 73
     3
 74
     0
 42
0.0000000001
 43
0.0000000001
 40
0.0
 40
0.0
 40
0.0
 40
0.204631755478526
 40
0.204631755478526
 40
0.204631755478526
 10
579.3371512836868
 20
1026.84880869221
 30
0.0
 41
1.0
 10
579.3051817603622
 20
1026.751612526425
 30
0.0
 41
0.9999565703683021
 10
579.2714061851478
 20
1026.655029113854
 30
0.0
 41
1.0
  0
SPLINE
  5
6A
330
1F
100
AcDbEntity
  8
PREDEFINITO
100
AcDbSpline
210
0.0
220
0.0
230
1.0
 70
    12
 71
     2
 72
     6
 73
     3
 74
     0
 42
0.0000000001
 43
0.0000000001
 40
0.0
 40
0.0
 40
0.0
 40
0.667892395553025
 40
0.667892395553025
 40
0.667892395553025
 10
579.2714061851478
 20
1026.655029113854
 30
0.0
 41
1.0
 10
579.1605180262078
 20
1026.339839422054
 30
0.0
 41
0.9991893692846622
 10
579.0246328376807
 20
1026.03459207784
 30
0.0
 41
1.0
  0
SPLINE
  5
6B
330
1F
100
AcDbEntity
  8
PREDEFINITO
100
AcDbSpline
210
0.0
220
0.0
230
1.0
 70
    12
 71
     2
 72
     6
 73
     3
 74
     0
 42
0.0000000001
 43
0.0000000001
 40
0.0
 40
0.0
 40
0.0
 40
0.8965228342824645
 40
0.8965228342824645
 40
0.8965228342824645
 10
579.0246328376807
 20
1026.03459207784
 30
0.0
 41
1.0
 10
578.8469012755321
 20
1025.62128439401
 30
0.0
 41
0.9945393845809852
 10
578.5872451053041
 20
1025.253873965524
 30
0.0
 41
1.0
  0
SPLINE
  5
6C
330
1F
100
AcDbEntity
  8
PREDEFINITO
100
AcDbSpline
210
0.0
220
0.0
230
1.0
 70
    12
 71
     2
 72
     6
 73
     3
 74
     0
 42
0.0000000001
 43
0.0000000001
 40
0.0
 40
0.0
 40
0.0
 40
0.4650032623422842
 40
0.4650032623422842
 40
0.4650032623422842
 10
578.5872451053041
 20
1025.253873965524
 30
0.0
 41
1.0
 10
578.4483211308519
 20
1025.066229568344
 30
0.0
 41
0.9937620342897634
 10
578.2712611066054
 20
1024.914045343524
 30
0.0
 41
1.0
  0
SPLINE
  5
6D
330
1F
100
AcDbEntity
  8
PREDEFINITO
100
AcDbSpline
210
0.0
220
0.0
230
1.0
 70
     8
 71
     2
 72
     6
 73
     3
 74
     0
 42
0.0000000001
 43
0.0000000001
 40
0.0
 40
0.0
 40
0.0
 40
1.0
 40
1.0
 40
1.0
 10
578.2712611066054
 20
1024.914045343524
 30
0.0
 10
578.0101525741306
 20
1024.755418119337
 30
0.0
 10
577.5680597435861
 20
1024.755428708241
 30
0.0
  0
POLYLINE
  5
6E
330
1F
100
AcDbEntity
  8
PREDEFINITO
100
AcDb2dPolyline
 66
     1
 10
0.0
 20
0.0
 30
0.0
  0
VERTEX
  5
70
330
6E
100
AcDbEntity
  8
PREDEFINITO
100
AcDbVertex
100
AcDb2dVertex
 10
7.859957647612049
 20
1024.755286054212
 30
0.0
  0
VERTEX
  5
71
330
6E
100
AcDbEntity
  8
PREDEFINITO
100
AcDbVertex
100
AcDb2dVertex
 10
618.69604614739
 20
1024.755286054212
 30
0.0
  0
VERTEX
  5
72
330
6E
100
AcDbEntity
  8
PREDEFINITO
100
AcDbVertex
100
AcDb2dVertex
 10
618.69604614739
 20
1037.7548046541
 30
0.0
  0
VERTEX
  5
73
330
6E
100
AcDbEntity
  8
PREDEFINITO
100
AcDbVertex
100
AcDb2dVertex
 10
7.859957647612049
 20
1037.7548046541
 30
0.0
  0
VERTEX
  5
74
330
6E
100
AcDbEntity
  8
PREDEFINITO
100
AcDbVertex
100
AcDb2dVertex
 10
7.859957647612049
 20
1024.755286054212
 30
0.0
  0
SEQEND
  5
6F
330
6E
100
AcDbEntity
  8
PREDEFINITO
  0
POLYLINE
  5
75
330
1F
100
AcDbEntity
  8
PREDEFINITO
100
AcDb2dPolyline
 66
     1
 10
0.0
 20
0.0
 30
0.0
  0
VERTEX
  5
77
330
75
100
AcDbEntity
  8
PREDEFINITO
100
AcDbVertex
100
AcDb2dVertex
 10
508.0255559915407
 20
1037.815104409416
 30
0.0
  0
VERTEX
  5
78
330
75
100
AcDbEntity
  8
PREDEFINITO
100
AcDbVertex
100
AcDb2dVertex
 10
507.9674639746116
 20
1037.757012392487
 30
0.0
  0
VERTEX
  5
79
330
75
100
AcDbEntity
  8
PREDEFINITO
100
AcDbVertex
100
AcDb2dVertex
 10
346.967945374738
 20
1037.7574937926
 30
0.0
  0
SEQEND
  5
76
330
75
100
AcDbEntity
  8
PREDEFINITO
  0
SPLINE
  5
7A
330
1F
100
AcDbEntity
  8
PREDEFINITO
100
AcDbSpline
210
0.0
220
0.0
230
1.0
 70
    24
 71
     2
 72
     6
 73
     3
 74
     0
 42
0.0000000001
 43
0.0000000001
 40
0.0
 40
0.0
 40
0.0
 40
61.05630885744415
 40
61.05630885744415
 40
61.05630885744415
 10
346.967945374738
 20
1037.7574937926
 30
0.0
 10
325.3748268850143
 20
1059.352602994729
 30
0.0
 10
303.7817083952906
 20
1080.947712196858
 30
0.0
  0
SPLINE
  5
7B
330
1F
100
AcDbEntity
  8
PREDEFINITO
100
AcDbSpline
210
0.0
220
0.0
230
1.0
 70
    24
 71
     2
 72
     6
 73
     3
 74
     0
 42
0.0000000001
 43
0.0000000001
 40
0.0
 40
0.0
 40
0.0
 40
122.356766721256
 40
122.356766721256
 40
122.356766721256
 10
303.7817083952906
 20
1080.947712196858
 30
0.0
 10
364.9536382798541
 20
1080.956156385327
 30
0.0
 10
426.1255681644176
 20
1080.964600573796
 30
0.0
  0
SPLINE
  5
7C
330
1F
100
AcDbEntity
  8
PREDEFINITO
100
AcDbSpline
210
0.0
220
0.0
230
1.0
 70
    24
 71
     2
 72
     6
 73
     3
 74
     0
 42
0.0000000001
 43
0.0000000001
 40
0.0
 40
0.0
 40
0.0
 40
125.0422005391979
 40
125.0422005391979
 40
125.0422005391979
 10
426.1255681644176
 20
1080.964600573796
 30
0.0
 10
488.6334217832302
 20
1080.947712196858
 30
0.0
 10
551.1412754020429
 20
1080.93082381992
 30
0.0
  0
SPLINE
  5
7D
330
1F
100
AcDbEntity
  8
PREDEFINITO
100
AcDbSpline
210
0.0
220
0.0
230
1.0
 70
    24
 71
     2
 72
     6
 73
     3
 74
     0
 42
0.0000000001
 43
0.0000000001
 40
0.0
 40
0.0
 40
0.0
 40
60.97483514180633
 40
60.97483514180633
 40
60.97483514180633
 10
551.1412754020429
 20
1080.93082381992
 30
0.0
 10
529.5834156967918
 20
1059.372964114668
 30
0.0
 10
508.0255559915407
 20
1037.815104409416
 30
0.0
  0
POLYLINE
  5
7E
330
1F
100
AcDbEntity
  8
PREDEFINITO
100
AcDb2dPolyline
 66
     1
 10
0.0
 20
0.0
 30
0.0
  0
VERTEX
  5
80
330
7E
100
AcDbEntity
  8
PREDEFINITO
100
AcDbVertex
100
AcDb2dVertex
 10
0.0000165941682155
 20
1023.675671255558
 30
0.0
  0
VERTEX
  5
81
330
7E
100
AcDbEntity
  8
PREDEFINITO
100
AcDbVertex
100
AcDb2dVertex
 10
56.49201642195263
 20
1023.675671255558
 30
0.0
  0
VERTEX
  5
82
330
7E
100
AcDbEntity
  8
PREDEFINITO
100
AcDbVertex
100
AcDb2dVertex
 10
56.49201642195263
 20
1024.754384632305
 30
0.0
  0
VERTEX
  5
83
330
7E
100
AcDbEntity
  8
PREDEFINITO
100
AcDbVertex
100
AcDb2dVertex
 10
0.0000165941682155
 20
1024.754384632305
 30
0.0
  0
VERTEX
  5
84
330
7E
100
AcDbEntity
  8
PREDEFINITO
100
AcDbVertex
100
AcDb2dVertex
 10
0.0000165941682155
 20
1023.675671255558
 30
0.0
  0
SEQEND
  5
7F
330
7E
100
AcDbEntity
  8
PREDEFINITO
  0
POLYLINE
  5
85
330
1F
100
AcDbEntity
  8
PREDEFINITO
100
AcDb2dPolyline
 66
     1
 10
0.0
 20
0.0
 30
0.0
  0
VERTEX
  5
87
330
85
100
AcDbEntity
  8
PREDEFINITO
100
AcDbVertex
100
AcDb2dVertex
 10
0.0000165941682155
 20
1023.675671255558
 30
0.0
  0
VERTEX
  5
88
330
85
100
AcDbEntity
  8
PREDEFINITO
100
AcDbVertex
100
AcDb2dVertex
 10
56.49201642195263
 20
1023.675671512398
 30
0.0
  0
SEQEND
  5
86
330
85
100
AcDbEntity
  8
PREDEFINITO
  0
POLYLINE
  5
89
330
1F
100
AcDbEntity
  8
PREDEFINITO
100
AcDb2dPolyline
 66
     1
 10
0.0
 20
0.0
 30
0.0
  0
VERTEX
  5
8B
330
89
100
AcDbEntity
  8
PREDEFINITO
100
AcDbVertex
100
AcDb2dVertex
 10
56.49201642195263
 20
1023.675671512398
 30
0.0
  0
VERTEX
  5
8C
330
89
100
AcDbEntity
  8
PREDEFINITO
100
AcDbVertex
100
AcDb2dVertex
 10
56.44229104814681
 20
1023.649984166616
 30
0.0
  0
SEQEND
  5
8A
330
89
100
AcDbEntity
  8
PREDEFINITO
  0
SPLINE
  5
8D
330
1F
100
AcDbEntity
  8
PREDEFINITO
100
AcDbSpline
210
0.0
220
0.0
230
1.0
 70
    24
 71
     2
 72
     6
 73
     3
 74
     0
 42
0.0000000001
 43
0.0000000001
 40
0.0
 40
0.0
 40
0.0
 40
20.09510236883177
 40
20.09510236883177
 40
20.09510236883177
 10
56.44229104814681
 20
1023.649984166616
 30
0.0
 10
47.5808788372905
 20
1018.901999820067
 30
0.0
 10
38.71946662643418
 20
1014.154015473517
 30
0.0
  0
SPLINE
  5
8E
330
1F
100
AcDbEntity
  8
PREDEFINITO
100
AcDbSpline
210
0.0
220
0.0
230
1.0
 70
    28
 71
     2
 72
     6
 73
     3
 74
     0
 42
0.0000000001
 43
0.0000000001
 40
5.006913291658734
 40
5.006913291658734
 40
5.006913291658734
 40
6.28318530717959
 40
6.28318530717959
 40
6.28318530717959
 10
38.71946662643428
 20
1014.154015473517
 30
0.0
 41
0.906020548961135
 10
39.10403081667524
 20
1014.154022056165
 30
0.0
 41
0.7658970305948176
 10
31.82701714753298
 20
1014.15389749432
 30
0.0
 41
1.0
  0
SPLINE
  5
8F
330
1F
100
AcDbEntity
  8
PREDEFINITO
100
AcDbSpline
210
0.0
220
0.0
230
1.0
 70
    24
 71
     2
 72
     6
 73
     3
 74
     0
 42
0.0000000001
 43
0.0000000001
 40
0.0
 40
0.0
 40
0.0
 40
3.588770044652681
 40
3.588770044652681
 40
3.588770044652681
 10
31.82701714753298
 20
1014.15389749432
 30
0.0
 10
30.03263212546952
 20
1014.153866779536
 30
0.0
 10
28.23824710340605
 20
1014.153836064751
 30
0.0
  0
SPLINE
  5
90
330
1F
100
AcDbEntity
  8
PREDEFINITO
100
AcDbSpline
210
0.0
220
0.0
230
1.0
 70
    24
 71
     2
 72
     6
 73
     3
 74
     0
 42
0.0000000001
 43
0.0000000001
 40
0.0
 40
0.0
 40
0.0
 40
10.46827150001099
 40
10.46827150001099
 40
10.46827150001099
 10
28.23824710340605
 20
1014.153836064751
 30
0.0
 10
22.99116332961606
 20
1014.153746249552
 30
0.0
 10
17.74407955582606
 20
1014.153656434352
 30
0.0
  0
SPLINE
  5
91
330
1F
100
AcDbEntity
  8
PREDEFINITO
100
AcDbSpline
210
0.0
220
0.0
230
1.0
 70
    24
 71
     2
 72
     6
 73
     3
 74
     0
 42
0.0000000001
 43
0.0000000001
 40
0.0
 40
0.0
 40
0.0
 40
20.08172737244567
 40
20.08172737244567
 40
20.08172737244567
 10
17.74407955582606
 20
1014.153656434352
 30
0.0
 10
8.894946581465916
 20
1018.898315449224
 30
0.0
 10
0.0458136071057709
 20
1023.642974464095
 30
0.0
  0
POLYLINE
  5
92
330
1F
100
AcDbEntity
  8
PREDEFINITO
100
AcDb2dPolyline
 66
     1
 10
0.0
 20
0.0
 30
0.0
  0
VERTEX
  5
94
330
92
100
AcDbEntity
  8
PREDEFINITO
100
AcDbVertex
100
AcDb2dVertex
 10
0.0458136071057709
 20
1023.642974464095
 30
0.0
  0
VERTEX
  5
95
330
92
100
AcDbEntity
  8
PREDEFINITO
100
AcDbVertex
100
AcDb2dVertex
 10
0.0000165941682155
 20
1023.675671255558
 30
0.0
  0
SEQEND
  5
93
330
92
100
AcDbEntity
  8
PREDEFINITO
  0
ARC
  5
96
330
1F
100
AcDbEntity
  8
PREDEFINITO
100
AcDbCircle
 10
28.76329099570754
 20
1024.762869943352
 30
0.0
 40
11.00911201223995
100
AcDbArc
 50
254.5070052618437
 51
285.4949562199246
  0
POLYLINE
  5
97
330
1F
100
AcDbEntity
  8
PREDEFINITO
100
AcDb2dPolyline
 66
     1
 10
0.0
 20
0.0
 30
0.0
  0
VERTEX
  5
99
330
97
100
AcDbEntity
  8
PREDEFINITO
100
AcDbVertex
100
AcDb2dVertex
 10
57.38357066636399
 20
1023.67699066755
 30
0.0
  0
VERTEX
  5
9A
330
97
100
AcDbEntity
  8
PREDEFINITO
100
AcDbVertex
100
AcDb2dVertex
 10
113.8755704941484
 20
1023.67699066755
 30
0.0
  0
VERTEX
  5
9B
330
97
100
AcDbEntity
  8
PREDEFINITO
100
AcDbVertex
100
AcDb2dVertex
 10
113.8755704941484
 20
1024.755704044297
 30
0.0
  0
VERTEX
  5
9C
330
97
100
AcDbEntity
  8
PREDEFINITO
100
AcDbVertex
100
AcDb2dVertex
 10
57.38357066636399
 20
1024.755704044297
 30
0.0
  0
VERTEX
  5
9D
330
97
100
AcDbEntity
  8
PREDEFINITO
100
AcDbVertex
100
AcDb2dVertex
 10
57.38357066636399
 20
1023.67699066755
 30
0.0
  0
SEQEND
  5
98
330
97
100
AcDbEntity
  8
PREDEFINITO
  0
POLYLINE
  5
9E
330
1F
100
AcDbEntity
  8
PREDEFINITO
100
AcDb2dPolyline
 66
     1
 10
0.0
 20
0.0
 30
0.0
  0
VERTEX
  5
A0
330
9E
100
AcDbEntity
  8
PREDEFINITO
100
AcDbVertex
100
AcDb2dVertex
 10
57.38357066636399
 20
1023.67699066755
 30
0.0
  0
VERTEX
  5
A1
330
9E
100
AcDbEntity
  8
PREDEFINITO
100
AcDbVertex
100
AcDb2dVertex
 10
113.8755704941484
 20
1023.67699092439
 30
0.0
  0
SEQEND
  5
9F
330
9E
100
AcDbEntity
  8
PREDEFINITO
  0
POLYLINE
  5
A2
330
1F
100
AcDbEntity
  8
PREDEFINITO
100
AcDb2dPolyline
 66
     1
 10
0.0
 20
0.0
 30
0.0
  0
VERTEX
  5
A4
330
A2
100
AcDbEntity
  8
PREDEFINITO
100
AcDbVertex
100
AcDb2dVertex
 10
113.8755704941484
 20
1023.67699092439
 30
0.0
  0
VERTEX
  5
A5
330
A2
100
AcDbEntity
  8
PREDEFINITO
100
AcDbVertex
100
AcDb2dVertex
 10
113.8258451203426
 20
1023.651303578608
 30
0.0
  0
SEQEND
  5
A3
330
A2
100
AcDbEntity
  8
PREDEFINITO
  0
SPLINE
  5
A6
330
1F
100
AcDbEntity
  8
PREDEFINITO
100
AcDbSpline
210
0.0
220
0.0
230
1.0
 70
    24
 71
     2
 72
     6
 73
     3
 74
     0
 42
0.0000000001
 43
0.0000000001
 40
0.0
 40
0.0
 40
0.0
 40
20.09510236883177
 40
20.09510236883177
 40
20.09510236883177
 10
113.8258451203426
 20
1023.651303578608
 30
0.0
 10
104.9644329094863
 20
1018.903319232059
 30
0.0
 10
96.10302069862996
 20
1014.155334885509
 30
0.0
  0
SPLINE
  5
A7
330
1F
100
AcDbEntity
  8
PREDEFINITO
100
AcDbSpline
210
0.0
220
0.0
230
1.0
 70
    28
 71
     2
 72
     6
 73
     3
 74
     0
 42
0.0000000001
 43
0.0000000001
 40
5.006913291658734
 40
5.006913291658734
 40
5.006913291658734
 40
6.28318530717959
 40
6.28318530717959
 40
6.28318530717959
 10
96.10302069863003
 20
1014.155334885509
 30
0.0
 41
0.906020548961135
 10
96.48758488887103
 20
1014.155341468157
 30
0.0
 41
0.7658970305948176
 10
89.21057121972876
 20
1014.155216906312
 30
0.0
 41
1.0
  0
SPLINE
  5
A8
330
1F
100
AcDbEntity
  8
PREDEFINITO
100
AcDbSpline
210
0.0
220
0.0
230
1.0
 70
    24
 71
     2
 72
     6
 73
     3
 74
     0
 42
0.0000000001
 43
0.0000000001
 40
0.0
 40
0.0
 40
0.0
 40
3.588770044652681
 40
3.588770044652681
 40
3.588770044652681
 10
89.21057121972876
 20
1014.155216906312
 30
0.0
 10
87.4161861976653
 20
1014.155186191528
 30
0.0
 10
85.62180117560183
 20
1014.155155476743
 30
0.0
  0
SPLINE
  5
A9
330
1F
100
AcDbEntity
  8
PREDEFINITO
100
AcDbSpline
210
0.0
220
0.0
230
1.0
 70
    24
 71
     2
 72
     6
 73
     3
 74
     0
 42
0.0000000001
 43
0.0000000001
 40
0.0
 40
0.0
 40
0.0
 40
10.46827150001099
 40
10.46827150001099
 40
10.46827150001099
 10
85.62180117560183
 20
1014.155155476743
 30
0.0
 10
80.37471740181184
 20
1014.155065661544
 30
0.0
 10
75.12763362802184
 20
1014.154975846344
 30
0.0
  0
SPLINE
  5
AA
330
1F
100
AcDbEntity
  8
PREDEFINITO
100
AcDbSpline
210
0.0
220
0.0
230
1.0
 70
    24
 71
     2
 72
     6
 73
     3
 74
     0
 42
0.0000000001
 43
0.0000000001
 40
0.0
 40
0.0
 40
0.0
 40
20.08172737244567
 40
20.08172737244567
 40
20.08172737244567
 10
75.12763362802184
 20
1014.154975846344
 30
0.0
 10
66.2785006536617
 20
1018.899634861216
 30
0.0
 10
57.42936767930155
 20
1023.644293876087
 30
0.0
  0
POLYLINE
  5
AB
330
1F
100
AcDbEntity
  8
PREDEFINITO
100
AcDb2dPolyline
 66
     1
 10
0.0
 20
0.0
 30
0.0
  0
VERTEX
  5
AD
330
AB
100
AcDbEntity
  8
PREDEFINITO
100
AcDbVertex
100
AcDb2dVertex
 10
57.42936767930155
 20
1023.644293876087
 30
0.0
  0
VERTEX
  5
AE
330
AB
100
AcDbEntity
  8
PREDEFINITO
100
AcDbVertex
100
AcDb2dVertex
 10
57.38357066636399
 20
1023.67699066755
 30
0.0
  0
SEQEND
  5
AC
330
AB
100
AcDbEntity
  8
PREDEFINITO
  0
ARC
  5
AF
330
1F
100
AcDbEntity
  8
PREDEFINITO
100
AcDbCircle
 10
86.14684506790331
 20
1024.764189355344
 30
0.0
 40
11.00911201223995
100
AcDbArc
 50
254.507005261843
 51
285.494956219924
  0
POLYLINE
  5
B0
330
1F
100
AcDbEntity
  8
PREDEFINITO
100
AcDb2dPolyline
 66
     1
 10
0.0
 20
0.0
 30
0.0
  0
VERTEX
  5
B2
330
B0
100
AcDbEntity
  8
PREDEFINITO
100
AcDbVertex
100
AcDb2dVertex
 10
228.1272333443251
 20
1023.676661119982
 30
0.0
  0
VERTEX
  5
B3
330
B0
100
AcDbEntity
  8
PREDEFINITO
100
AcDbVertex
100
AcDb2dVertex
 10
284.6192331721095
 20
1023.676661119982
 30
0.0
  0
VERTEX
  5
B4
330
B0
100
AcDbEntity
  8
PREDEFINITO
100
AcDbVertex
100
AcDb2dVertex
 10
284.6192331721095
 20
1024.75537449673
 30
0.0
  0
VERTEX
  5
B5
330
B0
100
AcDbEntity
  8
PREDEFINITO
100
AcDbVertex
100
AcDb2dVertex
 10
228.1272333443251
 20
1024.75537449673
 30
0.0
  0
VERTEX
  5
B6
330
B0
100
AcDbEntity
  8
PREDEFINITO
100
AcDbVertex
100
AcDb2dVertex
 10
228.1272333443251
 20
1023.676661119982
 30
0.0
  0
SEQEND
  5
B1
330
B0
100
AcDbEntity
  8
PREDEFINITO
  0
POLYLINE
  5
B7
330
1F
100
AcDbEntity
  8
PREDEFINITO
100
AcDb2dPolyline
 66
     1
 10
0.0
 20
0.0
 30
0.0
  0
VERTEX
  5
B9
330
B7
100
AcDbEntity
  8
PREDEFINITO
100
AcDbVertex
100
AcDb2dVertex
 10
228.1272333443251
 20
1023.676661119982
 30
0.0
  0
VERTEX
  5
BA
330
B7
100
AcDbEntity
  8
PREDEFINITO
100
AcDbVertex
100
AcDb2dVertex
 10
284.6192331721095
 20
1023.676661376823
 30
0.0
  0
SEQEND
  5
B8
330
B7
100
AcDbEntity
  8
PREDEFINITO
  0
POLYLINE
  5
BB
330
1F
100
AcDbEntity
  8
PREDEFINITO
100
AcDb2dPolyline
 66
     1
 10
0.0
 20
0.0
 30
0.0
  0
VERTEX
  5
BD
330
BB
100
AcDbEntity
  8
PREDEFINITO
100
AcDbVertex
100
AcDb2dVertex
 10
284.6192331721095
 20
1023.676661376823
 30
0.0
  0
VERTEX
  5
BE
330
BB
100
AcDbEntity
  8
PREDEFINITO
100
AcDbVertex
100
AcDb2dVertex
 10
284.5695077983037
 20
1023.650974031041
 30
0.0
  0
SEQEND
  5
BC
330
BB
100
AcDbEntity
  8
PREDEFINITO
  0
SPLINE
  5
BF
330
1F
100
AcDbEntity
  8
PREDEFINITO
100
AcDbSpline
210
0.0
220
0.0
230
1.0
 70
    24
 71
     2
 72
     6
 73
     3
 74
     0
 42
0.0000000001
 43
0.0000000001
 40
0.0
 40
0.0
 40
0.0
 40
20.09510236883177
 40
20.09510236883177
 40
20.09510236883177
 10
284.5695077983037
 20
1023.650974031041
 30
0.0
 10
275.7080955874474
 20
1018.902989684491
 30
0.0
 10
266.8466833765911
 20
1014.155005337942
 30
0.0
  0
SPLINE
  5
C0
330
1F
100
AcDbEntity
  8
PREDEFINITO
100
AcDbSpline
210
0.0
220
0.0
230
1.0
 70
    28
 71
     2
 72
     6
 73
     3
 74
     0
 42
0.0000000001
 43
0.0000000001
 40
5.006913291658734
 40
5.006913291658734
 40
5.006913291658734
 40
6.28318530717959
 40
6.28318530717959
 40
6.28318530717959
 10
266.8466833765912
 20
1014.155005337942
 30
0.0
 41
0.906020548961135
 10
267.2312475668322
 20
1014.15501192059
 30
0.0
 41
0.7658970305948176
 10
259.9542338976899
 20
1014.154887358745
 30
0.0
 41
1.0
  0
SPLINE
  5
C1
330
1F
100
AcDbEntity
  8
PREDEFINITO
100
AcDbSpline
210
0.0
220
0.0
230
1.0
 70
    24
 71
     2
 72
     6
 73
     3
 74
     0
 42
0.0000000001
 43
0.0000000001
 40
0.0
 40
0.0
 40
0.0
 40
3.588770044652681
 40
3.588770044652681
 40
3.588770044652681
 10
259.9542338976899
 20
1014.154887358745
 30
0.0
 10
258.1598488756264
 20
1014.154856643961
 30
0.0
 10
256.365463853563
 20
1014.154825929176
 30
0.0
  0
SPLINE
  5
C2
330
1F
100
AcDbEntity
  8
PREDEFINITO
100
AcDbSpline
210
0.0
220
0.0
230
1.0
 70
    24
 71
     2
 72
     6
 73
     3
 74
     0
 42
0.0000000001
 43
0.0000000001
 40
0.0
 40
0.0
 40
0.0
 40
10.46827150001099
 40
10.46827150001099
 40
10.46827150001099
 10
256.365463853563
 20
1014.154825929176
 30
0.0
 10
251.118380079773
 20
1014.154736113976
 30
0.0
 10
245.871296305983
 20
1014.154646298777
 30
0.0
  0
SPLINE
  5
C3
330
1F
100
AcDbEntity
  8
PREDEFINITO
100
AcDbSpline
210
0.0
220
0.0
230
1.0
 70
    24
 71
     2
 72
     6
 73
     3
 74
     0
 42
0.0000000001
 43
0.0000000001
 40
0.0
 40
0.0
 40
0.0
 40
20.08172737244567
 40
20.08172737244567
 40
20.08172737244567
 10
245.871296305983
 20
1014.154646298777
 30
0.0
 10
237.0221633316228
 20
1018.899305313648
 30
0.0
 10
228.1730303572627
 20
1023.64396432852
 30
0.0
  0
POLYLINE
  5
C4
330
1F
100
AcDbEntity
  8
PREDEFINITO
100
AcDb2dPolyline
 66
     1
 10
0.0
 20
0.0
 30
0.0
  0
VERTEX
  5
C6
330
C4
100
AcDbEntity
  8
PREDEFINITO
100
AcDbVertex
100
AcDb2dVertex
 10
228.1730303572627
 20
1023.64396432852
 30
0.0
  0
VERTEX
  5
C7
330
C4
100
AcDbEntity
  8
PREDEFINITO
100
AcDbVertex
100
AcDb2dVertex
 10
228.1272333443251
 20
1023.676661119982
 30
0.0
  0
SEQEND
  5
C5
330
C4
100
AcDbEntity
  8
PREDEFINITO
  0
ARC
  5
C8
330
1F
100
AcDbEntity
  8
PREDEFINITO
100
AcDbCircle
 10
256.8905077458645
 20
1024.763859807776
 30
0.0
 40
11.00911201223995
100
AcDbArc
 50
254.5070052618429
 51
285.494956219924
  0
ARC
  5
C9
330
1F
100
AcDbEntity
  8
PREDEFINITO
100
AcDbCircle
 10
199.8259849093365
 20
1024.763859807776
 30
0.0
 40
11.00911201223995
100
AcDbArc
 50
254.5070052618429
 51
285.494956219924
  0
POLYLINE
  5
CA
330
1F
100
AcDbEntity
  8
PREDEFINITO
100
AcDb2dPolyline
 66
     1
 10
0.0
 20
0.0
 30
0.0
  0
VERTEX
  5
CC
330
CA
100
AcDbEntity
  8
PREDEFINITO
100
AcDbVertex
100
AcDb2dVertex
 10
171.0627105077971
 20
1023.676661119982
 30
0.0
  0
VERTEX
  5
CD
330
CA
100
AcDbEntity
  8
PREDEFINITO
100
AcDbVertex
100
AcDb2dVertex
 10
227.5547103355815
 20
1023.676661376823
 30
0.0
  0
SEQEND
  5
CB
330
CA
100
AcDbEntity
  8
PREDEFINITO
  0
POLYLINE
  5
CE
330
1F
100
AcDbEntity
  8
PREDEFINITO
100
AcDb2dPolyline
 66
     1
 10
0.0
 20
0.0
 30
0.0
  0
VERTEX
  5
D0
330
CE
100
AcDbEntity
  8
PREDEFINITO
100
AcDbVertex
100
AcDb2dVertex
 10
227.5547103355815
 20
1023.676661376823
 30
0.0
  0
VERTEX
  5
D1
330
CE
100
AcDbEntity
  8
PREDEFINITO
100
AcDbVertex
100
AcDb2dVertex
 10
227.5049849617757
 20
1023.650974031041
 30
0.0
  0
SEQEND
  5
CF
330
CE
100
AcDbEntity
  8
PREDEFINITO
  0
SPLINE
  5
D2
330
1F
100
AcDbEntity
  8
PREDEFINITO
100
AcDbSpline
210
0.0
220
0.0
230
1.0
 70
    24
 71
     2
 72
     6
 73
     3
 74
     0
 42
0.0000000001
 43
0.0000000001
 40
0.0
 40
0.0
 40
0.0
 40
20.09510236883177
 40
20.09510236883177
 40
20.09510236883177
 10
227.5049849617757
 20
1023.650974031041
 30
0.0
 10
218.6435727509194
 20
1018.902989684491
 30
0.0
 10
209.7821605400631
 20
1014.155005337942
 30
0.0
  0
SPLINE
  5
D3
330
1F
100
AcDbEntity
  8
PREDEFINITO
100
AcDbSpline
210
0.0
220
0.0
230
1.0
 70
    28
 71
     2
 72
     6
 73
     3
 74
     0
 42
0.0000000001
 43
0.0000000001
 40
5.006913291658734
 40
5.006913291658734
 40
5.006913291658734
 40
6.28318530717959
 40
6.28318530717959
 40
6.28318530717959
 10
209.7821605400632
 20
1014.155005337942
 30
0.0
 41
0.906020548961135
 10
210.1667247303042
 20
1014.15501192059
 30
0.0
 41
0.7658970305948176
 10
202.8897110611619
 20
1014.154887358745
 30
0.0
 41
1.0
  0
SPLINE
  5
D4
330
1F
100
AcDbEntity
  8
PREDEFINITO
100
AcDbSpline
210
0.0
220
0.0
230
1.0
 70
    24
 71
     2
 72
     6
 73
     3
 74
     0
 42
0.0000000001
 43
0.0000000001
 40
0.0
 40
0.0
 40
0.0
 40
3.588770044652681
 40
3.588770044652681
 40
3.588770044652681
 10
202.8897110611619
 20
1014.154887358745
 30
0.0
 10
201.0953260390984
 20
1014.154856643961
 30
0.0
 10
199.300941017035
 20
1014.154825929176
 30
0.0
  0
SPLINE
  5
D5
330
1F
100
AcDbEntity
  8
PREDEFINITO
100
AcDbSpline
210
0.0
220
0.0
230
1.0
 70
    24
 71
     2
 72
     6
 73
     3
 74
     0
 42
0.0000000001
 43
0.0000000001
 40
0.0
 40
0.0
 40
0.0
 40
10.46827150001099
 40
10.46827150001099
 40
10.46827150001099
 10
199.300941017035
 20
1014.154825929176
 30
0.0
 10
194.053857243245
 20
1014.154736113976
 30
0.0
 10
188.806773469455
 20
1014.154646298777
 30
0.0
  0
SPLINE
  5
D6
330
1F
100
AcDbEntity
  8
PREDEFINITO
100
AcDbSpline
210
0.0
220
0.0
230
1.0
 70
    24
 71
     2
 72
     6
 73
     3
 74
     0
 42
0.0000000001
 43
0.0000000001
 40
0.0
 40
0.0
 40
0.0
 40
20.08172737244567
 40
20.08172737244567
 40
20.08172737244567
 10
188.806773469455
 20
1014.154646298777
 30
0.0
 10
179.9576404950948
 20
1018.899305313648
 30
0.0
 10
171.1085075207347
 20
1023.64396432852
 30
0.0
  0
POLYLINE
  5
D7
330
1F
100
AcDbEntity
  8
PREDEFINITO
100
AcDb2dPolyline
 66
     1
 10
0.0
 20
0.0
 30
0.0
  0
VERTEX
  5
D9
330
D7
100
AcDbEntity
  8
PREDEFINITO
100
AcDbVertex
100
AcDb2dVertex
 10
171.1085075207347
 20
1023.64396432852
 30
0.0
  0
VERTEX
  5
DA
330
D7
100
AcDbEntity
  8
PREDEFINITO
100
AcDbVertex
100
AcDb2dVertex
 10
171.0627105077971
 20
1023.676661119982
 30
0.0
  0
SEQEND
  5
D8
330
D7
100
AcDbEntity
  8
PREDEFINITO
  0
POLYLINE
  5
DB
330
1F
100
AcDbEntity
  8
PREDEFINITO
100
AcDb2dPolyline
 66
     1
 10
0.0
 20
0.0
 30
0.0
  0
VERTEX
  5
DD
330
DB
100
AcDbEntity
  8
PREDEFINITO
100
AcDbVertex
100
AcDb2dVertex
 10
171.0627105077971
 20
1023.676661119982
 30
0.0
  0
VERTEX
  5
DE
330
DB
100
AcDbEntity
  8
PREDEFINITO
100
AcDbVertex
100
AcDb2dVertex
 10
227.5547103355815
 20
1023.676661119982
 30
0.0
  0
VERTEX
  5
DF
330
DB
100
AcDbEntity
  8
PREDEFINITO
100
AcDbVertex
100
AcDb2dVertex
 10
227.5547103355815
 20
1024.75537449673
 30
0.0
  0
VERTEX
  5
E0
330
DB
100
AcDbEntity
  8
PREDEFINITO
100
AcDbVertex
100
AcDb2dVertex
 10
171.0627105077971
 20
1024.75537449673
 30
0.0
  0
VERTEX
  5
E1
330
DB
100
AcDbEntity
  8
PREDEFINITO
100
AcDbVertex
100
AcDb2dVertex
 10
171.0627105077971
 20
1023.676661119982
 30
0.0
  0
SEQEND
  5
DC
330
DB
100
AcDbEntity
  8
PREDEFINITO
  0
POLYLINE
  5
E2
330
1F
100
AcDbEntity
  8
PREDEFINITO
100
AcDb2dPolyline
 66
     1
 10
0.0
 20
0.0
 30
0.0
  0
VERTEX
  5
E4
330
E2
100
AcDbEntity
  8
PREDEFINITO
100
AcDbVertex
100
AcDb2dVertex
 10
399.2952494638375
 20
1023.676090046905
 30
0.0
  0
VERTEX
  5
E5
330
E2
100
AcDbEntity
  8
PREDEFINITO
100
AcDbVertex
100
AcDb2dVertex
 10
455.7872492916219
 20
1023.676090046905
 30
0.0
  0
VERTEX
  5
E6
330
E2
100
AcDbEntity
  8
PREDEFINITO
100
AcDbVertex
100
AcDb2dVertex
 10
455.7872492916219
 20
1024.754803423652
 30
0.0
  0
VERTEX
  5
E7
330
E2
100
AcDbEntity
  8
PREDEFINITO
100
AcDbVertex
100
AcDb2dVertex
 10
399.2952494638375
 20
1024.754803423652
 30
0.0
  0
VERTEX
  5
E8
330
E2
100
AcDbEntity
  8
PREDEFINITO
100
AcDbVertex
100
AcDb2dVertex
 10
399.2952494638375
 20
1023.676090046905
 30
0.0
  0
SEQEND
  5
E3
330
E2
100
AcDbEntity
  8
PREDEFINITO
  0
POLYLINE
  5
E9
330
1F
100
AcDbEntity
  8
PREDEFINITO
100
AcDb2dPolyline
 66
     1
 10
0.0
 20
0.0
 30
0.0
  0
VERTEX
  5
EB
330
E9
100
AcDbEntity
  8
PREDEFINITO
100
AcDbVertex
100
AcDb2dVertex
 10
399.2952494638375
 20
1023.676090046905
 30
0.0
  0
VERTEX
  5
EC
330
E9
100
AcDbEntity
  8
PREDEFINITO
100
AcDbVertex
100
AcDb2dVertex
 10
455.7872492916219
 20
1023.676090303745
 30
0.0
  0
SEQEND
  5
EA
330
E9
100
AcDbEntity
  8
PREDEFINITO
  0
POLYLINE
  5
ED
330
1F
100
AcDbEntity
  8
PREDEFINITO
100
AcDb2dPolyline
 66
     1
 10
0.0
 20
0.0
 30
0.0
  0
VERTEX
  5
EF
330
ED
100
AcDbEntity
  8
PREDEFINITO
100
AcDbVertex
100
AcDb2dVertex
 10
455.7872492916219
 20
1023.676090303745
 30
0.0
  0
VERTEX
  5
F0
330
ED
100
AcDbEntity
  8
PREDEFINITO
100
AcDbVertex
100
AcDb2dVertex
 10
455.7375239178161
 20
1023.650402957963
 30
0.0
  0
SEQEND
  5
EE
330
ED
100
AcDbEntity
  8
PREDEFINITO
  0
SPLINE
  5
F1
330
1F
100
AcDbEntity
  8
PREDEFINITO
100
AcDbSpline
210
0.0
220
0.0
230
1.0
 70
    24
 71
     2
 72
     6
 73
     3
 74
     0
 42
0.0000000001
 43
0.0000000001
 40
0.0
 40
0.0
 40
0.0
 40
20.09510236883177
 40
20.09510236883177
 40
20.09510236883177
 10
455.7375239178161
 20
1023.650402957963
 30
0.0
 10
446.8761117069598
 20
1018.902418611413
 30
0.0
 10
438.0146994961035
 20
1014.154434264864
 30
0.0
  0
SPLINE
  5
F2
330
1F
100
AcDbEntity
  8
PREDEFINITO
100
AcDbSpline
210
0.0
220
0.0
230
1.0
 70
    28
 71
     2
 72
     6
 73
     3
 74
     0
 42
0.0000000001
 43
0.0000000001
 40
5.006913291658734
 40
5.006913291658734
 40
5.006913291658734
 40
6.28318530717959
 40
6.28318530717959
 40
6.28318530717959
 10
438.0146994961036
 20
1014.154434264864
 30
0.0
 41
0.906020548961135
 10
438.3992636863446
 20
1014.154440847512
 30
0.0
 41
0.7658970305948176
 10
431.1222500172023
 20
1014.154316285667
 30
0.0
 41
1.0
  0
SPLINE
  5
F3
330
1F
100
AcDbEntity
  8
PREDEFINITO
100
AcDbSpline
210
0.0
220
0.0
230
1.0
 70
    24
 71
     2
 72
     6
 73
     3
 74
     0
 42
0.0000000001
 43
0.0000000001
 40
0.0
 40
0.0
 40
0.0
 40
3.588770044652681
 40
3.588770044652681
 40
3.588770044652681
 10
431.1222500172023
 20
1014.154316285667
 30
0.0
 10
429.3278649951388
 20
1014.154285570883
 30
0.0
 10
427.5334799730754
 20
1014.154254856098
 30
0.0
  0
SPLINE
  5
F4
330
1F
100
AcDbEntity
  8
PREDEFINITO
100
AcDbSpline
210
0.0
220
0.0
230
1.0
 70
    24
 71
     2
 72
     6
 73
     3
 74
     0
 42
0.0000000001
 43
0.0000000001
 40
0.0
 40
0.0
 40
0.0
 40
10.46827150001099
 40
10.46827150001099
 40
10.46827150001099
 10
427.5334799730754
 20
1014.154254856098
 30
0.0
 10
422.2863961992854
 20
1014.154165040899
 30
0.0
 10
417.0393124254954
 20
1014.154075225699
 30
0.0
  0
SPLINE
  5
F5
330
1F
100
AcDbEntity
  8
PREDEFINITO
100
AcDbSpline
210
0.0
220
0.0
230
1.0
 70
    24
 71
     2
 72
     6
 73
     3
 74
     0
 42
0.0000000001
 43
0.0000000001
 40
0.0
 40
0.0
 40
0.0
 40
20.08172737244567
 40
20.08172737244567
 40
20.08172737244567
 10
417.0393124254954
 20
1014.154075225699
 30
0.0
 10
408.1901794511352
 20
1018.898734240571
 30
0.0
 10
399.3410464767751
 20
1023.643393255442
 30
0.0
  0
POLYLINE
  5
F6
330
1F
100
AcDbEntity
  8
PREDEFINITO
100
AcDb2dPolyline
 66
     1
 10
0.0
 20
0.0
 30
0.0
  0
VERTEX
  5
F8
330
F6
100
AcDbEntity
  8
PREDEFINITO
100
AcDbVertex
100
AcDb2dVertex
 10
399.3410464767751
 20
1023.643393255442
 30
0.0
  0
VERTEX
  5
F9
330
F6
100
AcDbEntity
  8
PREDEFINITO
100
AcDbVertex
100
AcDb2dVertex
 10
399.2952494638375
 20
1023.676090046905
 30
0.0
  0
SEQEND
  5
F7
330
F6
100
AcDbEntity
  8
PREDEFINITO
  0
ARC
  5
FA
330
1F
100
AcDbEntity
  8
PREDEFINITO
100
AcDbCircle
 10
428.0585238653769
 20
1024.763288734699
 30
0.0
 40
11.00911201223995
100
AcDbArc
 50
254.5070052618429
 51
285.494956219924
  0
ARC
  5
FB
330
1F
100
AcDbEntity
  8
PREDEFINITO
100
AcDbCircle
 10
370.9940010288489
 20
1024.763288734699
 30
0.0
 40
11.00911201223995
100
AcDbArc
 50
254.5070052618429
 51
285.494956219924
  0
POLYLINE
  5
FC
330
1F
100
AcDbEntity
  8
PREDEFINITO
100
AcDb2dPolyline
 66
     1
 10
0.0
 20
0.0
 30
0.0
  0
VERTEX
  5
FE
330
FC
100
AcDbEntity
  8
PREDEFINITO
100
AcDbVertex
100
AcDb2dVertex
 10
342.2307266273095
 20
1023.676090046905
 30
0.0
  0
VERTEX
  5
FF
330
FC
100
AcDbEntity
  8
PREDEFINITO
100
AcDbVertex
100
AcDb2dVertex
 10
398.7227264550939
 20
1023.676090303745
 30
0.0
  0
SEQEND
  5
FD
330
FC
100
AcDbEntity
  8
PREDEFINITO
  0
POLYLINE
  5
100
330
1F
100
AcDbEntity
  8
PREDEFINITO
100
AcDb2dPolyline
 66
     1
 10
0.0
 20
0.0
 30
0.0
  0
VERTEX
  5
102
330
100
100
AcDbEntity
  8
PREDEFINITO
100
AcDbVertex
100
AcDb2dVertex
 10
398.7227264550939
 20
1023.676090303745
 30
0.0
  0
VERTEX
  5
103
330
100
100
AcDbEntity
  8
PREDEFINITO
100
AcDbVertex
100
AcDb2dVertex
 10
398.6730010812881
 20
1023.650402957963
 30
0.0
  0
SEQEND
  5
101
330
100
100
AcDbEntity
  8
PREDEFINITO
  0
SPLINE
  5
104
330
1F
100
AcDbEntity
  8
PREDEFINITO
100
AcDbSpline
210
0.0
220
0.0
230
1.0
 70
    24
 71
     2
 72
     6
 73
     3
 74
     0
 42
0.0000000001
 43
0.0000000001
 40
0.0
 40
0.0
 40
0.0
 40
20.09510236883177
 40
20.09510236883177
 40
20.09510236883177
 10
398.6730010812881
 20
1023.650402957963
 30
0.0
 10
389.8115888704318
 20
1018.902418611413
 30
0.0
 10
380.9501766595755
 20
1014.154434264864
 30
0.0
  0
SPLINE
  5
105
330
1F
100
AcDbEntity
  8
PREDEFINITO
100
AcDbSpline
210
0.0
220
0.0
230
1.0
 70
    28
 71
     2
 72
     6
 73
     3
 74
     0
 42
0.0000000001
 43
0.0000000001
 40
5.006913291658734
 40
5.006913291658734
 40
5.006913291658734
 40
6.28318530717959
 40
6.28318530717959
 40
6.28318530717959
 10
380.9501766595756
 20
1014.154434264864
 30
0.0
 41
0.906020548961135
 10
381.3347408498166
 20
1014.154440847512
 30
0.0
 41
0.7658970305948176
 10
374.0577271806743
 20
1014.154316285667
 30
0.0
 41
1.0
  0
SPLINE
  5
106
330
1F
100
AcDbEntity
  8
PREDEFINITO
100
AcDbSpline
210
0.0
220
0.0
230
1.0
 70
    24
 71
     2
 72
     6
 73
     3
 74
     0
 42
0.0000000001
 43
0.0000000001
 40
0.0
 40
0.0
 40
0.0
 40
3.588770044652681
 40
3.588770044652681
 40
3.588770044652681
 10
374.0577271806743
 20
1014.154316285667
 30
0.0
 10
372.2633421586108
 20
1014.154285570883
 30
0.0
 10
370.4689571365474
 20
1014.154254856098
 30
0.0
  0
SPLINE
  5
107
330
1F
100
AcDbEntity
  8
PREDEFINITO
100
AcDbSpline
210
0.0
220
0.0
230
1.0
 70
    24
 71
     2
 72
     6
 73
     3
 74
     0
 42
0.0000000001
 43
0.0000000001
 40
0.0
 40
0.0
 40
0.0
 40
10.46827150001099
 40
10.46827150001099
 40
10.46827150001099
 10
370.4689571365474
 20
1014.154254856098
 30
0.0
 10
365.2218733627574
 20
1014.154165040899
 30
0.0
 10
359.9747895889674
 20
1014.154075225699
 30
0.0
  0
SPLINE
  5
108
330
1F
100
AcDbEntity
  8
PREDEFINITO
100
AcDbSpline
210
0.0
220
0.0
230
1.0
 70
    24
 71
     2
 72
     6
 73
     3
 74
     0
 42
0.0000000001
 43
0.0000000001
 40
0.0
 40
0.0
 40
0.0
 40
20.08172737244567
 40
20.08172737244567
 40
20.08172737244567
 10
359.9747895889674
 20
1014.154075225699
 30
0.0
 10
351.1256566146072
 20
1018.898734240571
 30
0.0
 10
342.2765236402471
 20
1023.643393255442
 30
0.0
  0
POLYLINE
  5
109
330
1F
100
AcDbEntity
  8
PREDEFINITO
100
AcDb2dPolyline
 66
     1
 10
0.0
 20
0.0
 30
0.0
  0
VERTEX
  5
10B
330
109
100
AcDbEntity
  8
PREDEFINITO
100
AcDbVertex
100
AcDb2dVertex
 10
342.2765236402471
 20
1023.643393255442
 30
0.0
  0
VERTEX
  5
10C
330
109
100
AcDbEntity
  8
PREDEFINITO
100
AcDbVertex
100
AcDb2dVertex
 10
342.2307266273095
 20
1023.676090046905
 30
0.0
  0
SEQEND
  5
10A
330
109
100
AcDbEntity
  8
PREDEFINITO
  0
POLYLINE
  5
10D
330
1F
100
AcDbEntity
  8
PREDEFINITO
100
AcDb2dPolyline
 66
     1
 10
0.0
 20
0.0
 30
0.0
  0
VERTEX
  5
10F
330
10D
100
AcDbEntity
  8
PREDEFINITO
100
AcDbVertex
100
AcDb2dVertex
 10
342.2307266273095
 20
1023.676090046905
 30
0.0
  0
VERTEX
  5
110
330
10D
100
AcDbEntity
  8
PREDEFINITO
100
AcDbVertex
100
AcDb2dVertex
 10
398.7227264550939
 20
1023.676090046905
 30
0.0
  0
VERTEX
  5
111
330
10D
100
AcDbEntity
  8
PREDEFINITO
100
AcDbVertex
100
AcDb2dVertex
 10
398.7227264550939
 20
1024.754803423652
 30
0.0
  0
VERTEX
  5
112
330
10D
100
AcDbEntity
  8
PREDEFINITO
100
AcDbVertex
100
AcDb2dVertex
 10
342.2307266273095
 20
1024.754803423652
 30
0.0
  0
VERTEX
  5
113
330
10D
100
AcDbEntity
  8
PREDEFINITO
100
AcDbVertex
100
AcDb2dVertex
 10
342.2307266273095
 20
1023.676090046905
 30
0.0
  0
SEQEND
  5
10E
330
10D
100
AcDbEntity
  8
PREDEFINITO
  0
POLYLINE
  5
114
330
1F
100
AcDbEntity
  8
PREDEFINITO
100
AcDb2dPolyline
 66
     1
 10
0.0
 20
0.0
 30
0.0
  0
VERTEX
  5
116
330
114
100
AcDbEntity
  8
PREDEFINITO
100
AcDbVertex
100
AcDb2dVertex
 10
512.9994645365214
 20
1023.676152655671
 30
0.0
  0
VERTEX
  5
117
330
114
100
AcDbEntity
  8
PREDEFINITO
100
AcDbVertex
100
AcDb2dVertex
 10
569.4914643643058
 20
1023.676152655671
 30
0.0
  0
VERTEX
  5
118
330
114
100
AcDbEntity
  8
PREDEFINITO
100
AcDbVertex
100
AcDb2dVertex
 10
569.4914643643058
 20
1024.754866032418
 30
0.0
  0
VERTEX
  5
119
330
114
100
AcDbEntity
  8
PREDEFINITO
100
AcDbVertex
100
AcDb2dVertex
 10
512.9994645365214
 20
1024.754866032418
 30
0.0
  0
VERTEX
  5
11A
330
114
100
AcDbEntity
  8
PREDEFINITO
100
AcDbVertex
100
AcDb2dVertex
 10
512.9994645365214
 20
1023.676152655671
 30
0.0
  0
SEQEND
  5
115
330
114
100
AcDbEntity
  8
PREDEFINITO
  0
POLYLINE
  5
11B
330
1F
100
AcDbEntity
  8
PREDEFINITO
100
AcDb2dPolyline
 66
     1
 10
0.0
 20
0.0
 30
0.0
  0
VERTEX
  5
11D
330
11B
100
AcDbEntity
  8
PREDEFINITO
100
AcDbVertex
100
AcDb2dVertex
 10
512.9994645365214
 20
1023.676152655671
 30
0.0
  0
VERTEX
  5
11E
330
11B
100
AcDbEntity
  8
PREDEFINITO
100
AcDbVertex
100
AcDb2dVertex
 10
569.4914643643058
 20
1023.676152912511
 30
0.0
  0
SEQEND
  5
11C
330
11B
100
AcDbEntity
  8
PREDEFINITO
  0
POLYLINE
  5
11F
330
1F
100
AcDbEntity
  8
PREDEFINITO
100
AcDb2dPolyline
 66
     1
 10
0.0
 20
0.0
 30
0.0
  0
VERTEX
  5
121
330
11F
100
AcDbEntity
  8
PREDEFINITO
100
AcDbVertex
100
AcDb2dVertex
 10
569.4914643643058
 20
1023.676152912511
 30
0.0
  0
VERTEX
  5
122
330
11F
100
AcDbEntity
  8
PREDEFINITO
100
AcDbVertex
100
AcDb2dVertex
 10
569.4417389905
 20
1023.650465566729
 30
0.0
  0
SEQEND
  5
120
330
11F
100
AcDbEntity
  8
PREDEFINITO
  0
SPLINE
  5
123
330
1F
100
AcDbEntity
  8
PREDEFINITO
100
AcDbSpline
210
0.0
220
0.0
230
1.0
 70
    24
 71
     2
 72
     6
 73
     3
 74
     0
 42
0.0000000001
 43
0.0000000001
 40
0.0
 40
0.0
 40
0.0
 40
20.09510236883177
 40
20.09510236883177
 40
20.09510236883177
 10
569.4417389905
 20
1023.650465566729
 30
0.0
 10
560.5803267796437
 20
1018.90248122018
 30
0.0
 10
551.7189145687873
 20
1014.15449687363
 30
0.0
  0
SPLINE
  5
124
330
1F
100
AcDbEntity
  8
PREDEFINITO
100
AcDbSpline
210
0.0
220
0.0
230
1.0
 70
    28
 71
     2
 72
     6
 73
     3
 74
     0
 42
0.0000000001
 43
0.0000000001
 40
5.006913291658734
 40
5.006913291658734
 40
5.006913291658734
 40
6.28318530717959
 40
6.28318530717959
 40
6.28318530717959
 10
551.7189145687875
 20
1014.15449687363
 30
0.0
 41
0.906020548961135
 10
552.1034787590283
 20
1014.154503456278
 30
0.0
 41
0.7658970305948176
 10
544.8264650898861
 20
1014.154378894433
 30
0.0
 41
1.0
  0
SPLINE
  5
125
330
1F
100
AcDbEntity
  8
PREDEFINITO
100
AcDbSpline
210
0.0
220
0.0
230
1.0
 70
    24
 71
     2
 72
     6
 73
     3
 74
     0
 42
0.0000000001
 43
0.0000000001
 40
0.0
 40
0.0
 40
0.0
 40
3.588770044652681
 40
3.588770044652681
 40
3.588770044652681
 10
544.8264650898861
 20
1014.154378894433
 30
0.0
 10
543.0320800678227
 20
1014.154348179649
 30
0.0
 10
541.2376950457592
 20
1014.154317464864
 30
0.0
  0
SPLINE
  5
126
330
1F
100
AcDbEntity
  8
PREDEFINITO
100
AcDbSpline
210
0.0
220
0.0
230
1.0
 70
    24
 71
     2
 72
     6
 73
     3
 74
     0
 42
0.0000000001
 43
0.0000000001
 40
0.0
 40
0.0
 40
0.0
 40
10.46827150001099
 40
10.46827150001099
 40
10.46827150001099
 10
541.2376950457592
 20
1014.154317464864
 30
0.0
 10
535.9906112719692
 20
1014.154227649665
 30
0.0
 10
530.7435274981792
 20
1014.154137834465
 30
0.0
  0
SPLINE
  5
127
330
1F
100
AcDbEntity
  8
PREDEFINITO
100
AcDbSpline
210
0.0
220
0.0
230
1.0
 70
    24
 71
     2
 72
     6
 73
     3
 74
     0
 42
0.0000000001
 43
0.0000000001
 40
0.0
 40
0.0
 40
0.0
 40
20.08172737244567
 40
20.08172737244567
 40
20.08172737244567
 10
530.7435274981792
 20
1014.154137834465
 30
0.0
 10
521.8943945238191
 20
1018.898796849337
 30
0.0
 10
513.0452615494589
 20
1023.643455864208
 30
0.0
  0
POLYLINE
  5
128
330
1F
100
AcDbEntity
  8
PREDEFINITO
100
AcDb2dPolyline
 66
     1
 10
0.0
 20
0.0
 30
0.0
  0
VERTEX
  5
12A
330
128
100
AcDbEntity
  8
PREDEFINITO
100
AcDbVertex
100
AcDb2dVertex
 10
513.0452615494589
 20
1023.643455864208
 30
0.0
  0
VERTEX
  5
12B
330
128
100
AcDbEntity
  8
PREDEFINITO
100
AcDbVertex
100
AcDb2dVertex
 10
512.9994645365214
 20
1023.676152655671
 30
0.0
  0
SEQEND
  5
129
330
128
100
AcDbEntity
  8
PREDEFINITO
  0
ARC
  5
12C
330
1F
100
AcDbEntity
  8
PREDEFINITO
100
AcDbCircle
 10
541.7627389380607
 20
1024.763351343465
 30
0.0
 40
11.00911201223995
100
AcDbArc
 50
254.5070052618429
 51
285.494956219924
  0
ARC
  5
12D
330
1F
100
AcDbEntity
  8
PREDEFINITO
100
AcDbCircle
 10
598.8272617745887
 20
1024.763351343465
 30
0.0
 40
11.00911201223995
100
AcDbArc
 50
254.5070052618429
 51
285.494956219924
  0
POLYLINE
  5
12E
330
1F
100
AcDbEntity
  8
PREDEFINITO
100
AcDb2dPolyline
 66
     1
 10
0.0
 20
0.0
 30
0.0
  0
VERTEX
  5
130
330
12E
100
AcDbEntity
  8
PREDEFINITO
100
AcDbVertex
100
AcDb2dVertex
 10
570.0639873730494
 20
1023.676152655671
 30
0.0
  0
VERTEX
  5
131
330
12E
100
AcDbEntity
  8
PREDEFINITO
100
AcDbVertex
100
AcDb2dVertex
 10
626.5559872008338
 20
1023.676152912511
 30
0.0
  0
SEQEND
  5
12F
330
12E
100
AcDbEntity
  8
PREDEFINITO
  0
POLYLINE
  5
132
330
1F
100
AcDbEntity
  8
PREDEFINITO
100
AcDb2dPolyline
 66
     1
 10
0.0
 20
0.0
 30
0.0
  0
VERTEX
  5
134
330
132
100
AcDbEntity
  8
PREDEFINITO
100
AcDbVertex
100
AcDb2dVertex
 10
626.5559872008338
 20
1023.676152912511
 30
0.0
  0
VERTEX
  5
135
330
132
100
AcDbEntity
  8
PREDEFINITO
100
AcDbVertex
100
AcDb2dVertex
 10
626.506261827028
 20
1023.650465566729
 30
0.0
  0
SEQEND
  5
133
330
132
100
AcDbEntity
  8
PREDEFINITO
  0
SPLINE
  5
136
330
1F
100
AcDbEntity
  8
PREDEFINITO
100
AcDbSpline
210
0.0
220
0.0
230
1.0
 70
    24
 71
     2
 72
     6
 73
     3
 74
     0
 42
0.0000000001
 43
0.0000000001
 40
0.0
 40
0.0
 40
0.0
 40
20.09510236883177
 40
20.09510236883177
 40
20.09510236883177
 10
626.506261827028
 20
1023.650465566729
 30
0.0
 10
617.6448496161717
 20
1018.90248122018
 30
0.0
 10
608.7834374053153
 20
1014.15449687363
 30
0.0
  0
SPLINE
  5
137
330
1F
100
AcDbEntity
  8
PREDEFINITO
100
AcDbSpline
210
0.0
220
0.0
230
1.0
 70
    28
 71
     2
 72
     6
 73
     3
 74
     0
 42
0.0000000001
 43
0.0000000001
 40
5.006913291658734
 40
5.006913291658734
 40
5.006913291658734
 40
6.28318530717959
 40
6.28318530717959
 40
6.28318530717959
 10
608.7834374053155
 20
1014.15449687363
 30
0.0
 41
0.906020548961135
 10
609.1680015955563
 20
1014.154503456278
 30
0.0
 41
0.7658970305948176
 10
601.8909879264141
 20
1014.154378894433
 30
0.0
 41
1.0
  0
SPLINE
  5
138
330
1F
100
AcDbEntity
  8
PREDEFINITO
100
AcDbSpline
210
0.0
220
0.0
230
1.0
 70
    24
 71
     2
 72
     6
 73
     3
 74
     0
 42
0.0000000001
 43
0.0000000001
 40
0.0
 40
0.0
 40
0.0
 40
3.588770044652681
 40
3.588770044652681
 40
3.588770044652681
 10
601.8909879264141
 20
1014.154378894433
 30
0.0
 10
600.0966029043507
 20
1014.154348179649
 30
0.0
 10
598.3022178822872
 20
1014.154317464864
 30
0.0
  0
SPLINE
  5
139
330
1F
100
AcDbEntity
  8
PREDEFINITO
100
AcDbSpline
210
0.0
220
0.0
230
1.0
 70
    24
 71
     2
 72
     6
 73
     3
 74
     0
 42
0.0000000001
 43
0.0000000001
 40
0.0
 40
0.0
 40
0.0
 40
10.46827150001099
 40
10.46827150001099
 40
10.46827150001099
 10
598.3022178822872
 20
1014.154317464864
 30
0.0
 10
593.0551341084972
 20
1014.154227649665
 30
0.0
 10
587.8080503347072
 20
1014.154137834465
 30
0.0
  0
SPLINE
  5
13A
330
1F
100
AcDbEntity
  8
PREDEFINITO
100
AcDbSpline
210
0.0
220
0.0
230
1.0
 70
    24
 71
     2
 72
     6
 73
     3
 74
     0
 42
0.0000000001
 43
0.0000000001
 40
0.0
 40
0.0
 40
0.0
 40
20.08172737244567
 40
20.08172737244567
 40
20.08172737244567
 10
587.8080503347072
 20
1014.154137834465
 30
0.0
 10
578.9589173603471
 20
1018.898796849337
 30
0.0
 10
570.1097843859869
 20
1023.643455864208
 30
0.0
  0
POLYLINE
  5
13B
330
1F
100
AcDbEntity
  8
PREDEFINITO
100
AcDb2dPolyline
 66
     1
 10
0.0
 20
0.0
 30
0.0
  0
VERTEX
  5
13D
330
13B
100
AcDbEntity
  8
PREDEFINITO
100
AcDbVertex
100
AcDb2dVertex
 10
570.1097843859869
 20
1023.643455864208
 30
0.0
  0
VERTEX
  5
13E
330
13B
100
AcDbEntity
  8
PREDEFINITO
100
AcDbVertex
100
AcDb2dVertex
 10
570.0639873730494
 20
1023.676152655671
 30
0.0
  0
SEQEND
  5
13C
330
13B
100
AcDbEntity
  8
PREDEFINITO
  0
POLYLINE
  5
13F
330
1F
100
AcDbEntity
  8
PREDEFINITO
100
AcDb2dPolyline
 66
     1
 10
0.0
 20
0.0
 30
0.0
  0
VERTEX
  5
141
330
13F
100
AcDbEntity
  8
PREDEFINITO
100
AcDbVertex
100
AcDb2dVertex
 10
570.0639873730494
 20
1023.676152655671
 30
0.0
  0
VERTEX
  5
142
330
13F
100
AcDbEntity
  8
PREDEFINITO
100
AcDbVertex
100
AcDb2dVertex
 10
626.5559872008338
 20
1023.676152655671
 30
0.0
  0
VERTEX
  5
143
330
13F
100
AcDbEntity
  8
PREDEFINITO
100
AcDbVertex
100
AcDb2dVertex
 10
626.5559872008338
 20
1024.754866032418
 30
0.0
  0
VERTEX
  5
144
330
13F
100
AcDbEntity
  8
PREDEFINITO
100
AcDbVertex
100
AcDb2dVertex
 10
570.0639873730494
 20
1024.754866032418
 30
0.0
  0
VERTEX
  5
145
330
13F
100
AcDbEntity
  8
PREDEFINITO
100
AcDbVertex
100
AcDb2dVertex
 10
570.0639873730494
 20
1023.676152655671
 30
0.0
  0
SEQEND
  5
140
330
13F
100
AcDbEntity
  8
PREDEFINITO
  0
ARC
  5
146
330
1F
100
AcDbEntity
  8
PREDEFINITO
100
AcDbCircle
 10
1558.268689241716
 20
1024.762996816614
 30
0.0
 40
11.00911201223995
100
AcDbArc
 50
254.5070052618435
 51
285.4949562199234
  0
POLYLINE
  5
147
330
1F
100
AcDbEntity
  8
PREDEFINITO
100
AcDb2dPolyline
 66
     1
 10
0.0
 20
0.0
 30
0.0
  0
VERTEX
  5
149
330
147
100
AcDbEntity
  8
PREDEFINITO
100
AcDbVertex
100
AcDb2dVertex
 10
1529.505414840177
 20
1023.67579812882
 30
0.0
  0
VERTEX
  5
14A
330
147
100
AcDbEntity
  8
PREDEFINITO
100
AcDbVertex
100
AcDb2dVertex
 10
1585.997414667961
 20
1023.67579838566
 30
0.0
  0
SEQEND
  5
148
330
147
100
AcDbEntity
  8
PREDEFINITO
  0
POLYLINE
  5
14B
330
1F
100
AcDbEntity
  8
PREDEFINITO
100
AcDb2dPolyline
 66
     1
 10
0.0
 20
0.0
 30
0.0
  0
VERTEX
  5
14D
330
14B
100
AcDbEntity
  8
PREDEFINITO
100
AcDbVertex
100
AcDb2dVertex
 10
1585.997414667961
 20
1023.67579838566
 30
0.0
  0
VERTEX
  5
14E
330
14B
100
AcDbEntity
  8
PREDEFINITO
100
AcDbVertex
100
AcDb2dVertex
 10
1585.947689294155
 20
1023.650111039878
 30
0.0
  0
SEQEND
  5
14C
330
14B
100
AcDbEntity
  8
PREDEFINITO
  0
SPLINE
  5
14F
330
1F
100
AcDbEntity
  8
PREDEFINITO
100
AcDbSpline
210
0.0
220
0.0
230
1.0
 70
    24
 71
     2
 72
     6
 73
     3
 74
     0
 42
0.0000000001
 43
0.0000000001
 40
0.0
 40
0.0
 40
0.0
 40
20.09510236883177
 40
20.09510236883177
 40
20.09510236883177
 10
1585.947689294155
 20
1023.650111039878
 30
0.0
 10
1577.086277083299
 20
1018.902126693328
 30
0.0
 10
1568.224864872443
 20
1014.154142346779
 30
0.0
  0
SPLINE
  5
150
330
1F
100
AcDbEntity
  8
PREDEFINITO
100
AcDbSpline
210
0.0
220
0.0
230
1.0
 70
    28
 71
     2
 72
     6
 73
     3
 74
     0
 42
0.0000000001
 43
0.0000000001
 40
5.006913291658734
 40
5.006913291658734
 40
5.006913291658734
 40
6.28318530717959
 40
6.28318530717959
 40
6.28318530717959
 10
1568.224864872443
 20
1014.154142346779
 30
0.0
 41
0.906020548961135
 10
1568.609429062684
 20
1014.154148929427
 30
0.0
 41
0.7658970305948176
 10
1561.332415393542
 20
1014.154024367582
 30
0.0
 41
1.0
  0
SPLINE
  5
151
330
1F
100
AcDbEntity
  8
PREDEFINITO
100
AcDbSpline
210
0.0
220
0.0
230
1.0
 70
    24
 71
     2
 72
     6
 73
     3
 74
     0
 42
0.0000000001
 43
0.0000000001
 40
0.0
 40
0.0
 40
0.0
 40
3.588770044652681
 40
3.588770044652681
 40
3.588770044652681
 10
1561.332415393542
 20
1014.154024367582
 30
0.0
 10
1559.538030371478
 20
1014.153993652798
 30
0.0
 10
1557.743645349415
 20
1014.153962938013
 30
0.0
  0
SPLINE
  5
152
330
1F
100
AcDbEntity
  8
PREDEFINITO
100
AcDbSpline
210
0.0
220
0.0
230
1.0
 70
    24
 71
     2
 72
     6
 73
     3
 74
     0
 42
0.0000000001
 43
0.0000000001
 40
0.0
 40
0.0
 40
0.0
 40
10.46827150001099
 40
10.46827150001099
 40
10.46827150001099
 10
1557.743645349415
 20
1014.153962938013
 30
0.0
 10
1552.496561575625
 20
1014.153873122814
 30
0.0
 10
1547.249477801835
 20
1014.153783307614
 30
0.0
  0
SPLINE
  5
153
330
1F
100
AcDbEntity
  8
PREDEFINITO
100
AcDbSpline
210
0.0
220
0.0
230
1.0
 70
    24
 71
     2
 72
     6
 73
     3
 74
     0
 42
0.0000000001
 43
0.0000000001
 40
0.0
 40
0.0
 40
0.0
 40
20.08172737244567
 40
20.08172737244567
 40
20.08172737244567
 10
1547.249477801835
 20
1014.153783307614
 30
0.0
 10
1538.400344827475
 20
1018.898442322486
 30
0.0
 10
1529.551211853114
 20
1023.643101337357
 30
0.0
  0
POLYLINE
  5
154
330
1F
100
AcDbEntity
  8
PREDEFINITO
100
AcDb2dPolyline
 66
     1
 10
0.0
 20
0.0
 30
0.0
  0
VERTEX
  5
156
330
154
100
AcDbEntity
  8
PREDEFINITO
100
AcDbVertex
100
AcDb2dVertex
 10
1529.551211853114
 20
1023.643101337357
 30
0.0
  0
VERTEX
  5
157
330
154
100
AcDbEntity
  8
PREDEFINITO
100
AcDbVertex
100
AcDb2dVertex
 10
1529.505414840177
 20
1023.67579812882
 30
0.0
  0
SEQEND
  5
155
330
154
100
AcDbEntity
  8
PREDEFINITO
  0
POLYLINE
  5
158
330
1F
100
AcDbEntity
  8
PREDEFINITO
100
AcDb2dPolyline
 66
     1
 10
0.0
 20
0.0
 30
0.0
  0
VERTEX
  5
15A
330
158
100
AcDbEntity
  8
PREDEFINITO
100
AcDbVertex
100
AcDb2dVertex
 10
1529.505414840177
 20
1023.67579812882
 30
0.0
  0
VERTEX
  5
15B
330
158
100
AcDbEntity
  8
PREDEFINITO
100
AcDbVertex
100
AcDb2dVertex
 10
1585.997414667961
 20
1023.67579812882
 30
0.0
  0
VERTEX
  5
15C
330
158
100
AcDbEntity
  8
PREDEFINITO
100
AcDbVertex
100
AcDb2dVertex
 10
1585.997414667961
 20
1024.754511505567
 30
0.0
  0
VERTEX
  5
15D
330
158
100
AcDbEntity
  8
PREDEFINITO
100
AcDbVertex
100
AcDb2dVertex
 10
1529.505414840177
 20
1024.754511505567
 30
0.0
  0
VERTEX
  5
15E
330
158
100
AcDbEntity
  8
PREDEFINITO
100
AcDbVertex
100
AcDb2dVertex
 10
1529.505414840177
 20
1023.67579812882
 30
0.0
  0
SEQEND
  5
159
330
158
100
AcDbEntity
  8
PREDEFINITO
  0
ARC
  5
15F
330
1F
100
AcDbEntity
  8
PREDEFINITO
100
AcDbCircle
 10
1657.256811869117
 20
1024.762778397939
 30
0.0
 40
11.00911201223995
100
AcDbArc
 50
254.5070052618435
 51
285.4949562199234
  0
POLYLINE
  5
160
330
1F
100
AcDbEntity
  8
PREDEFINITO
100
AcDb2dPolyline
 66
     1
 10
0.0
 20
0.0
 30
0.0
  0
VERTEX
  5
162
330
160
100
AcDbEntity
  8
PREDEFINITO
100
AcDbVertex
100
AcDb2dVertex
 10
1628.493537467578
 20
1023.675579710145
 30
0.0
  0
VERTEX
  5
163
330
160
100
AcDbEntity
  8
PREDEFINITO
100
AcDbVertex
100
AcDb2dVertex
 10
1684.985537295362
 20
1023.675579966985
 30
0.0
  0
SEQEND
  5
161
330
160
100
AcDbEntity
  8
PREDEFINITO
  0
POLYLINE
  5
164
330
1F
100
AcDbEntity
  8
PREDEFINITO
100
AcDb2dPolyline
 66
     1
 10
0.0
 20
0.0
 30
0.0
  0
VERTEX
  5
166
330
164
100
AcDbEntity
  8
PREDEFINITO
100
AcDbVertex
100
AcDb2dVertex
 10
1684.985537295362
 20
1023.675579966985
 30
0.0
  0
VERTEX
  5
167
330
164
100
AcDbEntity
  8
PREDEFINITO
100
AcDbVertex
100
AcDb2dVertex
 10
1684.935811921556
 20
1023.649892621204
 30
0.0
  0
SEQEND
  5
165
330
164
100
AcDbEntity
  8
PREDEFINITO
  0
SPLINE
  5
168
330
1F
100
AcDbEntity
  8
PREDEFINITO
100
AcDbSpline
210
0.0
220
0.0
230
1.0
 70
    24
 71
     2
 72
     6
 73
     3
 74
     0
 42
0.0000000001
 43
0.0000000001
 40
0.0
 40
0.0
 40
0.0
 40
20.09510236883177
 40
20.09510236883177
 40
20.09510236883177
 10
1684.935811921556
 20
1023.649892621204
 30
0.0
 10
1676.0743997107
 20
1018.901908274654
 30
0.0
 10
1667.212987499844
 20
1014.153923928104
 30
0.0
  0
SPLINE
  5
169
330
1F
100
AcDbEntity
  8
PREDEFINITO
100
AcDbSpline
210
0.0
220
0.0
230
1.0
 70
    28
 71
     2
 72
     6
 73
     3
 74
     0
 42
0.0000000001
 43
0.0000000001
 40
5.006913291658734
 40
5.006913291658734
 40
5.006913291658734
 40
6.28318530717959
 40
6.28318530717959
 40
6.28318530717959
 10
1667.212987499844
 20
1014.153923928104
 30
0.0
 41
0.906020548961135
 10
1667.597551690085
 20
1014.153930510753
 30
0.0
 41
0.7658970305948176
 10
1660.320538020942
 20
1014.153805948908
 30
0.0
 41
1.0
  0
SPLINE
  5
16A
330
1F
100
AcDbEntity
  8
PREDEFINITO
100
AcDbSpline
210
0.0
220
0.0
230
1.0
 70
    24
 71
     2
 72
     6
 73
     3
 74
     0
 42
0.0000000001
 43
0.0000000001
 40
0.0
 40
0.0
 40
0.0
 40
3.588770044652681
 40
3.588770044652681
 40
3.588770044652681
 10
1660.320538020942
 20
1014.153805948908
 30
0.0
 10
1658.526152998879
 20
1014.153775234123
 30
0.0
 10
1656.731767976815
 20
1014.153744519339
 30
0.0
  0
SPLINE
  5
16B
330
1F
100
AcDbEntity
  8
PREDEFINITO
100
AcDbSpline
210
0.0
220
0.0
230
1.0
 70
    24
 71
     2
 72
     6
 73
     3
 74
     0
 42
0.0000000001
 43
0.0000000001
 40
0.0
 40
0.0
 40
0.0
 40
10.46827150001099
 40
10.46827150001099
 40
10.46827150001099
 10
1656.731767976815
 20
1014.153744519339
 30
0.0
 10
1651.484684203026
 20
1014.153654704139
 30
0.0
 10
1646.237600429235
 20
1014.15356488894
 30
0.0
  0
SPLINE
  5
16C
330
1F
100
AcDbEntity
  8
PREDEFINITO
100
AcDbSpline
210
0.0
220
0.0
230
1.0
 70
    24
 71
     2
 72
     6
 73
     3
 74
     0
 42
0.0000000001
 43
0.0000000001
 40
0.0
 40
0.0
 40
0.0
 40
20.08172737244567
 40
20.08172737244567
 40
20.08172737244567
 10
1646.237600429235
 20
1014.15356488894
 30
0.0
 10
1637.388467454875
 20
1018.898223903811
 30
0.0
 10
1628.539334480515
 20
1023.642882918683
 30
0.0
  0
POLYLINE
  5
16D
330
1F
100
AcDbEntity
  8
PREDEFINITO
100
AcDb2dPolyline
 66
     1
 10
0.0
 20
0.0
 30
0.0
  0
VERTEX
  5
16F
330
16D
100
AcDbEntity
  8
PREDEFINITO
100
AcDbVertex
100
AcDb2dVertex
 10
1628.539334480515
 20
1023.642882918683
 30
0.0
  0
VERTEX
  5
170
330
16D
100
AcDbEntity
  8
PREDEFINITO
100
AcDbVertex
100
AcDb2dVertex
 10
1628.493537467578
 20
1023.675579710145
 30
0.0
  0
SEQEND
  5
16E
330
16D
100
AcDbEntity
  8
PREDEFINITO
  0
POLYLINE
  5
171
330
1F
100
AcDbEntity
  8
PREDEFINITO
100
AcDb2dPolyline
 66
     1
 10
0.0
 20
0.0
 30
0.0
  0
VERTEX
  5
173
330
171
100
AcDbEntity
  8
PREDEFINITO
100
AcDbVertex
100
AcDb2dVertex
 10
1628.493537467578
 20
1023.675579710145
 30
0.0
  0
VERTEX
  5
174
330
171
100
AcDbEntity
  8
PREDEFINITO
100
AcDbVertex
100
AcDb2dVertex
 10
1684.985537295362
 20
1023.675579710145
 30
0.0
  0
VERTEX
  5
175
330
171
100
AcDbEntity
  8
PREDEFINITO
100
AcDbVertex
100
AcDb2dVertex
 10
1684.985537295362
 20
1024.754293086892
 30
0.0
  0
VERTEX
  5
176
330
171
100
AcDbEntity
  8
PREDEFINITO
100
AcDbVertex
100
AcDb2dVertex
 10
1628.493537467578
 20
1024.754293086892
 30
0.0
  0
VERTEX
  5
177
330
171
100
AcDbEntity
  8
PREDEFINITO
100
AcDbVertex
100
AcDb2dVertex
 10
1628.493537467578
 20
1023.675579710145
 30
0.0
  0
SEQEND
  5
172
330
171
100
AcDbEntity
  8
PREDEFINITO
  0
ARC
  5
178
330
1F
100
AcDbEntity
  8
PREDEFINITO
100
AcDbCircle
 10
1459.464734547978
 20
1024.763017993687
 30
0.0
 40
11.00911201223995
100
AcDbArc
 50
254.5070052618435
 51
285.4949562199234
  0
POLYLINE
  5
179
330
1F
100
AcDbEntity
  8
PREDEFINITO
100
AcDb2dPolyline
 66
     1
 10
0.0
 20
0.0
 30
0.0
  0
VERTEX
  5
17B
330
179
100
AcDbEntity
  8
PREDEFINITO
100
AcDbVertex
100
AcDb2dVertex
 10
1430.701460146439
 20
1023.675819305893
 30
0.0
  0
VERTEX
  5
17C
330
179
100
AcDbEntity
  8
PREDEFINITO
100
AcDbVertex
100
AcDb2dVertex
 10
1487.193459974223
 20
1023.675819562733
 30
0.0
  0
SEQEND
  5
17A
330
179
100
AcDbEntity
  8
PREDEFINITO
  0
POLYLINE
  5
17D
330
1F
100
AcDbEntity
  8
PREDEFINITO
100
AcDb2dPolyline
 66
     1
 10
0.0
 20
0.0
 30
0.0
  0
VERTEX
  5
17F
330
17D
100
AcDbEntity
  8
PREDEFINITO
100
AcDbVertex
100
AcDb2dVertex
 10
1487.193459974223
 20
1023.675819562733
 30
0.0
  0
VERTEX
  5
180
330
17D
100
AcDbEntity
  8
PREDEFINITO
100
AcDbVertex
100
AcDb2dVertex
 10
1487.143734600417
 20
1023.650132216951
 30
0.0
  0
SEQEND
  5
17E
330
17D
100
AcDbEntity
  8
PREDEFINITO
  0
SPLINE
  5
181
330
1F
100
AcDbEntity
  8
PREDEFINITO
100
AcDbSpline
210
0.0
220
0.0
230
1.0
 70
    24
 71
     2
 72
     6
 73
     3
 74
     0
 42
0.0000000001
 43
0.0000000001
 40
0.0
 40
0.0
 40
0.0
 40
20.09510236883177
 40
20.09510236883177
 40
20.09510236883177
 10
1487.143734600417
 20
1023.650132216951
 30
0.0
 10
1478.282322389561
 20
1018.902147870401
 30
0.0
 10
1469.420910178705
 20
1014.154163523852
 30
0.0
  0
SPLINE
  5
182
330
1F
100
AcDbEntity
  8
PREDEFINITO
100
AcDbSpline
210
0.0
220
0.0
230
1.0
 70
    28
 71
     2
 72
     6
 73
     3
 74
     0
 42
0.0000000001
 43
0.0000000001
 40
5.006913291658734
 40
5.006913291658734
 40
5.006913291658734
 40
6.28318530717959
 40
6.28318530717959
 40
6.28318530717959
 10
1469.420910178705
 20
1014.154163523852
 30
0.0
 41
0.906020548961135
 10
1469.805474368946
 20
1014.1541701065
 30
0.0
 41
0.7658970305948176
 10
1462.528460699804
 20
1014.154045544655
 30
0.0
 41
1.0
  0
SPLINE
  5
183
330
1F
100
AcDbEntity
  8
PREDEFINITO
100
AcDbSpline
210
0.0
220
0.0
230
1.0
 70
    24
 71
     2
 72
     6
 73
     3
 74
     0
 42
0.0000000001
 43
0.0000000001
 40
0.0
 40
0.0
 40
0.0
 40
3.588770044652681
 40
3.588770044652681
 40
3.588770044652681
 10
1462.528460699804
 20
1014.154045544655
 30
0.0
 10
1460.73407567774
 20
1014.154014829871
 30
0.0
 10
1458.939690655677
 20
1014.153984115086
 30
0.0
  0
SPLINE
  5
184
330
1F
100
AcDbEntity
  8
PREDEFINITO
100
AcDbSpline
210
0.0
220
0.0
230
1.0
 70
    24
 71
     2
 72
     6
 73
     3
 74
     0
 42
0.0000000001
 43
0.0000000001
 40
0.0
 40
0.0
 40
0.0
 40
10.46827150001099
 40
10.46827150001099
 40
10.46827150001099
 10
1458.939690655677
 20
1014.153984115086
 30
0.0
 10
1453.692606881887
 20
1014.153894299887
 30
0.0
 10
1448.445523108097
 20
1014.153804484687
 30
0.0
  0
SPLINE
  5
185
330
1F
100
AcDbEntity
  8
PREDEFINITO
100
AcDbSpline
210
0.0
220
0.0
230
1.0
 70
    24
 71
     2
 72
     6
 73
     3
 74
     0
 42
0.0000000001
 43
0.0000000001
 40
0.0
 40
0.0
 40
0.0
 40
20.08172737244567
 40
20.08172737244567
 40
20.08172737244567
 10
1448.445523108097
 20
1014.153804484687
 30
0.0
 10
1439.596390133737
 20
1018.898463499559
 30
0.0
 10
1430.747257159376
 20
1023.64312251443
 30
0.0
  0
POLYLINE
  5
186
330
1F
100
AcDbEntity
  8
PREDEFINITO
100
AcDb2dPolyline
 66
     1
 10
0.0
 20
0.0
 30
0.0
  0
VERTEX
  5
188
330
186
100
AcDbEntity
  8
PREDEFINITO
100
AcDbVertex
100
AcDb2dVertex
 10
1430.747257159376
 20
1023.64312251443
 30
0.0
  0
VERTEX
  5
189
330
186
100
AcDbEntity
  8
PREDEFINITO
100
AcDbVertex
100
AcDb2dVertex
 10
1430.701460146439
 20
1023.675819305893
 30
0.0
  0
SEQEND
  5
187
330
186
100
AcDbEntity
  8
PREDEFINITO
  0
POLYLINE
  5
18A
330
1F
100
AcDbEntity
  8
PREDEFINITO
100
AcDb2dPolyline
 66
     1
 10
0.0
 20
0.0
 30
0.0
  0
VERTEX
  5
18C
330
18A
100
AcDbEntity
  8
PREDEFINITO
100
AcDbVertex
100
AcDb2dVertex
 10
1430.701460146439
 20
1023.675819305893
 30
0.0
  0
VERTEX
  5
18D
330
18A
100
AcDbEntity
  8
PREDEFINITO
100
AcDbVertex
100
AcDb2dVertex
 10
1487.193459974223
 20
1023.675819305893
 30
0.0
  0
VERTEX
  5
18E
330
18A
100
AcDbEntity
  8
PREDEFINITO
100
AcDbVertex
100
AcDb2dVertex
 10
1487.193459974223
 20
1024.75453268264
 30
0.0
  0
VERTEX
  5
18F
330
18A
100
AcDbEntity
  8
PREDEFINITO
100
AcDbVertex
100
AcDb2dVertex
 10
1430.701460146439
 20
1024.75453268264
 30
0.0
  0
VERTEX
  5
190
330
18A
100
AcDbEntity
  8
PREDEFINITO
100
AcDbVertex
100
AcDb2dVertex
 10
1430.701460146439
 20
1023.675819305893
 30
0.0
  0
SEQEND
  5
18B
330
18A
100
AcDbEntity
  8
PREDEFINITO
  0
ARC
  5
191
330
1F
100
AcDbEntity
  8
PREDEFINITO
100
AcDbCircle
 10
1360.657070581166
 20
1024.762053760091
 30
0.0
 40
11.00911201223995
100
AcDbArc
 50
254.5070052618435
 51
285.4949562199234
  0
POLYLINE
  5
192
330
1F
100
AcDbEntity
  8
PREDEFINITO
100
AcDb2dPolyline
 66
     1
 10
0.0
 20
0.0
 30
0.0
  0
VERTEX
  5
194
330
192
100
AcDbEntity
  8
PREDEFINITO
100
AcDbVertex
100
AcDb2dVertex
 10
1331.893796179627
 20
1023.674855072297
 30
0.0
  0
VERTEX
  5
195
330
192
100
AcDbEntity
  8
PREDEFINITO
100
AcDbVertex
100
AcDb2dVertex
 10
1388.385796007411
 20
1023.674855329137
 30
0.0
  0
SEQEND
  5
193
330
192
100
AcDbEntity
  8
PREDEFINITO
  0
POLYLINE
  5
196
330
1F
100
AcDbEntity
  8
PREDEFINITO
100
AcDb2dPolyline
 66
     1
 10
0.0
 20
0.0
 30
0.0
  0
VERTEX
  5
198
330
196
100
AcDbEntity
  8
PREDEFINITO
100
AcDbVertex
100
AcDb2dVertex
 10
1388.385796007411
 20
1023.674855329137
 30
0.0
  0
VERTEX
  5
199
330
196
100
AcDbEntity
  8
PREDEFINITO
100
AcDbVertex
100
AcDb2dVertex
 10
1388.336070633605
 20
1023.649167983356
 30
0.0
  0
SEQEND
  5
197
330
196
100
AcDbEntity
  8
PREDEFINITO
  0
SPLINE
  5
19A
330
1F
100
AcDbEntity
  8
PREDEFINITO
100
AcDbSpline
210
0.0
220
0.0
230
1.0
 70
    24
 71
     2
 72
     6
 73
     3
 74
     0
 42
0.0000000001
 43
0.0000000001
 40
0.0
 40
0.0
 40
0.0
 40
20.09510236883177
 40
20.09510236883177
 40
20.09510236883177
 10
1388.336070633605
 20
1023.649167983356
 30
0.0
 10
1379.474658422749
 20
1018.901183636806
 30
0.0
 10
1370.613246211893
 20
1014.153199290256
 30
0.0
  0
SPLINE
  5
19B
330
1F
100
AcDbEntity
  8
PREDEFINITO
100
AcDbSpline
210
0.0
220
0.0
230
1.0
 70
    28
 71
     2
 72
     6
 73
     3
 74
     0
 42
0.0000000001
 43
0.0000000001
 40
5.006913291658734
 40
5.006913291658734
 40
5.006913291658734
 40
6.28318530717959
 40
6.28318530717959
 40
6.28318530717959
 10
1370.613246211893
 20
1014.153199290256
 30
0.0
 41
0.906020548961135
 10
1370.997810402134
 20
1014.153205872905
 30
0.0
 41
0.7658970305948176
 10
1363.720796732992
 20
1014.15308131106
 30
0.0
 41
1.0
  0
SPLINE
  5
19C
330
1F
100
AcDbEntity
  8
PREDEFINITO
100
AcDbSpline
210
0.0
220
0.0
230
1.0
 70
    24
 71
     2
 72
     6
 73
     3
 74
     0
 42
0.0000000001
 43
0.0000000001
 40
0.0
 40
0.0
 40
0.0
 40
3.588770044652681
 40
3.588770044652681
 40
3.588770044652681
 10
1363.720796732992
 20
1014.15308131106
 30
0.0
 10
1361.926411710928
 20
1014.153050596275
 30
0.0
 10
1360.132026688865
 20
1014.153019881491
 30
0.0
  0
SPLINE
  5
19D
330
1F
100
AcDbEntity
  8
PREDEFINITO
100
AcDbSpline
210
0.0
220
0.0
230
1.0
 70
    24
 71
     2
 72
     6
 73
     3
 74
     0
 42
0.0000000001
 43
0.0000000001
 40
0.0
 40
0.0
 40
0.0
 40
10.46827150001099
 40
10.46827150001099
 40
10.46827150001099
 10
1360.132026688865
 20
1014.153019881491
 30
0.0
 10
1354.884942915075
 20
1014.152930066291
 30
0.0
 10
1349.637859141285
 20
1014.152840251092
 30
0.0
  0
SPLINE
  5
19E
330
1F
100
AcDbEntity
  8
PREDEFINITO
100
AcDbSpline
210
0.0
220
0.0
230
1.0
 70
    24
 71
     2
 72
     6
 73
     3
 74
     0
 42
0.0000000001
 43
0.0000000001
 40
0.0
 40
0.0
 40
0.0
 40
20.08172737244567
 40
20.08172737244567
 40
20.08172737244567
 10
1349.637859141285
 20
1014.152840251092
 30
0.0
 10
1340.788726166925
 20
1018.897499265963
 30
0.0
 10
1331.939593192564
 20
1023.642158280835
 30
0.0
  0
POLYLINE
  5
19F
330
1F
100
AcDbEntity
  8
PREDEFINITO
100
AcDb2dPolyline
 66
     1
 10
0.0
 20
0.0
 30
0.0
  0
VERTEX
  5
1A1
330
19F
100
AcDbEntity
  8
PREDEFINITO
100
AcDbVertex
100
AcDb2dVertex
 10
1331.939593192564
 20
1023.642158280835
 30
0.0
  0
VERTEX
  5
1A2
330
19F
100
AcDbEntity
  8
PREDEFINITO
100
AcDbVertex
100
AcDb2dVertex
 10
1331.893796179627
 20
1023.674855072297
 30
0.0
  0
SEQEND
  5
1A0
330
19F
100
AcDbEntity
  8
PREDEFINITO
  0
POLYLINE
  5
1A3
330
1F
100
AcDbEntity
  8
PREDEFINITO
100
AcDb2dPolyline
 66
     1
 10
0.0
 20
0.0
 30
0.0
  0
VERTEX
  5
1A5
330
1A3
100
AcDbEntity
  8
PREDEFINITO
100
AcDbVertex
100
AcDb2dVertex
 10
1331.893796179627
 20
1023.674855072297
 30
0.0
  0
VERTEX
  5
1A6
330
1A3
100
AcDbEntity
  8
PREDEFINITO
100
AcDbVertex
100
AcDb2dVertex
 10
1388.385796007411
 20
1023.674855072297
 30
0.0
  0
VERTEX
  5
1A7
330
1A3
100
AcDbEntity
  8
PREDEFINITO
100
AcDbVertex
100
AcDb2dVertex
 10
1388.385796007411
 20
1024.753568449044
 30
0.0
  0
VERTEX
  5
1A8
330
1A3
100
AcDbEntity
  8
PREDEFINITO
100
AcDbVertex
100
AcDb2dVertex
 10
1331.893796179627
 20
1024.753568449044
 30
0.0
  0
VERTEX
  5
1A9
330
1A3
100
AcDbEntity
  8
PREDEFINITO
100
AcDbVertex
100
AcDb2dVertex
 10
1331.893796179627
 20
1023.674855072297
 30
0.0
  0
SEQEND
  5
1A4
330
1A3
100
AcDbEntity
  8
PREDEFINITO
  0
ARC
  5
1AA
330
1F
100
AcDbEntity
  8
PREDEFINITO
100
AcDbCircle
 10
1261.846343815783
 20
1024.762053794926
 30
0.0
 40
11.00911201223995
100
AcDbArc
 50
254.5070052618435
 51
285.4949562199234
  0
POLYLINE
  5
1AB
330
1F
100
AcDbEntity
  8
PREDEFINITO
100
AcDb2dPolyline
 66
     1
 10
0.0
 20
0.0
 30
0.0
  0
VERTEX
  5
1AD
330
1AB
100
AcDbEntity
  8
PREDEFINITO
100
AcDbVertex
100
AcDb2dVertex
 10
1233.083069414243
 20
1023.674855107132
 30
0.0
  0
VERTEX
  5
1AE
330
1AB
100
AcDbEntity
  8
PREDEFINITO
100
AcDbVertex
100
AcDb2dVertex
 10
1289.575069242028
 20
1023.674855363973
 30
0.0
  0
SEQEND
  5
1AC
330
1AB
100
AcDbEntity
  8
PREDEFINITO
  0
POLYLINE
  5
1AF
330
1F
100
AcDbEntity
  8
PREDEFINITO
100
AcDb2dPolyline
 66
     1
 10
0.0
 20
0.0
 30
0.0
  0
VERTEX
  5
1B1
330
1AF
100
AcDbEntity
  8
PREDEFINITO
100
AcDbVertex
100
AcDb2dVertex
 10
1289.575069242028
 20
1023.674855363973
 30
0.0
  0
VERTEX
  5
1B2
330
1AF
100
AcDbEntity
  8
PREDEFINITO
100
AcDbVertex
100
AcDb2dVertex
 10
1289.525343868222
 20
1023.649168018191
 30
0.0
  0
SEQEND
  5
1B0
330
1AF
100
AcDbEntity
  8
PREDEFINITO
  0
SPLINE
  5
1B3
330
1F
100
AcDbEntity
  8
PREDEFINITO
100
AcDbSpline
210
0.0
220
0.0
230
1.0
 70
    24
 71
     2
 72
     6
 73
     3
 74
     0
 42
0.0000000001
 43
0.0000000001
 40
0.0
 40
0.0
 40
0.0
 40
20.09510236883177
 40
20.09510236883177
 40
20.09510236883177
 10
1289.525343868222
 20
1023.649168018191
 30
0.0
 10
1280.663931657366
 20
1018.901183671641
 30
0.0
 10
1271.802519446509
 20
1014.153199325092
 30
0.0
  0
SPLINE
  5
1B4
330
1F
100
AcDbEntity
  8
PREDEFINITO
100
AcDbSpline
210
0.0
220
0.0
230
1.0
 70
    28
 71
     2
 72
     6
 73
     3
 74
     0
 42
0.0000000001
 43
0.0000000001
 40
5.006913291658734
 40
5.006913291658734
 40
5.006913291658734
 40
6.28318530717959
 40
6.28318530717959
 40
6.28318530717959
 10
1271.802519446509
 20
1014.153199325092
 30
0.0
 41
0.906020548961135
 10
1272.18708363675
 20
1014.15320590774
 30
0.0
 41
0.7658970305948176
 10
1264.910069967608
 20
1014.153081345895
 30
0.0
 41
1.0
  0
SPLINE
  5
1B5
330
1F
100
AcDbEntity
  8
PREDEFINITO
100
AcDbSpline
210
0.0
220
0.0
230
1.0
 70
    24
 71
     2
 72
     6
 73
     3
 74
     0
 42
0.0000000001
 43
0.0000000001
 40
0.0
 40
0.0
 40
0.0
 40
3.588770044652681
 40
3.588770044652681
 40
3.588770044652681
 10
1264.910069967608
 20
1014.153081345895
 30
0.0
 10
1263.115684945545
 20
1014.153050631111
 30
0.0
 10
1261.321299923481
 20
1014.153019916326
 30
0.0
  0
SPLINE
  5
1B6
330
1F
100
AcDbEntity
  8
PREDEFINITO
100
AcDbSpline
210
0.0
220
0.0
230
1.0
 70
    24
 71
     2
 72
     6
 73
     3
 74
     0
 42
0.0000000001
 43
0.0000000001
 40
0.0
 40
0.0
 40
0.0
 40
10.46827150001099
 40
10.46827150001099
 40
10.46827150001099
 10
1261.321299923481
 20
1014.153019916326
 30
0.0
 10
1256.074216149691
 20
1014.152930101126
 30
0.0
 10
1250.827132375901
 20
1014.152840285927
 30
0.0
  0
SPLINE
  5
1B7
330
1F
100
AcDbEntity
  8
PREDEFINITO
100
AcDbSpline
210
0.0
220
0.0
230
1.0
 70
    24
 71
     2
 72
     6
 73
     3
 74
     0
 42
0.0000000001
 43
0.0000000001
 40
0.0
 40
0.0
 40
0.0
 40
20.08172737244567
 40
20.08172737244567
 40
20.08172737244567
 10
1250.827132375901
 20
1014.152840285927
 30
0.0
 10
1241.977999401541
 20
1018.897499300798
 30
0.0
 10
1233.128866427181
 20
1023.64215831567
 30
0.0
  0
POLYLINE
  5
1B8
330
1F
100
AcDbEntity
  8
PREDEFINITO
100
AcDb2dPolyline
 66
     1
 10
0.0
 20
0.0
 30
0.0
  0
VERTEX
  5
1BA
330
1B8
100
AcDbEntity
  8
PREDEFINITO
100
AcDbVertex
100
AcDb2dVertex
 10
1233.128866427181
 20
1023.64215831567
 30
0.0
  0
VERTEX
  5
1BB
330
1B8
100
AcDbEntity
  8
PREDEFINITO
100
AcDbVertex
100
AcDb2dVertex
 10
1233.083069414243
 20
1023.674855107132
 30
0.0
  0
SEQEND
  5
1B9
330
1B8
100
AcDbEntity
  8
PREDEFINITO
  0
POLYLINE
  5
1BC
330
1F
100
AcDbEntity
  8
PREDEFINITO
100
AcDb2dPolyline
 66
     1
 10
0.0
 20
0.0
 30
0.0
  0
VERTEX
  5
1BE
330
1BC
100
AcDbEntity
  8
PREDEFINITO
100
AcDbVertex
100
AcDb2dVertex
 10
1233.083069414243
 20
1023.674855107132
 30
0.0
  0
VERTEX
  5
1BF
330
1BC
100
AcDbEntity
  8
PREDEFINITO
100
AcDbVertex
100
AcDb2dVertex
 10
1289.575069242028
 20
1023.674855107132
 30
0.0
  0
VERTEX
  5
1C0
330
1BC
100
AcDbEntity
  8
PREDEFINITO
100
AcDbVertex
100
AcDb2dVertex
 10
1289.575069242028
 20
1024.75356848388
 30
0.0
  0
VERTEX
  5
1C1
330
1BC
100
AcDbEntity
  8
PREDEFINITO
100
AcDbVertex
100
AcDb2dVertex
 10
1233.083069414243
 20
1024.75356848388
 30
0.0
  0
VERTEX
  5
1C2
330
1BC
100
AcDbEntity
  8
PREDEFINITO
100
AcDbVertex
100
AcDb2dVertex
 10
1233.083069414243
 20
1023.674855107132
 30
0.0
  0
SEQEND
  5
1BD
330
1BC
100
AcDbEntity
  8
PREDEFINITO
  0
ARC
  5
1C3
330
1F
100
AcDbEntity
  8
PREDEFINITO
100
AcDbCircle
 10
1163.285566825557
 20
1024.762053794926
 30
0.0
 40
11.00911201223995
100
AcDbArc
 50
254.5070052618435
 51
285.4949562199234
  0
POLYLINE
  5
1C4
330
1F
100
AcDbEntity
  8
PREDEFINITO
100
AcDb2dPolyline
 66
     1
 10
0.0
 20
0.0
 30
0.0
  0
VERTEX
  5
1C6
330
1C4
100
AcDbEntity
  8
PREDEFINITO
100
AcDbVertex
100
AcDb2dVertex
 10
1134.522292424018
 20
1023.674855107132
 30
0.0
  0
VERTEX
  5
1C7
330
1C4
100
AcDbEntity
  8
PREDEFINITO
100
AcDbVertex
100
AcDb2dVertex
 10
1191.014292251803
 20
1023.674855363973
 30
0.0
  0
SEQEND
  5
1C5
330
1C4
100
AcDbEntity
  8
PREDEFINITO
  0
POLYLINE
  5
1C8
330
1F
100
AcDbEntity
  8
PREDEFINITO
100
AcDb2dPolyline
 66
     1
 10
0.0
 20
0.0
 30
0.0
  0
VERTEX
  5
1CA
330
1C8
100
AcDbEntity
  8
PREDEFINITO
100
AcDbVertex
100
AcDb2dVertex
 10
1191.014292251803
 20
1023.674855363973
 30
0.0
  0
VERTEX
  5
1CB
330
1C8
100
AcDbEntity
  8
PREDEFINITO
100
AcDbVertex
100
AcDb2dVertex
 10
1190.964566877997
 20
1023.649168018191
 30
0.0
  0
SEQEND
  5
1C9
330
1C8
100
AcDbEntity
  8
PREDEFINITO
  0
SPLINE
  5
1CC
330
1F
100
AcDbEntity
  8
PREDEFINITO
100
AcDbSpline
210
0.0
220
0.0
230
1.0
 70
    24
 71
     2
 72
     6
 73
     3
 74
     0
 42
0.0000000001
 43
0.0000000001
 40
0.0
 40
0.0
 40
0.0
 40
20.09510236883177
 40
20.09510236883177
 40
20.09510236883177
 10
1190.964566877997
 20
1023.649168018191
 30
0.0
 10
1182.10315466714
 20
1018.901183671641
 30
0.0
 10
1173.241742456284
 20
1014.153199325092
 30
0.0
  0
SPLINE
  5
1CD
330
1F
100
AcDbEntity
  8
PREDEFINITO
100
AcDbSpline
210
0.0
220
0.0
230
1.0
 70
    28
 71
     2
 72
     6
 73
     3
 74
     0
 42
0.0000000001
 43
0.0000000001
 40
5.006913291658734
 40
5.006913291658734
 40
5.006913291658734
 40
6.28318530717959
 40
6.28318530717959
 40
6.28318530717959
 10
1173.241742456284
 20
1014.153199325092
 30
0.0
 41
0.906020548961135
 10
1173.626306646525
 20
1014.15320590774
 30
0.0
 41
0.7658970305948176
 10
1166.349292977383
 20
1014.153081345895
 30
0.0
 41
1.0
  0
SPLINE
  5
1CE
330
1F
100
AcDbEntity
  8
PREDEFINITO
100
AcDbSpline
210
0.0
220
0.0
230
1.0
 70
    24
 71
     2
 72
     6
 73
     3
 74
     0
 42
0.0000000001
 43
0.0000000001
 40
0.0
 40
0.0
 40
0.0
 40
3.588770044652681
 40
3.588770044652681
 40
3.588770044652681
 10
1166.349292977383
 20
1014.153081345895
 30
0.0
 10
1164.554907955319
 20
1014.153050631111
 30
0.0
 10
1162.760522933256
 20
1014.153019916326
 30
0.0
  0
SPLINE
  5
1CF
330
1F
100
AcDbEntity
  8
PREDEFINITO
100
AcDbSpline
210
0.0
220
0.0
230
1.0
 70
    24
 71
     2
 72
     6
 73
     3
 74
     0
 42
0.0000000001
 43
0.0000000001
 40
0.0
 40
0.0
 40
0.0
 40
10.46827150001099
 40
10.46827150001099
 40
10.46827150001099
 10
1162.760522933256
 20
1014.153019916326
 30
0.0
 10
1157.513439159466
 20
1014.152930101126
 30
0.0
 10
1152.266355385676
 20
1014.152840285927
 30
0.0
  0
SPLINE
  5
1D0
330
1F
100
AcDbEntity
  8
PREDEFINITO
100
AcDbSpline
210
0.0
220
0.0
230
1.0
 70
    24
 71
     2
 72
     6
 73
     3
 74
     0
 42
0.0000000001
 43
0.0000000001
 40
0.0
 40
0.0
 40
0.0
 40
20.08172737244567
 40
20.08172737244567
 40
20.08172737244567
 10
1152.266355385676
 20
1014.152840285927
 30
0.0
 10
1143.417222411316
 20
1018.897499300798
 30
0.0
 10
1134.568089436956
 20
1023.64215831567
 30
0.0
  0
POLYLINE
  5
1D1
330
1F
100
AcDbEntity
  8
PREDEFINITO
100
AcDb2dPolyline
 66
     1
 10
0.0
 20
0.0
 30
0.0
  0
VERTEX
  5
1D3
330
1D1
100
AcDbEntity
  8
PREDEFINITO
100
AcDbVertex
100
AcDb2dVertex
 10
1134.568089436956
 20
1023.64215831567
 30
0.0
  0
VERTEX
  5
1D4
330
1D1
100
AcDbEntity
  8
PREDEFINITO
100
AcDbVertex
100
AcDb2dVertex
 10
1134.522292424018
 20
1023.674855107132
 30
0.0
  0
SEQEND
  5
1D2
330
1D1
100
AcDbEntity
  8
PREDEFINITO
  0
POLYLINE
  5
1D5
330
1F
100
AcDbEntity
  8
PREDEFINITO
100
AcDb2dPolyline
 66
     1
 10
0.0
 20
0.0
 30
0.0
  0
VERTEX
  5
1D7
330
1D5
100
AcDbEntity
  8
PREDEFINITO
100
AcDbVertex
100
AcDb2dVertex
 10
1134.522292424018
 20
1023.674855107132
 30
0.0
  0
VERTEX
  5
1D8
330
1D5
100
AcDbEntity
  8
PREDEFINITO
100
AcDbVertex
100
AcDb2dVertex
 10
1191.014292251803
 20
1023.674855107132
 30
0.0
  0
VERTEX
  5
1D9
330
1D5
100
AcDbEntity
  8
PREDEFINITO
100
AcDbVertex
100
AcDb2dVertex
 10
1191.014292251803
 20
1024.75356848388
 30
0.0
  0
VERTEX
  5
1DA
330
1D5
100
AcDbEntity
  8
PREDEFINITO
100
AcDbVertex
100
AcDb2dVertex
 10
1134.522292424018
 20
1024.75356848388
 30
0.0
  0
VERTEX
  5
1DB
330
1D5
100
AcDbEntity
  8
PREDEFINITO
100
AcDbVertex
100
AcDb2dVertex
 10
1134.522292424018
 20
1023.674855107132
 30
0.0
  0
SEQEND
  5
1D6
330
1D5
100
AcDbEntity
  8
PREDEFINITO
  0
POLYLINE
  5
1DC
330
1F
100
AcDbEntity
  8
PREDEFINITO
100
AcDb2dPolyline
 66
     1
 10
0.0
 20
0.0
 30
0.0
  0
VERTEX
  5
1DE
330
1DC
100
AcDbEntity
  8
PREDEFINITO
100
AcDbVertex
100
AcDb2dVertex
 10
1036.114774205879
 20
1023.676059881236
 30
0.0
  0
VERTEX
  5
1DF
330
1DC
100
AcDbEntity
  8
PREDEFINITO
100
AcDbVertex
100
AcDb2dVertex
 10
1092.606774033664
 20
1023.676060138076
 30
0.0
  0
SEQEND
  5
1DD
330
1DC
100
AcDbEntity
  8
PREDEFINITO
  0
POLYLINE
  5
1E0
330
1F
100
AcDbEntity
  8
PREDEFINITO
100
AcDb2dPolyline
 66
     1
 10
0.0
 20
0.0
 30
0.0
  0
VERTEX
  5
1E2
330
1E0
100
AcDbEntity
  8
PREDEFINITO
100
AcDbVertex
100
AcDb2dVertex
 10
1092.606774033664
 20
1023.676060138076
 30
0.0
  0
VERTEX
  5
1E3
330
1E0
100
AcDbEntity
  8
PREDEFINITO
100
AcDbVertex
100
AcDb2dVertex
 10
1092.557048659858
 20
1023.650372792294
 30
0.0
  0
SEQEND
  5
1E1
330
1E0
100
AcDbEntity
  8
PREDEFINITO
  0
SPLINE
  5
1E4
330
1F
100
AcDbEntity
  8
PREDEFINITO
100
AcDbSpline
210
0.0
220
0.0
230
1.0
 70
    24
 71
     2
 72
     6
 73
     3
 74
     0
 42
0.0000000001
 43
0.0000000001
 40
0.0
 40
0.0
 40
0.0
 40
20.09510236883177
 40
20.09510236883177
 40
20.09510236883177
 10
1092.557048659858
 20
1023.650372792294
 30
0.0
 10
1083.695636449002
 20
1018.902388445745
 30
0.0
 10
1074.834224238145
 20
1014.154404099195
 30
0.0
  0
SPLINE
  5
1E5
330
1F
100
AcDbEntity
  8
PREDEFINITO
100
AcDbSpline
210
0.0
220
0.0
230
1.0
 70
    28
 71
     2
 72
     6
 73
     3
 74
     0
 42
0.0000000001
 43
0.0000000001
 40
5.006913291658734
 40
5.006913291658734
 40
5.006913291658734
 40
6.28318530717959
 40
6.28318530717959
 40
6.28318530717959
 10
1074.834224238145
 20
1014.154404099195
 30
0.0
 41
0.906020548961135
 10
1075.218788428386
 20
1014.154410681843
 30
0.0
 41
0.7658970305948176
 10
1067.941774759244
 20
1014.154286119998
 30
0.0
 41
1.0
  0
SPLINE
  5
1E6
330
1F
100
AcDbEntity
  8
PREDEFINITO
100
AcDbSpline
210
0.0
220
0.0
230
1.0
 70
    24
 71
     2
 72
     6
 73
     3
 74
     0
 42
0.0000000001
 43
0.0000000001
 40
0.0
 40
0.0
 40
0.0
 40
3.588770044652681
 40
3.588770044652681
 40
3.588770044652681
 10
1067.941774759244
 20
1014.154286119998
 30
0.0
 10
1066.147389737181
 20
1014.154255405214
 30
0.0
 10
1064.353004715117
 20
1014.154224690429
 30
0.0
  0
SPLINE
  5
1E7
330
1F
100
AcDbEntity
  8
PREDEFINITO
100
AcDbSpline
210
0.0
220
0.0
230
1.0
 70
    24
 71
     2
 72
     6
 73
     3
 74
     0
 42
0.0000000001
 43
0.0000000001
 40
0.0
 40
0.0
 40
0.0
 40
10.46827150001099
 40
10.46827150001099
 40
10.46827150001099
 10
1064.353004715117
 20
1014.154224690429
 30
0.0
 10
1059.105920941327
 20
1014.15413487523
 30
0.0
 10
1053.858837167537
 20
1014.15404506003
 30
0.0
  0
SPLINE
  5
1E8
330
1F
100
AcDbEntity
  8
PREDEFINITO
100
AcDbSpline
210
0.0
220
0.0
230
1.0
 70
    24
 71
     2
 72
     6
 73
     3
 74
     0
 42
0.0000000001
 43
0.0000000001
 40
0.0
 40
0.0
 40
0.0
 40
20.08172737244567
 40
20.08172737244567
 40
20.08172737244567
 10
1053.858837167537
 20
1014.15404506003
 30
0.0
 10
1045.009704193177
 20
1018.898704074902
 30
0.0
 10
1036.160571218817
 20
1023.643363089773
 30
0.0
  0
POLYLINE
  5
1E9
330
1F
100
AcDbEntity
  8
PREDEFINITO
100
AcDb2dPolyline
 66
     1
 10
0.0
 20
0.0
 30
0.0
  0
VERTEX
  5
1EB
330
1E9
100
AcDbEntity
  8
PREDEFINITO
100
AcDbVertex
100
AcDb2dVertex
 10
1036.160571218817
 20
1023.643363089773
 30
0.0
  0
VERTEX
  5
1EC
330
1E9
100
AcDbEntity
  8
PREDEFINITO
100
AcDbVertex
100
AcDb2dVertex
 10
1036.114774205879
 20
1023.676059881236
 30
0.0
  0
SEQEND
  5
1EA
330
1E9
100
AcDbEntity
  8
PREDEFINITO
  0
POLYLINE
  5
1ED
330
1F
100
AcDbEntity
  8
PREDEFINITO
100
AcDb2dPolyline
 66
     1
 10
0.0
 20
0.0
 30
0.0
  0
VERTEX
  5
1EF
330
1ED
100
AcDbEntity
  8
PREDEFINITO
100
AcDbVertex
100
AcDb2dVertex
 10
1036.114774205879
 20
1023.676059881236
 30
0.0
  0
VERTEX
  5
1F0
330
1ED
100
AcDbEntity
  8
PREDEFINITO
100
AcDbVertex
100
AcDb2dVertex
 10
1092.606774033664
 20
1023.676059881236
 30
0.0
  0
VERTEX
  5
1F1
330
1ED
100
AcDbEntity
  8
PREDEFINITO
100
AcDbVertex
100
AcDb2dVertex
 10
1092.606774033664
 20
1024.754773257983
 30
0.0
  0
VERTEX
  5
1F2
330
1ED
100
AcDbEntity
  8
PREDEFINITO
100
AcDbVertex
100
AcDb2dVertex
 10
1036.114774205879
 20
1024.754773257983
 30
0.0
  0
VERTEX
  5
1F3
330
1ED
100
AcDbEntity
  8
PREDEFINITO
100
AcDbVertex
100
AcDb2dVertex
 10
1036.114774205879
 20
1023.676059881236
 30
0.0
  0
SEQEND
  5
1EE
330
1ED
100
AcDbEntity
  8
PREDEFINITO
  0
ARC
  5
1F4
330
1F
100
AcDbEntity
  8
PREDEFINITO
100
AcDbCircle
 10
1064.878048607419
 20
1024.76325856903
 30
0.0
 40
11.00911201223995
100
AcDbArc
 50
254.5070052618423
 51
285.4949562199233
  0
SPLINE
  5
1F5
330
1F
100
AcDbEntity
  8
LINEE VISIBILI 2D
100
AcDbSpline
210
0.0
220
0.0
230
1.0
 70
    24
 71
     2
 72
     6
 73
     3
 74
     0
 42
0.0000000001
 43
0.0000000001
 40
0.0
 40
0.0
 40
0.0
 40
13.00000000000114
 40
13.00000000000114
 40
13.00000000000114
 10
1537.395973103308
 20
1024.754292279822
 30
0.0
 10
1537.395973103308
 20
1031.254292279823
 30
0.0
 10
1537.395973103308
 20
1037.754292279823
 30
0.0
  0
SPLINE
  5
1F6
330
1F
100
AcDbEntity
  8
LINEE VISIBILI 2D
100
AcDbSpline
210
0.0
220
0.0
230
1.0
 70
    24
 71
     2
 72
     6
 73
     3
 74
     0
 42
0.0000000001
 43
0.0000000001
 40
0.0
 40
0.0
 40
0.0
 40
12.99999639854877
 40
12.99999639854877
 40
12.99999639854877
 10
1578.149547827683
 20
1037.754288678371
 30
0.0
 10
1578.149547827683
 20
1031.254290479097
 30
0.0
 10
1578.149547827683
 20
1024.754292279822
 30
0.0
  0
SPLINE
  5
1F7
330
1F
100
AcDbEntity
  8
LINEE VISIBILI 2D
100
AcDbSpline
210
0.0
220
0.0
230
1.0
 70
    24
 71
     2
 72
     6
 73
     3
 74
     0
 42
0.0000000001
 43
0.0000000001
 40
0.0
 40
0.0
 40
0.0
 40
12.99982069076577
 40
12.99982069076577
 40
12.99982069076577
 10
1142.815039621476
 20
1024.754292279822
 30
0.0
 10
1142.815039621476
 20
1031.254202625205
 30
0.0
 10
1142.815039621476
 20
1037.754112970588
 30
0.0
  0
SPLINE
  5
1F8
330
1F
100
AcDbEntity
  8
LINEE VISIBILI 2D
100
AcDbSpline
210
0.0
220
0.0
230
1.0
 70
    24
 71
     2
 72
     6
 73
     3
 74
     0
 42
0.0000000001
 43
0.0000000001
 40
0.0
 40
0.0
 40
0.0
 40
12.99987845553687
 40
12.99987845553687
 40
12.99987845553687
 10
1084.729961481075
 20
1037.754292279823
 30
0.0
 10
1084.729961481075
 20
1031.254353052055
 30
0.0
 10
1084.729961481075
 20
1024.754413824287
 30
0.0
  0
SPLINE
  5
1F9
330
1F
100
AcDbEntity
  8
LINEE VISIBILI 2D
100
AcDbSpline
210
0.0
220
0.0
230
1.0
 70
    24
 71
     2
 72
     6
 73
     3
 74
     0
 42
0.0000000001
 43
0.0000000001
 40
0.0
 40
0.0
 40
0.0
 40
13.00000000000091
 40
13.00000000000091
 40
13.00000000000091
 10
1241.190002522956
 20
1024.753810879709
 30
0.0
 10
1241.190002522956
 20
1031.25381087971
 30
0.0
 10
1241.190002522956
 20
1037.75381087971
 30
0.0
  0
SPLINE
  5
1FA
330
1F
100
AcDbEntity
  8
LINEE VISIBILI 2D
100
AcDbSpline
210
0.0
220
0.0
230
1.0
 70
    24
 71
     2
 72
     6
 73
     3
 74
     0
 42
0.0000000001
 43
0.0000000001
 40
0.0
 40
0.0
 40
0.0
 40
12.99961615484403
 40
12.99961615484403
 40
12.99961615484403
 10
1281.943577247332
 20
1037.75381087971
 30
0.0
 10
1281.943577247332
 20
1031.254002802288
 30
0.0
 10
1281.943577247332
 20
1024.754194724866
 30
0.0
  0
SPLINE
  5
1FB
330
1F
100
AcDbEntity
  8
LINEE VISIBILI 2D
100
AcDbSpline
210
0.0
220
0.0
230
1.0
 70
    24
 71
     2
 72
     6
 73
     3
 74
     0
 42
0.0000000001
 43
0.0000000001
 40
0.0
 40
0.0
 40
0.0
 40
12.99905465289407
 40
12.99905465289407
 40
12.99905465289407
 10
1340.028655389967
 20
1024.754756226816
 30
0.0
 10
1340.028655389967
 20
1031.254283553263
 30
0.0
 10
1340.028655389967
 20
1037.75381087971
 30
0.0
  0
SPLINE
  5
1FC
330
1F
100
AcDbEntity
  8
LINEE VISIBILI 2D
100
AcDbSpline
210
0.0
220
0.0
230
1.0
 70
    24
 71
     2
 72
     6
 73
     3
 74
     0
 42
0.0000000001
 43
0.0000000001
 40
0.0
 40
0.0
 40
0.0
 40
13.00000000000091
 40
13.00000000000091
 40
13.00000000000091
 10
1380.782230114342
 20
1037.75381087971
 30
0.0
 10
1380.782230114342
 20
1031.25381087971
 30
0.0
 10
1380.782230114342
 20
1024.753810879709
 30
0.0
  0
SPLINE
  5
1FD
330
1F
100
AcDbEntity
  8
PREDEFINITO
100
AcDbSpline
210
0.0
220
0.0
230
1.0
 70
    12
 71
     2
 72
     6
 73
     3
 74
     0
 42
0.0000000001
 43
0.0000000001
 40
0.0
 40
0.0
 40
0.0
 40
8.08727279609045
 40
8.08727279609045
 40
8.08727279609045
 10
1645.31852084439
 20
1037.753810879109
 30
0.0
 41
1.0
 10
1645.311825014292
 20
1033.710180024058
 30
0.0
 41
0.9999999997031678
 10
1645.305326232226
 20
1029.666548847516
 30
0.0
 41
1.0
  0
SPLINE
  5
1FE
330
1F
100
AcDbEntity
  8
PREDEFINITO
100
AcDbSpline
210
0.0
220
0.0
230
1.0
 70
    12
 71
     2
 72
     6
 73
     3
 74
     0
 42
0.0000000001
 43
0.0000000001
 40
0.0
 40
0.0
 40
0.0
 40
2.978309446729474
 40
2.978309446729474
 40
2.978309446729474
 10
1645.305326232226
 20
1029.666548847516
 30
0.0
 41
1.0
 10
1645.333983128044
 20
1028.131528112212
 30
0.0
 41
0.9555303878391257
 10
1644.492583033597
 20
1026.847333517706
 30
0.0
 41
1.0
  0
SPLINE
  5
1FF
330
1F
100
AcDbEntity
  8
PREDEFINITO
100
AcDbSpline
210
0.0
220
0.0
230
1.0
 70
    12
 71
     2
 72
     6
 73
     3
 74
     0
 42
0.0000000001
 43
0.0000000001
 40
0.0
 40
0.0
 40
0.0
 40
0.2306626617744392
 40
0.2306626617744392
 40
0.2306626617744392
 10
1644.492583033597
 20
1026.847333517706
 30
0.0
 41
1.0
 10
1644.431907192397
 20
1026.749236307494
 30
0.0
 41
0.9998137211166965
 10
1644.367490542504
 20
1026.653553939352
 30
0.0
 41
1.0
  0
SPLINE
  5
200
330
1F
100
AcDbEntity
  8
PREDEFINITO
100
AcDbSpline
210
0.0
220
0.0
230
1.0
 70
    12
 71
     2
 72
     6
 73
     3
 74
     0
 42
0.0000000001
 43
0.0000000001
 40
0.0
 40
0.0
 40
0.0
 40
0.7899234683196102
 40
0.7899234683196102
 40
0.7899234683196102
 10
1644.367490542504
 20
1026.653553939352
 30
0.0
 41
1.0
 10
1644.14617753999
 20
1026.325581202466
 30
0.0
 41
0.9973609668993443
 10
1643.879700158291
 20
1026.033116903337
 30
0.0
 41
1.0
  0
SPLINE
  5
201
330
1F
100
AcDbEntity
  8
PREDEFINITO
100
AcDbSpline
210
0.0
220
0.0
230
1.0
 70
    12
 71
     2
 72
     6
 73
     3
 74
     0
 42
0.0000000001
 43
0.0000000001
 40
0.0
 40
0.0
 40
0.0
 40
1.218912372372567
 40
1.218912372372567
 40
1.218912372372567
 10
1643.879700158291
 20
1026.033116903337
 30
0.0
 41
1.0
 10
1643.468587987798
 20
1025.577901282062
 30
0.0
 41
0.9904330856380211
 10
1642.948700878027
 20
1025.252398791022
 30
0.0
 41
1.0
  0
SPLINE
  5
202
330
1F
100
AcDbEntity
  8
PREDEFINITO
100
AcDbSpline
210
0.0
220
0.0
230
1.0
 70
    12
 71
     2
 72
     6
 73
     3
 74
     0
 42
0.0000000001
 43
0.0000000001
 40
0.0
 40
0.0
 40
0.0
 40
0.7943827906674739
 40
0.7943827906674739
 40
0.7943827906674739
 10
1642.948700878027
 20
1025.252398791022
 30
0.0
 41
1.0
 10
1642.60949635355
 20
1025.042631758125
 30
0.0
 41
0.9938647320688746
 10
1642.232473939685
 20
1024.912570169022
 30
0.0
 41
1.0
  0
SPLINE
  5
203
330
1F
100
AcDbEntity
  8
PREDEFINITO
100
AcDbSpline
210
0.0
220
0.0
230
1.0
 70
     8
 71
     2
 72
     6
 73
     3
 74
     0
 42
0.0000000001
 43
0.0000000001
 40
0.0
 40
0.0
 40
0.0
 40
1.0
 40
1.0
 40
1.0
 10
1642.232473939685
 20
1024.912570169022
 30
0.0
 10
1640.224286362428
 20
1024.754092559951
 30
0.0
 10
1637.56912078725
 20
1024.754138008858
 30
0.0
  0
POLYLINE
  5
204
330
1F
100
AcDbEntity
  8
PREDEFINITO
100
AcDb2dPolyline
 66
     1
 10
0.0
 20
0.0
 30
0.0
  0
VERTEX
  5
206
330
204
100
AcDbEntity
  8
PREDEFINITO
100
AcDbVertex
100
AcDb2dVertex
 10
1043.976386756699
 20
1024.753810879709
 30
0.0
  0
VERTEX
  5
207
330
204
100
AcDbEntity
  8
PREDEFINITO
100
AcDbVertex
100
AcDb2dVertex
 10
1677.123924744564
 20
1024.753810879709
 30
0.0
  0
VERTEX
  5
208
330
204
100
AcDbEntity
  8
PREDEFINITO
100
AcDbVertex
100
AcDb2dVertex
 10
1677.123924744564
 20
1037.754292279823
 30
0.0
  0
VERTEX
  5
209
330
204
100
AcDbEntity
  8
PREDEFINITO
100
AcDbVertex
100
AcDb2dVertex
 10
1043.976386756699
 20
1037.754292279823
 30
0.0
  0
VERTEX
  5
20A
330
204
100
AcDbEntity
  8
PREDEFINITO
100
AcDbVertex
100
AcDb2dVertex
 10
1043.976386756699
 20
1024.753810879709
 30
0.0
  0
SEQEND
  5
205
330
204
100
AcDbEntity
  8
PREDEFINITO
  0
POLYLINE
  5
20B
330
1F
100
AcDbEntity
  8
PREDEFINITO
100
AcDb2dPolyline
 66
     1
 10
0.0
 20
0.0
 30
0.0
  0
VERTEX
  5
20D
330
20B
100
AcDbEntity
  8
PREDEFINITO
100
AcDbVertex
100
AcDb2dVertex
 10
1243.329852550524
 20
1037.811902896639
 30
0.0
  0
VERTEX
  5
20E
330
20B
100
AcDbEntity
  8
PREDEFINITO
100
AcDbVertex
100
AcDb2dVertex
 10
1243.271760533594
 20
1037.75381087971
 30
0.0
  0
VERTEX
  5
20F
330
20B
100
AcDbEntity
  8
PREDEFINITO
100
AcDbVertex
100
AcDb2dVertex
 10
1082.272241933721
 20
1037.754292279823
 30
0.0
  0
SEQEND
  5
20C
330
20B
100
AcDbEntity
  8
PREDEFINITO
  0
SPLINE
  5
210
330
1F
100
AcDbEntity
  8
PREDEFINITO
100
AcDbSpline
210
0.0
220
0.0
230
1.0
 70
    24
 71
     2
 72
     6
 73
     3
 74
     0
 42
0.0000000001
 43
0.0000000001
 40
0.0
 40
0.0
 40
0.0
 40
61.05630885744415
 40
61.05630885744415
 40
61.05630885744415
 10
1082.272241933721
 20
1037.754292279823
 30
0.0
 10
1060.679123443997
 20
1059.349401481952
 30
0.0
 10
1039.086004954273
 20
1080.944510684081
 30
0.0
  0
SPLINE
  5
211
330
1F
100
AcDbEntity
  8
PREDEFINITO
100
AcDbSpline
210
0.0
220
0.0
230
1.0
 70
    24
 71
     2
 72
     6
 73
     3
 74
     0
 42
0.0000000001
 43
0.0000000001
 40
0.0
 40
0.0
 40
0.0
 40
122.356766721256
 40
122.356766721256
 40
122.356766721256
 10
1039.086004954273
 20
1080.944510684081
 30
0.0
 10
1100.257934838837
 20
1080.95295487255
 30
0.0
 10
1161.4298647234
 20
1080.961399061019
 30
0.0
  0
SPLINE
  5
212
330
1F
100
AcDbEntity
  8
PREDEFINITO
100
AcDbSpline
210
0.0
220
0.0
230
1.0
 70
    24
 71
     2
 72
     6
 73
     3
 74
     0
 42
0.0000000001
 43
0.0000000001
 40
0.0
 40
0.0
 40
0.0
 40
125.0422005391979
 40
125.0422005391979
 40
125.0422005391979
 10
1161.4298647234
 20
1080.961399061019
 30
0.0
 10
1223.937718342213
 20
1080.944510684081
 30
0.0
 10
1286.445571961026
 20
1080.927622307143
 30
0.0
  0
SPLINE
  5
213
330
1F
100
AcDbEntity
  8
PREDEFINITO
100
AcDbSpline
210
0.0
220
0.0
230
1.0
 70
    24
 71
     2
 72
     6
 73
     3
 74
     0
 42
0.0000000001
 43
0.0000000001
 40
0.0
 40
0.0
 40
0.0
 40
60.97483514180633
 40
60.97483514180633
 40
60.97483514180633
 10
1286.445571961026
 20
1080.927622307143
 30
0.0
 10
1264.887712255775
 20
1059.369762601891
 30
0.0
 10
1243.329852550524
 20
1037.811902896639
 30
0.0
  0
SPLINE
  5
214
330
1F
100
AcDbEntity
  8
LINEE VISIBILI 2D
100
AcDbSpline
210
0.0
220
0.0
230
1.0
 70
    12
 71
     2
 72
     6
 73
     3
 74
     0
 42
0.0000000001
 43
0.0000000001
 40
0.0
 40
0.0
 40
0.0
 40
38.95031354335698
 40
38.95031354335698
 40
38.95031354335698
 10
1157.174340099709
 20
226.9320706868322
 30
0.0
 41
1.0
 10
1134.432689374255
 20
221.95156999295
 30
0.0
 41
0.7719143963718781
 10
1134.961158068862
 20
198.6769317418593
 30
0.0
 41
1.0
  0
SPLINE
  5
215
330
1F
100
AcDbEntity
  8
LINEE VISIBILI 2D
100
AcDbSpline
210
0.0
220
0.0
230
1.0
 70
    12
 71
     3
 72
     8
 73
     4
 74
     0
 42
0.0000000001
 43
0.0000000001
 40
-179.172725796908
 40
-179.172725796908
 40
-179.172725796908
 40
-179.172725796908
 40
-177.7729388689291
 40
-177.7729388689291
 40
-177.7729388689291
 40
-177.7729388689291
 10
1134.961158068862
 20
198.6769317418593
 30
0.0
 41
1.0
 10
1134.972458970765
 20
198.1895696726304
 30
0.0
 41
1.0
 10
1134.996039353499
 20
197.7053776056528
 30
0.0
 41
1.0
 10
1135.03162793326
 20
197.2246467049784
 30
0.0
 41
1.0
  0
SPLINE
  5
216
330
1F
100
AcDbEntity
  8
LINEE VISIBILI 2D
100
AcDbSpline
210
0.0
220
0.0
230
1.0
 70
    12
 71
     2
 72
     6
 73
     3
 74
     0
 42
0.0000000001
 43
0.0000000001
 40
0.0
 40
0.0
 40
0.0
 40
42.91016307037561
 40
42.91016307037561
 40
42.91016307037561
 10
1135.03162793326
 20
197.2246467049784
 30
0.0
 41
1.0
 10
1137.043380637708
 20
170.482437931974
 30
0.0
 41
0.7253532243373355
 10
1163.854190329256
 20
171.093470436187
 30
0.0
 41
1.0
  0
SPLINE
  5
217
330
1F
100
AcDbEntity
  8
LINEE VISIBILI 2D
100
AcDbSpline
210
0.0
220
0.0
230
1.0
 70
    12
 71
     3
 72
     8
 73
     4
 74
     0
 42
0.0000000001
 43
0.0000000001
 40
-134.379544101583
 40
-134.379544101583
 40
-134.379544101583
 40
-134.379544101583
 40
-111.446788136869
 40
-111.446788136869
 40
-111.446788136869
 40
-111.446788136869
 10
1163.854190329256
 20
171.093470436187
 30
0.0
 41
1.0
 10
1171.838659328853
 20
171.2786134910614
 30
0.0
 41
1.0
 10
1178.972288648774
 20
174.759617242783
 30
0.0
 41
1.0
 10
1183.984924142615
 20
180.2060248316324
 30
0.0
 41
1.0
  0
SPLINE
  5
218
330
1F
100
AcDbEntity
  8
LINEE VISIBILI 2D
100
AcDbSpline
210
0.0
220
0.0
230
1.0
 70
    12
 71
     3
 72
     8
 73
     4
 74
     0
 42
0.0000000001
 43
0.0000000001
 40
51.3684797641433
 40
51.3684797641433
 40
51.3684797641433
 40
51.3684797641433
 40
88.18658205899926
 40
88.18658205899926
 40
88.18658205899926
 40
88.18658205899926
 10
1169.209250229512
 20
226.9374594499671
 30
0.0
 41
1.0
 10
1181.210725276623
 20
224.3349695138086
 30
0.0
 41
1.0
 10
1190.431961530681
 20
214.083346629815
 30
0.0
 41
1.0
 10
1191.367181909507
 20
201.4387878154916
 30
0.0
 41
1.0
  0
SPLINE
  5
219
330
1F
100
AcDbEntity
  8
LINEE VISIBILI 2D
100
AcDbSpline
210
0.0
220
0.0
230
1.0
 70
    12
 71
     2
 72
     6
 73
     3
 74
     0
 42
0.0000000001
 43
0.0000000001
 40
-1.454148741689637
 40
-1.454148741689637
 40
-1.454148741689637
 40
0.0
 40
0.0
 40
0.0
 10
1191.367181909507
 20
201.4387878154916
 30
0.0
 41
1.0
 10
1191.420824695428
 20
200.7135385854194
 30
0.0
 41
0.9996782918526986
 10
1191.437651417971
 20
199.9865029240845
 30
0.0
 41
1.0
  0
SPLINE
  5
21A
330
1F
100
AcDbEntity
  8
LINEE VISIBILI 2D
100
AcDbSpline
210
0.0
220
0.0
230
1.0
 70
    12
 71
     3
 72
     8
 73
     4
 74
     0
 42
0.0000000001
 43
0.0000000001
 40
89.5863688116684
 40
89.5863688116684
 40
89.5863688116684
 40
89.5863688116684
 40
99.00753587880257
 40
99.00753587880257
 40
99.00753587880257
 40
99.00753587880257
 10
1191.437651417971
 20
199.9865029240845
 30
0.0
 41
1.0
 10
1191.513711340303
 20
196.7063469282616
 30
0.0
 41
1.0
 10
1191.027468734517
 20
193.5438509400202
 30
0.0
 41
1.0
 10
1190.06698828792
 20
190.5912606664264
 30
0.0
 41
1.0
  0
SPLINE
  5
21B
330
1F
100
AcDbEntity
  8
LINEE VISIBILI 2D
100
AcDbSpline
210
0.0
220
0.0
230
1.0
 70
    12
 71
     3
 72
     8
 73
     4
 74
     0
 42
0.0000000001
 43
0.0000000001
 40
-53.57406699576395
 40
-53.57406699576395
 40
-53.57406699576395
 40
-53.57406699576395
 40
-44.7931927262563
 40
-44.7931927262563
 40
-44.7931927262563
 40
-44.7931927262563
 10
1190.271888037372
 20
548.081559414796
 30
0.0
 41
1.0
 10
1189.605738009798
 20
550.9048520998876
 30
0.0
 41
1.0
 10
1188.489862792659
 20
553.672759387549
 30
0.0
 41
1.0
 10
1186.8998566788
 20
556.2849494689194
 30
0.0
 41
1.0
  0
SPLINE
  5
21C
330
1F
100
AcDbEntity
  8
LINEE VISIBILI 2D
100
AcDbSpline
210
0.0
220
0.0
230
1.0
 70
    12
 71
     2
 72
     6
 73
     3
 74
     0
 42
0.0000000001
 43
0.0000000001
 40
0.0
 40
0.0
 40
0.0
 40
44.36384075043483
 40
44.36384075043483
 40
44.36384075043483
 10
1186.8998566788
 20
556.2849494689194
 30
0.0
 41
1.0
 10
1172.210076971747
 20
580.3978155784146
 30
0.0
 41
0.7073760952470155
 10
1148.086026007863
 20
565.7264112515879
 30
0.0
 41
1.0
  0
SPLINE
  5
21D
330
1F
100
AcDbEntity
  8
LINEE VISIBILI 2D
100
AcDbSpline
210
0.0
220
0.0
230
1.0
 70
    12
 71
     3
 72
     8
 73
     4
 74
     0
 42
0.0000000001
 43
0.0000000001
 40
-179.172725796908
 40
-179.172725796908
 40
-179.172725796908
 40
-179.172725796908
 40
-177.7729388689291
 40
-177.7729388689291
 40
-177.7729388689291
 40
-177.7729388689291
 10
1148.086026007863
 20
565.7264112515879
 30
0.0
 41
1.0
 10
1147.669608526021
 20
565.4729433488408
 30
0.0
 41
1.0
 10
1147.262076087075
 20
565.2104261048737
 30
0.0
 41
1.0
 10
1146.863545204587
 20
564.9392400403781
 30
0.0
 41
1.0
  0
SPLINE
  5
21E
330
1F
100
AcDbEntity
  8
LINEE VISIBILI 2D
100
AcDbSpline
210
0.0
220
0.0
230
1.0
 70
    12
 71
     2
 72
     6
 73
     3
 74
     0
 42
0.0000000001
 43
0.0000000001
 40
0.0
 40
0.0
 40
0.0
 40
20.92642987383
 40
20.92642987383
 40
20.92642987383
 10
1146.863545204587
 20
564.9392400403781
 30
0.0
 41
0.9999999999633147
 10
1137.790787218697
 20
558.7675975003717
 30
0.0
 41
0.9317626432699506
 10
1135.285560616089
 20
548.084529177987
 30
0.0
 41
1.0
  0
SPLINE
  5
21F
330
1F
100
AcDbEntity
  8
LINEE VISIBILI 2D
100
AcDbSpline
210
0.0
220
0.0
230
1.0
 70
    12
 71
     2
 72
     8
 73
     5
 74
     0
 42
0.0000000001
 43
0.0000000001
 40
-40.02861773665441
 40
-40.02861773665441
 40
-40.02861773665441
 40
-32.0077827404055
 40
-32.0077827404055
 40
0.0
 40
0.0
 40
0.0
 10
1181.424158417731
 20
549.7626180565468
 30
0.0
 41
1.0
 10
1179.79608237689
 20
553.4851781048823
 30
0.0
 41
0.9806947505496372
 10
1176.864764863918
 20
556.2986212883081
 30
0.0
 41
1.0
 10
1162.163651411185
 20
570.4085726154283
 30
0.0
 41
0.7071067811865419
 10
1148.053700084065
 20
555.7074591626953
 30
0.0
 41
1.0
  0
SPLINE
  5
220
330
1F
100
AcDbEntity
  8
LINEE VISIBILI 2D
100
AcDbSpline
210
0.0
220
0.0
230
1.0
 70
    12
 71
     2
 72
     6
 73
     3
 74
     0
 42
0.0000000001
 43
0.0000000001
 40
0.0
 40
0.0
 40
0.0
 40
7.190958944027059
 40
7.190958944027059
 40
7.190958944027059
 10
1148.053700084065
 20
555.7074591626953
 30
0.0
 41
1.0
 10
1145.537837987274
 20
553.086190438311
 30
0.0
 41
0.9844730871269822
 10
1144.082980297754
 20
549.7569261173606
 30
0.0
 41
1.0
  0
SPLINE
  5
221
330
1F
100
AcDbEntity
  8
LINEE VISIBILI 2D
100
AcDbSpline
210
0.0
220
0.0
230
1.0
 70
    12
 71
     3
 72
     8
 73
     4
 74
     0
 42
0.0000000001
 43
0.0000000001
 40
76.64927559243107
 40
76.64927559243107
 40
76.64927559243107
 40
76.64927559243107
 40
88.18658205899926
 40
88.18658205899926
 40
88.18658205899926
 40
88.18658205899926
 10
1089.377854188905
 20
269.5235423300913
 30
0.0
 41
1.0
 10
1091.128783907464
 20
266.1929274230715
 30
0.0
 41
1.0
 10
1092.235489976874
 20
262.4656063465691
 30
0.0
 41
1.0
 10
1092.52852904473
 20
258.5033106558905
 30
0.0
 41
1.0
  0
SPLINE
  5
222
330
1F
100
AcDbEntity
  8
LINEE VISIBILI 2D
100
AcDbSpline
210
0.0
220
0.0
230
1.0
 70
    12
 71
     2
 72
     6
 73
     3
 74
     0
 42
0.0000000001
 43
0.0000000001
 40
-1.454148741689326
 40
-1.454148741689326
 40
-1.454148741689326
 40
0.0
 40
0.0
 40
0.0
 10
1092.52852904473
 20
258.5033106558905
 30
0.0
 41
1.0
 10
1092.582171830651
 20
257.7780614258186
 30
0.0
 41
0.9996782918527066
 10
1092.598998553195
 20
257.0510257644836
 30
0.0
 41
1.0
  0
SPLINE
  5
223
330
1F
100
AcDbEntity
  8
LINEE VISIBILI 2D
100
AcDbSpline
210
0.0
220
0.0
230
1.0
 70
    12
 71
     3
 72
     8
 73
     4
 74
     0
 42
0.0000000001
 43
0.0000000001
 40
89.5863688116684
 40
89.5863688116684
 40
89.5863688116684
 40
89.5863688116684
 40
134.379544101583
 40
134.379544101583
 40
134.379544101583
 40
134.379544101583
 10
1092.598998553195
 20
257.0510257644836
 30
0.0
 41
1.0
 10
1092.96062736301
 20
241.4554417511473
 30
0.0
 41
1.0
 10
1080.611121355204
 20
228.5196220892503
 30
0.0
 41
1.0
 10
1065.015537464479
 20
228.1579932765859
 30
0.0
 41
1.0
  0
SPLINE
  5
224
330
1F
100
AcDbEntity
  8
LINEE VISIBILI 2D
100
AcDbSpline
210
0.0
220
0.0
230
1.0
 70
    12
 71
     2
 72
     6
 73
     3
 74
     0
 42
0.0000000001
 43
0.0000000001
 40
-42.91016307040825
 40
-42.91016307040825
 40
-42.91016307040825
 40
0.0
 40
0.0
 40
0.0
 10
1065.015537464479
 20
228.1579932765859
 30
0.0
 41
1.0
 10
1038.20472777286
 20
227.5469607722929
 30
0.0
 41
0.725353224335326
 10
1036.192975068484
 20
254.2891695453771
 30
0.0
 41
1.0
  0
SPLINE
  5
225
330
1F
100
AcDbEntity
  8
LINEE VISIBILI 2D
100
AcDbSpline
210
0.0
220
0.0
230
1.0
 70
    12
 71
     3
 72
     8
 73
     4
 74
     0
 42
0.0000000001
 43
0.0000000001
 40
177.7729388689291
 40
177.7729388689291
 40
177.7729388689291
 40
177.7729388689291
 40
179.172725796908
 40
179.172725796908
 40
179.172725796908
 40
179.172725796908
 10
1036.192975068484
 20
254.2891695453771
 30
0.0
 41
1.0
 10
1036.157386488723
 20
254.7699004460514
 30
0.0
 41
1.0
 10
1036.133806105989
 20
255.2540925130291
 30
0.0
 41
1.0
 10
1036.122505204087
 20
255.741454582258
 30
0.0
 41
1.0
  0
SPLINE
  5
226
330
1F
100
AcDbEntity
  8
LINEE VISIBILI 2D
100
AcDbSpline
210
0.0
220
0.0
230
1.0
 70
    12
 71
     2
 72
     6
 73
     3
 74
     0
 42
0.0000000001
 43
0.0000000001
 40
-44.36384075048012
 40
-44.36384075048012
 40
-44.36384075048012
 40
0.0
 40
0.0
 40
0.0
 10
1036.122505204087
 20
255.741454582258
 30
0.0
 41
1.0
 10
1035.478721829693
 20
283.9691977226892
 30
0.0
 41
0.7073760952443308
 10
1063.70596629221
 20
284.6344870701422
 30
0.0
 41
1.0
  0
SPLINE
  5
227
330
1F
100
AcDbEntity
  8
LINEE VISIBILI 2D
100
AcDbSpline
210
0.0
220
0.0
230
1.0
 70
    12
 71
     3
 72
     8
 73
     4
 74
     0
 42
0.0000000001
 43
0.0000000001
 40
44.79319272626649
 40
44.79319272626649
 40
44.79319272626649
 40
44.79319272626649
 40
64.15788684652803
 40
64.15788684652803
 40
64.15788684652803
 40
64.15788684652803
 10
1063.70596629221
 20
284.6344870701422
 30
0.0
 41
1.0
 10
1070.448147656565
 20
284.7908240857104
 30
0.0
 41
1.0
 10
1076.693232392764
 20
282.5715142191378
 30
0.0
 41
1.0
 10
1081.640162599817
 20
278.7413075814525
 30
0.0
 41
1.0
  0
SPLINE
  5
228
330
1F
100
AcDbEntity
  8
PREDEFINITO
100
AcDbSpline
210
0.0
220
0.0
230
1.0
 70
    28
 71
     2
 72
     6
 73
     3
 74
     0
 42
0.0000000001
 43
0.0000000001
 40
337.7508166873106
 40
337.7508166873106
 40
337.7508166873106
 40
403.8799835693816
 40
403.8799835693816
 40
403.8799835693816
 10
1134.175530763673
 20
307.1132562217147
 30
0.0
 41
1.0
 10
1108.846590354625
 20
285.8597516662944
 30
0.0
 41
1.0
 10
1083.517649945547
 20
264.6062471108254
 30
0.0
 41
1.0
  0
POLYLINE
  5
229
330
1F
100
AcDbEntity
  8
PREDEFINITO
100
AcDb2dPolyline
 66
     1
 10
0.0
 20
0.0
 30
0.0
  0
VERTEX
  5
22B
330
229
100
AcDbEntity
  8
PREDEFINITO
100
AcDbVertex
100
AcDb2dVertex
 10
1083.517649945547
 20
264.6062471108254
 30
0.0
  0
VERTEX
  5
22C
330
229
100
AcDbEntity
  8
PREDEFINITO
100
AcDbVertex
100
AcDb2dVertex
 10
1083.134454325556
 20
264.2847078073992
 30
0.0
  0
SEQEND
  5
22A
330
229
100
AcDbEntity
  8
PREDEFINITO
  0
SPLINE
  5
22D
330
1F
100
AcDbEntity
  8
PREDEFINITO
100
AcDbSpline
210
0.0
220
0.0
230
1.0
 70
    12
 71
     2
 72
     6
 73
     3
 74
     0
 42
0.0000000001
 43
0.0000000001
 40
61.44812088881869
 40
61.44812088881869
 40
61.44812088881869
 40
64.01556548080981
 40
64.01556548080981
 40
64.01556548080981
 10
1083.134454325557
 20
264.2847078073992
 30
0.0
 41
0.9567812695557347
 10
1083.593558638037
 20
263.1938165741798
 30
0.0
 41
0.9765061167537795
 10
1083.923275314095
 20
262.0571075674496
 30
0.0
 41
1.0
  0
SPLINE
  5
22E
330
1F
100
AcDbEntity
  8
PREDEFINITO
100
AcDbSpline
210
0.0
220
0.0
230
1.0
 70
    12
 71
     2
 72
     8
 73
     5
 74
     0
 42
0.0000000001
 43
0.0000000001
 40
0.0
 40
0.0
 40
0.0
 40
32.00778274040538
 40
32.00778274040538
 40
64.0155654808101
 40
64.0155654808101
 40
64.0155654808101
 10
1083.923275314095
 20
262.0571075674496
 30
0.0
 41
1.0
 10
1089.59983736452
 20
242.4869745456354
 30
0.0
 41
0.7071067811865462
 10
1070.029704342705
 20
236.8104124952113
 30
0.0
 41
1.0
 10
1050.459571320891
 20
231.1338504447876
 30
0.0
 41
0.7071067811865466
 10
1044.783009270468
 20
250.7039834666015
 30
0.0
 41
1.0
  0
SPLINE
  5
22F
330
1F
100
AcDbEntity
  8
PREDEFINITO
100
AcDbSpline
210
0.0
220
0.0
230
1.0
 70
    12
 71
     2
 72
     8
 73
     5
 74
     0
 42
0.0000000001
 43
0.0000000001
 40
0.0
 40
0.0
 40
0.0
 40
32.00778274040506
 40
32.00778274040506
 40
49.36069100995269
 40
49.36069100995269
 40
49.36069100995269
 10
1044.783009270468
 20
250.7039834666015
 30
0.0
 41
1.0
 10
1039.106447220043
 20
270.2741164884155
 30
0.0
 41
0.7071067811865458
 10
1058.676580241857
 20
275.9506785388396
 30
0.0
 41
1.0
 10
1067.595075202895
 20
278.5375996387775
 30
0.0
 41
0.8412089584566445
 10
1075.398563212125
 20
273.5039838372721
 30
0.0
 41
0.8545939404932922
  0
POLYLINE
  5
230
330
1F
100
AcDbEntity
  8
PREDEFINITO
100
AcDb2dPolyline
 66
     1
 10
0.0
 20
0.0
 30
0.0
  0
VERTEX
  5
232
330
230
100
AcDbEntity
  8
PREDEFINITO
100
AcDbVertex
100
AcDb2dVertex
 10
1075.398563212125
 20
273.5039838372721
 30
0.0
  0
VERTEX
  5
233
330
230
100
AcDbEntity
  8
PREDEFINITO
100
AcDbVertex
100
AcDb2dVertex
 10
1075.781758830087
 20
273.8255231389737
 30
0.0
  0
SEQEND
  5
231
330
230
100
AcDbEntity
  8
PREDEFINITO
  0
SPLINE
  5
234
330
1F
100
AcDbEntity
  8
PREDEFINITO
100
AcDbSpline
210
0.0
220
0.0
230
1.0
 70
    28
 71
     2
 72
     6
 73
     3
 74
     0
 42
0.0000000001
 43
0.0000000001
 40
415.9148936992084
 40
415.9148936992084
 40
415.9148936992084
 40
474.1391959043787
 40
474.1391959043787
 40
474.1391959043787
 10
1075.781758830087
 20
273.8255231389737
 30
0.0
 41
1.0
 10
1098.082960409442
 20
292.5384531590618
 30
0.0
 41
1.0
 10
1120.384161988797
 20
311.25138317915
 30
0.0
 41
1.0
  0
SPLINE
  5
235
330
1F
100
AcDbEntity
  8
LINEE VISIBILI 2D
100
AcDbSpline
210
0.0
220
0.0
230
1.0
 70
    12
 71
     2
 72
     6
 73
     3
 74
     0
 42
0.0000000001
 43
0.0000000001
 40
0.0
 40
0.0
 40
0.0
 40
28.00521510222712
 40
28.00521510222712
 40
28.00521510222712
 10
1278.023381046447
 20
382.5184582773163
 30
0.0
 41
1.0
 10
1287.59551776345
 20
368.8078231043771
 30
0.0
 41
0.7730352782651231
 10
1276.016703987085
 20
356.7438938229739
 30
0.0
 41
1.0
  0
SPLINE
  5
236
330
1F
100
AcDbEntity
  8
LINEE VISIBILI 2D
100
AcDbSpline
210
0.0
220
0.0
230
1.0
 70
    12
 71
     2
 72
     6
 73
     3
 74
     0
 42
0.0000000001
 43
0.0000000001
 40
0.0
 40
0.0
 40
0.0
 40
18.08565597711156
 40
18.08565597711156
 40
18.08565597711156
 10
1276.016703987085
 20
356.7438938229739
 30
0.0
 41
1.0
 10
1269.308725894675
 20
349.7548727633883
 30
0.0
 41
0.903134787779161
 10
1259.653717879697
 20
350.5449396531566
 30
0.0
 41
1.0
  0
SPLINE
  5
237
330
1F
100
AcDbEntity
  8
LINEE VISIBILI 2D
100
AcDbSpline
210
0.0
220
0.0
230
1.0
 70
    12
 71
     3
 72
     8
 73
     4
 74
     0
 42
0.0000000001
 43
0.0000000001
 40
-112.9504651508667
 40
-112.9504651508667
 40
-112.9504651508667
 40
-112.9504651508667
 40
-89.5863688116684
 40
-89.5863688116684
 40
-89.5863688116684
 40
-89.5863688116684
 10
1253.750367717089
 20
343.6459571129631
 30
0.0
 41
1.0
 10
1261.015722214119
 20
341.6228625005941
 30
0.0
 41
1.0
 10
1269.068672198272
 20
342.4967776679509
 30
0.0
 41
1.0
 10
1276.01917158228
 20
346.7274562026746
 30
0.0
 41
1.0
  0
SPLINE
  5
238
330
1F
100
AcDbEntity
  8
LINEE VISIBILI 2D
100
AcDbSpline
210
0.0
220
0.0
230
1.0
 70
    12
 71
     2
 72
     6
 73
     3
 74
     0
 42
0.0000000001
 43
0.0000000001
 40
0.0
 40
0.0
 40
0.0
 40
1.454148741689195
 40
1.454148741689195
 40
1.454148741689195
 10
1276.01917158228
 20
346.7274562026746
 30
0.0
 41
1.0
 10
1276.640389573181
 20
347.1055464025272
 30
0.0
 41
0.9996782918527316
 10
1277.241652437539
 20
347.5146270329001
 30
0.0
 41
1.0
  0
SPLINE
  5
239
330
1F
100
AcDbEntity
  8
LINEE VISIBILI 2D
100
AcDbSpline
210
0.0
220
0.0
230
1.0
 70
    12
 71
     3
 72
     8
 73
     4
 74
     0
 42
0.0000000001
 43
0.0000000001
 40
-88.18658205899926
 40
-88.18658205899926
 40
-88.18658205899926
 40
-88.18658205899926
 40
-44.7931927262563
 40
-44.7931927262563
 40
-44.7931927262563
 40
-44.7931927262563
 10
1277.241652437539
 20
347.5146270329001
 30
0.0
 41
1.0
 10
1289.596672740112
 20
355.9205647325266
 30
0.0
 41
1.0
 10
1293.31813762527
 20
372.6323465461209
 30
0.0
 41
1.0
 10
1285.46063366679
 20
385.5412867858843
 30
0.0
 41
1.0
  0
SPLINE
  5
23A
330
1F
100
AcDbEntity
  8
LINEE VISIBILI 2D
100
AcDbSpline
210
0.0
220
0.0
230
1.0
 70
    12
 71
     2
 72
     6
 73
     3
 74
     0
 42
0.0000000001
 43
0.0000000001
 40
0.0
 40
0.0
 40
0.0
 40
7.14999578619406
 40
7.14999578619406
 40
7.14999578619406
 10
1285.46063366679
 20
385.5412867858843
 30
0.0
 41
1.0
 10
1283.594057444392
 20
388.6127804771289
 30
0.0
 41
0.9920108086017133
 10
1281.018128246023
 20
391.1193257192788
 30
0.0
 41
1.0
  0
SPLINE
  5
23B
330
1F
100
AcDbEntity
  8
LINEE VISIBILI 2D
100
AcDbSpline
210
0.0
220
0.0
230
1.0
 70
    12
 71
     2
 72
     6
 73
     3
 74
     0
 42
0.0000000001
 43
0.0000000001
 40
0.0
 40
0.0
 40
0.0
 40
14.65494520736802
 40
14.65494520736802
 40
14.65494520736802
 10
1236.660494582732
 20
269.8132343936617
 30
0.0
 41
1.0
 10
1233.086428920243
 20
263.2216644076884
 30
0.0
 41
0.9661970220857697
 10
1233.27124311679
 20
255.7257599290729
 30
0.0
 41
1.0
  0
SPLINE
  5
23C
330
1F
100
AcDbEntity
  8
LINEE VISIBILI 2D
100
AcDbSpline
210
0.0
220
0.0
230
1.0
 70
    12
 71
     3
 72
     8
 73
     4
 74
     0
 42
0.0000000001
 43
0.0000000001
 40
-179.172725796908
 40
-179.172725796908
 40
-179.172725796908
 40
-179.172725796908
 40
-177.7729388689291
 40
-177.7729388689291
 40
-177.7729388689291
 40
-177.7729388689291
 10
1233.27124311679
 20
255.7257599290729
 30
0.0
 41
1.0
 10
1233.282544018693
 20
255.238397859844
 30
0.0
 41
1.0
 10
1233.306124401427
 20
254.7542057928663
 30
0.0
 41
1.0
 10
1233.341712981188
 20
254.273474892192
 30
0.0
 41
1.0
  0
SPLINE
  5
23D
330
1F
100
AcDbEntity
  8
LINEE VISIBILI 2D
100
AcDbSpline
210
0.0
220
0.0
230
1.0
 70
    12
 71
     2
 72
     6
 73
     3
 74
     0
 42
0.0000000001
 43
0.0000000001
 40
0.0
 40
0.0
 40
0.0
 40
42.91016307037548
 40
42.91016307037548
 40
42.91016307037548
 10
1233.341712981188
 20
254.273474892192
 30
0.0
 41
1.0
 10
1235.353465685637
 20
227.5312661191882
 30
0.0
 41
0.7253532243373513
 10
1262.164275377184
 20
228.1422986234009
 30
0.0
 41
1.0
  0
SPLINE
  5
23E
330
1F
100
AcDbEntity
  8
LINEE VISIBILI 2D
100
AcDbSpline
210
0.0
220
0.0
230
1.0
 70
    12
 71
     3
 72
     8
 73
     4
 74
     0
 42
0.0000000001
 43
0.0000000001
 40
-134.379544101583
 40
-134.379544101583
 40
-134.379544101583
 40
-134.379544101583
 40
-89.5863688116684
 40
-89.5863688116684
 40
-89.5863688116684
 40
-89.5863688116684
 10
1262.164275377184
 20
228.1422986234009
 30
0.0
 41
1.0
 10
1277.759859267908
 20
228.5039274360653
 30
0.0
 41
1.0
 10
1290.109365275715
 20
241.4397470979621
 30
0.0
 41
1.0
 10
1289.747736465899
 20
257.0353311112984
 30
0.0
 41
1.0
  0
SPLINE
  5
23F
330
1F
100
AcDbEntity
  8
LINEE VISIBILI 2D
100
AcDbSpline
210
0.0
220
0.0
230
1.0
 70
    12
 71
     2
 72
     6
 73
     3
 74
     0
 42
0.0000000001
 43
0.0000000001
 40
0.0
 40
0.0
 40
0.0
 40
1.454148741689353
 40
1.454148741689353
 40
1.454148741689353
 10
1289.747736465899
 20
257.0353311112984
 30
0.0
 41
1.0
 10
1289.730909743357
 20
257.7623667726334
 30
0.0
 41
0.9996782918526985
 10
1289.677266957435
 20
258.4876160027054
 30
0.0
 41
1.0
  0
SPLINE
  5
240
330
1F
100
AcDbEntity
  8
LINEE VISIBILI 2D
100
AcDbSpline
210
0.0
220
0.0
230
1.0
 70
    12
 71
     3
 72
     8
 73
     4
 74
     0
 42
0.0000000001
 43
0.0000000001
 40
-88.18658205899926
 40
-88.18658205899926
 40
-88.18658205899926
 40
-88.18658205899926
 40
-44.7931927262563
 40
-44.7931927262563
 40
-44.7931927262563
 40
-44.7931927262563
 10
1289.677266957435
 20
258.4876160027054
 30
0.0
 41
1.0
 10
1288.575021518217
 20
273.39034629882
 30
0.0
 41
1.0
 10
1275.96292636772
 20
284.9691203354552
 30
0.0
 41
1.0
 10
1260.854704204909
 20
284.6187924169569
 30
0.0
 41
1.0
  0
SPLINE
  5
241
330
1F
100
AcDbEntity
  8
LINEE VISIBILI 2D
100
AcDbSpline
210
0.0
220
0.0
230
1.0
 70
    12
 71
     2
 72
     6
 73
     3
 74
     0
 42
0.0000000001
 43
0.0000000001
 40
0.0
 40
0.0
 40
0.0
 40
17.58895396407476
 40
17.58895396407476
 40
17.58895396407476
 10
1260.854704204909
 20
284.6187924169569
 30
0.0
 41
1.0
 10
1251.76373934774
 20
284.4210647931725
 30
0.0
 41
0.9514569705420143
 10
1244.510947586955
 20
278.9363815832218
 30
0.0
 41
1.0
  0
SPLINE
  5
242
330
1F
100
AcDbEntity
  8
PREDEFINITO
100
AcDbSpline
210
0.0
220
0.0
230
1.0
 70
    28
 71
     2
 72
     6
 73
     3
 74
     0
 42
0.0000000001
 43
0.0000000001
 40
712.3918860367002
 40
712.3918860367002
 40
712.3918860367002
 40
770.9498864326242
 40
770.9498864326242
 40
770.9498864326242
 10
1205.743800695462
 20
311.4658802416506
 30
0.0
 41
1.0
 10
1228.1728160972
 20
292.6457016903934
 30
0.0
 41
1.0
 10
1250.601831498945
 20
273.825523139145
 30
0.0
 41
1.0
  0
POLYLINE
  5
243
330
1F
100
AcDbEntity
  8
PREDEFINITO
100
AcDb2dPolyline
 66
     1
 10
0.0
 20
0.0
 30
0.0
  0
VERTEX
  5
245
330
243
100
AcDbEntity
  8
PREDEFINITO
100
AcDbVertex
100
AcDb2dVertex
 10
1250.601831498945
 20
273.825523139145
 30
0.0
  0
VERTEX
  5
246
330
243
100
AcDbEntity
  8
PREDEFINITO
100
AcDbVertex
100
AcDb2dVertex
 10
1250.768555811937
 20
273.6856248296248
 30
0.0
  0
SEQEND
  5
244
330
243
100
AcDbEntity
  8
PREDEFINITO
  0
SPLINE
  5
247
330
1F
100
AcDbEntity
  8
PREDEFINITO
100
AcDbSpline
210
0.0
220
0.0
230
1.0
 70
    12
 71
     2
 72
     8
 73
     5
 74
     0
 42
0.0000000001
 43
0.0000000001
 40
26.13640294984419
 40
26.13640294984419
 40
26.13640294984419
 40
32.00778274040518
 40
32.00778274040518
 40
64.01556548081017
 40
64.01556548081017
 40
64.01556548081017
 10
1250.768555811937
 20
273.6856248296248
 30
0.0
 41
0.9122566680442117
 10
1253.142773330236
 20
275.1568781858933
 30
0.0
 41
0.9462728380881336
 10
1255.825318161463
 20
275.9349838927136
 30
0.0
 41
1.0
 10
1275.395451183276
 20
281.6115459431375
 30
0.0
 41
0.7071067811865478
 10
1281.072013233701
 20
262.0414129213235
 30
0.0
 41
1.0
  0
SPLINE
  5
248
330
1F
100
AcDbEntity
  8
PREDEFINITO
100
AcDbSpline
210
0.0
220
0.0
230
1.0
 70
    12
 71
     2
 72
     8
 73
     5
 74
     0
 42
0.0000000001
 43
0.0000000001
 40
0.0
 40
0.0
 40
0.0
 40
32.00778274040518
 40
32.00778274040518
 40
64.01556548081024
 40
64.01556548081024
 40
64.01556548081024
 10
1281.072013233701
 20
262.0414129213235
 30
0.0
 41
1.0
 10
1286.748575284125
 20
242.4712798995095
 30
0.0
 41
0.7071067811865498
 10
1267.178442262311
 20
236.7947178490852
 30
0.0
 41
1.0
 10
1247.608309240497
 20
231.1181557986616
 30
0.0
 41
0.707106781186562
 10
1241.931747190072
 20
250.6882888204752
 30
0.0
 41
1.0
  0
SPLINE
  5
249
330
1F
100
AcDbEntity
  8
PREDEFINITO
100
AcDbSpline
210
0.0
220
0.0
230
1.0
 70
    12
 71
     2
 72
     6
 73
     3
 74
     0
 42
0.0000000001
 43
0.0000000001
 40
0.0
 40
0.0
 40
0.0
 40
14.32773778527496
 40
14.32773778527496
 40
14.32773778527496
 10
1241.931747190072
 20
250.6882888204752
 30
0.0
 41
1.0
 10
1239.863859475622
 20
257.8173992373951
 30
0.0
 41
0.8688913483236479
 10
1242.866046076487
 20
264.6061583692096
 30
0.0
 41
0.8551597982000629
  0
SPLINE
  5
24A
330
1F
100
AcDbEntity
  8
PREDEFINITO
100
AcDbSpline
210
0.0
220
0.0
230
1.0
 70
    12
 71
     2
 72
     8
 73
     5
 74
     0
 42
0.0000000001
 43
0.0000000001
 40
-0.0001482935122775
 40
-0.0001482935122775
 40
-0.0001482935122775
 40
0.0
 40
0.0
 40
66.3731731408762
 40
66.3731731408762
 40
66.3731731408762
 10
1242.866046076488
 20
264.6061583692096
 30
0.0
 41
0.9999446709544276
 10
1242.865993233921
 20
264.6062027445513
 30
0.0
 41
0.9999723313741361
 10
1242.865940383702
 20
264.6062471107748
 30
0.0
 41
1.0
 10
1217.443540155318
 20
285.9381737660618
 30
0.0
 41
1.0
 10
1192.021139926934
 20
307.2701004213488
 30
0.0
 41
1.0
  0
SPLINE
  5
24B
330
1F
100
AcDbEntity
  8
LINEE VISIBILI 2D
100
AcDbSpline
210
0.0
220
0.0
230
1.0
 70
    12
 71
     3
 72
     8
 73
     4
 74
     0
 42
0.0000000001
 43
0.0000000001
 40
51.36847976414364
 40
51.36847976414364
 40
51.36847976414364
 40
51.36847976414364
 40
88.18658205899926
 40
88.18658205899926
 40
88.18658205899926
 40
88.18658205899926
 10
1339.493272527037
 20
104.3199552369201
 30
0.0
 41
1.0
 10
1347.7478324484
 20
113.4122925425244
 30
0.0
 41
1.0
 10
1361.236616422985
 20
116.2723059508391
 30
0.0
 41
1.0
 10
1372.654735765248
 20
110.7599511498776
 30
0.0
 41
1.0
  0
SPLINE
  5
24C
330
1F
100
AcDbEntity
  8
LINEE VISIBILI 2D
100
AcDbSpline
210
0.0
220
0.0
230
1.0
 70
    12
 71
     2
 72
     6
 73
     3
 74
     0
 42
0.0000000001
 43
0.0000000001
 40
-1.454148741689603
 40
-1.454148741689603
 40
-1.454148741689603
 40
0.0
 40
0.0
 40
0.0
 10
1372.654735765248
 20
110.7599511498776
 30
0.0
 41
1.0
 10
1373.309641415527
 20
110.443782550179
 30
0.0
 41
0.9996782918527132
 10
1373.947686128972
 20
110.0948370886964
 30
0.0
 41
1.0
  0
SPLINE
  5
24D
330
1F
100
AcDbEntity
  8
LINEE VISIBILI 2D
100
AcDbSpline
210
0.0
220
0.0
230
1.0
 70
    12
 71
     3
 72
     8
 73
     4
 74
     0
 42
0.0000000001
 43
0.0000000001
 40
89.5863688116684
 40
89.5863688116684
 40
89.5863688116684
 40
89.5863688116684
 40
98.414672248432
 40
98.414672248432
 40
98.414672248432
 40
98.414672248432
 10
1373.947686128972
 20
110.0948370886964
 30
0.0
 41
1.0
 10
1376.645259315664
 20
108.6196920960952
 30
0.0
 41
1.0
 10
1379.006477347635
 20
106.7685979224141
 30
0.0
 41
1.0
 10
1381.001837323566
 20
104.6422617432503
 30
0.0
 41
1.0
  0
SPLINE
  5
24E
330
1F
100
AcDbEntity
  8
LINEE VISIBILI 2D
100
AcDbSpline
210
0.0
220
0.0
230
1.0
 70
    12
 71
     3
 72
     8
 73
     4
 74
     0
 42
0.0000000001
 43
0.0000000001
 40
110.8420672670993
 40
110.8420672670993
 40
110.8420672670993
 40
110.8420672670993
 40
134.379544101583
 40
134.379544101583
 40
134.379544101583
 40
134.379544101583
 10
1387.171104783683
 20
94.30737276573636
 30
0.0
 41
1.0
 10
1389.588969129943
 20
87.10431268774678
 30
0.0
 41
1.0
 10
1389.110996060003
 20
78.95244562201229
 30
0.0
 41
1.0
 10
1385.178055711503
 20
71.7603428176212
 30
0.0
 41
1.0
  0
SPLINE
  5
24F
330
1F
100
AcDbEntity
  8
LINEE VISIBILI 2D
100
AcDbSpline
210
0.0
220
0.0
230
1.0
 70
    12
 71
     2
 72
     6
 73
     3
 74
     0
 42
0.0000000001
 43
0.0000000001
 40
-42.91016307040847
 40
-42.91016307040847
 40
-42.91016307040847
 40
0.0
 40
0.0
 40
0.0
 10
1385.178055711503
 20
71.7603428176212
 30
0.0
 41
1.0
 10
1372.301820536949
 20
48.23598427650337
 30
0.0
 41
0.7253532243353702
 10
1348.136512033962
 20
59.86485971492144
 30
0.0
 41
1.0
  0
SPLINE
  5
250
330
1F
100
AcDbEntity
  8
LINEE VISIBILI 2D
100
AcDbSpline
210
0.0
220
0.0
230
1.0
 70
    12
 71
     3
 72
     8
 73
     4
 74
     0
 42
0.0000000001
 43
0.0000000001
 40
177.7729388689291
 40
177.7729388689291
 40
177.7729388689291
 40
177.7729388689291
 40
179.172725796908
 40
179.172725796908
 40
179.172725796908
 40
179.172725796908
 10
1348.136512033962
 20
59.86485971492144
 30
0.0
 41
1.0
 10
1347.702392571713
 20
60.07440455110037
 30
0.0
 41
1.0
 10
1347.271279750033
 20
60.29607937411095
 30
0.0
 41
1.0
 10
1346.843561366289
 20
60.52997354059237
 30
0.0
 41
1.0
  0
SPLINE
  5
251
330
1F
100
AcDbEntity
  8
LINEE VISIBILI 2D
100
AcDbSpline
210
0.0
220
0.0
230
1.0
 70
    12
 71
     2
 72
     6
 73
     3
 74
     0
 42
0.0000000001
 43
0.0000000001
 40
-38.95031354335727
 40
-38.95031354335727
 40
-38.95031354335727
 40
0.0
 40
0.0
 40
0.0
 10
1346.843561366289
 20
60.52997354059237
 30
0.0
 41
1.0
 10
1326.422899029648
 20
71.70962535150304
 30
0.0
 41
0.7719143963719148
 10
1333.480484267905
 20
93.89472295068023
 30
0.0
 41
1.0
  0
SPLINE
  5
252
330
1F
100
AcDbEntity
  8
LINEE VISIBILI 2D
100
AcDbSpline
210
0.0
220
0.0
230
1.0
 70
    12
 71
     3
 72
     8
 73
     4
 74
     0
 42
0.0000000001
 43
0.0000000001
 40
76.64927559243085
 40
76.64927559243085
 40
76.64927559243085
 40
76.64927559243085
 40
88.18658205899926
 40
88.18658205899926
 40
88.18658205899926
 40
88.18658205899926
 10
1262.696944884877
 20
56.47697968623934
 30
0.0
 41
1.0
 10
1266.456806863859
 20
56.32802184924304
 30
0.0
 41
1.0
 10
1270.238114638876
 20
55.42279688162265
 30
0.0
 41
1.0
 10
1273.816082898238
 20
53.69542831334903
 30
0.0
 41
1.0
  0
SPLINE
  5
253
330
1F
100
AcDbEntity
  8
LINEE VISIBILI 2D
100
AcDbSpline
210
0.0
220
0.0
230
1.0
 70
    12
 71
     2
 72
     6
 73
     3
 74
     0
 42
0.0000000001
 43
0.0000000001
 40
-1.454148741689103
 40
-1.454148741689103
 40
-1.454148741689103
 40
0.0
 40
0.0
 40
0.0
 10
1273.816082898238
 20
53.69542831334903
 30
0.0
 41
1.0
 10
1274.470988548516
 20
53.37925971365072
 30
0.0
 41
0.9996782918527117
 10
1275.109033261961
 20
53.03031425216814
 30
0.0
 41
1.0
  0
SPLINE
  5
254
330
1F
100
AcDbEntity
  8
LINEE VISIBILI 2D
100
AcDbSpline
210
0.0
220
0.0
230
1.0
 70
    12
 71
     3
 72
     8
 73
     4
 74
     0
 42
0.0000000001
 43
0.0000000001
 40
89.5863688116684
 40
89.5863688116684
 40
89.5863688116684
 40
89.5863688116684
 40
134.379544101583
 40
134.379544101583
 40
134.379544101583
 40
134.379544101583
 10
1275.109033261961
 20
53.03031425216814
 30
0.0
 41
1.0
 10
1288.796019609272
 20
45.54570198154033
 30
0.0
 41
1.0
 10
1293.824015051346
 20
28.38280622364237
 30
0.0
 41
1.0
 10
1286.339402844492
 20
14.69581998109213
 30
0.0
 41
1.0
  0
SPLINE
  5
255
330
1F
100
AcDbEntity
  8
LINEE VISIBILI 2D
100
AcDbSpline
210
0.0
220
0.0
230
1.0
 70
    12
 71
     2
 72
     6
 73
     3
 74
     0
 42
0.0000000001
 43
0.0000000001
 40
-42.91016307037561
 40
-42.91016307037561
 40
-42.91016307037561
 40
0.0
 40
0.0
 40
0.0
 10
1286.339402844492
 20
14.69581998109213
 30
0.0
 41
1.0
 10
1273.463167669904
 20
-8.828538559924045
 30
0.0
 41
0.725353224337345
 10
1249.297859166951
 20
2.800336878393594
 30
0.0
 41
1.0
  0
SPLINE
  5
256
330
1F
100
AcDbEntity
  8
LINEE VISIBILI 2D
100
AcDbSpline
210
0.0
220
0.0
230
1.0
 70
    12
 71
     3
 72
     8
 73
     4
 74
     0
 42
0.0000000001
 43
0.0000000001
 40
177.7729388689291
 40
177.7729388689291
 40
177.7729388689291
 40
177.7729388689291
 40
179.172725796908
 40
179.172725796908
 40
179.172725796908
 40
179.172725796908
 10
1249.297859166951
 20
2.800336878393594
 30
0.0
 41
1.0
 10
1248.863739704702
 20
3.009881714572397
 30
0.0
 41
1.0
 10
1248.432626883022
 20
3.231556537582959
 30
0.0
 41
1.0
 10
1248.004908499277
 20
3.465450704064295
 30
0.0
 41
1.0
  0
SPLINE
  5
257
330
1F
100
AcDbEntity
  8
LINEE VISIBILI 2D
100
AcDbSpline
210
0.0
220
0.0
230
1.0
 70
    12
 71
     2
 72
     6
 73
     3
 74
     0
 42
0.0000000001
 43
0.0000000001
 40
-44.36384075043463
 40
-44.36384075043463
 40
-44.36384075043463
 40
0.0
 40
0.0
 40
0.0
 10
1248.004908499277
 20
3.465450704064295
 30
0.0
 41
1.0
 10
1223.237074161112
 20
17.02178951756493
 30
0.0
 41
0.7073760952470225
 10
1236.774538916463
 20
41.79994497462167
 30
0.0
 41
1.0
  0
SPLINE
  5
258
330
1F
100
AcDbEntity
  8
LINEE VISIBILI 2D
100
AcDbSpline
210
0.0
220
0.0
230
1.0
 70
    12
 71
     3
 72
     8
 73
     4
 74
     0
 42
0.0000000001
 43
0.0000000001
 40
44.79319272626649
 40
44.79319272626649
 40
44.79319272626649
 40
44.79319272626649
 40
64.15788684652766
 40
64.15788684652766
 40
64.15788684652766
 40
64.15788684652766
 10
1236.774538916463
 20
41.79994497462167
 30
0.0
 41
1.0
 10
1240.010237771607
 20
47.71701382085931
 30
0.0
 41
1.0
 10
1245.054758863027
 20
52.01576091790769
 30
0.0
 41
1.0
 10
1250.845280216533
 20
54.38482482912145
 30
0.0
 41
1.0
  0
SPLINE
  5
259
330
1F
100
AcDbEntity
  8
LINEE VISIBILI 2D
100
AcDbSpline
210
0.0
220
0.0
230
1.0
 70
    12
 71
     2
 72
     6
 73
     3
 74
     0
 42
0.0000000001
 43
0.0000000001
 40
310.9188651490482
 40
310.9188651490482
 40
310.9188651490482
 40
313.6008182754019
 40
313.6008182754019
 40
313.6008182754019
 10
1265.735109919503
 20
496.0415030522682
 30
0.0
 41
0.9843593557034044
 10
1265.525856838706
 20
497.4808494445655
 30
0.0
 41
0.873313083052278
 10
1264.262888163619
 20
498.2022474031322
 30
0.0
 41
0.9590519969666984
  0
SPLINE
  5
25A
330
1F
100
AcDbEntity
  8
LINEE VISIBILI 2D
100
AcDbSpline
210
0.0
220
0.0
230
1.0
 70
    12
 71
     2
 72
     6
 73
     3
 74
     0
 42
0.0000000001
 43
0.0000000001
 40
90.28221846371598
 40
90.28221846371598
 40
90.28221846371598
 40
92.95876200476505
 40
92.95876200476505
 40
92.95876200476505
 10
1274.766118225061
 20
480.0131566585931
 30
0.0
 41
0.9588570395235159
 10
1274.771371069842
 20
481.4643560315367
 30
0.0
 41
0.873514634586643
 10
1273.632737006278
 20
482.3640891484678
 30
0.0
 41
0.9841643727826215
  0
SPLINE
  5
25B
330
1F
100
AcDbEntity
  8
LINEE VISIBILI 2D
100
AcDbSpline
210
0.0
220
0.0
230
1.0
 70
    12
 71
     3
 72
     8
 73
     4
 74
     0
 42
0.0000000001
 43
0.0000000001
 40
76.64927559243125
 40
76.64927559243125
 40
76.64927559243125
 40
76.64927559243125
 40
88.18658205899926
 40
88.18658205899926
 40
88.18658205899926
 40
88.18658205899926
 10
1457.812619393597
 20
570.0724241988515
 30
0.0
 41
1.0
 10
1454.052757414615
 20
570.2213820358478
 30
0.0
 41
1.0
 10
1450.271449639598
 20
571.1266070034682
 30
0.0
 41
1.0
 10
1446.693481380237
 20
572.8539755717417
 30
0.0
 41
1.0
  0
SPLINE
  5
25C
330
1F
100
AcDbEntity
  8
LINEE VISIBILI 2D
100
AcDbSpline
210
0.0
220
0.0
230
1.0
 70
    12
 71
     2
 72
     6
 73
     3
 74
     0
 42
0.0000000001
 43
0.0000000001
 40
-1.454148741689764
 40
-1.454148741689764
 40
-1.454148741689764
 40
0.0
 40
0.0
 40
0.0
 10
1446.693481380237
 20
572.8539755717417
 30
0.0
 41
1.0
 10
1446.038575729959
 20
573.1701441714408
 30
0.0
 41
0.9996782918527276
 10
1445.400531016513
 20
573.5190896329229
 30
0.0
 41
1.0
  0
SPLINE
  5
25D
330
1F
100
AcDbEntity
  8
LINEE VISIBILI 2D
100
AcDbSpline
210
0.0
220
0.0
230
1.0
 70
    12
 71
     3
 72
     8
 73
     4
 74
     0
 42
0.0000000001
 43
0.0000000001
 40
89.5863688116684
 40
89.5863688116684
 40
89.5863688116684
 40
89.5863688116684
 40
134.379544101583
 40
134.379544101583
 40
134.379544101583
 40
134.379544101583
 10
1445.400531016513
 20
573.5190896329229
 30
0.0
 41
1.0
 10
1431.713544669202
 20
581.0037019035503
 30
0.0
 41
1.0
 10
1426.685549227128
 20
598.1665976614483
 30
0.0
 41
1.0
 10
1434.170161433982
 20
611.8535839039986
 30
0.0
 41
1.0
  0
SPLINE
  5
25E
330
1F
100
AcDbEntity
  8
LINEE VISIBILI 2D
100
AcDbSpline
210
0.0
220
0.0
230
1.0
 70
    12
 71
     2
 72
     6
 73
     3
 74
     0
 42
0.0000000001
 43
0.0000000001
 40
-42.91016307037552
 40
-42.91016307037552
 40
-42.91016307037552
 40
0.0
 40
0.0
 40
0.0
 10
1434.170161433982
 20
611.8535839039986
 30
0.0
 41
1.0
 10
1447.046396608569
 20
635.3779424450152
 30
0.0
 41
0.7253532243373285
 10
1471.211705111523
 20
623.749067006697
 30
0.0
 41
1.0
  0
SPLINE
  5
25F
330
1F
100
AcDbEntity
  8
LINEE VISIBILI 2D
100
AcDbSpline
210
0.0
220
0.0
230
1.0
 70
    12
 71
     3
 72
     8
 73
     4
 74
     0
 42
0.0000000001
 43
0.0000000001
 40
177.7729388689291
 40
177.7729388689291
 40
177.7729388689291
 40
177.7729388689291
 40
179.172725796908
 40
179.172725796908
 40
179.172725796908
 40
179.172725796908
 10
1471.211705111523
 20
623.749067006697
 30
0.0
 41
1.0
 10
1471.645824573772
 20
623.5395221705182
 30
0.0
 41
1.0
 10
1472.076937395452
 20
623.3178473475077
 30
0.0
 41
1.0
 10
1472.504655779196
 20
623.0839531810263
 30
0.0
 41
1.0
  0
SPLINE
  5
260
330
1F
100
AcDbEntity
  8
LINEE VISIBILI 2D
100
AcDbSpline
210
0.0
220
0.0
230
1.0
 70
    12
 71
     2
 72
     6
 73
     3
 74
     0
 42
0.0000000001
 43
0.0000000001
 40
-44.36384075052568
 40
-44.36384075052568
 40
-44.36384075052568
 40
0.0
 40
0.0
 40
0.0
 10
1472.504655779196
 20
623.0839531810263
 30
0.0
 41
1.0
 10
1497.272490117652
 20
609.5276143676109
 30
0.0
 41
0.7073760952416828
 10
1483.735025362014
 20
584.7494589104742
 30
0.0
 41
1.0
  0
SPLINE
  5
261
330
1F
100
AcDbEntity
  8
LINEE VISIBILI 2D
100
AcDbSpline
210
0.0
220
0.0
230
1.0
 70
    12
 71
     3
 72
     8
 73
     4
 74
     0
 42
0.0000000001
 43
0.0000000001
 40
44.7931927262563
 40
44.7931927262563
 40
44.7931927262563
 40
44.7931927262563
 40
64.15788684652796
 40
64.15788684652796
 40
64.15788684652796
 40
64.15788684652796
 10
1483.735025362014
 20
584.7494589104742
 30
0.0
 41
1.0
 10
1480.499326506873
 20
578.8323900642365
 30
0.0
 41
1.0
 10
1475.45480541545
 20
574.5336429671847
 30
0.0
 41
1.0
 10
1469.664284061941
 20
572.1645790559696
 30
0.0
 41
1.0
  0
SPLINE
  5
262
330
1F
100
AcDbEntity
  8
LINEE VISIBILI 2D
100
AcDbSpline
210
0.0
220
0.0
230
1.0
 70
    12
 71
     2
 72
     6
 73
     3
 74
     0
 42
0.0000000001
 43
0.0000000001
 40
0.0
 40
0.0
 40
0.0
 40
38.95031354331429
 40
38.95031354331429
 40
38.95031354331429
 10
1387.029080010562
 20
532.6546809344147
 30
0.0
 41
1.0
 10
1394.086665248712
 20
554.8397785335432
 30
0.0
 41
0.7719143963743893
 10
1373.666002912186
 20
566.0194303444985
 30
0.0
 41
1.0
  0
SPLINE
  5
263
330
1F
100
AcDbEntity
  8
LINEE VISIBILI 2D
100
AcDbSpline
210
0.0
220
0.0
230
1.0
 70
    12
 71
     3
 72
     8
 73
     4
 74
     0
 42
0.0000000001
 43
0.0000000001
 40
-179.172725796908
 40
-179.172725796908
 40
-179.172725796908
 40
-179.172725796908
 40
-177.7729388689291
 40
-177.7729388689291
 40
-177.7729388689291
 40
-177.7729388689291
 10
1373.666002912186
 20
566.0194303444985
 30
0.0
 41
1.0
 10
1373.238284528441
 20
566.2533245109797
 30
0.0
 41
1.0
 10
1372.807171706761
 20
566.4749993339902
 30
0.0
 41
1.0
 10
1372.373052244512
 20
566.684544170169
 30
0.0
 41
1.0
  0
SPLINE
  5
264
330
1F
100
AcDbEntity
  8
LINEE VISIBILI 2D
100
AcDbSpline
210
0.0
220
0.0
230
1.0
 70
    12
 71
     2
 72
     6
 73
     3
 74
     0
 42
0.0000000001
 43
0.0000000001
 40
0.0
 40
0.0
 40
0.0
 40
42.9101630703757
 40
42.9101630703757
 40
42.9101630703757
 10
1372.373052244512
 20
566.684544170169
 30
0.0
 41
1.0
 10
1348.207743741559
 20
578.3134196084876
 30
0.0
 41
0.7253532243373205
 10
1335.331508566972
 20
554.7890610674704
 30
0.0
 41
1.0
  0
SPLINE
  5
265
330
1F
100
AcDbEntity
  8
LINEE VISIBILI 2D
100
AcDbSpline
210
0.0
220
0.0
230
1.0
 70
    12
 71
     3
 72
     8
 73
     4
 74
     0
 42
0.0000000001
 43
0.0000000001
 40
-134.379544101583
 40
-134.379544101583
 40
-134.379544101583
 40
-134.379544101583
 40
-111.446788136869
 40
-111.446788136869
 40
-111.446788136869
 40
-111.446788136869
 10
1335.331508566972
 20
554.7890610674704
 30
0.0
 41
1.0
 10
1331.499612656029
 20
547.781736550653
 30
0.0
 41
1.0
 10
1330.947435675728
 20
539.8633304625587
 30
0.0
 41
1.0
 10
1333.157845260115
 20
532.799056990556
 30
0.0
 41
1.0
  0
SPLINE
  5
266
330
1F
100
AcDbEntity
  8
LINEE VISIBILI 2D
100
AcDbSpline
210
0.0
220
0.0
230
1.0
 70
    12
 71
     3
 72
     8
 73
     4
 74
     0
 42
0.0000000001
 43
0.0000000001
 40
51.36847976414384
 40
51.36847976414384
 40
51.36847976414384
 40
51.36847976414384
 40
88.18658205899926
 40
88.18658205899926
 40
88.18658205899926
 40
88.18658205899926
 10
1381.016291751437
 20
522.2294486481707
 30
0.0
 41
1.0
 10
1372.761731830074
 20
513.1371113425665
 30
0.0
 41
1.0
 10
1359.272947855489
 20
510.2770979342525
 30
0.0
 41
1.0
 10
1347.854828513226
 20
515.7894527352134
 30
0.0
 41
1.0
  0
SPLINE
  5
267
330
1F
100
AcDbEntity
  8
LINEE VISIBILI 2D
100
AcDbSpline
210
0.0
220
0.0
230
1.0
 70
    12
 71
     2
 72
     6
 73
     3
 74
     0
 42
0.0000000001
 43
0.0000000001
 40
-1.454148741689109
 40
-1.454148741689109
 40
-1.454148741689109
 40
0.0
 40
0.0
 40
0.0
 10
1347.854828513226
 20
515.7894527352134
 30
0.0
 41
1.0
 10
1347.199922862947
 20
516.1056213349116
 30
0.0
 41
0.9996782918527095
 10
1346.561878149498
 20
516.4545667963971
 30
0.0
 41
1.0
  0
SPLINE
  5
268
330
1F
100
AcDbEntity
  8
LINEE VISIBILI 2D
100
AcDbSpline
210
0.0
220
0.0
230
1.0
 70
    12
 71
     3
 72
     8
 73
     4
 74
     0
 42
0.0000000001
 43
0.0000000001
 40
89.58636881167858
 40
89.58636881167858
 40
89.58636881167858
 40
89.58636881167858
 40
99.0075358788025
 40
99.0075358788025
 40
99.0075358788025
 40
99.0075358788025
 10
1346.561878149498
 20
516.4545667963971
 30
0.0
 41
1.0
 10
1343.683149767572
 20
518.028774969361
 30
0.0
 41
1.0
 10
1341.187469205285
 20
520.0311214124933
 30
0.0
 41
1.0
 10
1339.110691244687
 20
522.3392170158787
 30
0.0
 41
1.0
  0
SPLINE
  5
269
330
1F
100
AcDbEntity
  8
LINEE VISIBILI 2D
100
AcDbSpline
210
0.0
220
0.0
230
1.0
 70
    12
 71
     2
 72
     6
 73
     3
 74
     0
 42
0.0000000001
 43
0.0000000001
 40
0.0
 40
0.0
 40
0.0
 40
38.9503135433573
 40
38.9503135433573
 40
38.9503135433573
 10
1536.86525704083
 20
180.733331867552
 30
0.0
 41
1.0
 10
1552.549322528026
 20
163.5287349622581
 30
0.0
 41
0.7719143963719112
 10
1572.441516170059
 20
175.6237214024373
 30
0.0
 41
1.0
  0
SPLINE
  5
26A
330
1F
100
AcDbEntity
  8
LINEE VISIBILI 2D
100
AcDbSpline
210
0.0
220
0.0
230
1.0
 70
    12
 71
     3
 72
     8
 73
     4
 74
     0
 42
0.0000000001
 43
0.0000000001
 40
-179.172725796908
 40
-179.172725796908
 40
-179.172725796908
 40
-179.172725796908
 40
-177.7729388689291
 40
-177.7729388689291
 40
-177.7729388689291
 40
-177.7729388689291
 10
1572.441516170059
 20
175.6237214024373
 30
0.0
 41
1.0
 10
1572.857933651901
 20
175.8771893051849
 30
0.0
 41
1.0
 10
1573.265466090848
 20
176.139706549152
 30
0.0
 41
1.0
 10
1573.663996973336
 20
176.4108926136473
 30
0.0
 41
1.0
  0
SPLINE
  5
26B
330
1F
100
AcDbEntity
  8
LINEE VISIBILI 2D
100
AcDbSpline
210
0.0
220
0.0
230
1.0
 70
    12
 71
     2
 72
     6
 73
     3
 74
     0
 42
0.0000000001
 43
0.0000000001
 40
0.0
 40
0.0
 40
0.0
 40
42.91016307040849
 40
42.91016307040849
 40
42.91016307040849
 10
1573.663996973336
 20
176.4108926136473
 30
0.0
 41
1.0
 10
1595.817552771943
 20
191.5242259483121
 30
0.0
 41
0.7253532243353776
 10
1581.88297825488
 20
214.437551985138
 30
0.0
 41
1.0
  0
SPLINE
  5
26C
330
1F
100
AcDbEntity
  8
LINEE VISIBILI 2D
100
AcDbSpline
210
0.0
220
0.0
230
1.0
 70
    12
 71
     3
 72
     8
 73
     4
 74
     0
 42
0.0000000001
 43
0.0000000001
 40
-134.379544101583
 40
-134.379544101583
 40
-134.379544101583
 40
-134.379544101583
 40
-111.4467881368685
 40
-111.4467881368685
 40
-111.4467881368685
 40
-111.4467881368685
 10
1581.88297825488
 20
214.437551985138
 30
0.0
 41
1.0
 10
1577.730405166226
 20
221.2597334470814
 30
0.0
 41
1.0
 10
1571.148952826605
 20
225.6971357834542
 30
0.0
 41
1.0
 10
1563.925907748376
 20
227.3150016666074
 30
0.0
 41
1.0
  0
SPLINE
  5
26D
330
1F
100
AcDbEntity
  8
LINEE VISIBILI 2D
100
AcDbSpline
210
0.0
220
0.0
230
1.0
 70
    12
 71
     3
 72
     8
 73
     4
 74
     0
 42
0.0000000001
 43
0.0000000001
 40
51.36847976414366
 40
51.36847976414366
 40
51.36847976414366
 40
51.36847976414366
 40
88.18658205899926
 40
88.18658205899926
 40
88.18658205899926
 40
88.18658205899926
 10
1530.843135170159
 20
191.1531753906568
 30
0.0
 41
1.0
 10
1527.09622004441
 20
202.8480026324197
 30
0.0
 41
1.0
 10
1531.363767764938
 20
215.9596389247285
 30
0.0
 41
1.0
 10
1541.846666728375
 20
223.0918429380904
 30
0.0
 41
1.0
  0
SPLINE
  5
26E
330
1F
100
AcDbEntity
  8
LINEE VISIBILI 2D
100
AcDbSpline
210
0.0
220
0.0
230
1.0
 70
    12
 71
     2
 72
     6
 73
     3
 74
     0
 42
0.0000000001
 43
0.0000000001
 40
-1.454148741689046
 40
-1.454148741689046
 40
-1.454148741689046
 40
0.0
 40
0.0
 40
0.0
 10
1541.846666728375
 20
223.0918429380904
 30
0.0
 41
1.0
 10
1542.447929592732
 20
223.5009235684639
 30
0.0
 41
0.9996782918527127
 10
1543.069147583633
 20
223.8790137683163
 30
0.0
 41
1.0
  0
SPLINE
  5
26F
330
1F
100
AcDbEntity
  8
LINEE VISIBILI 2D
100
AcDbSpline
210
0.0
220
0.0
230
1.0
 70
    12
 71
     3
 72
     8
 73
     4
 74
     0
 42
0.0000000001
 43
0.0000000001
 40
89.5863688116684
 40
89.5863688116684
 40
89.5863688116684
 40
89.5863688116684
 40
99.00753587880213
 40
99.00753587880213
 40
99.00753587880213
 40
99.00753587880213
 10
1543.069147583633
 20
223.8790137683163
 30
0.0
 41
1.0
 10
1545.871816043226
 20
225.5849615911772
 30
0.0
 41
1.0
 10
1548.853739211303
 20
226.7451111362844
 30
0.0
 41
1.0
 10
1551.8909976185
 20
227.3896058064903
 30
0.0
 41
1.0
  0
SPLINE
  5
270
330
1F
100
AcDbEntity
  8
LINEE VISIBILI 2D
100
AcDbSpline
210
0.0
220
0.0
230
1.0
 70
    12
 71
     2
 72
     6
 73
     3
 74
     0
 42
0.0000000001
 43
0.0000000001
 40
0.0
 40
0.0
 40
0.0
 40
38.95031354335652
 40
38.95031354335652
 40
38.95031354335652
 10
1563.925907748344
 20
399.9376054285682
 30
0.0
 41
1.0
 10
1586.667558473797
 20
404.9181061224518
 30
0.0
 41
0.7719143963719027
 10
1586.139089779189
 20
428.1927443735418
 30
0.0
 41
1.0
  0
SPLINE
  5
271
330
1F
100
AcDbEntity
  8
LINEE VISIBILI 2D
100
AcDbSpline
210
0.0
220
0.0
230
1.0
 70
    12
 71
     3
 72
     8
 73
     4
 74
     0
 42
0.0000000001
 43
0.0000000001
 40
-179.172725796908
 40
-179.172725796908
 40
-179.172725796908
 40
-179.172725796908
 40
-177.7729388689291
 40
-177.7729388689291
 40
-177.7729388689291
 40
-177.7729388689291
 10
1586.139089779189
 20
428.1927443735418
 30
0.0
 41
1.0
 10
1586.127788877287
 20
428.6801064427707
 30
0.0
 41
1.0
 10
1586.104208494553
 20
429.1642985097483
 30
0.0
 41
1.0
 10
1586.068619914792
 20
429.6450294104227
 30
0.0
 41
1.0
  0
SPLINE
  5
272
330
1F
100
AcDbEntity
  8
LINEE VISIBILI 2D
100
AcDbSpline
210
0.0
220
0.0
230
1.0
 70
    12
 71
     2
 72
     6
 73
     3
 74
     0
 42
0.0000000001
 43
0.0000000001
 40
0.0
 40
0.0
 40
0.0
 40
42.91016307040766
 40
42.91016307040766
 40
42.91016307040766
 10
1586.068619914792
 20
429.6450294104227
 30
0.0
 41
1.0
 10
1584.056867210415
 20
456.3872381835056
 30
0.0
 41
0.7253532243353561
 10
1557.246057518797
 20
455.7762056792137
 30
0.0
 41
1.0
  0
SPLINE
  5
273
330
1F
100
AcDbEntity
  8
LINEE VISIBILI 2D
100
AcDbSpline
210
0.0
220
0.0
230
1.0
 70
    12
 71
     3
 72
     8
 73
     4
 74
     0
 42
0.0000000001
 43
0.0000000001
 40
-134.379544101583
 40
-134.379544101583
 40
-134.379544101583
 40
-134.379544101583
 40
-110.8420672670997
 40
-110.8420672670997
 40
-110.8420672670997
 40
-110.8420672670997
 10
1557.246057518797
 20
455.7762056792137
 30
0.0
 41
1.0
 10
1549.051043609314
 20
455.5861805303883
 30
0.0
 41
1.0
 10
1541.752333107144
 20
451.9241838184141
 30
0.0
 41
1.0
 10
1536.723232267749
 20
446.2287218326537
 30
0.0
 41
1.0
  0
SPLINE
  5
274
330
1F
100
AcDbEntity
  8
LINEE VISIBILI 2D
100
AcDbSpline
210
0.0
220
0.0
230
1.0
 70
    12
 71
     3
 72
     8
 73
     4
 74
     0
 42
0.0000000001
 43
0.0000000001
 40
51.3684797641436
 40
51.3684797641436
 40
51.3684797641436
 40
51.3684797641436
 40
88.18658205899926
 40
88.18658205899926
 40
88.18658205899926
 40
88.18658205899926
 10
1551.89099761854
 20
399.9322166654333
 30
0.0
 41
1.0
 10
1539.889522571429
 20
402.5347066015921
 30
0.0
 41
1.0
 10
1530.668286317371
 20
412.786329485586
 30
0.0
 41
1.0
 10
1529.733065938545
 20
425.4308882999093
 30
0.0
 41
1.0
  0
SPLINE
  5
275
330
1F
100
AcDbEntity
  8
LINEE VISIBILI 2D
100
AcDbSpline
210
0.0
220
0.0
230
1.0
 70
    12
 71
     2
 72
     6
 73
     3
 74
     0
 42
0.0000000001
 43
0.0000000001
 40
-1.454148741689353
 40
-1.454148741689353
 40
-1.454148741689353
 40
0.0
 40
0.0
 40
0.0
 10
1529.733065938545
 20
425.4308882999093
 30
0.0
 41
1.0
 10
1529.679423152624
 20
426.1561375299813
 30
0.0
 41
0.9996782918526985
 10
1529.662596430081
 20
426.8831731913215
 30
0.0
 41
1.0
  0
SPLINE
  5
276
330
1F
100
AcDbEntity
  8
LINEE VISIBILI 2D
100
AcDbSpline
210
0.0
220
0.0
230
1.0
 70
    12
 71
     3
 72
     8
 73
     4
 74
     0
 42
0.0000000001
 43
0.0000000001
 40
89.58636881167858
 40
89.58636881167858
 40
89.58636881167858
 40
89.58636881167858
 40
98.41467224843254
 40
98.41467224843254
 40
98.41467224843254
 40
98.41467224843254
 10
1529.662596430081
 20
426.8831731913215
 30
0.0
 41
1.0
 10
1529.591322874593
 20
429.9569125958675
 30
0.0
 41
1.0
 10
1530.013808437813
 20
432.9273344822655
 30
0.0
 41
1.0
 10
1530.857589597989
 20
435.718535000695
 30
0.0
 41
1.0
  0
SPLINE
  5
277
330
1F
100
AcDbEntity
  8
LINEE VISIBILI 2D
100
AcDbSpline
210
0.0
220
0.0
230
1.0
 70
    12
 71
     3
 72
     8
 73
     4
 74
     0
 42
0.0000000001
 43
0.0000000001
 40
76.64927559243098
 40
76.64927559243098
 40
76.64927559243098
 40
76.64927559243098
 40
88.18658205899926
 40
88.18658205899926
 40
88.18658205899926
 40
88.18658205899926
 10
1631.722393659148
 20
357.3461337853093
 30
0.0
 41
1.0
 10
1629.971463940588
 20
360.6767486923292
 30
0.0
 41
1.0
 10
1628.864757871179
 20
364.4040697688317
 30
0.0
 41
1.0
 10
1628.571718803322
 20
368.3663654595102
 30
0.0
 41
1.0
  0
SPLINE
  5
278
330
1F
100
AcDbEntity
  8
LINEE VISIBILI 2D
100
AcDbSpline
210
0.0
220
0.0
230
1.0
 70
    12
 71
     2
 72
     6
 73
     3
 74
     0
 42
0.0000000001
 43
0.0000000001
 40
-1.454148741689338
 40
-1.454148741689338
 40
-1.454148741689338
 40
0.0
 40
0.0
 40
0.0
 10
1628.571718803322
 20
368.3663654595102
 30
0.0
 41
1.0
 10
1628.518076017401
 20
369.0916146895822
 30
0.0
 41
0.9996782918527302
 10
1628.501249294858
 20
369.8186503509224
 30
0.0
 41
1.0
  0
SPLINE
  5
279
330
1F
100
AcDbEntity
  8
LINEE VISIBILI 2D
100
AcDbSpline
210
0.0
220
0.0
230
1.0
 70
    12
 71
     3
 72
     8
 73
     4
 74
     0
 42
0.0000000001
 43
0.0000000001
 40
89.58636881167858
 40
89.58636881167858
 40
89.58636881167858
 40
89.58636881167858
 40
134.379544101583
 40
134.379544101583
 40
134.379544101583
 40
134.379544101583
 10
1628.501249294858
 20
369.8186503509224
 30
0.0
 41
1.0
 10
1628.139620485048
 20
385.4142343642594
 30
0.0
 41
1.0
 10
1640.489126492852
 20
398.3500540261508
 30
0.0
 41
1.0
 10
1656.084710383573
 20
398.7116828388149
 30
0.0
 41
1.0
  0
SPLINE
  5
27A
330
1F
100
AcDbEntity
  8
LINEE VISIBILI 2D
100
AcDbSpline
210
0.0
220
0.0
230
1.0
 70
    12
 71
     2
 72
     6
 73
     3
 74
     0
 42
0.0000000001
 43
0.0000000001
 40
-42.9101630704085
 40
-42.9101630704085
 40
-42.9101630704085
 40
0.0
 40
0.0
 40
0.0
 10
1656.084710383573
 20
398.7116828388149
 30
0.0
 41
1.0
 10
1682.895520075193
 20
399.322715343108
 30
0.0
 41
0.7253532243353229
 10
1684.907272779568
 20
372.5805065700235
 30
0.0
 41
1.0
  0
SPLINE
  5
27B
330
1F
100
AcDbEntity
  8
LINEE VISIBILI 2D
100
AcDbSpline
210
0.0
220
0.0
230
1.0
 70
    12
 71
     3
 72
     8
 73
     4
 74
     0
 42
0.0000000001
 43
0.0000000001
 40
177.7729388689291
 40
177.7729388689291
 40
177.7729388689291
 40
177.7729388689291
 40
179.172725796908
 40
179.172725796908
 40
179.172725796908
 40
179.172725796908
 10
1684.907272779568
 20
372.5805065700235
 30
0.0
 41
1.0
 10
1684.94286135933
 20
372.0997756693492
 30
0.0
 41
1.0
 10
1684.966441742064
 20
371.6155836023715
 30
0.0
 41
1.0
 10
1684.977742643966
 20
371.1282215331427
 30
0.0
 41
1.0
  0
SPLINE
  5
27C
330
1F
100
AcDbEntity
  8
LINEE VISIBILI 2D
100
AcDbSpline
210
0.0
220
0.0
230
1.0
 70
    12
 71
     2
 72
     6
 73
     3
 74
     0
 42
0.0000000001
 43
0.0000000001
 40
-44.36384075043401
 40
-44.36384075043401
 40
-44.36384075043401
 40
0.0
 40
0.0
 40
0.0
 10
1684.977742643966
 20
371.1282215331427
 30
0.0
 41
1.0
 10
1685.621526018249
 20
342.9004783928165
 30
0.0
 41
0.707376095247025
 10
1657.394281555847
 20
342.2351890452587
 30
0.0
 41
1.0
  0
SPLINE
  5
27D
330
1F
100
AcDbEntity
  8
LINEE VISIBILI 2D
100
AcDbSpline
210
0.0
220
0.0
230
1.0
 70
    12
 71
     3
 72
     8
 73
     4
 74
     0
 42
0.0000000001
 43
0.0000000001
 40
44.7931927262563
 40
44.7931927262563
 40
44.7931927262563
 40
44.7931927262563
 40
64.15788684652769
 40
64.15788684652769
 40
64.15788684652769
 40
64.15788684652769
 10
1657.394281555847
 20
342.2351890452587
 30
0.0
 41
1.0
 10
1650.652100191493
 20
342.078852029688
 30
0.0
 41
1.0
 10
1644.407015455291
 20
344.2981618962609
 30
0.0
 41
1.0
 10
1639.460085248235
 20
348.128368533948
 30
0.0
 41
1.0
  0
SPLINE
  5
27E
330
1F
100
AcDbEntity
  8
LINEE VISIBILI 2D
100
AcDbSpline
210
0.0
220
0.0
230
1.0
 70
    12
 71
     2
 72
     6
 73
     3
 74
     0
 42
0.0000000001
 43
0.0000000001
 40
0.0
 40
0.0
 40
0.0
 40
14.65494520738189
 40
14.65494520738189
 40
14.65494520738189
 10
1484.439753265346
 20
357.0564417217171
 30
0.0
 41
1.0
 10
1488.013818927817
 20
363.6480117077069
 30
0.0
 41
0.9661970220860663
 10
1487.829004731261
 20
371.1439161863278
 30
0.0
 41
1.0
  0
SPLINE
  5
27F
330
1F
100
AcDbEntity
  8
LINEE VISIBILI 2D
100
AcDbSpline
210
0.0
220
0.0
230
1.0
 70
    12
 71
     3
 72
     8
 73
     4
 74
     0
 42
0.0000000001
 43
0.0000000001
 40
-179.172725796908
 40
-179.172725796908
 40
-179.172725796908
 40
-179.172725796908
 40
-177.7729388689291
 40
-177.7729388689291
 40
-177.7729388689291
 40
-177.7729388689291
 10
1487.829004731261
 20
371.1439161863278
 30
0.0
 41
1.0
 10
1487.817703829359
 20
371.6312782555567
 30
0.0
 41
1.0
 10
1487.794123446625
 20
372.1154703225344
 30
0.0
 41
1.0
 10
1487.758534866864
 20
372.5962012232087
 30
0.0
 41
1.0
  0
SPLINE
  5
280
330
1F
100
AcDbEntity
  8
LINEE VISIBILI 2D
100
AcDbSpline
210
0.0
220
0.0
230
1.0
 70
    12
 71
     2
 72
     6
 73
     3
 74
     0
 42
0.0000000001
 43
0.0000000001
 40
0.0
 40
0.0
 40
0.0
 40
42.91016307037567
 40
42.91016307037567
 40
42.91016307037567
 10
1487.758534866864
 20
372.5962012232087
 30
0.0
 41
1.0
 10
1485.746782162415
 20
399.3384099962133
 30
0.0
 41
0.7253532243373304
 10
1458.935972470868
 20
398.727377492
 30
0.0
 41
1.0
  0
SPLINE
  5
281
330
1F
100
AcDbEntity
  8
LINEE VISIBILI 2D
100
AcDbSpline
210
0.0
220
0.0
230
1.0
 70
    12
 71
     3
 72
     8
 73
     4
 74
     0
 42
0.0000000001
 43
0.0000000001
 40
-134.379544101583
 40
-134.379544101583
 40
-134.379544101583
 40
-134.379544101583
 40
-89.5863688116684
 40
-89.5863688116684
 40
-89.5863688116684
 40
-89.5863688116684
 10
1458.935972470868
 20
398.727377492
 30
0.0
 41
1.0
 10
1443.340388580144
 20
398.3657486793359
 30
0.0
 41
1.0
 10
1430.990882572337
 20
385.4299290174386
 30
0.0
 41
1.0
 10
1431.352511382153
 20
369.8343450041023
 30
0.0
 41
1.0
  0
SPLINE
  5
282
330
1F
100
AcDbEntity
  8
LINEE VISIBILI 2D
100
AcDbSpline
210
0.0
220
0.0
230
1.0
 70
    12
 71
     2
 72
     6
 73
     3
 74
     0
 42
0.0000000001
 43
0.0000000001
 40
0.0
 40
0.0
 40
0.0
 40
1.454148741689452
 40
1.454148741689452
 40
1.454148741689452
 10
1431.352511382153
 20
369.8343450041023
 30
0.0
 41
1.0
 10
1431.369338104696
 20
369.1073093427673
 30
0.0
 41
0.99967829185273
 10
1431.422980890617
 20
368.3820601126953
 30
0.0
 41
1.0
  0
SPLINE
  5
283
330
1F
100
AcDbEntity
  8
LINEE VISIBILI 2D
100
AcDbSpline
210
0.0
220
0.0
230
1.0
 70
    12
 71
     3
 72
     8
 73
     4
 74
     0
 42
0.0000000001
 43
0.0000000001
 40
-88.18658205899926
 40
-88.18658205899926
 40
-88.18658205899926
 40
-88.18658205899926
 40
-44.7931927262563
 40
-44.7931927262563
 40
-44.7931927262563
 40
-44.7931927262563
 10
1431.422980890617
 20
368.3820601126953
 30
0.0
 41
1.0
 10
1432.525226329836
 20
353.4793298165807
 30
0.0
 41
1.0
 10
1445.137321480332
 20
341.9005557799455
 30
0.0
 41
1.0
 10
1460.245543643143
 20
342.2508836984438
 30
0.0
 41
1.0
  0
SPLINE
  5
284
330
1F
100
AcDbEntity
  8
LINEE VISIBILI 2D
100
AcDbSpline
210
0.0
220
0.0
230
1.0
 70
    12
 71
     2
 72
     6
 73
     3
 74
     0
 42
0.0000000001
 43
0.0000000001
 40
0.0
 40
0.0
 40
0.0
 40
17.58895396409488
 40
17.58895396409488
 40
17.58895396409488
 10
1460.245543643143
 20
342.2508836984438
 30
0.0
 41
1.0
 10
1469.336508500322
 20
342.448611322215
 30
0.0
 41
0.9514569705421804
 10
1476.589300261129
 20
347.9332945321526
 30
0.0
 41
1.0
  0
SPLINE
  5
285
330
1F
100
AcDbEntity
  8
LINEE VISIBILI 2D
100
AcDbSpline
210
0.0
220
0.0
230
1.0
 70
    12
 71
     2
 72
     6
 73
     3
 74
     0
 42
0.0000000001
 43
0.0000000001
 40
0.0
 40
0.0
 40
0.0
 40
14.6549452073816
 40
14.6549452073816
 40
14.6549452073816
 10
1384.422179883042
 20
442.3770700495754
 30
0.0
 41
1.0
 10
1380.500745655587
 20
448.7680867010634
 30
0.0
 41
0.9661970220860652
 10
1373.916694854483
 20
452.3559851511764
 30
0.0
 41
1.0
  0
SPLINE
  5
286
330
1F
100
AcDbEntity
  8
LINEE VISIBILI 2D
100
AcDbSpline
210
0.0
220
0.0
230
1.0
 70
    12
 71
     3
 72
     8
 73
     4
 74
     0
 42
0.0000000001
 43
0.0000000001
 40
-179.172725796908
 40
-179.172725796908
 40
-179.172725796908
 40
-179.172725796908
 40
-177.7729388689291
 40
-177.7729388689291
 40
-177.7729388689291
 40
-177.7729388689291
 10
1373.916694854483
 20
452.3559851511764
 30
0.0
 41
1.0
 10
1373.488976470738
 20
452.5898793176577
 30
0.0
 41
1.0
 10
1373.057863649058
 20
452.8115541406683
 30
0.0
 41
1.0
 10
1372.623744186809
 20
453.0210989768473
 30
0.0
 41
1.0
  0
SPLINE
  5
287
330
1F
100
AcDbEntity
  8
LINEE VISIBILI 2D
100
AcDbSpline
210
0.0
220
0.0
230
1.0
 70
    12
 71
     2
 72
     6
 73
     3
 74
     0
 42
0.0000000001
 43
0.0000000001
 40
0.0
 40
0.0
 40
0.0
 40
42.91016307040885
 40
42.91016307040885
 40
42.91016307040885
 10
1372.623744186809
 20
453.0210989768473
 30
0.0
 41
1.0
 10
1348.458435683823
 20
464.6499744152669
 30
0.0
 41
0.7253532243353518
 10
1335.582200509268
 20
441.1256158741486
 30
0.0
 41
1.0
  0
SPLINE
  5
288
330
1F
100
AcDbEntity
  8
LINEE VISIBILI 2D
100
AcDbSpline
210
0.0
220
0.0
230
1.0
 70
    12
 71
     3
 72
     8
 73
     4
 74
     0
 42
0.0000000001
 43
0.0000000001
 40
-134.379544101583
 40
-134.379544101583
 40
-134.379544101583
 40
-134.379544101583
 40
-89.5863688116684
 40
-89.5863688116684
 40
-89.5863688116684
 40
-89.5863688116684
 10
1335.582200509268
 20
441.1256158741486
 30
0.0
 41
1.0
 10
1328.097588302414
 20
427.4386296315984
 30
0.0
 41
1.0
 10
1333.125583744488
 20
410.2757338737006
 30
0.0
 41
1.0
 10
1346.812570091799
 20
402.791121603073
 30
0.0
 41
1.0
  0
SPLINE
  5
289
330
1F
100
AcDbEntity
  8
LINEE VISIBILI 2D
100
AcDbSpline
210
0.0
220
0.0
230
1.0
 70
    12
 71
     2
 72
     6
 73
     3
 74
     0
 42
0.0000000001
 43
0.0000000001
 40
0.0
 40
0.0
 40
0.0
 40
1.454148741689562
 40
1.454148741689562
 40
1.454148741689562
 10
1346.812570091799
 20
402.791121603073
 30
0.0
 41
1.0
 10
1347.450614805245
 20
402.4421761415904
 30
0.0
 41
0.999678291852717
 10
1348.105520455522
 20
402.1260075418918
 30
0.0
 41
1.0
  0
SPLINE
  5
28A
330
1F
100
AcDbEntity
  8
LINEE VISIBILI 2D
100
AcDbSpline
210
0.0
220
0.0
230
1.0
 70
    12
 71
     3
 72
     8
 73
     4
 74
     0
 42
0.0000000001
 43
0.0000000001
 40
-88.18658205899926
 40
-88.18658205899926
 40
-88.18658205899926
 40
-88.18658205899926
 40
-44.7931927262563
 40
-44.7931927262563
 40
-44.7931927262563
 40
-44.7931927262563
 10
1348.105520455522
 20
402.1260075418918
 30
0.0
 41
1.0
 10
1361.562786197315
 20
395.6292149454033
 30
0.0
 41
1.0
 10
1377.896346232969
 20
400.7622227223624
 30
0.0
 41
1.0
 10
1385.147064437299
 20
414.0214908806242
 30
0.0
 41
1.0
  0
SPLINE
  5
28B
330
1F
100
AcDbEntity
  8
LINEE VISIBILI 2D
100
AcDbSpline
210
0.0
220
0.0
230
1.0
 70
    12
 71
     2
 72
     6
 73
     3
 74
     0
 42
0.0000000001
 43
0.0000000001
 40
0.0
 40
0.0
 40
0.0
 40
17.58895396409523
 40
17.58895396409523
 40
17.58895396409523
 10
1385.147064437299
 20
414.0214908806242
 30
0.0
 41
1.0
 10
1389.521309720674
 20
421.9933612037385
 30
0.0
 41
0.9514569705421806
 10
1388.397830609561
 20
431.0168047219249
 30
0.0
 41
1.0
  0
SPLINE
  5
28C
330
1F
100
AcDbEntity
  8
LINEE VISIBILI 2D
100
AcDbSpline
210
0.0
220
0.0
230
1.0
 70
    12
 71
     2
 72
     6
 73
     3
 74
     0
 42
0.0000000001
 43
0.0000000001
 40
0.0
 40
0.0
 40
0.0
 40
14.65494520736811
 40
14.65494520736811
 40
14.65494520736811
 10
1336.087384395464
 20
184.172333835528
 30
0.0
 41
1.0
 10
1340.008818622895
 20
177.7813171840314
 30
0.0
 41
0.9661970220857672
 10
1346.592869423992
 20
174.1934187339143
 30
0.0
 41
1.0
  0
SPLINE
  5
28D
330
1F
100
AcDbEntity
  8
LINEE VISIBILI 2D
100
AcDbSpline
210
0.0
220
0.0
230
1.0
 70
    12
 71
     3
 72
     8
 73
     4
 74
     0
 42
0.0000000001
 43
0.0000000001
 40
-179.172725796908
 40
-179.172725796908
 40
-179.172725796908
 40
-179.172725796908
 40
-177.7729388689291
 40
-177.7729388689291
 40
-177.7729388689291
 40
-177.7729388689291
 10
1346.592869423992
 20
174.1934187339143
 30
0.0
 41
1.0
 10
1347.020587807736
 20
173.959524567433
 30
0.0
 41
1.0
 10
1347.451700629416
 20
173.7378497444224
 30
0.0
 41
1.0
 10
1347.885820091665
 20
173.5283049082434
 30
0.0
 41
1.0
  0
SPLINE
  5
28E
330
1F
100
AcDbEntity
  8
LINEE VISIBILI 2D
100
AcDbSpline
210
0.0
220
0.0
230
1.0
 70
    12
 71
     2
 72
     6
 73
     3
 74
     0
 42
0.0000000001
 43
0.0000000001
 40
0.0
 40
0.0
 40
0.0
 40
42.91016307040844
 40
42.91016307040844
 40
42.91016307040844
 10
1347.885820091665
 20
173.5283049082434
 30
0.0
 41
1.0
 10
1372.051128594651
 20
161.8994294698248
 30
0.0
 41
0.725353224335372
 10
1384.927363769206
 20
185.4237880109421
 30
0.0
 41
1.0
  0
SPLINE
  5
28F
330
1F
100
AcDbEntity
  8
LINEE VISIBILI 2D
100
AcDbSpline
210
0.0
220
0.0
230
1.0
 70
    12
 71
     3
 72
     8
 73
     4
 74
     0
 42
0.0000000001
 43
0.0000000001
 40
-134.379544101583
 40
-134.379544101583
 40
-134.379544101583
 40
-134.379544101583
 40
-89.5863688116684
 40
-89.5863688116684
 40
-89.5863688116684
 40
-89.5863688116684
 10
1384.927363769206
 20
185.4237880109421
 30
0.0
 41
1.0
 10
1392.41197597606
 20
199.1107742534923
 30
0.0
 41
1.0
 10
1387.383980533986
 20
216.2736700113903
 30
0.0
 41
1.0
 10
1373.696994186675
 20
223.7582822820182
 30
0.0
 41
1.0
  0
SPLINE
  5
290
330
1F
100
AcDbEntity
  8
LINEE VISIBILI 2D
100
AcDbSpline
210
0.0
220
0.0
230
1.0
 70
    12
 71
     2
 72
     6
 73
     3
 74
     0
 42
0.0000000001
 43
0.0000000001
 40
0.0
 40
0.0
 40
0.0
 40
1.45414874168908
 40
1.45414874168908
 40
1.45414874168908
 10
1373.696994186675
 20
223.7582822820182
 30
0.0
 41
1.0
 10
1373.05894947323
 20
224.1072277435009
 30
0.0
 41
0.9996782918527128
 10
1372.404043822952
 20
224.4233963431993
 30
0.0
 41
1.0
  0
SPLINE
  5
291
330
1F
100
AcDbEntity
  8
LINEE VISIBILI 2D
100
AcDbSpline
210
0.0
220
0.0
230
1.0
 70
    12
 71
     3
 72
     8
 73
     4
 74
     0
 42
0.0000000001
 43
0.0000000001
 40
-88.18658205899926
 40
-88.18658205899926
 40
-88.18658205899926
 40
-88.18658205899926
 40
-44.79319272626649
 40
-44.79319272626649
 40
-44.79319272626649
 40
-44.79319272626649
 10
1372.404043822952
 20
224.4233963431993
 30
0.0
 41
1.0
 10
1358.946778081162
 20
230.9201889396863
 30
0.0
 41
1.0
 10
1342.613218045513
 20
225.7871811627313
 30
0.0
 41
1.0
 10
1335.362499841177
 20
212.5279130044717
 30
0.0
 41
1.0
  0
SPLINE
  5
292
330
1F
100
AcDbEntity
  8
LINEE VISIBILI 2D
100
AcDbSpline
210
0.0
220
0.0
230
1.0
 70
    12
 71
     2
 72
     6
 73
     3
 74
     0
 42
0.0000000001
 43
0.0000000001
 40
0.0
 40
0.0
 40
0.0
 40
17.58895396407407
 40
17.58895396407407
 40
17.58895396407407
 10
1335.362499841177
 20
212.5279130044717
 30
0.0
 41
1.0
 10
1330.988254557818
 20
204.5560426813546
 30
0.0
 41
0.9514569705420342
 10
1332.111733668952
 20
195.532599163181
 30
0.0
 41
1.0
  0
SPLINE
  5
293
330
1F
100
AcDbEntity
  8
LINEE VISIBILI 2D
100
AcDbSpline
210
0.0
220
0.0
230
1.0
 70
    12
 71
     3
 72
     8
 73
     4
 74
     0
 42
0.0000000001
 43
0.0000000001
 40
76.64927559243155
 40
76.64927559243155
 40
76.64927559243155
 40
76.64927559243155
 40
88.18658205899926
 40
88.18658205899926
 40
88.18658205899926
 40
88.18658205899926
 10
1533.878203568606
 20
100.7241169598526
 30
0.0
 41
1.0
 10
1535.887135829028
 20
103.905774029876
 30
0.0
 41
1.0
 10
1538.561737534636
 20
106.7278701387579
 30
0.0
 41
1.0
 10
1541.84666672614
 20
108.9627972611626
 30
0.0
 41
1.0
  0
SPLINE
  5
294
330
1F
100
AcDbEntity
  8
LINEE VISIBILI 2D
100
AcDbSpline
210
0.0
220
0.0
230
1.0
 70
    12
 71
     2
 72
     6
 73
     3
 74
     0
 42
0.0000000001
 43
0.0000000001
 40
-1.454148741689548
 40
-1.454148741689548
 40
-1.454148741689548
 40
0.0
 40
0.0
 40
0.0
 10
1541.84666672614
 20
108.9627972611626
 30
0.0
 41
1.0
 10
1542.447929590498
 20
109.3718778915358
 30
0.0
 41
0.9996782918527177
 10
1543.069147581399
 20
109.7499680913885
 30
0.0
 41
1.0
  0
SPLINE
  5
295
330
1F
100
AcDbEntity
  8
LINEE VISIBILI 2D
100
AcDbSpline
210
0.0
220
0.0
230
1.0
 70
    12
 71
     3
 72
     8
 73
     4
 74
     0
 42
0.0000000001
 43
0.0000000001
 40
89.5863688116684
 40
89.5863688116684
 40
89.5863688116684
 40
89.5863688116684
 40
134.379544101583
 40
134.379544101583
 40
134.379544101583
 40
134.379544101583
 10
1543.069147581399
 20
109.7499680913885
 30
0.0
 41
1.0
 10
1556.394505118894
 20
117.8609398340973
 30
0.0
 41
1.0
 10
1573.772006568775
 20
113.6338637380964
 30
0.0
 41
1.0
 10
1581.882978252645
 20
100.3085063082106
 30
0.0
 41
1.0
  0
SPLINE
  5
296
330
1F
100
AcDbEntity
  8
LINEE VISIBILI 2D
100
AcDbSpline
210
0.0
220
0.0
230
1.0
 70
    12
 71
     2
 72
     6
 73
     3
 74
     0
 42
0.0000000001
 43
0.0000000001
 40
-42.91016307037566
 40
-42.91016307037566
 40
-42.91016307037566
 40
0.0
 40
0.0
 40
0.0
 10
1581.882978252645
 20
100.3085063082106
 30
0.0
 41
1.0
 10
1595.817552769606
 20
77.39518027140691
 30
0.0
 41
0.7253532243373344
 10
1573.6639969711
 20
62.28184693672058
 30
0.0
 41
1.0
  0
SPLINE
  5
297
330
1F
100
AcDbEntity
  8
LINEE VISIBILI 2D
100
AcDbSpline
210
0.0
220
0.0
230
1.0
 70
    12
 71
     3
 72
     8
 73
     4
 74
     0
 42
0.0000000001
 43
0.0000000001
 40
177.7729388689291
 40
177.7729388689291
 40
177.7729388689291
 40
177.7729388689291
 40
179.172725796908
 40
179.172725796908
 40
179.172725796908
 40
179.172725796908
 10
1573.6639969711
 20
62.28184693672058
 30
0.0
 41
1.0
 10
1573.265466088613
 20
62.01066087222508
 30
0.0
 41
1.0
 10
1572.857933649666
 20
61.74814362825793
 30
0.0
 41
1.0
 10
1572.441516167824
 20
61.4946757255104
 30
0.0
 41
1.0
  0
SPLINE
  5
298
330
1F
100
AcDbEntity
  8
LINEE VISIBILI 2D
100
AcDbSpline
210
0.0
220
0.0
230
1.0
 70
    12
 71
     2
 72
     6
 73
     3
 74
     0
 42
0.0000000001
 43
0.0000000001
 40
-44.36384075048003
 40
-44.36384075048003
 40
-44.36384075048003
 40
0.0
 40
0.0
 40
0.0
 10
1572.441516167824
 20
61.4946757255104
 30
0.0
 41
1.0
 10
1548.317465203905
 20
46.8232713985379
 30
0.0
 41
0.707376095244357
 10
1533.627685496888
 20
70.93613750817877
 30
0.0
 41
1.0
  0
SPLINE
  5
299
330
1F
100
AcDbEntity
  8
LINEE VISIBILI 2D
100
AcDbSpline
210
0.0
220
0.0
230
1.0
 70
    12
 71
     3
 72
     8
 73
     4
 74
     0
 42
0.0000000001
 43
0.0000000001
 40
44.7931927262563
 40
44.7931927262563
 40
44.7931927262563
 40
44.7931927262563
 40
64.15788684652834
 40
64.15788684652834
 40
64.15788684652834
 40
64.15788684652834
 10
1533.627685496888
 20
70.93613750817877
 30
0.0
 41
1.0
 10
1530.121202987675
 20
76.69686933884606
 30
0.0
 41
1.0
 10
1528.920639342896
 20
83.2149263024709
 30
0.0
 41
1.0
 10
1529.764230489349
 20
89.41419685137333
 30
0.0
 41
1.0
  0
SPLINE
  5
29A
330
1F
100
AcDbEntity
  8
LINEE VISIBILI 2D
100
AcDbSpline
210
0.0
220
0.0
230
1.0
 70
    12
 71
     2
 72
     6
 73
     3
 74
     0
 42
0.0000000001
 43
0.0000000001
 40
0.0
 40
0.0
 40
0.0
 40
14.65494520738233
 40
14.65494520738233
 40
14.65494520738233
 10
1459.986002685359
 20
228.1297790455359
 30
0.0
 41
1.0
 10
1467.481502575285
 20
228.3303323800373
 30
0.0
 41
0.9661970220860561
 10
1473.880739179834
 20
232.2383384085454
 30
0.0
 41
1.0
  0
SPLINE
  5
29B
330
1F
100
AcDbEntity
  8
LINEE VISIBILI 2D
100
AcDbSpline
210
0.0
220
0.0
230
1.0
 70
    12
 71
     3
 72
     8
 73
     4
 74
     0
 42
0.0000000001
 43
0.0000000001
 40
-179.172725796908
 40
-179.172725796908
 40
-179.172725796908
 40
-179.172725796908
 40
-177.7729388689291
 40
-177.7729388689291
 40
-177.7729388689291
 40
-177.7729388689291
 10
1473.880739179834
 20
232.2383384085454
 30
0.0
 41
1.0
 10
1474.297156661676
 20
232.4918063112929
 30
0.0
 41
1.0
 10
1474.704689100623
 20
232.75432355526
 30
0.0
 41
1.0
 10
1475.10321998311
 20
233.0255096197556
 30
0.0
 41
1.0
  0
SPLINE
  5
29C
330
1F
100
AcDbEntity
  8
LINEE VISIBILI 2D
100
AcDbSpline
210
0.0
220
0.0
230
1.0
 70
    12
 71
     2
 72
     6
 73
     3
 74
     0
 42
0.0000000001
 43
0.0000000001
 40
0.0
 40
0.0
 40
0.0
 40
42.91016307037592
 40
42.91016307037592
 40
42.91016307037592
 10
1475.10321998311
 20
233.0255096197556
 30
0.0
 41
1.0
 10
1497.256775781615
 20
248.1388429544422
 30
0.0
 41
0.7253532243373244
 10
1483.322201264655
 20
271.0521689912458
 30
0.0
 41
1.0
  0
SPLINE
  5
29D
330
1F
100
AcDbEntity
  8
LINEE VISIBILI 2D
100
AcDbSpline
210
0.0
220
0.0
230
1.0
 70
    12
 71
     3
 72
     8
 73
     4
 74
     0
 42
0.0000000001
 43
0.0000000001
 40
-134.379544101583
 40
-134.379544101583
 40
-134.379544101583
 40
-134.379544101583
 40
-89.58636881167858
 40
-89.58636881167858
 40
-89.58636881167858
 40
-89.58636881167858
 10
1483.322201264655
 20
271.0521689912458
 30
0.0
 41
1.0
 10
1475.211229580787
 20
284.3775264211288
 30
0.0
 41
1.0
 10
1457.833728130912
 20
288.6046025171305
 30
0.0
 41
1.0
 10
1444.508370593413
 20
280.4936307744265
 30
0.0
 41
1.0
  0
SPLINE
  5
29E
330
1F
100
AcDbEntity
  8
LINEE VISIBILI 2D
100
AcDbSpline
210
0.0
220
0.0
230
1.0
 70
    12
 71
     2
 72
     6
 73
     3
 74
     0
 42
0.0000000001
 43
0.0000000001
 40
0.0
 40
0.0
 40
0.0
 40
1.454148741689508
 40
1.454148741689508
 40
1.454148741689508
 10
1444.508370593413
 20
280.4936307744265
 30
0.0
 41
1.0
 10
1443.887152602507
 20
280.1155405745714
 30
0.0
 41
0.9996782918527056
 10
1443.28588973815
 20
279.7064599441978
 30
0.0
 41
1.0
  0
SPLINE
  5
29F
330
1F
100
AcDbEntity
  8
LINEE VISIBILI 2D
100
AcDbSpline
210
0.0
220
0.0
230
1.0
 70
    12
 71
     3
 72
     8
 73
     4
 74
     0
 42
0.0000000001
 43
0.0000000001
 40
-88.18658205899926
 40
-88.18658205899926
 40
-88.18658205899926
 40
-88.18658205899926
 40
-44.7931927262563
 40
-44.7931927262563
 40
-44.7931927262563
 40
-44.7931927262563
 10
1443.28588973815
 20
279.7064599441978
 30
0.0
 41
1.0
 10
1430.930869435576
 20
271.3005222445717
 30
0.0
 41
1.0
 10
1427.209404550418
 20
254.5887404309774
 30
0.0
 41
1.0
 10
1435.066908508898
 20
241.6798001912138
 30
0.0
 41
1.0
  0
SPLINE
  5
2A0
330
1F
100
AcDbEntity
  8
LINEE VISIBILI 2D
100
AcDbSpline
210
0.0
220
0.0
230
1.0
 70
    12
 71
     2
 72
     6
 73
     3
 74
     0
 42
0.0000000001
 43
0.0000000001
 40
0.0
 40
0.0
 40
0.0
 40
17.5889539640951
 40
17.5889539640951
 40
17.5889539640951
 10
1435.066908508898
 20
241.6798001912138
 30
0.0
 41
1.0
 10
1439.783628082703
 20
233.9056574918705
 30
0.0
 41
0.9514569705421811
 10
1448.159898954623
 20
230.3668971836217
 30
0.0
 41
1.0
  0
SPLINE
  5
2A1
330
1F
100
AcDbEntity
  8
PREDEFINITO
100
AcDbSpline
210
0.0
220
0.0
230
1.0
 70
    28
 71
     2
 72
     6
 73
     3
 74
     0
 42
0.0000000001
 43
0.0000000001
 40
112.3047172490167
 40
112.3047172490167
 40
112.3047172490167
 40
195.8437146579279
 40
195.8437146579279
 40
195.8437146579279
 10
1169.209250229513
 20
303.9302001621651
 30
0.0
 41
1.0
 10
1169.209250229512
 20
261.3571200701882
 30
0.0
 41
1.0
 10
1169.209250229511
 20
218.7840399782113
 30
0.0
 41
1.0
  0
SPLINE
  5
2A2
330
1F
100
AcDbEntity
  8
PREDEFINITO
100
AcDbSpline
210
0.0
220
0.0
230
1.0
 70
    12
 71
     2
 72
     6
 73
     3
 74
     0
 42
0.0000000001
 43
0.0000000001
 40
44.07058446775594
 40
44.07058446775594
 40
44.07058446775594
 40
64.0155654808101
 40
64.0155654808101
 40
64.0155654808101
 10
1169.209250229511
 20
218.7840399782113
 30
0.0
 41
0.862434367854221
 10
1179.702317745468
 20
215.5406915996194
 30
0.0
 41
0.8174897106911354
 10
1182.761928178872
 20
204.9925847270504
 30
0.0
 41
1.0
  0
SPLINE
  5
2A3
330
1F
100
AcDbEntity
  8
PREDEFINITO
100
AcDbSpline
210
0.0
220
0.0
230
1.0
 70
    12
 71
     2
 72
     6
 73
     3
 74
     0
 42
0.0000000001
 43
0.0000000001
 40
0.0
 40
0.0
 40
0.0
 40
10.71075571731054
 40
10.71075571731054
 40
10.71075571731054
 10
1182.761928178872
 20
204.9925847270504
 30
0.0
 41
1.0
 10
1184.251061452788
 20
199.8587491415524
 30
0.0
 41
0.9019892210775521
 10
1183.028341404464
 20
194.6550253393279
 30
0.0
 41
0.8695730832594688
  0
SPLINE
  5
2A4
330
1F
100
AcDbEntity
  8
PREDEFINITO
100
AcDbSpline
210
0.0
220
0.0
230
1.0
 70
    12
 71
     2
 72
    10
 73
     7
 74
     0
 42
0.0000000001
 43
0.0000000001
 40
600.4117933174952
 40
600.4117933174952
 40
600.4117933174952
 40
656.5793711766818
 40
656.5793711766818
 40
674.0174312779866
 40
674.0174312779866
 40
770.9498864326241
 40
770.9498864326241
 40
770.9498864326241
 10
1183.028341404464
 20
194.6550253393279
 30
0.0
 41
1.0
 10
1207.3496160521
 20
180.6131308744536
 30
0.0
 41
1.0
 10
1231.670890699736
 20
166.5712364095793
 30
0.0
 41
1.0
 10
1239.740527304616
 20
161.9122295435733
 30
0.0
 41
0.906307787044641
 10
1248.496596049185
 20
165.0991779354873
 30
0.0
 41
1.0
 10
1294.039952460926
 20
181.6756040379523
 30
0.0
 41
1.0
 10
1339.583308872664
 20
198.2520301404285
 30
0.0
 41
1.0
  0
POLYLINE
  5
2A5
330
1F
100
AcDbEntity
  8
PREDEFINITO
100
AcDb2dPolyline
 66
     1
 10
0.0
 20
0.0
 30
0.0
  0
VERTEX
  5
2A7
330
2A5
100
AcDbEntity
  8
PREDEFINITO
100
AcDbVertex
100
AcDb2dVertex
 10
1339.583308872664
 20
198.2520301404285
 30
0.0
  0
VERTEX
  5
2A8
330
2A5
100
AcDbEntity
  8
PREDEFINITO
100
AcDbVertex
100
AcDb2dVertex
 10
1339.787826519151
 20
198.3264684761491
 30
0.0
  0
SEQEND
  5
2A6
330
2A5
100
AcDbEntity
  8
PREDEFINITO
  0
SPLINE
  5
2A9
330
1F
100
AcDbEntity
  8
PREDEFINITO
100
AcDbSpline
210
0.0
220
0.0
230
1.0
 70
    12
 71
     2
 72
     8
 73
     5
 74
     0
 42
0.0000000001
 43
0.0000000001
 40
26.13640294984496
 40
26.13640294984496
 40
26.13640294984496
 40
32.00778274040492
 40
32.00778274040492
 40
64.01556548080993
 40
64.01556548080993
 40
64.01556548080993
 10
1339.78782651915
 20
198.3264684761491
 30
0.0
 41
0.9122566680442254
 10
1339.700792496369
 20
201.1182278392397
 30
0.0
 41
0.946272838088144
 10
1340.368205603046
 20
203.8304326632824
 30
0.0
 41
1.0
 10
1345.237225172128
 20
223.6169460408262
 30
0.0
 41
0.7071067811865294
 10
1365.023738549672
 20
218.7479264717434
 30
0.0
 41
1.0
  0
SPLINE
  5
2AA
330
1F
100
AcDbEntity
  8
PREDEFINITO
100
AcDbSpline
210
0.0
220
0.0
230
1.0
 70
    12
 71
     2
 72
     8
 73
     5
 74
     0
 42
0.0000000001
 43
0.0000000001
 40
0.0
 40
0.0
 40
0.0
 40
32.00778274040595
 40
32.00778274040595
 40
64.015565480811
 40
64.015565480811
 40
64.015565480811
 10
1365.023738549672
 20
218.7479264717434
 30
0.0
 41
1.0
 10
1384.810251927217
 20
213.8789069026619
 30
0.0
 41
0.7071067811865016
 10
1379.941232358133
 20
194.0923935251174
 30
0.0
 41
1.0
 10
1375.07221278905
 20
174.3058801475745
 30
0.0
 41
0.7071067811865683
 10
1355.285699411507
 20
179.1748997166563
 30
0.0
 41
1.0
  0
SPLINE
  5
2AB
330
1F
100
AcDbEntity
  8
PREDEFINITO
100
AcDbSpline
210
0.0
220
0.0
230
1.0
 70
    12
 71
     2
 72
     6
 73
     3
 74
     0
 42
0.0000000001
 43
0.0000000001
 40
0.0
 40
0.0
 40
0.0
 40
14.32773778527411
 40
14.32773778527411
 40
14.32773778527411
 10
1355.285699411507
 20
179.1748997166563
 30
0.0
 41
1.0
 10
1348.077764826845
 20
180.9486116322291
 30
0.0
 41
0.8688913483236582
 10
1343.699620258954
 20
186.9429610613867
 30
0.0
 41
0.8551597982000683
  0
SPLINE
  5
2AC
330
1F
100
AcDbEntity
  8
PREDEFINITO
100
AcDbSpline
210
0.0
220
0.0
230
1.0
 70
    12
 71
     2
 72
    14
 73
    11
 74
     0
 42
0.0000000001
 43
0.0000000001
 40
-0.0001482935119263
 40
-0.0001482935119263
 40
-0.0001482935119263
 40
0.0
 40
0.0
 40
89.7558919823765
 40
89.7558919823765
 40
93.13948188018094
 40
93.13948188018094
 40
96.52307177798536
 40
96.52307177798536
 40
195.8437146579281
 40
195.8437146579281
 40
195.8437146579281
 10
1343.699620258954
 20
186.9429610613867
 30
0.0
 41
0.9999446709545586
 10
1343.699555407497
 20
186.9429374860526
 30
0.0
 41
0.9999723313742016
 10
1343.699490560112
 20
186.9429138995324
 30
0.0
 41
1.0
 10
1301.528015876132
 20
171.5937523794624
 30
0.0
 41
1.0
 10
1259.356541192151
 20
156.2445908593924
 30
0.0
 41
1.0
 10
1257.571040002256
 20
155.5947215722933
 30
0.0
 41
0.843391445864004
 10
1257.40543618814
 20
153.7018613116873
 30
0.0
 41
1.0
 10
1257.239832374023
 20
151.8090010510803
 30
0.0
 41
0.843391445864004
 10
1258.885359171743
 20
150.8589557114153
 30
0.0
 41
1.0
 10
1302.719850044516
 20
125.5511006062285
 30
0.0
 41
1.0
 10
1346.554340917289
 20
100.2432455010416
 30
0.0
 41
1.0
  0
SPLINE
  5
2AD
330
1F
100
AcDbEntity
  8
PREDEFINITO
100
AcDbSpline
210
0.0
220
0.0
230
1.0
 70
    12
 71
     2
 72
     6
 73
     3
 74
     0
 42
0.0000000001
 43
0.0000000001
 40
44.07058446775567
 40
44.07058446775567
 40
44.07058446775567
 40
64.01556548080951
 40
64.01556548080951
 40
64.01556548080951
 10
1346.554340917289
 20
100.2432455010416
 30
0.0
 41
0.862434367854227
 10
1354.609696764451
 20
107.7088343441888
 30
0.0
 41
0.8174897106911477
 10
1365.27443049463
 20
105.0844812689163
 30
0.0
 41
1.0
  0
SPLINE
  5
2AE
330
1F
100
AcDbEntity
  8
PREDEFINITO
100
AcDbSpline
210
0.0
220
0.0
230
1.0
 70
    12
 71
     2
 72
     6
 73
     3
 74
     0
 42
0.0000000001
 43
0.0000000001
 40
0.0
 40
0.0
 40
0.0
 40
10.12913366833161
 40
10.12913366833161
 40
10.12913366833161
 10
1365.27443049463
 20
105.0844812689163
 30
0.0
 41
1.0
 10
1370.154371697242
 20
103.8836365946621
 30
0.0
 41
0.9073114627160865
 10
1373.916331142886
 20
100.5514428424973
 30
0.0
 41
0.8732870691677982
  0
SPLINE
  5
2AF
330
1F
100
AcDbEntity
  8
PREDEFINITO
100
AcDbSpline
210
0.0
220
0.0
230
1.0
 70
    12
 71
     2
 72
    10
 73
     7
 74
     0
 42
0.0000000001
 43
0.0000000001
 40
599.8784684258313
 40
599.8784684258313
 40
599.8784684258313
 40
656.5793711766818
 40
656.5793711766818
 40
674.0174312779866
 40
674.0174312779866
 40
770.9498864326241
 40
770.9498864326241
 40
770.9498864326241
 10
1373.916331142886
 20
100.5514428424973
 30
0.0
 41
1.0
 10
1398.468542242871
 20
114.726668530248
 30
0.0
 41
1.0
 10
1423.020753342857
 20
128.9018942179983
 30
0.0
 41
1.0
 10
1431.090389947665
 20
133.5609010841303
 30
0.0
 41
0.906307787044641
 10
1432.708446052002
 20
142.7373532501663
 30
0.0
 41
1.0
 10
1441.124518149182
 20
190.4672699275756
 30
0.0
 41
1.0
 10
1449.540590246363
 20
238.1971866049849
 30
0.0
 41
1.0
  0
POLYLINE
  5
2B0
330
1F
100
AcDbEntity
  8
PREDEFINITO
100
AcDb2dPolyline
 66
     1
 10
0.0
 20
0.0
 30
0.0
  0
VERTEX
  5
2B2
330
2B0
100
AcDbEntity
  8
PREDEFINITO
100
AcDbVertex
100
AcDb2dVertex
 10
1449.540590246363
 20
238.1971866049849
 30
0.0
  0
VERTEX
  5
2B3
330
2B0
100
AcDbEntity
  8
PREDEFINITO
100
AcDbVertex
100
AcDb2dVertex
 10
1449.578383579871
 20
238.4115232502135
 30
0.0
  0
SEQEND
  5
2B1
330
2B0
100
AcDbEntity
  8
PREDEFINITO
  0
SPLINE
  5
2B4
330
1F
100
AcDbEntity
  8
PREDEFINITO
100
AcDbSpline
210
0.0
220
0.0
230
1.0
 70
    12
 71
     2
 72
     8
 73
     5
 74
     0
 42
0.0000000001
 43
0.0000000001
 40
26.13640294981415
 40
26.13640294981415
 40
26.13640294981415
 40
32.00778274040438
 40
32.00778274040438
 40
64.01556548080919
 40
64.01556548080919
 40
64.01556548080919
 10
1449.578383579871
 20
238.4115232502135
 30
0.0
 41
0.9122566680438717
 10
1447.117132038775
 20
239.7320292570396
 30
0.0
 41
0.946272838087865
 10
1445.102000314215
 20
241.666128374273
 30
0.0
 41
1.0
 10
1430.400886861483
 20
255.7760797013933
 30
0.0
 41
0.7071067811865391
 10
1444.510838188604
 20
270.4771931541252
 30
0.0
 41
1.0
  0
SPLINE
  5
2B5
330
1F
100
AcDbEntity
  8
PREDEFINITO
100
AcDbSpline
210
0.0
220
0.0
230
1.0
 70
    12
 71
     2
 72
     8
 73
     5
 74
     0
 42
0.0000000001
 43
0.0000000001
 40
0.0
 40
0.0
 40
0.0
 40
32.00778274040507
 40
32.00778274040507
 40
64.01556548081011
 40
64.01556548081011
 40
64.01556548081011
 10
1444.510838188604
 20
270.4771931541252
 30
0.0
 41
1.0
 10
1458.620789515724
 20
285.1783066068574
 30
0.0
 41
0.7071067811865356
 10
1473.321902968456
 20
271.0683552797362
 30
0.0
 41
1.0
 10
1488.023016421188
 20
256.9584039526156
 30
0.0
 41
0.7071067811865468
 10
1473.913065094067
 20
242.2572904998839
 30
0.0
 41
1.0
  0
SPLINE
  5
2B6
330
1F
100
AcDbEntity
  8
PREDEFINITO
100
AcDbSpline
210
0.0
220
0.0
230
1.0
 70
    12
 71
     2
 72
     6
 73
     3
 74
     0
 42
0.0000000001
 43
0.0000000001
 40
0.0
 40
0.0
 40
0.0
 40
14.32773778527285
 40
14.32773778527285
 40
14.32773778527285
 10
1473.913065094067
 20
242.2572904998839
 30
0.0
 41
1.0
 10
1468.773018223856
 20
236.9018919985376
 30
0.0
 41
0.8688913483236648
 10
1461.3926870551
 20
236.1074822958811
 30
0.0
 41
0.8551597982000672
  0
SPLINE
  5
2B7
330
1F
100
AcDbEntity
  8
PREDEFINITO
100
AcDbSpline
210
0.0
220
0.0
230
1.0
 70
    12
 71
     2
 72
    14
 73
    11
 74
     0
 42
0.0000000001
 43
0.0000000001
 40
-0.0001482935124824
 40
-0.0001482935124824
 40
-0.0001482935124824
 40
0.0
 40
0.0
 40
89.7558919823765
 40
89.7558919823765
 40
93.13948188018094
 40
93.13948188018094
 40
96.52307177798536
 40
96.52307177798536
 40
195.843714657928
 40
195.843714657928
 40
195.843714657928
 10
1461.3926870551
 20
236.1074822958811
 30
0.0
 41
0.9999446709543512
 10
1461.392675046209
 20
236.1074143452052
 30
0.0
 41
0.9999723313740979
 10
1461.392663049042
 20
236.1073463924612
 30
0.0
 41
1.0
 10
1453.599689510223
 20
191.9111972410473
 30
0.0
 41
1.0
 10
1445.806715971405
 20
147.7150480896333
 30
0.0
 41
1.0
 10
1445.476768688223
 20
145.8438240571473
 30
0.0
 41
0.843391445864004
 10
1447.033231852665
 20
144.7539768168554
 30
0.0
 41
1.0
 10
1448.589695017106
 20
143.6641295765643
 30
0.0
 41
0.843391445864004
 10
1450.235221814863
 20
144.6141749161653
 30
0.0
 41
1.0
 10
1494.069712687637
 20
169.9220300213501
 30
0.0
 41
1.0
 10
1537.904203560411
 20
195.2298851265349
 30
0.0
 41
1.0
  0
SPLINE
  5
2B8
330
1F
100
AcDbEntity
  8
PREDEFINITO
100
AcDbSpline
210
0.0
220
0.0
230
1.0
 70
    12
 71
     2
 72
     6
 73
     3
 74
     0
 42
0.0000000001
 43
0.0000000001
 40
44.07058446775429
 40
44.07058446775429
 40
44.07058446775429
 40
64.01556548080902
 40
64.01556548080902
 40
64.01556548080902
 10
1537.904203560411
 20
195.2298851265349
 30
0.0
 41
0.8624343678542309
 10
1535.466491891616
 20
205.9388223482746
 30
0.0
 41
0.8174897106911353
 10
1543.071615188393
 20
213.8625761455707
 30
0.0
 41
1.0
  0
SPLINE
  5
2B9
330
1F
100
AcDbEntity
  8
PREDEFINITO
100
AcDbSpline
210
0.0
220
0.0
230
1.0
 70
    12
 71
     2
 72
     6
 73
     3
 74
     0
 42
0.0000000001
 43
0.0000000001
 40
0.0
 40
0.0
 40
0.0
 40
10.71075571730945
 40
10.71075571730945
 40
10.71075571730945
 10
1543.071615188393
 20
213.8625761455707
 30
0.0
 41
1.0
 10
1546.773080587328
 20
217.7191211831515
 30
0.0
 41
0.9019892210775529
 10
1551.890997618493
 20
219.2620764606987
 30
0.0
 41
0.8695730832594623
  0
SPLINE
  5
2BA
330
1F
100
AcDbEntity
  8
PREDEFINITO
100
AcDbSpline
210
0.0
220
0.0
230
1.0
 70
    12
 71
     2
 72
    10
 73
     7
 74
     0
 42
0.0000000001
 43
0.0000000001
 40
600.4117933174946
 40
600.4117933174946
 40
600.4117933174946
 40
656.5793711766819
 40
656.5793711766819
 40
674.0174312779867
 40
674.0174312779867
 40
770.9498864326242
 40
770.9498864326242
 40
770.9498864326242
 10
1551.890997618493
 20
219.2620764606987
 30
0.0
 41
1.0
 10
1551.890997618516
 20
247.3458653904065
 30
0.0
 41
1.0
 10
1551.890997618539
 20
275.4296543201151
 30
0.0
 41
1.0
 10
1551.890997618467
 20
284.7476680522537
 30
0.0
 41
0.906307787044641
 10
1544.752984978235
 20
290.7371718263757
 30
0.0
 41
1.0
 10
1507.625700663675
 20
321.8906624013202
 30
0.0
 41
1.0
 10
1470.498416349107
 20
353.0441529762554
 30
0.0
 41
1.0
  0
POLYLINE
  5
2BB
330
1F
100
AcDbEntity
  8
PREDEFINITO
100
AcDb2dPolyline
 66
     1
 10
0.0
 20
0.0
 30
0.0
  0
VERTEX
  5
2BD
330
2BB
100
AcDbEntity
  8
PREDEFINITO
100
AcDbVertex
100
AcDb2dVertex
 10
1470.498416349107
 20
353.0441529762554
 30
0.0
  0
VERTEX
  5
2BE
330
2BB
100
AcDbEntity
  8
PREDEFINITO
100
AcDbVertex
100
AcDb2dVertex
 10
1470.331692036118
 20
353.1840512857772
 30
0.0
  0
SEQEND
  5
2BC
330
2BB
100
AcDbEntity
  8
PREDEFINITO
  0
SPLINE
  5
2BF
330
1F
100
AcDbEntity
  8
PREDEFINITO
100
AcDbSpline
210
0.0
220
0.0
230
1.0
 70
    12
 71
     2
 72
     8
 73
     5
 74
     0
 42
0.0000000001
 43
0.0000000001
 40
26.13640294984141
 40
26.13640294984141
 40
26.13640294984141
 40
32.00778274040524
 40
32.00778274040524
 40
64.01556548081055
 40
64.01556548081055
 40
64.01556548081055
 10
1470.331692036117
 20
353.1840512857772
 30
0.0
 41
0.9122566680441709
 10
1467.957474517818
 20
351.7127979295076
 30
0.0
 41
0.9462728380881028
 10
1465.27492968659
 20
350.934692222687
 30
0.0
 41
1.0
 10
1445.704796664775
 20
345.2581301722636
 30
0.0
 41
0.707106781186563
 10
1440.028234614351
 20
364.8282631940774
 30
0.0
 41
1.0
  0
SPLINE
  5
2C0
330
1F
100
AcDbEntity
  8
PREDEFINITO
100
AcDbSpline
210
0.0
220
0.0
230
1.0
 70
    12
 71
     2
 72
     8
 73
     5
 74
     0
 42
0.0000000001
 43
0.0000000001
 40
0.0
 40
0.0
 40
0.0
 40
32.00778274040542
 40
32.00778274040542
 40
64.01556548081041
 40
64.01556548081041
 40
64.01556548081041
 10
1440.028234614351
 20
364.8282631940774
 30
0.0
 41
1.0
 10
1434.351672563927
 20
384.3983962158918
 30
0.0
 41
0.7071067811865444
 10
1453.921805585742
 20
390.0749582663157
 30
0.0
 41
1.0
 10
1473.491938607556
 20
395.7515203167392
 30
0.0
 41
0.7071067811865519
 10
1479.16850065798
 20
376.1813872949252
 30
0.0
 41
1.0
  0
SPLINE
  5
2C1
330
1F
100
AcDbEntity
  8
PREDEFINITO
100
AcDbSpline
210
0.0
220
0.0
230
1.0
 70
    12
 71
     2
 72
     6
 73
     3
 74
     0
 42
0.0000000001
 43
0.0000000001
 40
0.0
 40
0.0
 40
0.0
 40
14.32773778527522
 40
14.32773778527522
 40
14.32773778527522
 10
1479.16850065798
 20
376.1813872949252
 30
0.0
 41
1.0
 10
1481.23638837243
 20
369.0522768780053
 30
0.0
 41
0.8688913483236339
 10
1478.234201771564
 20
362.2635177461909
 30
0.0
 41
0.8551597982000494
  0
SPLINE
  5
2C2
330
1F
100
AcDbEntity
  8
PREDEFINITO
100
AcDbSpline
210
0.0
220
0.0
230
1.0
 70
    12
 71
     2
 72
    14
 73
    11
 74
     0
 42
0.0000000001
 43
0.0000000001
 40
-0.0001482935119941
 40
-0.0001482935119941
 40
-0.0001482935119941
 40
0.0
 40
0.0
 40
89.7558919823765
 40
89.7558919823765
 40
93.13948188018094
 40
93.13948188018094
 40
96.52307177798536
 40
96.52307177798536
 40
195.8437146579278
 40
195.8437146579278
 40
195.8437146579278
 10
1478.234201771565
 20
362.2635177461909
 30
0.0
 41
0.9999446709545333
 10
1478.234254614131
 20
362.2634733708493
 30
0.0
 41
0.999972331374189
 10
1478.23430746435
 20
362.2634290046259
 30
0.0
 41
1.0
 10
1512.61280860951
 20
333.4164413732818
 30
0.0
 41
1.0
 10
1546.991309754671
 20
304.5694537419378
 30
0.0
 41
1.0
 10
1548.446863661386
 20
303.3480989965502
 30
0.0
 41
0.843391445864004
 10
1550.168930639943
 20
304.1511120168653
 30
0.0
 41
1.0
 10
1551.890997618501
 20
304.9541250371804
 30
0.0
 41
0.843391445864004
 10
1551.890997618538
 20
306.8542157164463
 30
0.0
 41
1.0
 10
1551.890997618539
 20
357.469925926818
 30
0.0
 41
1.0
 10
1551.89099761854
 20
408.0856361371896
 30
0.0
 41
1.0
  0
SPLINE
  5
2C3
330
1F
100
AcDbEntity
  8
PREDEFINITO
100
AcDbSpline
210
0.0
220
0.0
230
1.0
 70
    12
 71
     2
 72
     6
 73
     3
 74
     0
 42
0.0000000001
 43
0.0000000001
 40
44.07058446775737
 40
44.07058446775737
 40
44.07058446775737
 40
64.01556548081092
 40
64.01556548081092
 40
64.01556548081092
 10
1551.89099761854
 20
408.0856361371895
 30
0.0
 41
0.8624343678542189
 10
1541.397930102584
 20
411.3289845157813
 30
0.0
 41
0.8174897106911467
 10
1538.33831966918
 20
421.8770913883499
 30
0.0
 41
1.0
  0
SPLINE
  5
2C4
330
1F
100
AcDbEntity
  8
PREDEFINITO
100
AcDbSpline
210
0.0
220
0.0
230
1.0
 70
    12
 71
     2
 72
     6
 73
     3
 74
     0
 42
0.0000000001
 43
0.0000000001
 40
0.0
 40
0.0
 40
0.0
 40
10.12913366833205
 40
10.12913366833205
 40
10.12913366833205
 10
1538.33831966918
 20
421.8770913883499
 30
0.0
 41
1.0
 10
1536.938311061778
 20
426.7036667759134
 30
0.0
 41
0.9073114627160912
 10
1537.943095778664
 20
431.62771609993
 30
0.0
 41
0.873287069167808
  0
SPLINE
  5
2C5
330
1F
100
AcDbEntity
  8
PREDEFINITO
100
AcDbSpline
210
0.0
220
0.0
230
1.0
 70
    12
 71
     2
 72
    10
 73
     7
 74
     0
 42
0.0000000001
 43
0.0000000001
 40
599.8784684257673
 40
599.8784684257673
 40
599.8784684257673
 40
656.5793711766383
 40
656.5793711766383
 40
674.0174312779492
 40
674.0174312779492
 40
770.9498864326201
 40
770.9498864326201
 40
770.9498864326201
 10
1537.943095778664
 20
431.6277160999299
 30
0.0
 41
1.0
 10
1513.390884678701
 20
445.8029417877206
 30
0.0
 41
1.0
 10
1488.838673578739
 20
459.9781674755113
 30
0.0
 41
1.0
 10
1480.769036973857
 20
464.6371743415183
 30
0.0
 41
0.906307787044641
 10
1472.01296822929
 20
461.4502259496043
 30
0.0
 41
1.0
 10
1426.469611817548
 20
444.8737998471393
 30
0.0
 41
1.0
 10
1380.926255405806
 20
428.2973737446742
 30
0.0
 41
1.0
  0
POLYLINE
  5
2C6
330
1F
100
AcDbEntity
  8
PREDEFINITO
100
AcDb2dPolyline
 66
     1
 10
0.0
 20
0.0
 30
0.0
  0
VERTEX
  5
2C8
330
2C6
100
AcDbEntity
  8
PREDEFINITO
100
AcDbVertex
100
AcDb2dVertex
 10
1380.926255405806
 20
428.2973737446742
 30
0.0
  0
VERTEX
  5
2C9
330
2C6
100
AcDbEntity
  8
PREDEFINITO
100
AcDbVertex
100
AcDb2dVertex
 10
1380.721737759323
 20
428.222935408972
 30
0.0
  0
SEQEND
  5
2C7
330
2C6
100
AcDbEntity
  8
PREDEFINITO
  0
SPLINE
  5
2CA
330
1F
100
AcDbEntity
  8
PREDEFINITO
100
AcDbSpline
210
0.0
220
0.0
230
1.0
 70
    12
 71
     2
 72
     8
 73
     5
 74
     0
 42
0.0000000001
 43
0.0000000001
 40
26.13640294981473
 40
26.13640294981473
 40
26.13640294981473
 40
32.0077827404052
 40
32.0077827404052
 40
64.01556548080966
 40
64.01556548080966
 40
64.01556548080966
 10
1380.721737759323
 20
428.222935408972
 30
0.0
 41
0.9122566680438607
 10
1380.80877178211
 20
425.4311760458663
 30
0.0
 41
0.9462728380878581
 10
1380.141358675428
 20
422.7189712218087
 30
0.0
 41
1.0
 10
1375.272339106346
 20
402.9324578442656
 30
0.0
 41
0.7071067811865485
 10
1355.485825728803
 20
407.8014774133476
 30
0.0
 41
1.0
  0
SPLINE
  5
2CB
330
1F
100
AcDbEntity
  8
PREDEFINITO
100
AcDbSpline
210
0.0
220
0.0
230
1.0
 70
    12
 71
     2
 72
     8
 73
     5
 74
     0
 42
0.0000000001
 43
0.0000000001
 40
0.0
 40
0.0
 40
0.0
 40
32.00778274040533
 40
32.00778274040533
 40
64.01556548081078
 40
64.01556548081078
 40
64.01556548081078
 10
1355.485825728803
 20
407.8014774133476
 30
0.0
 41
1.0
 10
1335.699312351259
 20
412.6704969824297
 30
0.0
 41
0.7071067811865513
 10
1340.568331920341
 20
432.4570103599733
 30
0.0
 41
1.0
 10
1345.437351489423
 20
452.2435237375173
 30
0.0
 41
0.7071067811865364
 10
1365.223864866967
 20
447.3745041684344
 30
0.0
 41
1.0
  0
SPLINE
  5
2CC
330
1F
100
AcDbEntity
  8
PREDEFINITO
100
AcDbSpline
210
0.0
220
0.0
230
1.0
 70
    12
 71
     2
 72
     6
 73
     3
 74
     0
 42
0.0000000001
 43
0.0000000001
 40
0.0
 40
0.0
 40
0.0
 40
14.32773778527388
 40
14.32773778527388
 40
14.32773778527388
 10
1365.223864866967
 20
447.3745041684344
 30
0.0
 41
1.0
 10
1372.431799451629
 20
445.6007922528622
 30
0.0
 41
0.8688913483236438
 10
1376.80994401952
 20
439.6064428237048
 30
0.0
 41
0.8551597982000495
  0
SPLINE
  5
2CD
330
1F
100
AcDbEntity
  8
PREDEFINITO
100
AcDbSpline
210
0.0
220
0.0
230
1.0
 70
    12
 71
     2
 72
    14
 73
    11
 74
     0
 42
0.0000000001
 43
0.0000000001
 40
-0.0001482935123537
 40
-0.0001482935123537
 40
-0.0001482935123537
 40
0.0
 40
0.0
 40
89.7558919823765
 40
89.7558919823765
 40
93.13948188018094
 40
93.13948188018094
 40
96.52307177798536
 40
96.52307177798536
 40
195.8437146579277
 40
195.8437146579277
 40
195.8437146579277
 10
1376.80994401952
 20
439.6064428237049
 30
0.0
 41
0.9999446709543992
 10
1376.810008870977
 20
439.6064663990389
 30
0.0
 41
0.9999723313741219
 10
1376.810073718363
 20
439.6064899855593
 30
0.0
 41
1.0
 10
1418.981548402342
 20
454.9556515056294
 30
0.0
 41
1.0
 10
1461.153023086322
 20
470.3048130256993
 30
0.0
 41
1.0
 10
1462.938524276218
 20
470.9546823127973
 30
0.0
 41
0.843391445864004
 10
1463.104128090334
 20
472.8475425734043
 30
0.0
 41
1.0
 10
1463.26973190445
 20
474.7404028340103
 30
0.0
 41
0.843391445864004
 10
1461.624205106731
 20
475.6904481736753
 30
0.0
 41
1.0
 10
1417.789714233958
 20
500.9983032788621
 30
0.0
 41
1.0
 10
1373.955223361185
 20
526.3061583840487
 30
0.0
 41
1.0
  0
SPLINE
  5
2CE
330
1F
100
AcDbEntity
  8
PREDEFINITO
100
AcDbSpline
210
0.0
220
0.0
230
1.0
 70
    12
 71
     2
 72
     6
 73
     3
 74
     0
 42
0.0000000001
 43
0.0000000001
 40
44.07058446775741
 40
44.07058446775741
 40
44.07058446775741
 40
64.01556548081064
 40
64.01556548081064
 40
64.01556548081064
 10
1373.955223361185
 20
526.3061583840487
 30
0.0
 41
0.8624343678542029
 10
1365.899867514023
 20
518.8405695409018
 30
0.0
 41
0.817489710691126
 10
1355.235133783844
 20
521.4649226161753
 30
0.0
 41
1.0
  0
SPLINE
  5
2CF
330
1F
100
AcDbEntity
  8
PREDEFINITO
100
AcDbSpline
210
0.0
220
0.0
230
1.0
 70
    12
 71
     2
 72
     6
 73
     3
 74
     0
 42
0.0000000001
 43
0.0000000001
 40
0.0
 40
0.0
 40
0.0
 40
10.71075571731043
 40
10.71075571731043
 40
10.71075571731043
 10
1355.235133783844
 20
521.4649226161753
 30
0.0
 41
1.0
 10
1350.044535110992
 20
522.742213164092
 30
0.0
 41
0.9019892210775553
 10
1346.14933812815
 20
526.4029816887692
 30
0.0
 41
0.8695730832594721
  0
SPLINE
  5
2D0
330
1F
100
AcDbEntity
  8
PREDEFINITO
100
AcDbSpline
210
0.0
220
0.0
230
1.0
 70
    12
 71
     2
 72
    10
 73
     7
 74
     0
 42
0.0000000001
 43
0.0000000001
 40
600.4117933174945
 40
600.4117933174945
 40
600.4117933174945
 40
656.5793711766819
 40
656.5793711766819
 40
674.0174312779867
 40
674.0174312779867
 40
702.093708644953
 40
702.093708644953
 40
702.093708644953
 10
1346.14933812815
 20
526.4029816887692
 30
0.0
 41
1.0
 10
1321.828063480491
 20
512.3610872239345
 30
0.0
 41
1.0
 10
1297.506788832831
 20
498.3191927591004
 30
0.0
 41
1.0
 10
1289.437152228023
 20
493.6601858929683
 30
0.0
 41
0.906307787044641
 10
1287.819096123686
 20
484.4837337269323
 30
0.0
 41
1.0
 10
1285.381398923467
 20
470.6588659135741
 30
0.0
 41
1.0
 10
1282.943701723248
 20
456.8339981002158
 30
0.0
 41
1.0
  0
SPLINE
  5
2D1
330
1F
100
AcDbEntity
  8
PREDEFINITO
100
AcDbSpline
210
0.0
220
0.0
230
1.0
 70
    12
 71
     2
 72
    10
 73
     7
 74
     0
 42
0.0000000001
 43
0.0000000001
 40
484.7604715826874
 40
484.7604715826874
 40
484.7604715826874
 40
512.8473488531587
 40
512.8473488531587
 40
530.2854089553828
 40
530.2854089553828
 40
586.5368921307821
 40
586.5368921307821
 40
586.5368921307821
 10
1248.270597105632
 20
516.8759499797227
 30
0.0
 41
1.0
 10
1261.467112761627
 20
512.0728110849285
 30
0.0
 41
1.0
 10
1274.663628417623
 20
507.2696721901343
 30
0.0
 41
1.0
 10
1283.419697162481
 20
504.0827237975454
 30
0.0
 41
0.906307787037036
 10
1291.489333767953
 20
508.7417306637313
 30
0.0
 41
1.0
 10
1315.846940483111
 20
522.8046014575979
 30
0.0
 41
1.0
 10
1340.204547198269
 20
536.8674722514644
 30
0.0
 41
1.0
  0
SPLINE
  5
2D2
330
1F
100
AcDbEntity
  8
PREDEFINITO
100
AcDbSpline
210
0.0
220
0.0
230
1.0
 70
    12
 71
     2
 72
     8
 73
     5
 74
     0
 42
0.0000000001
 43
0.0000000001
 40
22.38334983559706
 40
22.38334983559706
 40
22.38334983559706
 40
32.00778274040505
 40
32.00778274040505
 40
64.0155654808097
 40
64.0155654808097
 40
64.0155654808097
 10
1340.204547198269
 20
536.8674722514643
 30
0.0
 41
0.8768233571924624
 10
1339.182407875435
 20
541.5071479320709
 30
0.0
 41
0.9119298217059972
 10
1340.317639975381
 20
546.1204555628003
 30
0.0
 41
1.0
 10
1345.186659544463
 20
565.9069689403431
 30
0.0
 41
0.70710678118657
 10
1364.973172922006
 20
561.0379493712624
 30
0.0
 41
1.0
  0
SPLINE
  5
2D3
330
1F
100
AcDbEntity
  8
PREDEFINITO
100
AcDbSpline
210
0.0
220
0.0
230
1.0
 70
    12
 71
     2
 72
     6
 73
     3
 74
     0
 42
0.0000000001
 43
0.0000000001
 40
0.0
 40
0.0
 40
0.0
 40
31.61393222102387
 40
31.61393222102387
 40
31.61393222102387
 10
1364.973172922006
 20
561.0379493712624
 30
0.0
 41
1.0
 10
1384.417114033514
 20
556.2532291951734
 30
0.0
 41
0.7107107842351397
 10
1379.972678428109
 20
536.7286962875551
 30
0.0
 41
0.9928806872363216
  0
SPLINE
  5
2D4
330
1F
100
AcDbEntity
  8
PREDEFINITO
100
AcDbSpline
210
0.0
220
0.0
230
1.0
 70
    24
 71
     2
 72
     6
 73
     3
 74
     0
 42
0.0000000001
 43
0.0000000001
 40
0.0
 40
0.0
 40
0.0
 40
101.231420420732
 40
101.231420420732
 40
101.231420420732
 10
1379.972678428109
 20
536.7286962875551
 30
0.0
 10
1423.807169299862
 20
511.4208411829428
 30
0.0
 10
1467.641660171616
 20
486.1129860783306
 30
0.0
  0
SPLINE
  5
2D5
330
1F
100
AcDbEntity
  8
PREDEFINITO
100
AcDbSpline
210
0.0
220
0.0
230
1.0
 70
    12
 71
     2
 72
    10
 73
     7
 74
     0
 42
0.0000000001
 43
0.0000000001
 40
307.3569117916161
 40
307.3569117916161
 40
307.3569117916161
 40
310.7405016898791
 40
310.7405016898791
 40
314.1240915881442
 40
314.1240915881442
 40
403.8799835693817
 40
403.8799835693817
 40
403.8799835693817
 10
1467.641660171616
 20
486.1129860783306
 30
0.0
 41
1.0
 10
1469.287186969721
 20
485.1629407386313
 30
0.0
 41
0.843391445824422
 10
1470.84365013424
 20
486.2527879793533
 30
0.0
 41
1.0
 10
1472.400113298762
 20
487.3426352200762
 30
0.0
 41
0.843391445824235
 10
1472.070166015102
 20
489.2138592527974
 30
0.0
 41
1.0
 10
1464.277192476307
 20
533.4100084036724
 30
0.0
 41
1.0
 10
1456.484218937481
 20
577.6061575545975
 30
0.0
 41
1.0
  0
POLYLINE
  5
2D6
330
1F
100
AcDbEntity
  8
PREDEFINITO
100
AcDb2dPolyline
 66
     1
 10
0.0
 20
0.0
 30
0.0
  0
VERTEX
  5
2D8
330
2D6
100
AcDbEntity
  8
PREDEFINITO
100
AcDbVertex
100
AcDb2dVertex
 10
1456.484218937481
 20
577.6061575545975
 30
0.0
  0
VERTEX
  5
2D9
330
2D6
100
AcDbEntity
  8
PREDEFINITO
100
AcDbVertex
100
AcDb2dVertex
 10
1456.39735554239
 20
578.0987843478421
 30
0.0
  0
SEQEND
  5
2D7
330
2D6
100
AcDbEntity
  8
PREDEFINITO
  0
SPLINE
  5
2DA
330
1F
100
AcDbEntity
  8
PREDEFINITO
100
AcDbSpline
210
0.0
220
0.0
230
1.0
 70
    12
 71
     2
 72
     6
 73
     3
 74
     0
 42
0.0000000001
 43
0.0000000001
 40
61.44812088882546
 40
61.44812088882546
 40
61.44812088882546
 40
64.01556548081027
 40
64.01556548081027
 40
64.01556548081027
 10
1456.39735554239
 20
578.0987843478421
 30
0.0
 41
0.9567812695558282
 10
1455.223063865419
 20
578.246633966857
 30
0.0
 41
0.9765061167538355
 10
1454.073786650854
 20
578.529445452703
 30
0.0
 41
1.0
  0
SPLINE
  5
2DB
330
1F
100
AcDbEntity
  8
PREDEFINITO
100
AcDbSpline
210
0.0
220
0.0
230
1.0
 70
    12
 71
     2
 72
     8
 73
     5
 74
     0
 42
0.0000000001
 43
0.0000000001
 40
0.0
 40
0.0
 40
0.0
 40
32.00778274040588
 40
32.00778274040588
 40
64.01556548081095
 40
64.01556548081095
 40
64.01556548081095
 10
1454.073786650854
 20
578.529445452703
 30
0.0
 41
1.0
 10
1434.28727327331
 20
583.3984650217855
 30
0.0
 41
0.7071067811865538
 10
1439.156292842392
 20
603.1849783993293
 30
0.0
 41
1.0
 10
1444.025312411475
 20
622.9714917768725
 30
0.0
 41
0.7071067811865538
 10
1463.811825789018
 20
618.1024722077902
 30
0.0
 41
1.0
  0
SPLINE
  5
2DC
330
1F
100
AcDbEntity
  8
PREDEFINITO
100
AcDbSpline
210
0.0
220
0.0
230
1.0
 70
    12
 71
     2
 72
     8
 73
     5
 74
     0
 42
0.0000000001
 43
0.0000000001
 40
0.0
 40
0.0
 40
0.0
 40
32.00778274040508
 40
32.00778274040508
 40
49.36069100993231
 40
49.36069100993231
 40
49.36069100993231
 10
1463.811825789018
 20
618.1024722077902
 30
0.0
 41
1.0
 10
1483.598339166561
 20
613.2334526387078
 30
0.0
 41
0.7071067811865557
 10
1478.729319597479
 20
593.4469392611644
 30
0.0
 41
1.0
 10
1476.510411507096
 20
584.4298355114258
 30
0.0
 41
0.8412089584568183
 10
1468.249428345502
 20
580.1886245580557
 30
0.0
 41
0.8545939404932467
  0
POLYLINE
  5
2DD
330
1F
100
AcDbEntity
  8
PREDEFINITO
100
AcDb2dPolyline
 66
     1
 10
0.0
 20
0.0
 30
0.0
  0
VERTEX
  5
2DF
330
2DD
100
AcDbEntity
  8
PREDEFINITO
100
AcDbVertex
100
AcDb2dVertex
 10
1468.249428345502
 20
580.1886245580558
 30
0.0
  0
VERTEX
  5
2E0
330
2DD
100
AcDbEntity
  8
PREDEFINITO
100
AcDbVertex
100
AcDb2dVertex
 10
1468.336291740123
 20
579.6959977672991
 30
0.0
  0
SEQEND
  5
2DE
330
2DD
100
AcDbEntity
  8
PREDEFINITO
  0
SPLINE
  5
2E1
330
1F
100
AcDbEntity
  8
PREDEFINITO
100
AcDbSpline
210
0.0
220
0.0
230
1.0
 70
    12
 71
     2
 72
    10
 73
     7
 74
     0
 42
0.0000000001
 43
0.0000000001
 40
415.9148936992085
 40
415.9148936992085
 40
415.9148936992085
 40
512.8473488530653
 40
512.8473488530653
 40
530.2854089552955
 40
530.2854089552955
 40
586.7160999723301
 40
586.7160999723301
 40
586.7160999723301
 10
1468.336291740123
 20
579.6959977672991
 30
0.0
 41
1.0
 10
1476.752363837286
 20
531.9660810903094
 30
0.0
 41
1.0
 10
1485.168435934459
 20
484.2361644133213
 30
0.0
 41
1.0
 10
1486.786492038357
 20
475.0597122466974
 30
0.0
 41
0.906307787037036
 10
1494.856128643616
 20
470.4007053801433
 30
0.0
 41
1.0
 10
1519.29133463052
 20
456.2930326259553
 30
0.0
 41
1.0
 10
1543.726540617423
 20
442.1853598717672
 30
0.0
 41
1.0
  0
SPLINE
  5
2E2
330
1F
100
AcDbEntity
  8
PREDEFINITO
100
AcDbSpline
210
0.0
220
0.0
230
1.0
 70
    12
 71
     2
 72
     8
 73
     5
 74
     0
 42
0.0000000001
 43
0.0000000001
 40
21.80226555475392
 40
21.80226555475392
 40
21.80226555475392
 40
32.00778274040484
 40
32.00778274040484
 40
64.01556548080977
 40
64.01556548080977
 40
64.01556548080977
 10
1543.726540617423
 20
442.1853598717672
 30
0.0
 41
0.8727772511539165
 10
1547.365169025494
 20
445.7121329373683
 30
0.0
 41
0.9066125010156428
 10
1552.231890640571
 20
447.1237864605881
 30
0.0
 41
1.0
 10
1571.802023662385
 20
452.8003485110142
 30
0.0
 41
0.7071067811865128
 10
1577.478585712808
 20
433.2302154891993
 30
0.0
 41
1.0
  0
SPLINE
  5
2E3
330
1F
100
AcDbEntity
  8
PREDEFINITO
100
AcDbSpline
210
0.0
220
0.0
230
1.0
 70
    12
 71
     2
 72
     6
 73
     3
 74
     0
 42
0.0000000001
 43
0.0000000001
 40
0.0
 40
0.0
 40
0.0
 40
31.61393222102471
 40
31.61393222102471
 40
31.61393222102471
 10
1577.478585712808
 20
433.2302154891993
 30
0.0
 41
1.0
 10
1583.05686704607
 20
413.9989084488997
 30
0.0
 41
0.7107107842351383
 10
1563.925907748344
 20
408.0856361348552
 30
0.0
 41
0.9928806872363396
  0
SPLINE
  5
2E4
330
1F
100
AcDbEntity
  8
PREDEFINITO
100
AcDbSpline
210
0.0
220
0.0
230
1.0
 70
    24
 71
     2
 72
     6
 73
     3
 74
     0
 42
0.0000000001
 43
0.0000000001
 40
0.0
 40
0.0
 40
0.0
 40
101.2314204207323
 40
101.2314204207323
 40
101.2314204207323
 10
1563.925907748344
 20
408.0856361348552
 30
0.0
 10
1563.925907748331
 20
357.4699259256535
 30
0.0
 10
1563.925907748318
 20
306.8542157164518
 30
0.0
  0
SPLINE
  5
2E5
330
1F
100
AcDbEntity
  8
PREDEFINITO
100
AcDbSpline
210
0.0
220
0.0
230
1.0
 70
    12
 71
     2
 72
    10
 73
     7
 74
     0
 42
0.0000000001
 43
0.0000000001
 40
307.356911791616
 40
307.356911791616
 40
307.356911791616
 40
310.740501689879
 40
310.740501689879
 40
314.1240915881442
 40
314.1240915881442
 40
403.8799835693816
 40
403.8799835693816
 40
403.8799835693816
 10
1563.925907748318
 20
306.8542157164518
 30
0.0
 41
1.0
 10
1563.925907748443
 20
304.9541250368352
 30
0.0
 41
0.843391445824422
 10
1565.647974727414
 20
304.1511120166674
 30
0.0
 41
1.0
 10
1567.370041706385
 20
303.3480989964987
 30
0.0
 41
0.843391445824235
 10
1568.825595613063
 20
304.5694537424175
 30
0.0
 41
1.0
 10
1603.20409675777
 20
333.4164413734721
 30
0.0
 41
1.0
 10
1637.582597902476
 20
362.2634290045266
 30
0.0
 41
1.0
  0
POLYLINE
  5
2E6
330
1F
100
AcDbEntity
  8
PREDEFINITO
100
AcDb2dPolyline
 66
     1
 10
0.0
 20
0.0
 30
0.0
  0
VERTEX
  5
2E8
330
2E6
100
AcDbEntity
  8
PREDEFINITO
100
AcDbVertex
100
AcDb2dVertex
 10
1637.582597902476
 20
362.2634290045266
 30
0.0
  0
VERTEX
  5
2E9
330
2E6
100
AcDbEntity
  8
PREDEFINITO
100
AcDbVertex
100
AcDb2dVertex
 10
1637.96579352251
 20
362.5849683079675
 30
0.0
  0
SEQEND
  5
2E7
330
2E6
100
AcDbEntity
  8
PREDEFINITO
  0
SPLINE
  5
2EA
330
1F
100
AcDbEntity
  8
PREDEFINITO
100
AcDbSpline
210
0.0
220
0.0
230
1.0
 70
    12
 71
     2
 72
     6
 73
     3
 74
     0
 42
0.0000000001
 43
0.0000000001
 40
61.44812088877897
 40
61.44812088877897
 40
61.44812088877897
 40
64.01556548080958
 40
64.01556548080958
 40
64.01556548080958
 10
1637.96579352251
 20
362.5849683079675
 30
0.0
 41
0.9567812695551287
 10
1637.506689210021
 20
363.6758595412032
 30
0.0
 41
0.9765061167534186
 10
1637.176972533956
 20
364.8125685479513
 30
0.0
 41
1.0
  0
SPLINE
  5
2EB
330
1F
100
AcDbEntity
  8
PREDEFINITO
100
AcDbSpline
210
0.0
220
0.0
230
1.0
 70
    12
 71
     2
 72
     8
 73
     5
 74
     0
 42
0.0000000001
 43
0.0000000001
 40
0.0
 40
0.0
 40
0.0
 40
32.00778274040537
 40
32.00778274040537
 40
64.01556548081055
 40
64.01556548081055
 40
64.01556548081055
 10
1637.176972533956
 20
364.8125685479513
 30
0.0
 41
1.0
 10
1631.500410483532
 20
384.3827015697655
 30
0.0
 41
0.7071067811865409
 10
1651.070543505346
 20
390.0592636201895
 30
0.0
 41
1.0
 10
1670.640676527161
 20
395.7358256706138
 30
0.0
 41
0.7071067811865254
 10
1676.317238577584
 20
376.165692648799
 30
0.0
 41
1.0
  0
SPLINE
  5
2EC
330
1F
100
AcDbEntity
  8
PREDEFINITO
100
AcDbSpline
210
0.0
220
0.0
230
1.0
 70
    12
 71
     2
 72
     8
 73
     5
 74
     0
 42
0.0000000001
 43
0.0000000001
 40
0.0
 40
0.0
 40
0.0
 40
32.00778274040472
 40
32.00778274040472
 40
49.3606910099523
 40
49.3606910099523
 40
49.3606910099523
 10
1676.317238577584
 20
376.165692648799
 30
0.0
 41
1.0
 10
1681.993800628008
 20
356.5955596269855
 30
0.0
 41
0.7071067811865662
 10
1662.423667606195
 20
350.918997576561
 30
0.0
 41
1.0
 10
1653.505172645157
 20
348.3320764766232
 30
0.0
 41
0.8412089584566483
 10
1645.701684635927
 20
353.3656922781286
 30
0.0
 41
0.8545939404932946
  0
POLYLINE
  5
2ED
330
1F
100
AcDbEntity
  8
PREDEFINITO
100
AcDb2dPolyline
 66
     1
 10
0.0
 20
0.0
 30
0.0
  0
VERTEX
  5
2EF
330
2ED
100
AcDbEntity
  8
PREDEFINITO
100
AcDbVertex
100
AcDb2dVertex
 10
1645.701684635927
 20
353.3656922781287
 30
0.0
  0
VERTEX
  5
2F0
330
2ED
100
AcDbEntity
  8
PREDEFINITO
100
AcDbVertex
100
AcDb2dVertex
 10
1645.318489017965
 20
353.0441529764271
 30
0.0
  0
SEQEND
  5
2EE
330
2ED
100
AcDbEntity
  8
PREDEFINITO
  0
SPLINE
  5
2F1
330
1F
100
AcDbEntity
  8
PREDEFINITO
100
AcDbSpline
210
0.0
220
0.0
230
1.0
 70
    12
 71
     2
 72
    10
 73
     7
 74
     0
 42
0.0000000001
 43
0.0000000001
 40
415.9148936992084
 40
415.9148936992084
 40
415.9148936992084
 40
512.8473488531587
 40
512.8473488531587
 40
530.2854089553828
 40
530.2854089553828
 40
586.536892130782
 40
586.536892130782
 40
586.536892130782
 10
1645.318489017965
 20
353.0441529764271
 30
0.0
 41
1.0
 10
1608.191204703717
 20
321.8906624016593
 30
0.0
 41
1.0
 10
1571.063920389469
 20
290.7371718268914
 30
0.0
 41
1.0
 10
1563.925907748509
 20
284.7476680528564
 30
0.0
 41
0.906307787037036
 10
1563.925907748295
 20
275.4296543201151
 30
0.0
 41
1.0
 10
1563.925907748343
 20
247.3039127324649
 30
0.0
 41
1.0
 10
1563.92590774839
 20
219.1781711448145
 30
0.0
 41
1.0
  0
SPLINE
  5
2F2
330
1F
100
AcDbEntity
  8
PREDEFINITO
100
AcDbSpline
210
0.0
220
0.0
230
1.0
 70
    12
 71
     2
 72
     8
 73
     5
 74
     0
 42
0.0000000001
 43
0.0000000001
 40
22.38334983559626
 40
22.38334983559626
 40
22.38334983559626
 40
32.00778274040533
 40
32.00778274040533
 40
64.01556548081075
 40
64.01556548081075
 40
64.01556548081075
 10
1563.92590774839
 20
219.1781711448145
 30
0.0
 41
0.8768233571924398
 10
1568.455054414534
 20
217.743531924293
 30
0.0
 41
0.9119298217059771
 10
1571.882679968245
 20
214.4537382711821
 30
0.0
 41
1.0
 10
1586.583793420978
 20
200.3437869440615
 30
0.0
 41
0.7071067811865237
 10
1572.473842093856
 20
185.6426734913296
 30
0.0
 41
1.0
  0
SPLINE
  5
2F3
330
1F
100
AcDbEntity
  8
PREDEFINITO
100
AcDbSpline
210
0.0
220
0.0
230
1.0
 70
    12
 71
     2
 72
     6
 73
     3
 74
     0
 42
0.0000000001
 43
0.0000000001
 40
0.0
 40
0.0
 40
0.0
 40
31.61393222102203
 40
31.61393222102203
 40
31.61393222102203
 10
1572.473842093857
 20
185.6426734913294
 30
0.0
 41
1.0
 10
1558.608182315609
 20
171.1960866271212
 30
0.0
 41
0.7107107842351483
 10
1543.921658623291
 20
184.8073472206952
 30
0.0
 41
0.9928806872363068
  0
SPLINE
  5
2F4
330
1F
100
AcDbEntity
  8
PREDEFINITO
100
AcDbSpline
210
0.0
220
0.0
230
1.0
 70
    24
 71
     2
 72
     6
 73
     3
 74
     0
 42
0.0000000001
 43
0.0000000001
 40
0.0
 40
0.0
 40
0.0
 40
101.2314204207325
 40
101.2314204207325
 40
101.2314204207325
 10
1543.921658623291
 20
184.8073472206952
 30
0.0
 10
1500.087167751524
 20
159.4994921161054
 30
0.0
 10
1456.252676879757
 20
134.1916370115156
 30
0.0
  0
SPLINE
  5
2F5
330
1F
100
AcDbEntity
  8
PREDEFINITO
100
AcDbSpline
210
0.0
220
0.0
230
1.0
 70
    12
 71
     2
 72
    10
 73
     7
 74
     0
 42
0.0000000001
 43
0.0000000001
 40
307.3569117916161
 40
307.3569117916161
 40
307.3569117916161
 40
310.7405016898791
 40
310.7405016898791
 40
314.1240915881442
 40
314.1240915881442
 40
403.8799835693817
 40
403.8799835693817
 40
403.8799835693817
 10
1456.252676879757
 20
134.1916370115156
 30
0.0
 41
1.0
 10
1454.607150081779
 20
133.2415916715983
 30
0.0
 41
0.843391445824422
 10
1454.772753896228
 20
131.3487314107084
 30
0.0
 41
1.0
 10
1454.938357710678
 20
129.4558711498163
 30
0.0
 41
0.843391445824235
 10
1456.723858901016
 20
128.8060018630143
 30
0.0
 41
1.0
 10
1498.895333584518
 20
113.4568403431943
 30
0.0
 41
1.0
 10
1541.066808268019
 20
98.10767882337431
 30
0.0
 41
1.0
  0
POLYLINE
  5
2F6
330
1F
100
AcDbEntity
  8
PREDEFINITO
100
AcDb2dPolyline
 66
     1
 10
0.0
 20
0.0
 30
0.0
  0
VERTEX
  5
2F8
330
2F6
100
AcDbEntity
  8
PREDEFINITO
100
AcDbVertex
100
AcDb2dVertex
 10
1541.066808268019
 20
98.10767882337431
 30
0.0
  0
VERTEX
  5
2F9
330
2F6
100
AcDbEntity
  8
PREDEFINITO
100
AcDbVertex
100
AcDb2dVertex
 10
1541.536867283131
 20
97.93659133352568
 30
0.0
  0
SEQEND
  5
2F7
330
2F6
100
AcDbEntity
  8
PREDEFINITO
  0
SPLINE
  5
2FA
330
1F
100
AcDbEntity
  8
PREDEFINITO
100
AcDbSpline
210
0.0
220
0.0
230
1.0
 70
    12
 71
     2
 72
     6
 73
     3
 74
     0
 42
0.0000000001
 43
0.0000000001
 40
61.44812088878052
 40
61.44812088878052
 40
61.44812088878052
 40
64.01556548080998
 40
64.01556548080998
 40
64.01556548080998
 10
1541.536867283132
 20
97.9365913335257
 30
0.0
 41
0.9567812695551453
 10
1542.252054647634
 20
98.87963294774589
 30
0.0
 41
0.9765061167534286
 10
1543.071615186156
 20
99.73353046864231
 30
0.0
 41
1.0
  0
SPLINE
  5
2FB
330
1F
100
AcDbEntity
  8
PREDEFINITO
100
AcDbSpline
210
0.0
220
0.0
230
1.0
 70
    12
 71
     2
 72
     8
 73
     5
 74
     0
 42
0.0000000001
 43
0.0000000001
 40
0.0
 40
0.0
 40
0.0
 40
32.00778274040431
 40
32.00778274040431
 40
64.01556548080977
 40
64.01556548080977
 40
64.01556548080977
 10
1543.071615186156
 20
99.73353046864231
 30
0.0
 41
1.0
 10
1557.181566513275
 20
114.434643921375
 30
0.0
 41
0.7071067811865684
 10
1571.882679966008
 20
100.3246925942573
 30
0.0
 41
1.0
 10
1586.583793418742
 20
86.21474126713822
 30
0.0
 41
0.7071067811865566
 10
1572.473842091623
 20
71.51362781440432
 30
0.0
 41
1.0
  0
SPLINE
  5
2FC
330
1F
100
AcDbEntity
  8
PREDEFINITO
100
AcDbSpline
210
0.0
220
0.0
230
1.0
 70
    12
 71
     2
 72
     8
 73
     5
 74
     0
 42
0.0000000001
 43
0.0000000001
 40
0.0
 40
0.0
 40
0.0
 40
32.00778274040442
 40
32.00778274040442
 40
49.3606910099536
 40
49.3606910099536
 40
49.3606910099536
 10
1572.473842091623
 20
71.51362781440432
 30
0.0
 41
1.0
 10
1558.363890764505
 20
56.81251436167044
 30
0.0
 41
0.7071067811865346
 10
1543.662777311772
 20
70.92246568878944
 30
0.0
 41
1.0
 10
1536.963190441119
 20
77.35264833860276
 30
0.0
 41
0.8412089584566297
 10
1537.420685593499
 20
86.62747509347673
 30
0.0
 41
0.8545939404932897
  0
POLYLINE
  5
2FD
330
1F
100
AcDbEntity
  8
PREDEFINITO
100
AcDb2dPolyline
 66
     1
 10
0.0
 20
0.0
 30
0.0
  0
VERTEX
  5
2FF
330
2FD
100
AcDbEntity
  8
PREDEFINITO
100
AcDbVertex
100
AcDb2dVertex
 10
1537.420685593499
 20
86.62747509347675
 30
0.0
  0
VERTEX
  5
300
330
2FD
100
AcDbEntity
  8
PREDEFINITO
100
AcDbVertex
100
AcDb2dVertex
 10
1536.950626580929
 20
86.7985625824
 30
0.0
  0
SEQEND
  5
2FE
330
2FD
100
AcDbEntity
  8
PREDEFINITO
  0
SPLINE
  5
301
330
1F
100
AcDbEntity
  8
PREDEFINITO
100
AcDbSpline
210
0.0
220
0.0
230
1.0
 70
    12
 71
     2
 72
    10
 73
     7
 74
     0
 42
0.0000000001
 43
0.0000000001
 40
415.9148936992084
 40
415.9148936992084
 40
415.9148936992084
 40
512.8473488531586
 40
512.8473488531586
 40
530.2854089553826
 40
530.2854089553826
 40
586.7160999723967
 40
586.7160999723967
 40
586.7160999723967
 10
1536.950626580929
 20
86.7985625824
 30
0.0
 41
1.0
 10
1491.407270169497
 20
103.3749886846819
 30
0.0
 41
1.0
 10
1445.863913758065
 20
119.9514147869643
 30
0.0
 41
1.0
 10
1437.107845013208
 20
123.1383631795533
 30
0.0
 41
0.906307787037036
 10
1429.038208407735
 20
118.4793563133663
 30
0.0
 41
1.0
 10
1404.603002420879
 20
104.3716835590965
 30
0.0
 41
1.0
 10
1380.167796434023
 20
90.2640108048267
 30
0.0
 41
1.0
  0
SPLINE
  5
302
330
1F
100
AcDbEntity
  8
PREDEFINITO
100
AcDbSpline
210
0.0
220
0.0
230
1.0
 70
    12
 71
     2
 72
     8
 73
     5
 74
     0
 42
0.0000000001
 43
0.0000000001
 40
21.80226555475335
 40
21.80226555475335
 40
21.80226555475335
 40
32.00778274040526
 40
32.00778274040526
 40
64.01556548081065
 40
64.01556548081065
 40
64.01556548081065
 10
1380.167796434024
 20
90.26401080482671
 30
0.0
 41
0.8727772511538971
 10
1381.402757298181
 20
85.34947963570458
 30
0.0
 41
0.9066125010156251
 10
1380.191924303093
 20
80.42894832229135
 30
0.0
 41
1.0
 10
1375.322904734011
 20
60.64243494474773
 30
0.0
 41
0.7071067811865589
 10
1355.536391356468
 20
65.51145451382851
 30
0.0
 41
1.0
  0
SPLINE
  5
303
330
1F
100
AcDbEntity
  8
PREDEFINITO
100
AcDbSpline
210
0.0
220
0.0
230
1.0
 70
    12
 71
     2
 72
     6
 73
     3
 74
     0
 42
0.0000000001
 43
0.0000000001
 40
0.0
 40
0.0
 40
0.0
 40
31.6139322210238
 40
31.6139322210238
 40
31.6139322210238
 10
1355.536391356468
 20
65.51145451382851
 30
0.0
 41
1.0
 10
1336.092450244961
 20
70.29617468991877
 30
0.0
 41
0.7107107842351857
 10
1340.536885850366
 20
89.82070759753644
 30
0.0
 41
0.9928806872363397
  0
SPLINE
  5
304
330
1F
100
AcDbEntity
  8
PREDEFINITO
100
AcDbSpline
210
0.0
220
0.0
230
1.0
 70
    24
 71
     2
 72
     6
 73
     3
 74
     0
 42
0.0000000001
 43
0.0000000001
 40
0.0
 40
0.0
 40
0.0
 40
101.2314204207323
 40
101.2314204207323
 40
101.2314204207323
 10
1340.536885850366
 20
89.82070759753644
 30
0.0
 10
1296.702394978612
 20
115.1285627021487
 30
0.0
 10
1252.867904106859
 20
140.436417806761
 30
0.0
  0
SPLINE
  5
305
330
1F
100
AcDbEntity
  8
PREDEFINITO
100
AcDbSpline
210
0.0
220
0.0
230
1.0
 70
    12
 71
     2
 72
    10
 73
     7
 74
     0
 42
0.0000000001
 43
0.0000000001
 40
307.356911791616
 40
307.356911791616
 40
307.356911791616
 40
310.740501689879
 40
310.740501689879
 40
314.1240915881442
 40
314.1240915881442
 40
403.8799835693816
 40
403.8799835693816
 40
403.8799835693816
 10
1252.867904106859
 20
140.436417806761
 30
0.0
 41
1.0
 10
1251.222377308753
 20
141.3864631464603
 30
0.0
 41
0.843391445824422
 10
1249.665914144234
 20
140.2966159057373
 30
0.0
 41
1.0
 10
1248.109450979712
 20
139.2067686650143
 30
0.0
 41
0.843391445824235
 10
1248.439398263371
 20
137.3355446322943
 30
0.0
 41
1.0
 10
1256.232371802167
 20
93.13939548141934
 30
0.0
 41
1.0
 10
1264.025345340963
 20
48.94324633054435
 30
0.0
 41
1.0
  0
POLYLINE
  5
306
330
1F
100
AcDbEntity
  8
PREDEFINITO
100
AcDb2dPolyline
 66
     1
 10
0.0
 20
0.0
 30
0.0
  0
VERTEX
  5
308
330
306
100
AcDbEntity
  8
PREDEFINITO
100
AcDbVertex
100
AcDb2dVertex
 10
1264.025345340963
 20
48.94324633054435
 30
0.0
  0
VERTEX
  5
309
330
306
100
AcDbEntity
  8
PREDEFINITO
100
AcDbVertex
100
AcDb2dVertex
 10
1264.11220873604
 20
48.45061953725448
 30
0.0
  0
SEQEND
  5
307
330
306
100
AcDbEntity
  8
PREDEFINITO
  0
SPLINE
  5
30A
330
1F
100
AcDbEntity
  8
PREDEFINITO
100
AcDbSpline
210
0.0
220
0.0
230
1.0
 70
    12
 71
     2
 72
     6
 73
     3
 74
     0
 42
0.0000000001
 43
0.0000000001
 40
61.44812088877926
 40
61.44812088877926
 40
61.44812088877926
 40
64.01556548081015
 40
64.01556548081015
 40
64.01556548081015
 10
1264.112208736041
 20
48.45061953725449
 30
0.0
 41
0.9567812695551233
 10
1265.286500413033
 20
48.30276991823939
 30
0.0
 41
0.9765061167534155
 10
1266.435777627619
 20
48.01995843238817
 30
0.0
 41
1.0
  0
SPLINE
  5
30B
330
1F
100
AcDbEntity
  8
PREDEFINITO
100
AcDbSpline
210
0.0
220
0.0
230
1.0
 70
    12
 71
     2
 72
     8
 73
     5
 74
     0
 42
0.0000000001
 43
0.0000000001
 40
0.0
 40
0.0
 40
0.0
 40
32.00778274040529
 40
32.00778274040529
 40
64.01556548081054
 40
64.01556548081054
 40
64.01556548081054
 10
1266.435777627619
 20
48.01995843238817
 30
0.0
 41
1.0
 10
1286.222291005163
 20
43.15093886330736
 30
0.0
 41
0.7071067811865387
 10
1281.353271436082
 20
23.36442548576339
 30
0.0
 41
1.0
 10
1276.484251867001
 20
3.577912108219584
 30
0.0
 41
0.7071067811865513
 10
1256.697738489457
 20
8.446931677300357
 30
0.0
 41
1.0
  0
SPLINE
  5
30C
330
1F
100
AcDbEntity
  8
PREDEFINITO
100
AcDbSpline
210
0.0
220
0.0
230
1.0
 70
    12
 71
     2
 72
     8
 73
     5
 74
     0
 42
0.0000000001
 43
0.0000000001
 40
0.0
 40
0.0
 40
0.0
 40
32.00778274040485
 40
32.00778274040485
 40
49.36069100995301
 40
49.36069100995301
 40
49.36069100995301
 10
1256.697738489457
 20
8.446931677300357
 30
0.0
 41
1.0
 10
1236.911225111915
 20
13.31595124638224
 30
0.0
 41
0.7071067811865862
 10
1241.780244680995
 20
33.10246462392532
 30
0.0
 41
1.0
 10
1243.999152771381
 20
42.11956837367682
 30
0.0
 41
0.8412089584566385
 10
1252.260135932991
 20
46.36077932704448
 30
0.0
 41
0.854593940493289
  0
POLYLINE
  5
30D
330
1F
100
AcDbEntity
  8
PREDEFINITO
100
AcDb2dPolyline
 66
     1
 10
0.0
 20
0.0
 30
0.0
  0
VERTEX
  5
30F
330
30D
100
AcDbEntity
  8
PREDEFINITO
100
AcDbVertex
100
AcDb2dVertex
 10
1252.260135932991
 20
46.36077932704448
 30
0.0
  0
VERTEX
  5
310
330
30D
100
AcDbEntity
  8
PREDEFINITO
100
AcDbVertex
100
AcDb2dVertex
 10
1252.173272538383
 20
46.85340611766946
 30
0.0
  0
SEQEND
  5
30E
330
30D
100
AcDbEntity
  8
PREDEFINITO
  0
SPLINE
  5
311
330
1F
100
AcDbEntity
  8
PREDEFINITO
100
AcDbSpline
210
0.0
220
0.0
230
1.0
 70
    12
 71
     2
 72
    10
 73
     7
 74
     0
 42
0.0000000001
 43
0.0000000001
 40
415.9148936992083
 40
415.9148936992083
 40
415.9148936992083
 40
512.8473488531586
 40
512.8473488531586
 40
530.2854089553826
 40
530.2854089553826
 40
586.5368921307814
 40
586.5368921307814
 40
586.5368921307814
 10
1252.173272538383
 20
46.85340611766946
 30
0.0
 41
1.0
 10
1243.757200441199
 20
94.58332279471938
 30
0.0
 41
1.0
 10
1235.341128344015
 20
142.3132394717694
 30
0.0
 41
1.0
 10
1233.723072240118
 20
151.4896916383933
 30
0.0
 41
0.906307787037036
 10
1225.653435634858
 20
156.1486985049484
 30
0.0
 41
1.0
 10
1201.295828919653
 20
170.2115692987326
 30
0.0
 41
1.0
 10
1176.938222204448
 20
184.2744400925168
 30
0.0
 41
1.0
  0
SPLINE
  5
312
330
1F
100
AcDbEntity
  8
PREDEFINITO
100
AcDbSpline
210
0.0
220
0.0
230
1.0
 70
    12
 71
     2
 72
     8
 73
     5
 74
     0
 42
0.0000000001
 43
0.0000000001
 40
22.3833498355971
 40
22.3833498355971
 40
22.3833498355971
 40
32.00778274040493
 40
32.00778274040493
 40
64.01556548080976
 40
64.01556548080976
 40
64.01556548080976
 10
1176.938222204448
 20
184.2744400925168
 30
0.0
 41
0.8768233571924611
 10
1173.431214861139
 20
181.0694036324316
 30
0.0
 41
0.9119298217059968
 10
1168.868357207481
 20
179.7458896548123
 30
0.0
 41
1.0
 10
1149.298224185668
 20
174.0693276043885
 30
0.0
 41
0.707106781186552
 10
1143.621662135243
 20
193.6394606262023
 30
0.0
 41
1.0
  0
SPLINE
  5
313
330
1F
100
AcDbEntity
  8
PREDEFINITO
100
AcDbSpline
210
0.0
220
0.0
230
1.0
 70
    12
 71
     2
 72
     6
 73
     3
 74
     0
 42
0.0000000001
 43
0.0000000001
 40
0.0
 40
0.0
 40
0.0
 40
31.61393222102428
 40
31.61393222102428
 40
31.61393222102428
 10
1143.621662135243
 20
193.6394606262023
 30
0.0
 41
1.0
 10
1138.043380801983
 20
212.8707676665016
 30
0.0
 41
0.710710784235159
 10
1157.174340099708
 20
218.7840399805457
 30
0.0
 41
0.9928806872363374
  0
SPLINE
  5
314
330
1F
100
AcDbEntity
  8
PREDEFINITO
100
AcDbSpline
210
0.0
220
0.0
230
1.0
 70
    24
 71
     2
 72
     6
 73
     3
 74
     0
 42
0.0000000001
 43
0.0000000001
 40
0.0
 40
0.0
 40
0.0
 40
85.11299231022053
 40
85.11299231022053
 40
85.11299231022053
 10
1157.174340099708
 20
218.7840399805457
 30
0.0
 10
1157.174340099711
 20
261.3405361344888
 30
0.0
 10
1157.174340099713
 20
303.8970322884319
 30
0.0
  0
SPLINE
  5
315
330
1F
100
AcDbEntity
  8
LINEE VISIBILI 2D
100
AcDbSpline
210
0.0
220
0.0
230
1.0
 70
    12
 71
     2
 72
     8
 73
     5
 74
     0
 42
0.0000000001
 43
0.0000000001
 40
0.0
 40
0.0
 40
0.0
 40
194.3186689303124
 40
194.3186689303124
 40
388.6373378606249
 40
388.6373378606249
 40
388.6373378606249
 10
1161.429832896795
 20
303.7698959461318
 30
0.0
 41
1.0
 10
1285.12965622568
 20
302.4275187358176
 30
0.0
 41
0.7071067811865434
 10
1286.472033435993
 20
426.1273420647025
 30
0.0
 41
1.0
 10
1287.814410646307
 20
549.8271653935872
 30
0.0
 41
0.7071067811865451
 10
1164.114587317422
 20
551.1695426039007
 30
0.0
 41
1.0
  0
SPLINE
  5
316
330
1F
100
AcDbEntity
  8
LINEE VISIBILI 2D
100
AcDbSpline
210
0.0
220
0.0
230
1.0
 70
    12
 71
     2
 72
     8
 73
     5
 74
     0
 42
0.0000000001
 43
0.0000000001
 40
0.0
 40
0.0
 40
0.0
 40
194.3186689303126
 40
194.3186689303126
 40
388.6373378606248
 40
388.6373378606248
 40
388.6373378606248
 10
1164.114587317422
 20
551.1695426039007
 30
0.0
 41
1.0
 10
1040.414763988538
 20
552.5119198142145
 30
0.0
 41
0.7071067811865466
 10
1039.072386778224
 20
428.8120964853298
 30
0.0
 41
1.0
 10
1037.73000956791
 20
305.1122731564453
 30
0.0
 41
0.7071067811865459
 10
1161.429832896795
 20
303.7698959461318
 30
0.0
 41
1.0
  0
ENDSEC
  0
SECTION
  2
OBJECTS
  0
DICTIONARY
  5
C
330
0
100
AcDbDictionary
281
     1
  3
ACAD_GROUP
350
D
  3
ACAD_LAYOUT
350
1A
  3
ACAD_MLEADERSTYLE
350
318
  3
ACAD_MLINESTYLE
350
17
  3
ACAD_PLOTSETTINGS
350
19
  3
ACAD_PLOTSTYLENAME
350
E
  3
ACAD_SCALELIST
350
3B
  3
ACAD_TABLESTYLE
350
317
  3
ACAD_VISUALSTYLE
350
2A
  0
DICTIONARY
  5
D
102
{ACAD_REACTORS
330
C
102
}
330
C
100
AcDbDictionary
281
     1
  0
DICTIONARY
  5
1A
102
{ACAD_REACTORS
330
C
102
}
330
C
100
AcDbDictionary
281
     1
  3
Layout1
350
1E
  3
Layout2
350
26
  3
Model
350
22
  0
DICTIONARY
  5
318
102
{ACAD_REACTORS
330
C
102
}
330
C
100
AcDbDictionary
281
     1
  0
DICTIONARY
  5
17
102
{ACAD_REACTORS
330
C
102
}
330
C
100
AcDbDictionary
281
     1
  3
Standard
350
18
  0
DICTIONARY
  5
19
102
{ACAD_REACTORS
330
C
102
}
330
C
100
AcDbDictionary
281
     1
  0
ACDBDICTIONARYWDFLT
  5
E
102
{ACAD_REACTORS
330
C
102
}
330
C
100
AcDbDictionary
281
     1
  3
Normal
350
F
100
AcDbDictionaryWithDefault
340
F
  0
DICTIONARY
  5
3B
102
{ACAD_REACTORS
330
C
102
}
330
C
100
AcDbDictionary
281
     1
  3
A0
350
3C
  3
A1
350
3D
  3
A2
350
3E
  3
A3
350
3F
  3
A4
350
40
  3
A5
350
41
  3
A6
350
42
  3
A7
350
43
  3
A8
350
44
  3
A9
350
45
  3
B0
350
46
  3
B1
350
47
  3
B2
350
48
  3
B3
350
49
  3
B4
350
4A
  3
B5
350
4B
  3
B6
350
4C
  3
B7
350
4D
  3
B8
350
4E
  3
B9
350
4F
  3
C0
350
50
  3
C1
350
51
  3
C2
350
52
  3
C3
350
53
  3
C4
350
54
  3
C5
350
55
  3
C6
350
56
  3
C7
350
57
  3
C8
350
58
  3
C9
350
59
  3
D0
350
5A
  3
D1
350
5B
  3
D2
350
5C
  0
DICTIONARY
  5
317
102
{ACAD_REACTORS
330
C
102
}
330
C
100
AcDbDictionary
281
     1
  0
DICTIONARY
  5
2A
102
{ACAD_REACTORS
330
C
102
}
330
C
100
AcDbDictionary
281
     1
  3
2dWireframe
350
2F
  3
3D Hidden
350
31
  3
3dWireframe
350
30
  3
Basic
350
32
  3
Brighten
350
36
  3
ColorChange
350
3A
  3
Conceptual
350
34
  3
Dim
350
35
  3
Facepattern
350
39
  3
Flat
350
2B
  3
FlatWithEdges
350
2C
  3
Gouraud
350
2D
  3
GouraudWithEdges
350
2E
  3
Linepattern
350
38
  3
Realistic
350
33
  3
Thicken
350
37
  0
LAYOUT
  5
1E
102
{ACAD_REACTORS
330
1A
102
}
330
1A
100
AcDbPlotSettings
  1

  2
none_device
  4

  6

 40
0.0
 41
0.0
 42
0.0
 43
0.0
 44
0.0
 45
0.0
 46
0.0
 47
0.0
 48
0.0
 49
0.0
140
0.0
141
0.0
142
1.0
143
1.0
 70
   688
 72
     0
 73
     0
 74
     5
  7

 75
    16
 76
     0
 77
     2
 78
   300
147
1.0
148
0.0
149
0.0
100
AcDbLayout
  1
Layout1
 70
     1
 71
     1
 10
0.0
 20
0.0
 11
12.0
 21
9.0
 12
0.0
 22
0.0
 32
0.0
 14
1.000000000000000E+20
 24
1.000000000000000E+20
 34
1.000000000000000E+20
 15
-1.000000000000000E+20
 25
-1.000000000000000E+20
 35
-1.000000000000000E+20
146
0.0
 13
0.0
 23
0.0
 33
0.0
 16
1.0
 26
0.0
 36
0.0
 17
0.0
 27
1.0
 37
0.0
 76
     0
330
1B
  0
LAYOUT
  5
26
102
{ACAD_REACTORS
330
1A
102
}
330
1A
100
AcDbPlotSettings
  1

  2
none_device
  4

  6

 40
0.0
 41
0.0
 42
0.0
 43
0.0
 44
0.0
 45
0.0
 46
0.0
 47
0.0
 48
0.0
 49
0.0
140
0.0
141
0.0
142
1.0
143
1.0
 70
   688
 72
     0
 73
     0
 74
     5
  7

 75
    16
 76
     0
 77
     2
 78
   300
147
1.0
148
0.0
149
0.0
100
AcDbLayout
  1
Layout2
 70
     1
 71
     2
 10
0.0
 20
0.0
 11
0.0
 21
0.0
 12
0.0
 22
0.0
 32
0.0
 14
0.0
 24
0.0
 34
0.0
 15
0.0
 25
0.0
 35
0.0
146
0.0
 13
0.0
 23
0.0
 33
0.0
 16
1.0
 26
0.0
 36
0.0
 17
0.0
 27
1.0
 37
0.0
 76
     0
330
23
  0
LAYOUT
  5
22
102
{ACAD_REACTORS
330
1A
102
}
330
1A
100
AcDbPlotSettings
  1

  2
none_device
  4

  6

 40
0.0
 41
0.0
 42
0.0
 43
0.0
 44
0.0
 45
0.0
 46
0.0
 47
0.0
 48
0.0
 49
0.0
140
0.0
141
0.0
142
1.0
143
1.0
 70
  1712
 72
     0
 73
     0
 74
     0
  7

 75
     0
 76
     0
 77
     2
 78
   300
147
1.0
148
0.0
149
0.0
100
AcDbLayout
  1
Model
 70
     1
 71
     0
 10
0.0
 20
0.0
 11
12.0
 21
9.0
 12
0.0
 22
0.0
 32
0.0
 14
0.0000165941682155
 24
0.0080485887876184
 34
0.0
 15
1684.985537295362
 25
1080.964600573796
 35
0.0
146
0.0
 13
0.0
 23
0.0
 33
0.0
 16
1.0
 26
0.0
 36
0.0
 17
0.0
 27
1.0
 37
0.0
 76
     0
330
1F
331
29
  0
MLINESTYLE
  5
18
102
{ACAD_REACTORS
330
17
102
}
330
17
100
AcDbMlineStyle
  2
Standard
 70
     0
  3

 62
   256
 51
90.0
 52
90.0
 71
     2
 49
0.5
 62
   256
  6
BYLAYER
 49
-0.5
 62
   256
  6
BYLAYER
  0
ACDBPLACEHOLDER
  5
F
102
{ACAD_REACTORS
330
E
102
}
330
E
  0
SCALE
  5
3C
102
{ACAD_REACTORS
330
3B
102
}
330
3B
100
AcDbScale
 70
     0
300
1:1
140
1.0
141
1.0
290
     1
  0
SCALE
  5
3D
102
{ACAD_REACTORS
330
3B
102
}
330
3B
100
AcDbScale
 70
     0
300
1:2
140
1.0
141
2.0
290
     0
  0
SCALE
  5
3E
102
{ACAD_REACTORS
330
3B
102
}
330
3B
100
AcDbScale
 70
     0
300
1:4
140
1.0
141
4.0
290
     0
  0
SCALE
  5
3F
102
{ACAD_REACTORS
330
3B
102
}
330
3B
100
AcDbScale
 70
     0
300
1:5
140
1.0
141
5.0
290
     0
  0
SCALE
  5
40
102
{ACAD_REACTORS
330
3B
102
}
330
3B
100
AcDbScale
 70
     0
300
1:8
140
1.0
141
8.0
290
     0
  0
SCALE
  5
41
102
{ACAD_REACTORS
330
3B
102
}
330
3B
100
AcDbScale
 70
     0
300
1:10
140
1.0
141
10.0
290
     0
  0
SCALE
  5
42
102
{ACAD_REACTORS
330
3B
102
}
330
3B
100
AcDbScale
 70
     0
300
1:16
140
1.0
141
16.0
290
     0
  0
SCALE
  5
43
102
{ACAD_REACTORS
330
3B
102
}
330
3B
100
AcDbScale
 70
     0
300
1:20
140
1.0
141
20.0
290
     0
  0
SCALE
  5
44
102
{ACAD_REACTORS
330
3B
102
}
330
3B
100
AcDbScale
 70
     0
300
1:30
140
1.0
141
30.0
290
     0
  0
SCALE
  5
45
102
{ACAD_REACTORS
330
3B
102
}
330
3B
100
AcDbScale
 70
     0
300
1:40
140
1.0
141
40.0
290
     0
  0
SCALE
  5
46
102
{ACAD_REACTORS
330
3B
102
}
330
3B
100
AcDbScale
 70
     0
300
1:50
140
1.0
141
50.0
290
     0
  0
SCALE
  5
47
102
{ACAD_REACTORS
330
3B
102
}
330
3B
100
AcDbScale
 70
     0
300
1:100
140
1.0
141
100.0
290
     0
  0
SCALE
  5
48
102
{ACAD_REACTORS
330
3B
102
}
330
3B
100
AcDbScale
 70
     0
300
2:1
140
2.0
141
1.0
290
     0
  0
SCALE
  5
49
102
{ACAD_REACTORS
330
3B
102
}
330
3B
100
AcDbScale
 70
     0
300
4:1
140
4.0
141
1.0
290
     0
  0
SCALE
  5
4A
102
{ACAD_REACTORS
330
3B
102
}
330
3B
100
AcDbScale
 70
     0
300
8:1
140
8.0
141
1.0
290
     0
  0
SCALE
  5
4B
102
{ACAD_REACTORS
330
3B
102
}
330
3B
100
AcDbScale
 70
     0
300
10:1
140
10.0
141
1.0
290
     0
  0
SCALE
  5
4C
102
{ACAD_REACTORS
330
3B
102
}
330
3B
100
AcDbScale
 70
     0
300
100:1
140
100.0
141
1.0
290
     0
  0
SCALE
  5
4D
102
{ACAD_REACTORS
330
3B
102
}
330
3B
100
AcDbScale
 70
     0
300
1/128" = 1'-0"
140
0.0078125
141
12.0
290
     0
  0
SCALE
  5
4E
102
{ACAD_REACTORS
330
3B
102
}
330
3B
100
AcDbScale
 70
     0
300
1/64" = 1'-0"
140
0.015625
141
12.0
290
     0
  0
SCALE
  5
4F
102
{ACAD_REACTORS
330
3B
102
}
330
3B
100
AcDbScale
 70
     0
300
1/32" = 1'-0"
140
0.03125
141
12.0
290
     0
  0
SCALE
  5
50
102
{ACAD_REACTORS
330
3B
102
}
330
3B
100
AcDbScale
 70
     0
300
1/16" = 1'-0"
140
0.0625
141
12.0
290
     0
  0
SCALE
  5
51
102
{ACAD_REACTORS
330
3B
102
}
330
3B
100
AcDbScale
 70
     0
300
3/32" = 1'-0"
140
0.09375
141
12.0
290
     0
  0
SCALE
  5
52
102
{ACAD_REACTORS
330
3B
102
}
330
3B
100
AcDbScale
 70
     0
300
1/8" = 1'-0"
140
0.125
141
12.0
290
     0
  0
SCALE
  5
53
102
{ACAD_REACTORS
330
3B
102
}
330
3B
100
AcDbScale
 70
     0
300
3/16" = 1'-0"
140
0.1875
141
12.0
290
     0
  0
SCALE
  5
54
102
{ACAD_REACTORS
330
3B
102
}
330
3B
100
AcDbScale
 70
     0
300
1/4" = 1'-0"
140
0.25
141
12.0
290
     0
  0
SCALE
  5
55
102
{ACAD_REACTORS
330
3B
102
}
330
3B
100
AcDbScale
 70
     0
300
3/8" = 1'-0"
140
0.375
141
12.0
290
     0
  0
SCALE
  5
56
102
{ACAD_REACTORS
330
3B
102
}
330
3B
100
AcDbScale
 70
     0
300
1/2" = 1'-0"
140
0.5
141
12.0
290
     0
  0
SCALE
  5
57
102
{ACAD_REACTORS
330
3B
102
}
330
3B
100
AcDbScale
 70
     0
300
3/4" = 1'-0"
140
0.75
141
12.0
290
     0
  0
SCALE
  5
58
102
{ACAD_REACTORS
330
3B
102
}
330
3B
100
AcDbScale
 70
     0
300
1" = 1'-0"
140
1.0
141
12.0
290
     0
  0
SCALE
  5
59
102
{ACAD_REACTORS
330
3B
102
}
330
3B
100
AcDbScale
 70
     0
300
1-1/2" = 1'-0"
140
1.5
141
12.0
290
     0
  0
SCALE
  5
5A
102
{ACAD_REACTORS
330
3B
102
}
330
3B
100
AcDbScale
 70
     0
300
3" = 1'-0"
140
3.0
141
12.0
290
     0
  0
SCALE
  5
5B
102
{ACAD_REACTORS
330
3B
102
}
330
3B
100
AcDbScale
 70
     0
300
6" = 1'-0"
140
6.0
141
12.0
290
     0
  0
SCALE
  5
5C
102
{ACAD_REACTORS
330
3B
102
}
330
3B
100
AcDbScale
 70
     0
300
1'-0" = 1'-0"
140
12.0
141
12.0
290
     0
  0
VISUALSTYLE
  5
2F
102
{ACAD_REACTORS
330
2A
102
}
330
2A
100
AcDbVisualStyle
  2
2dWireframe
 70
     4
 71
     0
 72
     2
 73
     0
 90
        0
 40
-0.6
 41
-30.0
 62
     5
 63
     7
421
 16777215
 74
     1
 91
        4
 64
     7
 65
   257
 75
     1
175
     1
 42
1.0
 92
        0
 66
   257
 43
1.0
 76
     1
 77
     6
 78
     2
 67
     7
 79
     5
170
     0
171
     0
290
     0
174
     0
 93
        1
 44
0.0
173
     0
291
     0
 45
0.0
1001
ACAD
1000
AcDbSavedByObjectVersion
1070
     0
  0
VISUALSTYLE
  5
31
102
{ACAD_REACTORS
330
2A
102
}
330
2A
100
AcDbVisualStyle
  2
3D Hidden
 70
     6
 71
     1
 72
     2
 73
     2
 90
        0
 40
-0.6
 41
-30.0
 62
     5
 63
     7
421
 16777215
 74
     2
 91
        2
 64
     7
 65
   257
 75
     2
175
     1
 42
40.0
 92
        0
 66
   257
 43
1.0
 76
     1
 77
     6
 78
     2
 67
     7
 79
     3
170
     0
171
     0
290
     0
174
     0
 93
        1
 44
0.0
173
     0
291
     0
 45
0.0
1001
ACAD
1000
AcDbSavedByObjectVersion
1070
     0
  0
VISUALSTYLE
  5
30
102
{ACAD_REACTORS
330
2A
102
}
330
2A
100
AcDbVisualStyle
  2
3dWireframe
 70
     5
 71
     0
 72
     2
 73
     0
 90
        0
 40
-0.6
 41
-30.0
 62
     5
 63
     7
421
 16777215
 74
     1
 91
        4
 64
     7
 65
   257
 75
     1
175
     1
 42
1.0
 92
        0
 66
   257
 43
1.0
 76
     1
 77
     6
 78
     2
 67
     7
 79
     5
170
     0
171
     0
290
     0
174
     0
 93
        1
 44
0.0
173
     0
291
     0
 45
0.0
1001
ACAD
1000
AcDbSavedByObjectVersion
1070
     0
  0
VISUALSTYLE
  5
32
102
{ACAD_REACTORS
330
2A
102
}
330
2A
100
AcDbVisualStyle
  2
Basic
 70
     7
 71
     1
 72
     0
 73
     1
 90
        0
 40
-0.6
 41
-30.0
 62
     5
 63
     7
421
 16777215
 74
     0
 91
        4
 64
     7
 65
   257
 75
     1
175
     1
 42
1.0
 92
        8
 66
     7
 43
1.0
 76
     1
 77
     6
 78
     2
 67
     7
 79
     5
170
     0
171
     0
290
     0
174
     0
 93
        1
 44
0.0
173
     0
291
     1
 45
0.0
1001
ACAD
1000
AcDbSavedByObjectVersion
1070
     0
  0
VISUALSTYLE
  5
36
102
{ACAD_REACTORS
330
2A
102
}
330
2A
100
AcDbVisualStyle
  2
Brighten
 70
    12
 71
     2
 72
     2
 73
     0
 90
        0
 40
-0.6
 41
-30.0
 62
     5
 63
     7
421
 16777215
 74
     1
 91
        4
 64
     7
 65
   257
 75
     1
175
     1
 42
1.0
 92
        8
 66
     7
 43
1.0
 76
     1
 77
     6
 78
     2
 67
     7
 79
     5
170
     0
171
     0
290
     0
174
     0
 93
        1
 44
50.0
173
     0
291
     1
 45
0.0
1001
ACAD
1000
AcDbSavedByObjectVersion
1070
     0
  0
VISUALSTYLE
  5
3A
102
{ACAD_REACTORS
330
2A
102
}
330
2A
100
AcDbVisualStyle
  2
ColorChange
 70
    16
 71
     2
 72
     2
 73
     3
 90
        0
 40
-0.6
 41
-30.0
 62
     5
 63
     8
421
  8421504
 74
     1
 91
        4
 64
     7
 65
   257
 75
     1
175
     1
 42
1.0
 92
        8
 66
     8
424
  8421504
 43
1.0
 76
     1
 77
     6
 78
     2
 67
     7
 79
     5
170
     0
171
     0
290
     0
174
     0
 93
        1
 44
0.0
173
     0
291
     1
 45
0.0
1001
ACAD
1000
AcDbSavedByObjectVersion
1070
     0
  0
VISUALSTYLE
  5
34
102
{ACAD_REACTORS
330
2A
102
}
330
2A
100
AcDbVisualStyle
  2
Conceptual
 70
     9
 71
     3
 72
     2
 73
     0
 90
        0
 40
-0.6
 41
-30.0
 62
     5
 63
     7
421
 16777215
 74
     2
 91
        2
 64
     7
 65
   257
 75
     1
175
     1
 42
40.0
 92
        8
 66
     7
 43
1.0
 76
     1
 77
     6
 78
     2
 67
     7
 79
     3
170
     0
171
     0
290
     0
174
     0
 93
        1
 44
0.0
173
     0
291
     0
 45
0.0
1001
ACAD
1000
AcDbSavedByObjectVersion
1070
     0
  0
VISUALSTYLE
  5
35
102
{ACAD_REACTORS
330
2A
102
}
330
2A
100
AcDbVisualStyle
  2
Dim
 70
    11
 71
     2
 72
     2
 73
     0
 90
        0
 40
-0.6
 41
-30.0
 62
     5
 63
     7
421
 16777215
 74
     1
 91
        4
 64
     7
 65
   257
 75
     1
175
     1
 42
1.0
 92
        8
 66
     7
 43
1.0
 76
     1
 77
     6
 78
     2
 67
     7
 79
     5
170
     0
171
     0
290
     0
174
     0
 93
        1
 44
-50.0
173
     0
291
     1
 45
0.0
1001
ACAD
1000
AcDbSavedByObjectVersion
1070
     0
  0
VISUALSTYLE
  5
39
102
{ACAD_REACTORS
330
2A
102
}
330
2A
100
AcDbVisualStyle
  2
Facepattern
 70
    15
 71
     2
 72
     2
 73
     0
 90
        0
 40
-0.6
 41
-30.0
 62
     5
 63
     7
421
 16777215
 74
     1
 91
        4
 64
     7
 65
   257
 75
     1
175
     1
 42
1.0
 92
        8
 66
     7
 43
1.0
 76
     1
 77
     6
 78
     2
 67
     7
 79
     5
170
     0
171
     0
290
     0
174
     0
 93
        1
 44
0.0
173
     0
291
     1
 45
0.0
1001
ACAD
1000
AcDbSavedByObjectVersion
1070
     0
  0
VISUALSTYLE
  5
2B
102
{ACAD_REACTORS
330
2A
102
}
330
2A
100
AcDbVisualStyle
  2
Flat
 70
     0
 71
     2
 72
     1
 73
     1
 90
        2
 40
-0.6
 41
30.0
 62
     5
 63
     7
421
 16777215
 74
     0
 91
        4
 64
     7
 65
   257
 75
     1
175
     1
 42
1.0
 92
        8
 66
     7
 43
1.0
 76
     1
 77
     6
 78
     2
 67
     7
 79
     5
170
     0
171
     0
290
     0
174
     0
 93
       13
 44
0.0
173
     0
291
     1
 45
0.0
1001
ACAD
1000
AcDbSavedByObjectVersion
1070
     0
  0
VISUALSTYLE
  5
2C
102
{ACAD_REACTORS
330
2A
102
}
330
2A
100
AcDbVisualStyle
  2
FlatWithEdges
 70
     1
 71
     2
 72
     1
 73
     1
 90
        2
 40
-0.6
 41
30.0
 62
     5
 63
     7
421
 16777215
 74
     1
 91
        4
 64
     7
 65
   257
 75
     1
175
     1
 42
1.0
 92
        0
 66
   257
 43
1.0
 76
     1
 77
     6
 78
     2
 67
     7
 79
     5
170
     0
171
     0
290
     0
174
     0
 93
       13
 44
0.0
173
     0
291
     1
 45
0.0
1001
ACAD
1000
AcDbSavedByObjectVersion
1070
     0
  0
VISUALSTYLE
  5
2D
102
{ACAD_REACTORS
330
2A
102
}
330
2A
100
AcDbVisualStyle
  2
Gouraud
 70
     2
 71
     2
 72
     2
 73
     1
 90
        2
 40
-0.6
 41
30.0
 62
     5
 63
     7
421
 16777215
 74
     0
 91
        4
 64
     7
 65
   257
 75
     1
175
     1
 42
1.0
 92
        0
 66
     7
 43
1.0
 76
     1
 77
     6
 78
     2
 67
     7
 79
     5
170
     0
171
     0
290
     0
174
     0
 93
       13
 44
0.0
173
     0
291
     1
 45
0.0
1001
ACAD
1000
AcDbSavedByObjectVersion
1070
     0
  0
VISUALSTYLE
  5
2E
102
{ACAD_REACTORS
330
2A
102
}
330
2A
100
AcDbVisualStyle
  2
GouraudWithEdges
 70
     3
 71
     2
 72
     2
 73
     1
 90
        2
 40
-0.6
 41
30.0
 62
     5
 63
     7
421
 16777215
 74
     1
 91
        4
 64
     7
 65
   257
 75
     1
175
     1
 42
1.0
 92
        0
 66
   257
 43
1.0
 76
     1
 77
     6
 78
     2
 67
     7
 79
     5
170
     0
171
     0
290
     0
174
     0
 93
       13
 44
0.0
173
     0
291
     1
 45
0.0
1001
ACAD
1000
AcDbSavedByObjectVersion
1070
     0
  0
VISUALSTYLE
  5
38
102
{ACAD_REACTORS
330
2A
102
}
330
2A
100
AcDbVisualStyle
  2
Linepattern
 70
    14
 71
     2
 72
     2
 73
     0
 90
        0
 40
-0.6
 41
-30.0
 62
     5
 63
     7
421
 16777215
 74
     1
 91
        4
 64
     7
 65
   257
 75
     7
175
     7
 42
1.0
 92
        8
 66
     7
 43
1.0
 76
     1
 77
     6
 78
     2
 67
     7
 79
     5
170
     0
171
     0
290
     0
174
     0
 93
        1
 44
0.0
173
     0
291
     1
 45
0.0
1001
ACAD
1000
AcDbSavedByObjectVersion
1070
     0
  0
VISUALSTYLE
  5
33
102
{ACAD_REACTORS
330
2A
102
}
330
2A
100
AcDbVisualStyle
  2
Realistic
 70
     8
 71
     2
 72
     2
 73
     0
 90
        0
 40
-0.6
 41
-30.0
 62
     5
 63
     7
421
 16777215
 74
     1
 91
        0
 64
     7
 65
   257
 75
     1
175
     1
 42
1.0
 92
        8
 66
     8
424
  7895160
 43
1.0
 76
     1
 77
     6
 78
     2
 67
     7
 79
     5
170
     0
171
     0
290
     0
174
     0
 93
       13
 44
0.0
173
     0
291
     0
 45
0.0
1001
ACAD
1000
AcDbSavedByObjectVersion
1070
     0
  0
VISUALSTYLE
  5
37
102
{ACAD_REACTORS
330
2A
102
}
330
2A
100
AcDbVisualStyle
  2
Thicken
 70
    13
 71
     2
 72
     2
 73
     0
 90
        0
 40
-0.6
 41
-30.0
 62
     5
 63
     7
421
 16777215
 74
     1
 91
        4
 64
     7
 65
   257
 75
     1
175
     1
 42
1.0
 92
       12
 66
     7
 43
1.0
 76
     1
 77
     6
 78
     2
 67
     7
 79
     5
170
     0
171
     0
290
     0
174
     0
 93
        1
 44
0.0
173
     0
291
     1
 45
0.0
1001
ACAD
1000
AcDbSavedByObjectVersion
1070
     0
  0
ENDSEC
  0
EOF
