  0
SECTION
  2
HEADER
  9
$ACADVER
  1
AC1018
  9
$ACADMAINTVER
 70
     0
  9
$DWGCODEPAGE
  3
ANSI_1252
  9
$INSBASE
 10
0.0
 20
0.0
 30
0.0
  9
$EXTMIN
 10
296.5159777516642
 20
296.3535147415673
 30
0.0
  9
$EXTMAX
 10
2365.08238799368
 20
1432.572579711434
 30
0.0
  9
$LIMMIN
 10
0.0
 20
0.0
  9
$LIMMAX
 10
12.0
 20
9.0
  9
$ORTHOMODE
 70
     0
  9
$REGENMODE
 70
     1
  9
$FILLMODE
 70
     1
  9
$QTEXTMODE
 70
     0
  9
$MIRRTEXT
 70
     1
  9
$LTSCALE
 40
1.0
  9
$ATTMODE
 70
     1
  9
$TEXTSIZE
 40
0.2
  9
$TRACEWID
 40
0.05
  9
$TEXTSTYLE
  7
Standard
  9
$CLAYER
  8
PREDEFINITO
  9
$CELTYPE
  6
ByLayer
  9
$CECOLOR
 62
   256
  9
$CELTSCALE
 40
1.0
  9
$DISPSILH
 70
     0
  9
$DIMSCALE
 40
1.0
  9
$DIMASZ
 40
0.18
  9
$DIMEXO
 40
0.0625
  9
$DIMDLI
 40
0.38
  9
$DIMRND
 40
0.0
  9
$DIMDLE
 40
0.0
  9
$DIMEXE
 40
0.18
  9
$DIMTP
 40
0.0
  9
$DIMTM
 40
0.0
  9
$DIMTXT
 40
0.18
  9
$DIMCEN
 40
0.09
  9
$DIMTSZ
 40
0.0
  9
$DIMTOL
 70
     0
  9
$DIMLIM
 70
     0
  9
$DIMTIH
 70
     1
  9
$DIMTOH
 70
     1
  9
$DIMSE1
 70
     0
  9
$DIMSE2
 70
     0
  9
$DIMTAD
 70
     0
  9
$DIMZIN
 70
     0
  9
$DIMBLK
  1

  9
$DIMASO
 70
     1
  9
$DIMSHO
 70
     1
  9
$DIMPOST
  1

  9
$DIMAPOST
  1

  9
$DIMALT
 70
     0
  9
$DIMALTD
 70
     2
  9
$DIMALTF
 40
25.4
  9
$DIMLFAC
 40
1.0
  9
$DIMTOFL
 70
     0
  9
$DIMTVP
 40
0.0
  9
$DIMTIX
 70
     0
  9
$DIMSOXD
 70
     0
  9
$DIMSAH
 70
     0
  9
$DIMBLK1
  1

  9
$DIMBLK2
  1

  9
$DIMSTYLE
  2
Standard
  9
$DIMCLRD
 70
     0
  9
$DIMCLRE
 70
     0
  9
$DIMCLRT
 70
     0
  9
$DIMTFAC
 40
1.0
  9
$DIMGAP
 40
0.09
  9
$DIMJUST
 70
     0
  9
$DIMSD1
 70
     0
  9
$DIMSD2
 70
     0
  9
$DIMTOLJ
 70
     1
  9
$DIMTZIN
 70
     0
  9
$DIMALTZ
 70
     0
  9
$DIMALTTZ
 70
     0
  9
$DIMUPT
 70
     0
  9
$DIMDEC
 70
     4
  9
$DIMTDEC
 70
     4
  9
$DIMALTU
 70
     2
  9
$DIMALTTD
 70
     2
  9
$DIMTXSTY
  7
Standard
  9
$DIMAUNIT
 70
     0
  9
$DIMADEC
 70
     0
  9
$DIMALTRND
 40
0.0
  9
$DIMAZIN
 70
     0
  9
$DIMDSEP
 70
    46
  9
$DIMATFIT
 70
     3
  9
$DIMFRAC
 70
     0
  9
$DIMLDRBLK
  1

  9
$DIMLUNIT
 70
     2
  9
$DIMLWD
 70
    -2
  9
$DIMLWE
 70
    -2
  9
$DIMTMOVE
 70
     0
  9
$LUNITS
 70
     2
  9
$LUPREC
 70
     3
  9
$SKETCHINC
 40
0.1
  9
$FILLETRAD
 40
0.5
  9
$AUNITS
 70
     0
  9
$AUPREC
 70
     0
  9
$MENU
  1
.
  9
$ELEVATION
 40
0.0
  9
$PELEVATION
 40
0.0
  9
$THICKNESS
 40
0.0
  9
$LIMCHECK
 70
     0
  9
$CHAMFERA
 40
0.5
  9
$CHAMFERB
 40
0.5
  9
$CHAMFERC
 40
1.0
  9
$CHAMFERD
 40
0.0
  9
$SKPOLY
 70
     0
  9
$TDCREATE
 40
2455849.598994294
  9
$TDUCREATE
 40
2455849.515660961
  9
$TDUPDATE
 40
2455849.598994305
  9
$TDUUPDATE
 40
2455849.515660972
  9
$TDINDWG
 40
0.0000000116
  9
$TDUSRTIMER
 40
0.0000000116
  9
$USRTIMER
 70
     1
  9
$ANGBASE
 50
0.0
  9
$ANGDIR
 70
     0
  9
$PDMODE
 70
     0
  9
$PDSIZE
 40
0.0
  9
$PLINEWID
 40
0.0
  9
$SPLFRAME
 70
     0
  9
$SPLINETYPE
 70
     6
  9
$SPLINESEGS
 70
     8
  9
$HANDSEED
  5
1FB
  9
$SURFTAB1
 70
     6
  9
$SURFTAB2
 70
     6
  9
$SURFTYPE
 70
     6
  9
$SURFU
 70
     6
  9
$SURFV
 70
     6
  9
$UCSBASE
  2

  9
$UCSNAME
  2

  9
$UCSORG
 10
0.0
 20
0.0
 30
0.0
  9
$UCSXDIR
 10
1.0
 20
0.0
 30
0.0
  9
$UCSYDIR
 10
0.0
 20
1.0
 30
0.0
  9
$UCSORTHOREF
  2

  9
$UCSORTHOVIEW
 70
     0
  9
$UCSORGTOP
 10
0.0
 20
0.0
 30
0.0
  9
$UCSORGBOTTOM
 10
0.0
 20
0.0
 30
0.0
  9
$UCSORGLEFT
 10
0.0
 20
0.0
 30
0.0
  9
$UCSORGRIGHT
 10
0.0
 20
0.0
 30
0.0
  9
$UCSORGFRONT
 10
0.0
 20
0.0
 30
0.0
  9
$UCSORGBACK
 10
0.0
 20
0.0
 30
0.0
  9
$PUCSBASE
  2

  9
$PUCSNAME
  2

  9
$PUCSORG
 10
0.0
 20
0.0
 30
0.0
  9
$PUCSXDIR
 10
1.0
 20
0.0
 30
0.0
  9
$PUCSYDIR
 10
0.0
 20
1.0
 30
0.0
  9
$PUCSORTHOREF
  2

  9
$PUCSORTHOVIEW
 70
     0
  9
$PUCSORGTOP
 10
0.0
 20
0.0
 30
0.0
  9
$PUCSORGBOTTOM
 10
0.0
 20
0.0
 30
0.0
  9
$PUCSORGLEFT
 10
0.0
 20
0.0
 30
0.0
  9
$PUCSORGRIGHT
 10
0.0
 20
0.0
 30
0.0
  9
$PUCSORGFRONT
 10
0.0
 20
0.0
 30
0.0
  9
$PUCSORGBACK
 10
0.0
 20
0.0
 30
0.0
  9
$USERI1
 70
     0
  9
$USERI2
 70
     0
  9
$USERI3
 70
     0
  9
$USERI4
 70
     0
  9
$USERI5
 70
     0
  9
$USERR1
 40
0.0
  9
$USERR2
 40
0.0
  9
$USERR3
 40
0.0
  9
$USERR4
 40
0.0
  9
$USERR5
 40
0.0
  9
$WORLDVIEW
 70
     1
  9
$SHADEDGE
 70
     3
  9
$SHADEDIF
 70
    70
  9
$TILEMODE
 70
     1
  9
$MAXACTVP
 70
    64
  9
$PINSBASE
 10
0.0
 20
0.0
 30
0.0
  9
$PLIMCHECK
 70
     0
  9
$PEXTMIN
 10
1.000000000000000E+20
 20
1.000000000000000E+20
 30
1.000000000000000E+20
  9
$PEXTMAX
 10
-1.000000000000000E+20
 20
-1.000000000000000E+20
 30
-1.000000000000000E+20
  9
$PLIMMIN
 10
0.0
 20
0.0
  9
$PLIMMAX
 10
12.0
 20
9.0
  9
$UNITMODE
 70
     0
  9
$VISRETAIN
 70
     1
  9
$PLINEGEN
 70
     0
  9
$PSLTSCALE
 70
     1
  9
$TREEDEPTH
 70
  3020
  9
$CMLSTYLE
  2
Standard
  9
$CMLJUST
 70
     0
  9
$CMLSCALE
 40
1.0
  9
$PROXYGRAPHICS
 70
     1
  9
$MEASUREMENT
 70
     0
  9
$CELWEIGHT
370
    -1
  9
$ENDCAPS
280
     0
  9
$JOINSTYLE
280
     0
  9
$LWDISPLAY
290
     0
  9
$INSUNITS
 70
     4
  9
$HYPERLINKBASE
  1

  9
$STYLESHEET
  1

  9
$XEDIT
290
     1
  9
$CEPSNTYPE
380
     0
  9
$PSTYLEMODE
290
     1
  9
$FINGERPRINTGUID
  2
{952D366B-D3C4-4141-BF71-5AAC3943061B}
  9
$VERSIONGUID
  2
{FAEB1C32-E019-11D5-929B-00C0DF256EC4}
  9
$EXTNAMES
290
     1
  9
$PSVPSCALE
 40
0.0
  9
$OLESTARTUP
290
     0
  9
$SORTENTS
280
   127
  9
$INDEXCTL
280
     0
  9
$HIDETEXT
280
     1
  9
$XCLIPFRAME
290
     0
  9
$HALOGAP
280
     0
  9
$OBSCOLOR
 70
   257
  9
$OBSLTYPE
280
     0
  9
$INTERSECTIONDISPLAY
280
     0
  9
$INTERSECTIONCOLOR
 70
   257
  9
$DIMASSOC
280
     2
  9
$PROJECTNAME
  1

  0
ENDSEC
  0
SECTION
  2
CLASSES
  0
CLASS
  1
ACDBDICTIONARYWDFLT
  2
AcDbDictionaryWithDefault
  3
ObjectDBX Classes
 90
        0
 91
        3
280
     0
281
     0
  0
CLASS
  1
VISUALSTYLE
  2
AcDbVisualStyle
  3
ObjectDBX Classes
 90
     4095
 91
        3
280
     0
281
     0
  0
CLASS
  1
SCALE
  2
AcDbScale
  3
ObjectDBX Classes
 90
     1153
 91
        3
280
     0
281
     0
  0
ENDSEC
  0
SECTION
  2
TABLES
  0
TABLE
  2
VPORT
  5
8
330
0
100
AcDbSymbolTable
 70
     1
  0
VPORT
  5
29
330
8
100
AcDbSymbolTableRecord
100
AcDbViewportTableRecord
  2
*Active
 70
     0
 10
0.0
 20
0.0
 11
1.0
 21
1.0
 12
0.0
 22
0.0
 13
0.0
 23
0.0
 14
0.5
 24
0.5
 15
0.5
 25
0.5
 16
0.0
 26
0.0
 36
1.0
 17
1330.799182872672
 27
864.4630472265007
 37
0.0
 40
1158.943446269264
 41
1.820570059081762
 42
50.0
 43
0.0
 44
0.0
 50
0.0
 51
0.0
 71
     0
 72
   100
 73
     1
 74
     3
 75
     0
 76
     0
 77
     0
 78
     0
281
     0
 65
     1
110
0.0
120
0.0
130
0.0
111
1.0
121
0.0
131
0.0
112
0.0
122
1.0
132
0.0
 79
     0
146
0.0
  0
ENDTAB
  0
TABLE
  2
LTYPE
  5
5
330
0
100
AcDbSymbolTable
 70
     1
  0
LTYPE
  5
14
330
5
100
AcDbSymbolTableRecord
100
AcDbLinetypeTableRecord
  2
ByBlock
 70
     0
  3

 72
    65
 73
     0
 40
0.0
  0
LTYPE
  5
15
330
5
100
AcDbSymbolTableRecord
100
AcDbLinetypeTableRecord
  2
ByLayer
 70
     0
  3

 72
    65
 73
     0
 40
0.0
  0
LTYPE
  5
16
330
5
100
AcDbSymbolTableRecord
100
AcDbLinetypeTableRecord
  2
Continuous
 70
     0
  3
Solid line
 72
    65
 73
     0
 40
0.0
  0
ENDTAB
  0
TABLE
  2
LAYER
  5
2
330
0
100
AcDbSymbolTable
 70
     3
  0
LAYER
  5
10
330
2
100
AcDbSymbolTableRecord
100
AcDbLayerTableRecord
  2
0
 70
     0
 62
     7
  6
Continuous
370
    -3
390
F
  0
LAYER
  5
5D
330
2
100
AcDbSymbolTableRecord
100
AcDbLayerTableRecord
  2
PREDEFINITO
 70
     0
 62
     7
  6
Continuous
370
    -3
390
F
  0
LAYER
  5
16B
330
2
100
AcDbSymbolTableRecord
100
AcDbLayerTableRecord
  2
LINEE VISIBILI 2D
 70
     0
 62
     7
  6
Continuous
370
    -3
390
F
  0
ENDTAB
  0
TABLE
  2
STYLE
  5
3
330
0
100
AcDbSymbolTable
 70
     1
  0
STYLE
  5
11
330
3
100
AcDbSymbolTableRecord
100
AcDbTextStyleTableRecord
  2
Standard
 70
     0
 40
0.0
 41
1.0
 50
0.0
 71
     0
 42
0.2
  3
txt
  4

  0
ENDTAB
  0
TABLE
  2
VIEW
  5
6
330
0
100
AcDbSymbolTable
 70
     0
  0
ENDTAB
  0
TABLE
  2
UCS
  5
7
330
0
100
AcDbSymbolTable
 70
     0
  0
ENDTAB
  0
TABLE
  2
APPID
  5
9
330
0
100
AcDbSymbolTable
 70
     1
  0
APPID
  5
12
330
9
100
AcDbSymbolTableRecord
100
AcDbRegAppTableRecord
  2
ACAD
 70
     0
  0
ENDTAB
  0
TABLE
  2
DIMSTYLE
  5
A
330
0
100
AcDbSymbolTable
 70
     1
100
AcDbDimStyleTable
  0
DIMSTYLE
105
27
330
A
100
AcDbSymbolTableRecord
100
AcDbDimStyleTableRecord
  2
Standard
 70
     0
340
11
  0
ENDTAB
  0
TABLE
  2
BLOCK_RECORD
  5
1
330
0
100
AcDbSymbolTable
 70
     1
  0
BLOCK_RECORD
  5
1F
330
1
100
AcDbSymbolTableRecord
100
AcDbBlockTableRecord
  2
*Model_Space
340
22
  0
BLOCK_RECORD
  5
1B
330
1
100
AcDbSymbolTableRecord
100
AcDbBlockTableRecord
  2
*Paper_Space
340
1E
  0
BLOCK_RECORD
  5
23
330
1
100
AcDbSymbolTableRecord
100
AcDbBlockTableRecord
  2
*Paper_Space0
340
26
  0
ENDTAB
  0
ENDSEC
  0
SECTION
  2
BLOCKS
  0
BLOCK
  5
20
330
1F
100
AcDbEntity
  8
0
100
AcDbBlockBegin
  2
*Model_Space
 70
     0
 10
0.0
 20
0.0
 30
0.0
  3
*Model_Space
  1

  0
ENDBLK
  5
21
330
1F
100
AcDbEntity
  8
0
100
AcDbBlockEnd
  0
BLOCK
  5
1C
330
1B
100
AcDbEntity
 67
     1
  8
0
100
AcDbBlockBegin
  2
*Paper_Space
 70
     0
 10
0.0
 20
0.0
 30
0.0
  3
*Paper_Space
  1

  0
ENDBLK
  5
1D
330
1B
100
AcDbEntity
 67
     1
  8
0
100
AcDbBlockEnd
  0
BLOCK
  5
24
330
23
100
AcDbEntity
  8
0
100
AcDbBlockBegin
  2
*Paper_Space0
 70
     0
 10
0.0
 20
0.0
 30
0.0
  3
*Paper_Space0
  1

  0
ENDBLK
  5
25
330
23
100
AcDbEntity
  8
0
100
AcDbBlockEnd
  0
ENDSEC
  0
SECTION
  2
ENTITIES
  0
POLYLINE
  5
5E
330
1F
100
AcDbEntity
  8
PREDEFINITO
100
AcDb2dPolyline
 66
     1
 10
0.0
 20
0.0
 30
0.0
  0
VERTEX
  5
60
330
5E
100
AcDbEntity
  8
PREDEFINITO
100
AcDbVertex
100
AcDb2dVertex
 10
296.5159777516642
 20
1376.072632224043
 30
0.0
  0
VERTEX
  5
61
330
5E
100
AcDbEntity
  8
PREDEFINITO
100
AcDbVertex
100
AcDb2dVertex
 10
739.8584341923629
 20
1376.072632224043
 30
0.0
  0
VERTEX
  5
62
330
5E
100
AcDbEntity
  8
PREDEFINITO
100
AcDbVertex
100
AcDb2dVertex
 10
739.8584341923629
 20
1389.072579711434
 30
0.0
  0
VERTEX
  5
63
330
5E
100
AcDbEntity
  8
PREDEFINITO
100
AcDbVertex
100
AcDb2dVertex
 10
296.5159777516642
 20
1389.072579711434
 30
0.0
  0
VERTEX
  5
64
330
5E
100
AcDbEntity
  8
PREDEFINITO
100
AcDbVertex
100
AcDb2dVertex
 10
296.5159777516642
 20
1376.072632224043
 30
0.0
  0
SEQEND
  5
5F
330
5E
100
AcDbEntity
  8
PREDEFINITO
  0
POLYLINE
  5
65
330
1F
100
AcDbEntity
  8
PREDEFINITO
100
AcDb2dPolyline
 66
     1
 10
0.0
 20
0.0
 30
0.0
  0
VERTEX
  5
67
330
65
100
AcDbEntity
  8
PREDEFINITO
100
AcDbVertex
100
AcDb2dVertex
 10
353.0119619056691
 20
1374.9951938436
 30
0.0
  0
VERTEX
  5
68
330
65
100
AcDbEntity
  8
PREDEFINITO
100
AcDbVertex
100
AcDb2dVertex
 10
296.5159777516642
 20
1374.9951938436
 30
0.0
  0
VERTEX
  5
69
330
65
100
AcDbEntity
  8
PREDEFINITO
100
AcDbVertex
100
AcDb2dVertex
 10
314.2611254990647
 20
1365.472290916128
 30
0.0
  0
VERTEX
  5
6A
330
65
100
AcDbEntity
  8
PREDEFINITO
100
AcDbVertex
100
AcDb2dVertex
 10
335.2494606328432
 20
1365.472602045105
 30
0.0
  0
VERTEX
  5
6B
330
65
100
AcDbEntity
  8
PREDEFINITO
100
AcDbVertex
100
AcDb2dVertex
 10
353.0119619056691
 20
1374.9951938436
 30
0.0
  0
SEQEND
  5
66
330
65
100
AcDbEntity
  8
PREDEFINITO
  0
POLYLINE
  5
6C
330
1F
100
AcDbEntity
  8
PREDEFINITO
100
AcDb2dPolyline
 66
     1
 10
0.0
 20
0.0
 30
0.0
  0
VERTEX
  5
6E
330
6C
100
AcDbEntity
  8
PREDEFINITO
100
AcDbVertex
100
AcDb2dVertex
 10
322.2112608023208
 20
1365.472412210411
 30
0.0
  0
VERTEX
  5
6F
330
6C
100
AcDbEntity
  8
PREDEFINITO
100
AcDbVertex
100
AcDb2dVertex
 10
328.1720543964075
 20
1365.472412210411
 30
0.0
  0
SEQEND
  5
6D
330
6C
100
AcDbEntity
  8
PREDEFINITO
  0
ARC
  5
70
330
1F
100
AcDbEntity
  8
PREDEFINITO
100
AcDbCircle
 10
325.1916575993641
 20
1376.457940446166
 30
0.0
 40
11.38264449442144
100
AcDbArc
 50
254.8209124093538
 51
285.1790875906462
  0
POLYLINE
  5
71
330
1F
100
AcDbEntity
  8
PREDEFINITO
100
AcDb2dPolyline
 66
     1
 10
0.0
 20
0.0
 30
0.0
  0
VERTEX
  5
73
330
71
100
AcDbEntity
  8
PREDEFINITO
100
AcDbVertex
100
AcDb2dVertex
 10
296.5159777516642
 20
1374.9951938436
 30
0.0
  0
VERTEX
  5
74
330
71
100
AcDbEntity
  8
PREDEFINITO
100
AcDbVertex
100
AcDb2dVertex
 10
353.0119619056691
 20
1374.9951938436
 30
0.0
  0
VERTEX
  5
75
330
71
100
AcDbEntity
  8
PREDEFINITO
100
AcDbVertex
100
AcDb2dVertex
 10
353.0119619056691
 20
1376.07209520628
 30
0.0
  0
VERTEX
  5
76
330
71
100
AcDbEntity
  8
PREDEFINITO
100
AcDbVertex
100
AcDb2dVertex
 10
296.5159777516642
 20
1376.07209520628
 30
0.0
  0
VERTEX
  5
77
330
71
100
AcDbEntity
  8
PREDEFINITO
100
AcDbVertex
100
AcDb2dVertex
 10
296.5159777516642
 20
1374.9951938436
 30
0.0
  0
SEQEND
  5
72
330
71
100
AcDbEntity
  8
PREDEFINITO
  0
POLYLINE
  5
78
330
1F
100
AcDbEntity
  8
PREDEFINITO
100
AcDb2dPolyline
 66
     1
 10
0.0
 20
0.0
 30
0.0
  0
VERTEX
  5
7A
330
78
100
AcDbEntity
  8
PREDEFINITO
100
AcDbVertex
100
AcDb2dVertex
 10
451.3297906170266
 20
1374.99519397615
 30
0.0
  0
VERTEX
  5
7B
330
78
100
AcDbEntity
  8
PREDEFINITO
100
AcDbVertex
100
AcDb2dVertex
 10
394.8338064630217
 20
1374.99519397615
 30
0.0
  0
VERTEX
  5
7C
330
78
100
AcDbEntity
  8
PREDEFINITO
100
AcDbVertex
100
AcDb2dVertex
 10
412.5789542104222
 20
1365.472291048678
 30
0.0
  0
VERTEX
  5
7D
330
78
100
AcDbEntity
  8
PREDEFINITO
100
AcDbVertex
100
AcDb2dVertex
 10
433.5672893442007
 20
1365.472602177655
 30
0.0
  0
VERTEX
  5
7E
330
78
100
AcDbEntity
  8
PREDEFINITO
100
AcDbVertex
100
AcDb2dVertex
 10
451.3297906170266
 20
1374.99519397615
 30
0.0
  0
SEQEND
  5
79
330
78
100
AcDbEntity
  8
PREDEFINITO
  0
POLYLINE
  5
7F
330
1F
100
AcDbEntity
  8
PREDEFINITO
100
AcDb2dPolyline
 66
     1
 10
0.0
 20
0.0
 30
0.0
  0
VERTEX
  5
81
330
7F
100
AcDbEntity
  8
PREDEFINITO
100
AcDbVertex
100
AcDb2dVertex
 10
420.5290895136783
 20
1365.472412342961
 30
0.0
  0
VERTEX
  5
82
330
7F
100
AcDbEntity
  8
PREDEFINITO
100
AcDbVertex
100
AcDb2dVertex
 10
426.489883107765
 20
1365.472412342961
 30
0.0
  0
SEQEND
  5
80
330
7F
100
AcDbEntity
  8
PREDEFINITO
  0
ARC
  5
83
330
1F
100
AcDbEntity
  8
PREDEFINITO
100
AcDbCircle
 10
423.5094863107216
 20
1376.457940578715
 30
0.0
 40
11.38264449442144
100
AcDbArc
 50
254.8209124093538
 51
285.1790875906462
  0
POLYLINE
  5
84
330
1F
100
AcDbEntity
  8
PREDEFINITO
100
AcDb2dPolyline
 66
     1
 10
0.0
 20
0.0
 30
0.0
  0
VERTEX
  5
86
330
84
100
AcDbEntity
  8
PREDEFINITO
100
AcDbVertex
100
AcDb2dVertex
 10
394.8338064630217
 20
1374.99519397615
 30
0.0
  0
VERTEX
  5
87
330
84
100
AcDbEntity
  8
PREDEFINITO
100
AcDbVertex
100
AcDb2dVertex
 10
451.3297906170266
 20
1374.99519397615
 30
0.0
  0
VERTEX
  5
88
330
84
100
AcDbEntity
  8
PREDEFINITO
100
AcDbVertex
100
AcDb2dVertex
 10
451.3297906170266
 20
1376.07209533883
 30
0.0
  0
VERTEX
  5
89
330
84
100
AcDbEntity
  8
PREDEFINITO
100
AcDbVertex
100
AcDb2dVertex
 10
394.8338064630217
 20
1376.07209533883
 30
0.0
  0
VERTEX
  5
8A
330
84
100
AcDbEntity
  8
PREDEFINITO
100
AcDbVertex
100
AcDb2dVertex
 10
394.8338064630217
 20
1374.99519397615
 30
0.0
  0
SEQEND
  5
85
330
84
100
AcDbEntity
  8
PREDEFINITO
  0
POLYLINE
  5
8B
330
1F
100
AcDbEntity
  8
PREDEFINITO
100
AcDb2dPolyline
 66
     1
 10
0.0
 20
0.0
 30
0.0
  0
VERTEX
  5
8D
330
8B
100
AcDbEntity
  8
PREDEFINITO
100
AcDbVertex
100
AcDb2dVertex
 10
550.5481039477287
 20
1374.9951938436
 30
0.0
  0
VERTEX
  5
8E
330
8B
100
AcDbEntity
  8
PREDEFINITO
100
AcDbVertex
100
AcDb2dVertex
 10
494.0521197937238
 20
1374.9951938436
 30
0.0
  0
VERTEX
  5
8F
330
8B
100
AcDbEntity
  8
PREDEFINITO
100
AcDbVertex
100
AcDb2dVertex
 10
511.7972675411244
 20
1365.472290916128
 30
0.0
  0
VERTEX
  5
90
330
8B
100
AcDbEntity
  8
PREDEFINITO
100
AcDbVertex
100
AcDb2dVertex
 10
532.7856026749029
 20
1365.472602045105
 30
0.0
  0
VERTEX
  5
91
330
8B
100
AcDbEntity
  8
PREDEFINITO
100
AcDbVertex
100
AcDb2dVertex
 10
550.5481039477287
 20
1374.9951938436
 30
0.0
  0
SEQEND
  5
8C
330
8B
100
AcDbEntity
  8
PREDEFINITO
  0
POLYLINE
  5
92
330
1F
100
AcDbEntity
  8
PREDEFINITO
100
AcDb2dPolyline
 66
     1
 10
0.0
 20
0.0
 30
0.0
  0
VERTEX
  5
94
330
92
100
AcDbEntity
  8
PREDEFINITO
100
AcDbVertex
100
AcDb2dVertex
 10
519.7474028443804
 20
1365.472412210411
 30
0.0
  0
VERTEX
  5
95
330
92
100
AcDbEntity
  8
PREDEFINITO
100
AcDbVertex
100
AcDb2dVertex
 10
525.7081964384671
 20
1365.472412210411
 30
0.0
  0
SEQEND
  5
93
330
92
100
AcDbEntity
  8
PREDEFINITO
  0
ARC
  5
96
330
1F
100
AcDbEntity
  8
PREDEFINITO
100
AcDbCircle
 10
522.7277996414238
 20
1376.457940446166
 30
0.0
 40
11.38264449442144
100
AcDbArc
 50
254.8209124093538
 51
285.1790875906462
  0
POLYLINE
  5
97
330
1F
100
AcDbEntity
  8
PREDEFINITO
100
AcDb2dPolyline
 66
     1
 10
0.0
 20
0.0
 30
0.0
  0
VERTEX
  5
99
330
97
100
AcDbEntity
  8
PREDEFINITO
100
AcDbVertex
100
AcDb2dVertex
 10
494.0521197937238
 20
1374.9951938436
 30
0.0
  0
VERTEX
  5
9A
330
97
100
AcDbEntity
  8
PREDEFINITO
100
AcDbVertex
100
AcDb2dVertex
 10
550.5481039477287
 20
1374.9951938436
 30
0.0
  0
VERTEX
  5
9B
330
97
100
AcDbEntity
  8
PREDEFINITO
100
AcDbVertex
100
AcDb2dVertex
 10
550.5481039477287
 20
1376.07209520628
 30
0.0
  0
VERTEX
  5
9C
330
97
100
AcDbEntity
  8
PREDEFINITO
100
AcDbVertex
100
AcDb2dVertex
 10
494.0521197937238
 20
1376.07209520628
 30
0.0
  0
VERTEX
  5
9D
330
97
100
AcDbEntity
  8
PREDEFINITO
100
AcDbVertex
100
AcDb2dVertex
 10
494.0521197937238
 20
1374.9951938436
 30
0.0
  0
SEQEND
  5
98
330
97
100
AcDbEntity
  8
PREDEFINITO
  0
POLYLINE
  5
9E
330
1F
100
AcDbEntity
  8
PREDEFINITO
100
AcDb2dPolyline
 66
     1
 10
0.0
 20
0.0
 30
0.0
  0
VERTEX
  5
A0
330
9E
100
AcDbEntity
  8
PREDEFINITO
100
AcDbVertex
100
AcDb2dVertex
 10
648.8659326590863
 20
1374.99519397615
 30
0.0
  0
VERTEX
  5
A1
330
9E
100
AcDbEntity
  8
PREDEFINITO
100
AcDbVertex
100
AcDb2dVertex
 10
592.3699485050814
 20
1374.99519397615
 30
0.0
  0
VERTEX
  5
A2
330
9E
100
AcDbEntity
  8
PREDEFINITO
100
AcDbVertex
100
AcDb2dVertex
 10
610.115096252482
 20
1365.472291048678
 30
0.0
  0
VERTEX
  5
A3
330
9E
100
AcDbEntity
  8
PREDEFINITO
100
AcDbVertex
100
AcDb2dVertex
 10
631.1034313862605
 20
1365.472602177655
 30
0.0
  0
VERTEX
  5
A4
330
9E
100
AcDbEntity
  8
PREDEFINITO
100
AcDbVertex
100
AcDb2dVertex
 10
648.8659326590863
 20
1374.99519397615
 30
0.0
  0
SEQEND
  5
9F
330
9E
100
AcDbEntity
  8
PREDEFINITO
  0
POLYLINE
  5
A5
330
1F
100
AcDbEntity
  8
PREDEFINITO
100
AcDb2dPolyline
 66
     1
 10
0.0
 20
0.0
 30
0.0
  0
VERTEX
  5
A7
330
A5
100
AcDbEntity
  8
PREDEFINITO
100
AcDbVertex
100
AcDb2dVertex
 10
618.065231555738
 20
1365.472412342961
 30
0.0
  0
VERTEX
  5
A8
330
A5
100
AcDbEntity
  8
PREDEFINITO
100
AcDbVertex
100
AcDb2dVertex
 10
624.0260251498247
 20
1365.472412342961
 30
0.0
  0
SEQEND
  5
A6
330
A5
100
AcDbEntity
  8
PREDEFINITO
  0
ARC
  5
A9
330
1F
100
AcDbEntity
  8
PREDEFINITO
100
AcDbCircle
 10
621.0456283527814
 20
1376.457940578715
 30
0.0
 40
11.38264449442144
100
AcDbArc
 50
254.8209124093538
 51
285.1790875906462
  0
POLYLINE
  5
AA
330
1F
100
AcDbEntity
  8
PREDEFINITO
100
AcDb2dPolyline
 66
     1
 10
0.0
 20
0.0
 30
0.0
  0
VERTEX
  5
AC
330
AA
100
AcDbEntity
  8
PREDEFINITO
100
AcDbVertex
100
AcDb2dVertex
 10
592.3699485050814
 20
1374.99519397615
 30
0.0
  0
VERTEX
  5
AD
330
AA
100
AcDbEntity
  8
PREDEFINITO
100
AcDbVertex
100
AcDb2dVertex
 10
648.8659326590863
 20
1374.99519397615
 30
0.0
  0
VERTEX
  5
AE
330
AA
100
AcDbEntity
  8
PREDEFINITO
100
AcDbVertex
100
AcDb2dVertex
 10
648.8659326590863
 20
1376.07209533883
 30
0.0
  0
VERTEX
  5
AF
330
AA
100
AcDbEntity
  8
PREDEFINITO
100
AcDbVertex
100
AcDb2dVertex
 10
592.3699485050814
 20
1376.07209533883
 30
0.0
  0
VERTEX
  5
B0
330
AA
100
AcDbEntity
  8
PREDEFINITO
100
AcDbVertex
100
AcDb2dVertex
 10
592.3699485050814
 20
1374.99519397615
 30
0.0
  0
SEQEND
  5
AB
330
AA
100
AcDbEntity
  8
PREDEFINITO
  0
POLYLINE
  5
B1
330
1F
100
AcDbEntity
  8
PREDEFINITO
100
AcDb2dPolyline
 66
     1
 10
0.0
 20
0.0
 30
0.0
  0
VERTEX
  5
B3
330
B1
100
AcDbEntity
  8
PREDEFINITO
100
AcDbVertex
100
AcDb2dVertex
 10
691.253008299169
 20
1374.9956365789
 30
0.0
  0
VERTEX
  5
B4
330
B1
100
AcDbEntity
  8
PREDEFINITO
100
AcDbVertex
100
AcDb2dVertex
 10
747.7489924531739
 20
1374.9956365789
 30
0.0
  0
VERTEX
  5
B5
330
B1
100
AcDbEntity
  8
PREDEFINITO
100
AcDbVertex
100
AcDb2dVertex
 10
747.7489924531739
 20
1376.072537941579
 30
0.0
  0
VERTEX
  5
B6
330
B1
100
AcDbEntity
  8
PREDEFINITO
100
AcDbVertex
100
AcDb2dVertex
 10
691.253008299169
 20
1376.072537941579
 30
0.0
  0
VERTEX
  5
B7
330
B1
100
AcDbEntity
  8
PREDEFINITO
100
AcDbVertex
100
AcDb2dVertex
 10
691.253008299169
 20
1374.9956365789
 30
0.0
  0
SEQEND
  5
B2
330
B1
100
AcDbEntity
  8
PREDEFINITO
  0
POLYLINE
  5
B8
330
1F
100
AcDbEntity
  8
PREDEFINITO
100
AcDb2dPolyline
 66
     1
 10
0.0
 20
0.0
 30
0.0
  0
VERTEX
  5
BA
330
B8
100
AcDbEntity
  8
PREDEFINITO
100
AcDbVertex
100
AcDb2dVertex
 10
716.9482913498256
 20
1365.472854945711
 30
0.0
  0
VERTEX
  5
BB
330
B8
100
AcDbEntity
  8
PREDEFINITO
100
AcDbVertex
100
AcDb2dVertex
 10
722.9090849439123
 20
1365.47285494571
 30
0.0
  0
SEQEND
  5
B9
330
B8
100
AcDbEntity
  8
PREDEFINITO
  0
ARC
  5
BC
330
1F
100
AcDbEntity
  8
PREDEFINITO
100
AcDbCircle
 10
719.9286881468689
 20
1376.458383181465
 30
0.0
 40
11.38264449442144
100
AcDbArc
 50
254.8209124093538
 51
285.1790875906462
  0
POLYLINE
  5
BD
330
1F
100
AcDbEntity
  8
PREDEFINITO
100
AcDb2dPolyline
 66
     1
 10
0.0
 20
0.0
 30
0.0
  0
VERTEX
  5
BF
330
BD
100
AcDbEntity
  8
PREDEFINITO
100
AcDbVertex
100
AcDb2dVertex
 10
747.7489924531739
 20
1374.9956365789
 30
0.0
  0
VERTEX
  5
C0
330
BD
100
AcDbEntity
  8
PREDEFINITO
100
AcDbVertex
100
AcDb2dVertex
 10
691.253008299169
 20
1374.9956365789
 30
0.0
  0
VERTEX
  5
C1
330
BD
100
AcDbEntity
  8
PREDEFINITO
100
AcDbVertex
100
AcDb2dVertex
 10
708.9981560465695
 20
1365.472733651428
 30
0.0
  0
VERTEX
  5
C2
330
BD
100
AcDbEntity
  8
PREDEFINITO
100
AcDbVertex
100
AcDb2dVertex
 10
729.986491180348
 20
1365.473044780405
 30
0.0
  0
VERTEX
  5
C3
330
BD
100
AcDbEntity
  8
PREDEFINITO
100
AcDbVertex
100
AcDb2dVertex
 10
747.7489924531739
 20
1374.9956365789
 30
0.0
  0
SEQEND
  5
BE
330
BD
100
AcDbEntity
  8
PREDEFINITO
  0
POLYLINE
  5
C4
330
1F
100
AcDbEntity
  8
PREDEFINITO
100
AcDb2dPolyline
 66
     1
 10
0.0
 20
0.0
 30
0.0
  0
VERTEX
  5
C6
330
C4
100
AcDbEntity
  8
PREDEFINITO
100
AcDbVertex
100
AcDb2dVertex
 10
430.7041510010297
 20
1389.07257971099
 30
0.0
  0
VERTEX
  5
C7
330
C4
100
AcDbEntity
  8
PREDEFINITO
100
AcDbVertex
100
AcDb2dVertex
 10
449.1869261540767
 20
1389.07257971099
 30
0.0
  0
VERTEX
  5
C8
330
C4
100
AcDbEntity
  8
PREDEFINITO
100
AcDbVertex
100
AcDb2dVertex
 10
449.1869261540767
 20
1432.572579711434
 30
0.0
  0
VERTEX
  5
C9
330
C4
100
AcDbEntity
  8
PREDEFINITO
100
AcDbVertex
100
AcDb2dVertex
 10
430.7041510010297
 20
1432.572579711434
 30
0.0
  0
VERTEX
  5
CA
330
C4
100
AcDbEntity
  8
PREDEFINITO
100
AcDbVertex
100
AcDb2dVertex
 10
430.7041510010297
 20
1389.07257971099
 30
0.0
  0
SEQEND
  5
C5
330
C4
100
AcDbEntity
  8
PREDEFINITO
  0
POLYLINE
  5
CB
330
1F
100
AcDbEntity
  8
PREDEFINITO
100
AcDb2dPolyline
 66
     1
 10
0.0
 20
0.0
 30
0.0
  0
VERTEX
  5
CD
330
CB
100
AcDbEntity
  8
PREDEFINITO
100
AcDbVertex
100
AcDb2dVertex
 10
639.4743790085173
 20
1389.070758889903
 30
0.0
  0
VERTEX
  5
CE
330
CB
100
AcDbEntity
  8
PREDEFINITO
100
AcDbVertex
100
AcDb2dVertex
 10
800.469639443207
 20
1389.070758889903
 30
0.0
  0
SEQEND
  5
CC
330
CB
100
AcDbEntity
  8
PREDEFINITO
  0
SPLINE
  5
CF
330
1F
100
AcDbEntity
  8
PREDEFINITO
100
AcDbSpline
210
0.0
220
0.0
230
1.0
 70
    24
 71
     2
 72
     6
 73
     3
 74
     0
 42
0.0000000001
 43
0.0000000001
 40
-61.3064002282361
 40
-61.3064002282361
 40
-61.3064002282361
 40
0.0
 40
0.0
 40
0.0
 10
800.469639443207
 20
1389.070758889903
 30
0.0
 10
822.0704676899246
 20
1410.819848479147
 30
0.0
 10
843.6712959366422
 20
1432.56893806839
 30
0.0
  0
SPLINE
  5
D0
330
1F
100
AcDbEntity
  8
PREDEFINITO
100
AcDbSpline
210
0.0
220
0.0
230
1.0
 70
    12
 71
     2
 72
     8
 73
     5
 74
     0
 42
0.0000000001
 43
0.0000000001
 40
0.0
 40
0.0
 40
0.0
 40
247.2860871955552
 40
247.2860871955552
 40
494.8284271247481
 40
494.8284271247481
 40
494.8284271247481
 10
843.6712959366422
 20
1432.56893806839
 30
0.0
 41
0.9993942289441665
 10
844.8308240041391
 20
1432.570758889912
 30
0.0
 41
0.7074099805826868
 10
721.3120166535272
 20
1432.570758889912
 30
0.0
 41
1.0
 10
597.6121933246418
 20
1432.570758889912
 30
0.0
 41
0.707106781186548
 10
596.2698161143288
 20
1432.570758889912
 30
0.0
 41
1.0
  0
SPLINE
  5
D1
330
1F
100
AcDbEntity
  8
PREDEFINITO
100
AcDbSpline
210
0.0
220
0.0
230
1.0
 70
    24
 71
     2
 72
     6
 73
     3
 74
     0
 42
0.0000000001
 43
0.0000000001
 40
0.0
 40
0.0
 40
0.0
 40
61.30974029368171
 40
61.30974029368171
 40
61.30974029368171
 10
596.2698161143288
 20
1432.570758889912
 30
0.0
 10
617.8720975614231
 20
1410.820758889908
 30
0.0
 10
639.4743790085173
 20
1389.070758889903
 30
0.0
  0
POLYLINE
  5
D2
330
1F
100
AcDbEntity
  8
PREDEFINITO
100
AcDb2dPolyline
 66
     1
 10
0.0
 20
0.0
 30
0.0
  0
VERTEX
  5
D4
330
D2
100
AcDbEntity
  8
PREDEFINITO
100
AcDbVertex
100
AcDb2dVertex
 10
1851.965395047166
 20
1374.994356012434
 30
0.0
  0
VERTEX
  5
D5
330
D2
100
AcDbEntity
  8
PREDEFINITO
100
AcDbVertex
100
AcDb2dVertex
 10
1795.469410893161
 20
1374.994356012434
 30
0.0
  0
VERTEX
  5
D6
330
D2
100
AcDbEntity
  8
PREDEFINITO
100
AcDbVertex
100
AcDb2dVertex
 10
1813.214558640562
 20
1365.471453084962
 30
0.0
  0
VERTEX
  5
D7
330
D2
100
AcDbEntity
  8
PREDEFINITO
100
AcDbVertex
100
AcDb2dVertex
 10
1834.202893774341
 20
1365.471764213939
 30
0.0
  0
VERTEX
  5
D8
330
D2
100
AcDbEntity
  8
PREDEFINITO
100
AcDbVertex
100
AcDb2dVertex
 10
1851.965395047166
 20
1374.994356012434
 30
0.0
  0
SEQEND
  5
D3
330
D2
100
AcDbEntity
  8
PREDEFINITO
  0
POLYLINE
  5
D9
330
1F
100
AcDbEntity
  8
PREDEFINITO
100
AcDb2dPolyline
 66
     1
 10
0.0
 20
0.0
 30
0.0
  0
VERTEX
  5
DB
330
D9
100
AcDbEntity
  8
PREDEFINITO
100
AcDbVertex
100
AcDb2dVertex
 10
1821.164693943818
 20
1365.471574379245
 30
0.0
  0
VERTEX
  5
DC
330
D9
100
AcDbEntity
  8
PREDEFINITO
100
AcDbVertex
100
AcDb2dVertex
 10
1827.125487537905
 20
1365.471574379245
 30
0.0
  0
SEQEND
  5
DA
330
D9
100
AcDbEntity
  8
PREDEFINITO
  0
ARC
  5
DD
330
1F
100
AcDbEntity
  8
PREDEFINITO
100
AcDbCircle
 10
1824.145090740861
 20
1376.457102615
 30
0.0
 40
11.38264449442144
100
AcDbArc
 50
254.8209124093538
 51
285.1790875906462
  0
POLYLINE
  5
DE
330
1F
100
AcDbEntity
  8
PREDEFINITO
100
AcDb2dPolyline
 66
     1
 10
0.0
 20
0.0
 30
0.0
  0
VERTEX
  5
E0
330
DE
100
AcDbEntity
  8
PREDEFINITO
100
AcDbVertex
100
AcDb2dVertex
 10
1795.469410893161
 20
1374.994356012434
 30
0.0
  0
VERTEX
  5
E1
330
DE
100
AcDbEntity
  8
PREDEFINITO
100
AcDbVertex
100
AcDb2dVertex
 10
1851.965395047166
 20
1374.994356012434
 30
0.0
  0
VERTEX
  5
E2
330
DE
100
AcDbEntity
  8
PREDEFINITO
100
AcDbVertex
100
AcDb2dVertex
 10
1851.965395047166
 20
1376.071257375114
 30
0.0
  0
VERTEX
  5
E3
330
DE
100
AcDbEntity
  8
PREDEFINITO
100
AcDbVertex
100
AcDb2dVertex
 10
1795.469410893161
 20
1376.071257375114
 30
0.0
  0
VERTEX
  5
E4
330
DE
100
AcDbEntity
  8
PREDEFINITO
100
AcDbVertex
100
AcDb2dVertex
 10
1795.469410893161
 20
1374.994356012434
 30
0.0
  0
SEQEND
  5
DF
330
DE
100
AcDbEntity
  8
PREDEFINITO
  0
POLYLINE
  5
E5
330
1F
100
AcDbEntity
  8
PREDEFINITO
100
AcDb2dPolyline
 66
     1
 10
0.0
 20
0.0
 30
0.0
  0
VERTEX
  5
E7
330
E5
100
AcDbEntity
  8
PREDEFINITO
100
AcDbVertex
100
AcDb2dVertex
 10
1991.951206800789
 20
1365.471585201697
 30
0.0
  0
VERTEX
  5
E8
330
E5
100
AcDbEntity
  8
PREDEFINITO
100
AcDbVertex
100
AcDb2dVertex
 10
1997.912000394875
 20
1365.471585201696
 30
0.0
  0
SEQEND
  5
E6
330
E5
100
AcDbEntity
  8
PREDEFINITO
  0
ARC
  5
E9
330
1F
100
AcDbEntity
  8
PREDEFINITO
100
AcDbCircle
 10
1994.931603597832
 20
1376.457113437451
 30
0.0
 40
11.38264449442144
100
AcDbArc
 50
254.8209124093538
 51
285.1790875906462
  0
POLYLINE
  5
EA
330
1F
100
AcDbEntity
  8
PREDEFINITO
100
AcDb2dPolyline
 66
     1
 10
0.0
 20
0.0
 30
0.0
  0
VERTEX
  5
EC
330
EA
100
AcDbEntity
  8
PREDEFINITO
100
AcDbVertex
100
AcDb2dVertex
 10
1966.129990851636
 20
1374.994378821689
 30
0.0
  0
VERTEX
  5
ED
330
EA
100
AcDbEntity
  8
PREDEFINITO
100
AcDbVertex
100
AcDb2dVertex
 10
1909.634006697631
 20
1374.994378821689
 30
0.0
  0
VERTEX
  5
EE
330
EA
100
AcDbEntity
  8
PREDEFINITO
100
AcDbVertex
100
AcDb2dVertex
 10
1927.379154445032
 20
1365.471475894218
 30
0.0
  0
VERTEX
  5
EF
330
EA
100
AcDbEntity
  8
PREDEFINITO
100
AcDbVertex
100
AcDb2dVertex
 10
1948.36748957881
 20
1365.471787023195
 30
0.0
  0
VERTEX
  5
F0
330
EA
100
AcDbEntity
  8
PREDEFINITO
100
AcDbVertex
100
AcDb2dVertex
 10
1966.129990851636
 20
1374.994378821689
 30
0.0
  0
SEQEND
  5
EB
330
EA
100
AcDbEntity
  8
PREDEFINITO
  0
POLYLINE
  5
F1
330
1F
100
AcDbEntity
  8
PREDEFINITO
100
AcDb2dPolyline
 66
     1
 10
0.0
 20
0.0
 30
0.0
  0
VERTEX
  5
F3
330
F1
100
AcDbEntity
  8
PREDEFINITO
100
AcDbVertex
100
AcDb2dVertex
 10
2022.751907904137
 20
1374.994366834886
 30
0.0
  0
VERTEX
  5
F4
330
F1
100
AcDbEntity
  8
PREDEFINITO
100
AcDbVertex
100
AcDb2dVertex
 10
1966.255923750132
 20
1374.994366834886
 30
0.0
  0
VERTEX
  5
F5
330
F1
100
AcDbEntity
  8
PREDEFINITO
100
AcDbVertex
100
AcDb2dVertex
 10
1984.001071497533
 20
1365.471463907414
 30
0.0
  0
VERTEX
  5
F6
330
F1
100
AcDbEntity
  8
PREDEFINITO
100
AcDbVertex
100
AcDb2dVertex
 10
2004.989406631311
 20
1365.471775036391
 30
0.0
  0
VERTEX
  5
F7
330
F1
100
AcDbEntity
  8
PREDEFINITO
100
AcDbVertex
100
AcDb2dVertex
 10
2022.751907904137
 20
1374.994366834886
 30
0.0
  0
SEQEND
  5
F2
330
F1
100
AcDbEntity
  8
PREDEFINITO
  0
POLYLINE
  5
F8
330
1F
100
AcDbEntity
  8
PREDEFINITO
100
AcDb2dPolyline
 66
     1
 10
0.0
 20
0.0
 30
0.0
  0
VERTEX
  5
FA
330
F8
100
AcDbEntity
  8
PREDEFINITO
100
AcDbVertex
100
AcDb2dVertex
 10
1935.329289748288
 20
1365.4715971885
 30
0.0
  0
VERTEX
  5
FB
330
F8
100
AcDbEntity
  8
PREDEFINITO
100
AcDbVertex
100
AcDb2dVertex
 10
1941.290083342374
 20
1365.4715971885
 30
0.0
  0
SEQEND
  5
F9
330
F8
100
AcDbEntity
  8
PREDEFINITO
  0
ARC
  5
FC
330
1F
100
AcDbEntity
  8
PREDEFINITO
100
AcDbCircle
 10
1938.309686545331
 20
1376.457125424255
 30
0.0
 40
11.38264449442144
100
AcDbArc
 50
254.8209124093538
 51
285.1790875906462
  0
POLYLINE
  5
FD
330
1F
100
AcDbEntity
  8
PREDEFINITO
100
AcDb2dPolyline
 66
     1
 10
0.0
 20
0.0
 30
0.0
  0
VERTEX
  5
FF
330
FD
100
AcDbEntity
  8
PREDEFINITO
100
AcDbVertex
100
AcDb2dVertex
 10
1966.255923750132
 20
1374.994366834886
 30
0.0
  0
VERTEX
  5
100
330
FD
100
AcDbEntity
  8
PREDEFINITO
100
AcDbVertex
100
AcDb2dVertex
 10
2022.751907904137
 20
1374.994366834886
 30
0.0
  0
VERTEX
  5
101
330
FD
100
AcDbEntity
  8
PREDEFINITO
100
AcDbVertex
100
AcDb2dVertex
 10
2022.751907904137
 20
1376.071268197565
 30
0.0
  0
VERTEX
  5
102
330
FD
100
AcDbEntity
  8
PREDEFINITO
100
AcDbVertex
100
AcDb2dVertex
 10
1966.255923750132
 20
1376.071268197565
 30
0.0
  0
VERTEX
  5
103
330
FD
100
AcDbEntity
  8
PREDEFINITO
100
AcDbVertex
100
AcDb2dVertex
 10
1966.255923750132
 20
1374.994366834886
 30
0.0
  0
SEQEND
  5
FE
330
FD
100
AcDbEntity
  8
PREDEFINITO
  0
POLYLINE
  5
104
330
1F
100
AcDbEntity
  8
PREDEFINITO
100
AcDb2dPolyline
 66
     1
 10
0.0
 20
0.0
 30
0.0
  0
VERTEX
  5
106
330
104
100
AcDbEntity
  8
PREDEFINITO
100
AcDbVertex
100
AcDb2dVertex
 10
1909.634006697631
 20
1374.994378821689
 30
0.0
  0
VERTEX
  5
107
330
104
100
AcDbEntity
  8
PREDEFINITO
100
AcDbVertex
100
AcDb2dVertex
 10
1966.129990851636
 20
1374.994378821689
 30
0.0
  0
VERTEX
  5
108
330
104
100
AcDbEntity
  8
PREDEFINITO
100
AcDbVertex
100
AcDb2dVertex
 10
1966.129990851636
 20
1376.071280184369
 30
0.0
  0
VERTEX
  5
109
330
104
100
AcDbEntity
  8
PREDEFINITO
100
AcDbVertex
100
AcDb2dVertex
 10
1909.634006697631
 20
1376.071280184369
 30
0.0
  0
VERTEX
  5
10A
330
104
100
AcDbEntity
  8
PREDEFINITO
100
AcDbVertex
100
AcDb2dVertex
 10
1909.634006697631
 20
1374.994378821689
 30
0.0
  0
SEQEND
  5
105
330
104
100
AcDbEntity
  8
PREDEFINITO
  0
POLYLINE
  5
10B
330
1F
100
AcDbEntity
  8
PREDEFINITO
100
AcDb2dPolyline
 66
     1
 10
0.0
 20
0.0
 30
0.0
  0
VERTEX
  5
10D
330
10B
100
AcDbEntity
  8
PREDEFINITO
100
AcDbVertex
100
AcDb2dVertex
 10
2081.066818207939
 20
1374.995197360171
 30
0.0
  0
VERTEX
  5
10E
330
10B
100
AcDbEntity
  8
PREDEFINITO
100
AcDbVertex
100
AcDb2dVertex
 10
2137.562802361944
 20
1374.995197360171
 30
0.0
  0
VERTEX
  5
10F
330
10B
100
AcDbEntity
  8
PREDEFINITO
100
AcDbVertex
100
AcDb2dVertex
 10
2137.562802361944
 20
1376.072098722851
 30
0.0
  0
VERTEX
  5
110
330
10B
100
AcDbEntity
  8
PREDEFINITO
100
AcDbVertex
100
AcDb2dVertex
 10
2081.066818207939
 20
1376.072098722851
 30
0.0
  0
VERTEX
  5
111
330
10B
100
AcDbEntity
  8
PREDEFINITO
100
AcDbVertex
100
AcDb2dVertex
 10
2081.066818207939
 20
1374.995197360171
 30
0.0
  0
SEQEND
  5
10C
330
10B
100
AcDbEntity
  8
PREDEFINITO
  0
POLYLINE
  5
112
330
1F
100
AcDbEntity
  8
PREDEFINITO
100
AcDb2dPolyline
 66
     1
 10
0.0
 20
0.0
 30
0.0
  0
VERTEX
  5
114
330
112
100
AcDbEntity
  8
PREDEFINITO
100
AcDbVertex
100
AcDb2dVertex
 10
2137.68873526044
 20
1374.995185373368
 30
0.0
  0
VERTEX
  5
115
330
112
100
AcDbEntity
  8
PREDEFINITO
100
AcDbVertex
100
AcDb2dVertex
 10
2194.184719414445
 20
1374.995185373368
 30
0.0
  0
VERTEX
  5
116
330
112
100
AcDbEntity
  8
PREDEFINITO
100
AcDbVertex
100
AcDb2dVertex
 10
2194.184719414445
 20
1376.072086736047
 30
0.0
  0
VERTEX
  5
117
330
112
100
AcDbEntity
  8
PREDEFINITO
100
AcDbVertex
100
AcDb2dVertex
 10
2137.68873526044
 20
1376.072086736047
 30
0.0
  0
VERTEX
  5
118
330
112
100
AcDbEntity
  8
PREDEFINITO
100
AcDbVertex
100
AcDb2dVertex
 10
2137.68873526044
 20
1374.995185373368
 30
0.0
  0
SEQEND
  5
113
330
112
100
AcDbEntity
  8
PREDEFINITO
  0
POLYLINE
  5
119
330
1F
100
AcDbEntity
  8
PREDEFINITO
100
AcDb2dPolyline
 66
     1
 10
0.0
 20
0.0
 30
0.0
  0
VERTEX
  5
11B
330
119
100
AcDbEntity
  8
PREDEFINITO
100
AcDbVertex
100
AcDb2dVertex
 10
2106.762101258596
 20
1365.472415726982
 30
0.0
  0
VERTEX
  5
11C
330
119
100
AcDbEntity
  8
PREDEFINITO
100
AcDbVertex
100
AcDb2dVertex
 10
2112.722894852683
 20
1365.472415726982
 30
0.0
  0
SEQEND
  5
11A
330
119
100
AcDbEntity
  8
PREDEFINITO
  0
ARC
  5
11D
330
1F
100
AcDbEntity
  8
PREDEFINITO
100
AcDbCircle
 10
2109.742498055639
 20
1376.457943962737
 30
0.0
 40
11.38264449442144
100
AcDbArc
 50
254.8209124093538
 51
285.1790875906462
  0
POLYLINE
  5
11E
330
1F
100
AcDbEntity
  8
PREDEFINITO
100
AcDb2dPolyline
 66
     1
 10
0.0
 20
0.0
 30
0.0
  0
VERTEX
  5
120
330
11E
100
AcDbEntity
  8
PREDEFINITO
100
AcDbVertex
100
AcDb2dVertex
 10
2194.184719414445
 20
1374.995185373368
 30
0.0
  0
VERTEX
  5
121
330
11E
100
AcDbEntity
  8
PREDEFINITO
100
AcDbVertex
100
AcDb2dVertex
 10
2137.68873526044
 20
1374.995185373368
 30
0.0
  0
VERTEX
  5
122
330
11E
100
AcDbEntity
  8
PREDEFINITO
100
AcDbVertex
100
AcDb2dVertex
 10
2155.433883007841
 20
1365.472282445896
 30
0.0
  0
VERTEX
  5
123
330
11E
100
AcDbEntity
  8
PREDEFINITO
100
AcDbVertex
100
AcDb2dVertex
 10
2176.422218141619
 20
1365.472593574873
 30
0.0
  0
VERTEX
  5
124
330
11E
100
AcDbEntity
  8
PREDEFINITO
100
AcDbVertex
100
AcDb2dVertex
 10
2194.184719414445
 20
1374.995185373368
 30
0.0
  0
SEQEND
  5
11F
330
11E
100
AcDbEntity
  8
PREDEFINITO
  0
POLYLINE
  5
125
330
1F
100
AcDbEntity
  8
PREDEFINITO
100
AcDb2dPolyline
 66
     1
 10
0.0
 20
0.0
 30
0.0
  0
VERTEX
  5
127
330
125
100
AcDbEntity
  8
PREDEFINITO
100
AcDbVertex
100
AcDb2dVertex
 10
2137.562802361944
 20
1374.995197360171
 30
0.0
  0
VERTEX
  5
128
330
125
100
AcDbEntity
  8
PREDEFINITO
100
AcDbVertex
100
AcDb2dVertex
 10
2081.066818207939
 20
1374.995197360171
 30
0.0
  0
VERTEX
  5
129
330
125
100
AcDbEntity
  8
PREDEFINITO
100
AcDbVertex
100
AcDb2dVertex
 10
2098.81196595534
 20
1365.4722944327
 30
0.0
  0
VERTEX
  5
12A
330
125
100
AcDbEntity
  8
PREDEFINITO
100
AcDbVertex
100
AcDb2dVertex
 10
2119.800301089118
 20
1365.472605561677
 30
0.0
  0
VERTEX
  5
12B
330
125
100
AcDbEntity
  8
PREDEFINITO
100
AcDbVertex
100
AcDb2dVertex
 10
2137.562802361944
 20
1374.995197360171
 30
0.0
  0
SEQEND
  5
126
330
125
100
AcDbEntity
  8
PREDEFINITO
  0
POLYLINE
  5
12C
330
1F
100
AcDbEntity
  8
PREDEFINITO
100
AcDb2dPolyline
 66
     1
 10
0.0
 20
0.0
 30
0.0
  0
VERTEX
  5
12E
330
12C
100
AcDbEntity
  8
PREDEFINITO
100
AcDbVertex
100
AcDb2dVertex
 10
2163.384018311097
 20
1365.472403740179
 30
0.0
  0
VERTEX
  5
12F
330
12C
100
AcDbEntity
  8
PREDEFINITO
100
AcDbVertex
100
AcDb2dVertex
 10
2169.344811905184
 20
1365.472403740178
 30
0.0
  0
SEQEND
  5
12D
330
12C
100
AcDbEntity
  8
PREDEFINITO
  0
ARC
  5
130
330
1F
100
AcDbEntity
  8
PREDEFINITO
100
AcDbCircle
 10
2166.36441510814
 20
1376.457931975933
 30
0.0
 40
11.38264449442144
100
AcDbArc
 50
254.8209124093538
 51
285.1790875906462
  0
POLYLINE
  5
131
330
1F
100
AcDbEntity
  8
PREDEFINITO
100
AcDb2dPolyline
 66
     1
 10
0.0
 20
0.0
 30
0.0
  0
VERTEX
  5
133
330
131
100
AcDbEntity
  8
PREDEFINITO
100
AcDbVertex
100
AcDb2dVertex
 10
1803.343832006413
 20
1376.071257375114
 30
0.0
  0
VERTEX
  5
134
330
131
100
AcDbEntity
  8
PREDEFINITO
100
AcDbVertex
100
AcDb2dVertex
 10
2365.08238799368
 20
1376.071257375114
 30
0.0
  0
VERTEX
  5
135
330
131
100
AcDbEntity
  8
PREDEFINITO
100
AcDbVertex
100
AcDb2dVertex
 10
2365.08238799368
 20
1389.071688227082
 30
0.0
  0
VERTEX
  5
136
330
131
100
AcDbEntity
  8
PREDEFINITO
100
AcDbVertex
100
AcDb2dVertex
 10
1803.343832006413
 20
1389.071688227082
 30
0.0
  0
VERTEX
  5
137
330
131
100
AcDbEntity
  8
PREDEFINITO
100
AcDbVertex
100
AcDb2dVertex
 10
1803.343832006413
 20
1376.071257375114
 30
0.0
  0
SEQEND
  5
132
330
131
100
AcDbEntity
  8
PREDEFINITO
  0
POLYLINE
  5
138
330
1F
100
AcDbEntity
  8
PREDEFINITO
100
AcDb2dPolyline
 66
     1
 10
0.0
 20
0.0
 30
0.0
  0
VERTEX
  5
13A
330
138
100
AcDbEntity
  8
PREDEFINITO
100
AcDbVertex
100
AcDb2dVertex
 10
2308.586403839675
 20
1374.994356012435
 30
0.0
  0
VERTEX
  5
13B
330
138
100
AcDbEntity
  8
PREDEFINITO
100
AcDbVertex
100
AcDb2dVertex
 10
2365.08238799368
 20
1374.994356012435
 30
0.0
  0
VERTEX
  5
13C
330
138
100
AcDbEntity
  8
PREDEFINITO
100
AcDbVertex
100
AcDb2dVertex
 10
2365.08238799368
 20
1376.071257375114
 30
0.0
  0
VERTEX
  5
13D
330
138
100
AcDbEntity
  8
PREDEFINITO
100
AcDbVertex
100
AcDb2dVertex
 10
2308.586403839675
 20
1376.071257375114
 30
0.0
  0
VERTEX
  5
13E
330
138
100
AcDbEntity
  8
PREDEFINITO
100
AcDbVertex
100
AcDb2dVertex
 10
2308.586403839675
 20
1374.994356012435
 30
0.0
  0
SEQEND
  5
139
330
138
100
AcDbEntity
  8
PREDEFINITO
  0
POLYLINE
  5
13F
330
1F
100
AcDbEntity
  8
PREDEFINITO
100
AcDb2dPolyline
 66
     1
 10
0.0
 20
0.0
 30
0.0
  0
VERTEX
  5
141
330
13F
100
AcDbEntity
  8
PREDEFINITO
100
AcDbVertex
100
AcDb2dVertex
 10
2334.281686890331
 20
1365.471574379246
 30
0.0
  0
VERTEX
  5
142
330
13F
100
AcDbEntity
  8
PREDEFINITO
100
AcDbVertex
100
AcDb2dVertex
 10
2340.242480484418
 20
1365.471574379245
 30
0.0
  0
SEQEND
  5
140
330
13F
100
AcDbEntity
  8
PREDEFINITO
  0
ARC
  5
143
330
1F
100
AcDbEntity
  8
PREDEFINITO
100
AcDbCircle
 10
2337.262083687375
 20
1376.457102615
 30
0.0
 40
11.38264449442144
100
AcDbArc
 50
254.8209124093538
 51
285.1790875906462
  0
POLYLINE
  5
144
330
1F
100
AcDbEntity
  8
PREDEFINITO
100
AcDb2dPolyline
 66
     1
 10
0.0
 20
0.0
 30
0.0
  0
VERTEX
  5
146
330
144
100
AcDbEntity
  8
PREDEFINITO
100
AcDbVertex
100
AcDb2dVertex
 10
2365.08238799368
 20
1374.994356012435
 30
0.0
  0
VERTEX
  5
147
330
144
100
AcDbEntity
  8
PREDEFINITO
100
AcDbVertex
100
AcDb2dVertex
 10
2308.586403839675
 20
1374.994356012435
 30
0.0
  0
VERTEX
  5
148
330
144
100
AcDbEntity
  8
PREDEFINITO
100
AcDbVertex
100
AcDb2dVertex
 10
2326.331551587075
 20
1365.471453084963
 30
0.0
  0
VERTEX
  5
149
330
144
100
AcDbEntity
  8
PREDEFINITO
100
AcDbVertex
100
AcDb2dVertex
 10
2347.319886720854
 20
1365.47176421394
 30
0.0
  0
VERTEX
  5
14A
330
144
100
AcDbEntity
  8
PREDEFINITO
100
AcDbVertex
100
AcDb2dVertex
 10
2365.08238799368
 20
1374.994356012435
 30
0.0
  0
SEQEND
  5
145
330
144
100
AcDbEntity
  8
PREDEFINITO
  0
POLYLINE
  5
14B
330
1F
100
AcDbEntity
  8
PREDEFINITO
100
AcDb2dPolyline
 66
     1
 10
0.0
 20
0.0
 30
0.0
  0
VERTEX
  5
14D
330
14B
100
AcDbEntity
  8
PREDEFINITO
100
AcDbVertex
100
AcDb2dVertex
 10
2277.65976983783
 20
1365.471586366049
 30
0.0
  0
VERTEX
  5
14E
330
14B
100
AcDbEntity
  8
PREDEFINITO
100
AcDbVertex
100
AcDb2dVertex
 10
2283.620563431917
 20
1365.471586366049
 30
0.0
  0
SEQEND
  5
14C
330
14B
100
AcDbEntity
  8
PREDEFINITO
  0
ARC
  5
14F
330
1F
100
AcDbEntity
  8
PREDEFINITO
100
AcDbCircle
 10
2280.640166634874
 20
1376.457114601804
 30
0.0
 40
11.38264449442144
100
AcDbArc
 50
254.8209124093538
 51
285.1790875906462
  0
POLYLINE
  5
150
330
1F
100
AcDbEntity
  8
PREDEFINITO
100
AcDb2dPolyline
 66
     1
 10
0.0
 20
0.0
 30
0.0
  0
VERTEX
  5
152
330
150
100
AcDbEntity
  8
PREDEFINITO
100
AcDbVertex
100
AcDb2dVertex
 10
2308.460470941179
 20
1374.994367999238
 30
0.0
  0
VERTEX
  5
153
330
150
100
AcDbEntity
  8
PREDEFINITO
100
AcDbVertex
100
AcDb2dVertex
 10
2251.964486787174
 20
1374.994367999238
 30
0.0
  0
VERTEX
  5
154
330
150
100
AcDbEntity
  8
PREDEFINITO
100
AcDbVertex
100
AcDb2dVertex
 10
2269.709634534574
 20
1365.471465071766
 30
0.0
  0
VERTEX
  5
155
330
150
100
AcDbEntity
  8
PREDEFINITO
100
AcDbVertex
100
AcDb2dVertex
 10
2290.697969668353
 20
1365.471776200744
 30
0.0
  0
VERTEX
  5
156
330
150
100
AcDbEntity
  8
PREDEFINITO
100
AcDbVertex
100
AcDb2dVertex
 10
2308.460470941179
 20
1374.994367999238
 30
0.0
  0
SEQEND
  5
151
330
150
100
AcDbEntity
  8
PREDEFINITO
  0
POLYLINE
  5
157
330
1F
100
AcDbEntity
  8
PREDEFINITO
100
AcDb2dPolyline
 66
     1
 10
0.0
 20
0.0
 30
0.0
  0
VERTEX
  5
159
330
157
100
AcDbEntity
  8
PREDEFINITO
100
AcDbVertex
100
AcDb2dVertex
 10
2251.964486787174
 20
1374.994367999238
 30
0.0
  0
VERTEX
  5
15A
330
157
100
AcDbEntity
  8
PREDEFINITO
100
AcDbVertex
100
AcDb2dVertex
 10
2308.460470941179
 20
1374.994367999238
 30
0.0
  0
VERTEX
  5
15B
330
157
100
AcDbEntity
  8
PREDEFINITO
100
AcDbVertex
100
AcDb2dVertex
 10
2308.460470941179
 20
1376.071269361918
 30
0.0
  0
VERTEX
  5
15C
330
157
100
AcDbEntity
  8
PREDEFINITO
100
AcDbVertex
100
AcDb2dVertex
 10
2251.964486787174
 20
1376.071269361918
 30
0.0
  0
VERTEX
  5
15D
330
157
100
AcDbEntity
  8
PREDEFINITO
100
AcDbVertex
100
AcDb2dVertex
 10
2251.964486787174
 20
1374.994367999238
 30
0.0
  0
SEQEND
  5
158
330
157
100
AcDbEntity
  8
PREDEFINITO
  0
SPLINE
  5
15E
330
1F
100
AcDbEntity
  8
PREDEFINITO
100
AcDbSpline
210
0.0
220
0.0
230
1.0
 70
    28
 71
     2
 72
     6
 73
     3
 74
     0
 42
0.0000000001
 43
0.0000000001
 40
337.5339545703279
 40
337.5339545703279
 40
337.5339545703279
 40
403.8799835693816
 40
403.8799835693816
 40
403.8799835693816
 10
1858.903680850021
 20
601.3276709929463
 30
0.0
 41
1.0
 10
1847.557841676388
 20
570.1552340584515
 30
0.0
 41
1.0
 10
1836.212002502754
 20
538.9827971239567
 30
0.0
 41
1.0
  0
POLYLINE
  5
15F
330
1F
100
AcDbEntity
  8
PREDEFINITO
100
AcDb2dPolyline
 66
     1
 10
0.0
 20
0.0
 30
0.0
  0
VERTEX
  5
161
330
15F
100
AcDbEntity
  8
PREDEFINITO
100
AcDbVertex
100
AcDb2dVertex
 10
1836.212002502754
 20
538.9827971239567
 30
0.0
  0
VERTEX
  5
162
330
15F
100
AcDbEntity
  8
PREDEFINITO
100
AcDbVertex
100
AcDb2dVertex
 10
1836.040915012905
 20
538.512738108844
 30
0.0
  0
SEQEND
  5
160
330
15F
100
AcDbEntity
  8
PREDEFINITO
  0
SPLINE
  5
163
330
1F
100
AcDbEntity
  8
PREDEFINITO
100
AcDbSpline
210
0.0
220
0.0
230
1.0
 70
    12
 71
     2
 72
     6
 73
     3
 74
     0
 42
0.0000000001
 43
0.0000000001
 40
61.44812088877961
 40
61.44812088877961
 40
61.44812088877961
 40
64.01556548080993
 40
64.01556548080993
 40
64.01556548080993
 10
1836.040915012905
 20
538.5127381088439
 30
0.0
 41
0.9567812695551335
 10
1836.983956627126
 20
537.7975507443409
 30
0.0
 41
0.9765061167534215
 10
1837.837854148022
 20
536.9779902058187
 30
0.0
 41
1.0
  0
SPLINE
  5
164
330
1F
100
AcDbEntity
  8
PREDEFINITO
100
AcDbSpline
210
0.0
220
0.0
230
1.0
 70
    12
 71
     2
 72
     8
 73
     5
 74
     0
 42
0.0000000001
 43
0.0000000001
 40
0.0
 40
0.0
 40
0.0
 40
32.00778274040516
 40
32.00778274040516
 40
64.01556548081027
 40
64.01556548081027
 40
64.01556548081027
 10
1837.837854148022
 20
536.9779902058187
 30
0.0
 41
1.0
 10
1852.538967600756
 20
522.868038878699
 30
0.0
 41
0.7071067811865369
 10
1838.429016273636
 20
508.1669254259662
 30
0.0
 41
1.0
 10
1824.319064946516
 20
493.4658119732328
 30
0.0
 41
0.7071067811865434
 10
1809.617951493783
 20
507.5757633003527
 30
0.0
 41
1.0
  0
SPLINE
  5
165
330
1F
100
AcDbEntity
  8
PREDEFINITO
100
AcDbSpline
210
0.0
220
0.0
230
1.0
 70
    12
 71
     2
 72
     8
 73
     5
 74
     0
 42
0.0000000001
 43
0.0000000001
 40
0.0
 40
0.0
 40
0.0
 40
32.00778274040505
 40
32.00778274040505
 40
49.36069100993044
 40
49.36069100993044
 40
49.36069100993044
 10
1809.617951493783
 20
507.5757633003527
 30
0.0
 41
1.0
 10
1794.916838041051
 20
521.6857146274723
 30
0.0
 41
0.7071067811865552
 10
1809.02678936817
 20
536.3868280802054
 30
0.0
 41
1.0
 10
1815.456972017973
 20
543.0864149508463
 30
0.0
 41
0.8412089584568515
 10
1824.731798772833
 20
542.6289197984781
 30
0.0
 41
0.8545939404932605
  0
POLYLINE
  5
166
330
1F
100
AcDbEntity
  8
PREDEFINITO
100
AcDb2dPolyline
 66
     1
 10
0.0
 20
0.0
 30
0.0
  0
VERTEX
  5
168
330
166
100
AcDbEntity
  8
PREDEFINITO
100
AcDbVertex
100
AcDb2dVertex
 10
1824.731798772833
 20
542.6289197984781
 30
0.0
  0
VERTEX
  5
169
330
166
100
AcDbEntity
  8
PREDEFINITO
100
AcDbVertex
100
AcDb2dVertex
 10
1824.902886261812
 20
543.0989788111697
 30
0.0
  0
SEQEND
  5
167
330
166
100
AcDbEntity
  8
PREDEFINITO
  0
SPLINE
  5
16A
330
1F
100
AcDbEntity
  8
PREDEFINITO
100
AcDbSpline
210
0.0
220
0.0
230
1.0
 70
    28
 71
     2
 72
     6
 73
     3
 74
     0
 42
0.0000000001
 43
0.0000000001
 40
415.9148936992084
 40
415.9148936992084
 40
415.9148936992084
 40
474.4077769861378
 40
474.4077769861378
 40
474.4077769861378
 10
1824.902886261812
 20
543.0989788111697
 30
0.0
 41
1.0
 10
1834.905758424435
 20
570.5816442077264
 30
0.0
 41
1.0
 10
1844.908630587047
 20
598.064309604287
 30
0.0
 41
1.0
  0
SPLINE
  5
16C
330
1F
100
AcDbEntity
  8
LINEE VISIBILI 2D
100
AcDbSpline
210
0.0
220
0.0
230
1.0
 70
    12
 71
     3
 72
     8
 73
     4
 74
     0
 42
0.0000000001
 43
0.0000000001
 40
76.64927559243107
 40
76.64927559243107
 40
76.64927559243107
 40
76.64927559243107
 40
88.18658205899926
 40
88.18658205899926
 40
88.18658205899926
 40
88.18658205899926
 10
1838.828440639232
 20
546.1714018233702
 30
0.0
 41
1.0
 10
1842.010097709256
 20
544.1624695629475
 30
0.0
 41
1.0
 10
1844.832193818138
 20
541.48786785734
 30
0.0
 41
1.0
 10
1847.067120940543
 20
538.2029386658352
 30
0.0
 41
1.0
  0
SPLINE
  5
16D
330
1F
100
AcDbEntity
  8
LINEE VISIBILI 2D
100
AcDbSpline
210
0.0
220
0.0
230
1.0
 70
    12
 71
     2
 72
     6
 73
     3
 74
     0
 42
0.0000000001
 43
0.0000000001
 40
-1.454148741689168
 40
-1.454148741689168
 40
-1.454148741689168
 40
0.0
 40
0.0
 40
0.0
 10
1847.067120940543
 20
538.2029386658352
 30
0.0
 41
1.0
 10
1847.476201570916
 20
537.6016758014785
 30
0.0
 41
0.9996782918526956
 10
1847.854291770768
 20
536.9804578105767
 30
0.0
 41
1.0
  0
SPLINE
  5
16E
330
1F
100
AcDbEntity
  8
LINEE VISIBILI 2D
100
AcDbSpline
210
0.0
220
0.0
230
1.0
 70
    12
 71
     3
 72
     8
 73
     4
 74
     0
 42
0.0000000001
 43
0.0000000001
 40
89.5863688116684
 40
89.5863688116684
 40
89.5863688116684
 40
89.5863688116684
 40
134.379544101583
 40
134.379544101583
 40
134.379544101583
 40
134.379544101583
 10
1847.854291770768
 20
536.9804578105767
 30
0.0
 41
1.0
 10
1855.965263513477
 20
523.6551002730808
 30
0.0
 41
1.0
 10
1851.738187417476
 20
506.2775988232003
 30
0.0
 41
1.0
 10
1838.41282998759
 20
498.1666271393306
 30
0.0
 41
1.0
  0
SPLINE
  5
16F
330
1F
100
AcDbEntity
  8
LINEE VISIBILI 2D
100
AcDbSpline
210
0.0
220
0.0
230
1.0
 70
    12
 71
     2
 72
     6
 73
     3
 74
     0
 42
0.0000000001
 43
0.0000000001
 40
-42.91016307040795
 40
-42.91016307040795
 40
-42.91016307040795
 40
0.0
 40
0.0
 40
0.0
 10
1838.41282998759
 20
498.1666271393306
 30
0.0
 41
1.0
 10
1815.499503950764
 20
484.2320526222658
 30
0.0
 41
0.7253532243353437
 10
1800.386170616101
 20
506.3856084208751
 30
0.0
 41
1.0
  0
SPLINE
  5
170
330
1F
100
AcDbEntity
  8
LINEE VISIBILI 2D
100
AcDbSpline
210
0.0
220
0.0
230
1.0
 70
    12
 71
     3
 72
     8
 73
     4
 74
     0
 42
0.0000000001
 43
0.0000000001
 40
177.7729388689291
 40
177.7729388689291
 40
177.7729388689291
 40
177.7729388689291
 40
179.172725796908
 40
179.172725796908
 40
179.172725796908
 40
179.172725796908
 10
1800.386170616101
 20
506.3856084208751
 30
0.0
 41
1.0
 10
1800.114984551605
 20
506.7841393033624
 30
0.0
 41
1.0
 10
1799.852467307638
 20
507.1916717423092
 30
0.0
 41
1.0
 10
1799.59899940489
 20
507.6080892241512
 30
0.0
 41
1.0
  0
SPLINE
  5
171
330
1F
100
AcDbEntity
  8
LINEE VISIBILI 2D
100
AcDbSpline
210
0.0
220
0.0
230
1.0
 70
    12
 71
     2
 72
     6
 73
     3
 74
     0
 42
0.0000000001
 43
0.0000000001
 40
-44.36384075048037
 40
-44.36384075048037
 40
-44.36384075048037
 40
0.0
 40
0.0
 40
0.0
 10
1799.59899940489
 20
507.6080892241512
 30
0.0
 41
1.0
 10
1784.927595077916
 20
531.73214018807
 30
0.0
 41
0.7073760952443257
 10
1809.040461187558
 20
546.4219198950871
 30
0.0
 41
1.0
  0
SPLINE
  5
172
330
1F
100
AcDbEntity
  8
LINEE VISIBILI 2D
100
AcDbSpline
210
0.0
220
0.0
230
1.0
 70
    12
 71
     3
 72
     8
 73
     4
 74
     0
 42
0.0000000001
 43
0.0000000001
 40
44.7931927262563
 40
44.7931927262563
 40
44.7931927262563
 40
44.7931927262563
 40
64.157886846528
 40
64.157886846528
 40
64.157886846528
 40
64.157886846528
 10
1809.040461187558
 20
546.4219198950871
 30
0.0
 41
1.0
 10
1814.801193018226
 20
549.9284024043
 30
0.0
 41
1.0
 10
1821.319249981851
 20
551.1289660490798
 30
0.0
 41
1.0
 10
1827.518520530753
 20
550.2853749026267
 30
0.0
 41
1.0
  0
SPLINE
  5
173
330
1F
100
AcDbEntity
  8
LINEE VISIBILI 2D
100
AcDbSpline
210
0.0
220
0.0
230
1.0
 70
    12
 71
     2
 72
     8
 73
     5
 74
     0
 42
0.0000000001
 43
0.0000000001
 40
0.0
 40
0.0
 40
0.0
 40
194.318668930313
 40
194.318668930313
 40
388.637337860626
 40
388.637337860626
 40
388.637337860626
 10
1700.161395858436
 20
718.6253972417504
 30
0.0
 41
1.0
 10
1698.819018648122
 20
842.3252205706357
 30
0.0
 41
0.7071067811865439
 10
1822.518841977007
 20
843.6675977809484
 30
0.0
 41
1.0
 10
1946.218665305892
 20
845.0099749912628
 30
0.0
 41
0.7071067811865459
 10
1947.561042516206
 20
721.3101516623777
 30
0.0
 41
1.0
  0
SPLINE
  5
174
330
1F
100
AcDbEntity
  8
LINEE VISIBILI 2D
100
AcDbSpline
210
0.0
220
0.0
230
1.0
 70
    12
 71
     2
 72
     8
 73
     5
 74
     0
 42
0.0000000001
 43
0.0000000001
 40
0.0
 40
0.0
 40
0.0
 40
194.3186689303131
 40
194.3186689303131
 40
388.6373378606263
 40
388.6373378606263
 40
388.6373378606263
 10
1947.561042516206
 20
721.3101516623777
 30
0.0
 41
1.0
 10
1948.903419726519
 20
597.6103283334926
 30
0.0
 41
0.7071067811865456
 10
1825.203596397634
 20
596.2679511231796
 30
0.0
 41
1.0
 10
1701.503773068749
 20
594.9255739128648
 30
0.0
 41
0.7071067811865417
 10
1700.161395858436
 20
718.6253972417504
 30
0.0
 41
1.0
  0
SPLINE
  5
175
330
1F
100
AcDbEntity
  8
LINEE VISIBILI 2D
100
AcDbSpline
210
0.0
220
0.0
230
1.0
 70
    24
 71
     2
 72
     6
 73
     3
 74
     0
 42
0.0000000001
 43
0.0000000001
 40
0.0
 40
0.0
 40
0.0
 40
12.99965075885439
 40
12.99965075885439
 40
12.99965075885439
 10
443.5227470613223
 20
1389.072579711434
 30
0.0
 10
443.5227470613223
 20
1382.572754332007
 30
0.0
 10
443.5227470613223
 20
1376.07292895258
 30
0.0
  0
SPLINE
  5
176
330
1F
100
AcDbEntity
  8
LINEE VISIBILI 2D
100
AcDbSpline
210
0.0
220
0.0
230
1.0
 70
    24
 71
     2
 72
     6
 73
     3
 74
     0
 42
0.0000000001
 43
0.0000000001
 40
0.0
 40
0.0
 40
0.0
 40
12.99994748739164
 40
12.99994748739164
 40
12.99994748739164
 10
542.6672879075361
 20
1389.072579711434
 30
0.0
 10
542.6672879075361
 20
1382.572605967738
 30
0.0
 10
542.6672879075361
 20
1376.072632224043
 30
0.0
  0
SPLINE
  5
177
330
1F
100
AcDbEntity
  8
LINEE VISIBILI 2D
100
AcDbSpline
210
0.0
220
0.0
230
1.0
 70
    24
 71
     2
 72
     6
 73
     3
 74
     0
 42
0.0000000001
 43
0.0000000001
 40
0.0
 40
0.0
 40
0.0
 40
12.99984997625188
 40
12.99984997625188
 40
12.99984997625188
 10
345.1311458654762
 20
1389.072579711434
 30
0.0
 10
345.1311458654763
 20
1382.572654723308
 30
0.0
 10
345.1311458654764
 20
1376.072729735182
 30
0.0
  0
SPLINE
  5
178
330
1F
100
AcDbEntity
  8
LINEE VISIBILI 2D
100
AcDbSpline
210
0.0
220
0.0
230
1.0
 70
    24
 71
     2
 72
     6
 73
     3
 74
     0
 42
0.0000000001
 43
0.0000000001
 40
0.0
 40
0.0
 40
0.0
 40
12.99988097772734
 40
12.99988097772734
 40
12.99988097772734
 10
640.9773729623653
 20
1389.072579711434
 30
0.0
 10
640.9773729623653
 20
1382.572639222571
 30
0.0
 10
640.9773729623653
 20
1376.072698733707
 30
0.0
  0
SPLINE
  5
179
330
1F
100
AcDbEntity
  8
LINEE VISIBILI 2D
100
AcDbSpline
210
0.0
220
0.0
230
1.0
 70
    24
 71
     2
 72
     6
 73
     3
 74
     0
 42
0.0000000001
 43
0.0000000001
 40
0.0
 40
0.0
 40
0.0
 40
13.00000000000068
 40
13.00000000000068
 40
13.00000000000068
 10
600.2237982379897
 20
1376.072579711433
 30
0.0
 10
600.2237982379897
 20
1382.572579711434
 30
0.0
 10
600.2237982379899
 20
1389.072579711434
 30
0.0
  0
SPLINE
  5
17A
330
1F
100
AcDbEntity
  8
LINEE VISIBILI 2D
100
AcDbSpline
210
0.0
220
0.0
230
1.0
 70
    24
 71
     2
 72
     6
 73
     3
 74
     0
 42
0.0000000001
 43
0.0000000001
 40
0.0
 40
0.0
 40
0.0
 40
13.00000000000068
 40
13.00000000000068
 40
13.00000000000068
 10
402.68765619593
 20
1376.072579711433
 30
0.0
 10
402.6876561959301
 20
1382.572579711434
 30
0.0
 10
402.6876561959301
 20
1389.072579711434
 30
0.0
  0
SPLINE
  5
17B
330
1F
100
AcDbEntity
  8
LINEE VISIBILI 2D
100
AcDbSpline
210
0.0
220
0.0
230
1.0
 70
    24
 71
     2
 72
     6
 73
     3
 74
     0
 42
0.0000000001
 43
0.0000000001
 40
0.0
 40
0.0
 40
0.0
 40
13.00000000000068
 40
13.00000000000068
 40
13.00000000000068
 10
1917.47287768334
 20
1376.071688227081
 30
0.0
 10
1917.47287768334
 20
1382.571688227082
 30
0.0
 10
1917.47287768334
 20
1389.071688227082
 30
0.0
  0
SPLINE
  5
17C
330
1F
100
AcDbEntity
  8
LINEE VISIBILI 2D
100
AcDbSpline
210
0.0
220
0.0
230
1.0
 70
    24
 71
     2
 72
     6
 73
     3
 74
     0
 42
0.0000000001
 43
0.0000000001
 40
0.0
 40
0.0
 40
0.0
 40
12.99981364883843
 40
12.99981364883843
 40
12.99981364883843
 10
2186.459537822865
 20
1389.071688227082
 30
0.0
 10
2186.459537822865
 20
1382.571781402663
 30
0.0
 10
2186.459537822865
 20
1376.071874578244
 30
0.0
  0
SPLINE
  5
17D
330
1F
100
AcDbEntity
  8
LINEE VISIBILI 2D
100
AcDbSpline
210
0.0
220
0.0
230
1.0
 70
    24
 71
     2
 72
     6
 73
     3
 74
     0
 42
0.0000000001
 43
0.0000000001
 40
0.0
 40
0.0
 40
0.0
 40
13.00000000000068
 40
13.00000000000068
 40
13.00000000000068
 10
2145.70596309849
 20
1376.071688227081
 30
0.0
 10
2145.70596309849
 20
1382.571688227082
 30
0.0
 10
2145.70596309849
 20
1389.071688227082
 30
0.0
  0
SPLINE
  5
17E
330
1F
100
AcDbEntity
  8
LINEE VISIBILI 2D
100
AcDbSpline
210
0.0
220
0.0
230
1.0
 70
    24
 71
     2
 72
     6
 73
     3
 74
     0
 42
0.0000000001
 43
0.0000000001
 40
0.0
 40
0.0
 40
0.0
 40
13.00000000000068
 40
13.00000000000068
 40
13.00000000000068
 10
2259.835008775417
 20
1376.071688227081
 30
0.0
 10
2259.835008775417
 20
1382.571688227082
 30
0.0
 10
2259.835008775417
 20
1389.071688227082
 30
0.0
  0
SPLINE
  5
17F
330
1F
100
AcDbEntity
  8
LINEE VISIBILI 2D
100
AcDbSpline
210
0.0
220
0.0
230
1.0
 70
    24
 71
     2
 72
     6
 73
     3
 74
     0
 42
0.0000000001
 43
0.0000000001
 40
0.0
 40
0.0
 40
0.0
 40
12.99987978619083
 40
12.99987978619083
 40
12.99987978619083
 10
2129.553337284281
 20
1389.071688227082
 30
0.0
 10
2129.55333728428
 20
1382.571748333987
 30
0.0
 10
2129.55333728428
 20
1376.071808440891
 30
0.0
  0
SPLINE
  5
180
330
1F
100
AcDbEntity
  8
LINEE VISIBILI 2D
100
AcDbSpline
210
0.0
220
0.0
230
1.0
 70
    24
 71
     2
 72
     6
 73
     3
 74
     0
 42
0.0000000001
 43
0.0000000001
 40
0.0
 40
0.0
 40
0.0
 40
13.00000000000068
 40
13.00000000000068
 40
13.00000000000068
 10
2088.799762559905
 20
1376.071688227081
 30
0.0
 10
2088.799762559905
 20
1382.571688227082
 30
0.0
 10
2088.799762559905
 20
1389.071688227082
 30
0.0
  0
SPLINE
  5
181
330
1F
100
AcDbEntity
  8
LINEE VISIBILI 2D
100
AcDbSpline
210
0.0
220
0.0
230
1.0
 70
    24
 71
     2
 72
     6
 73
     3
 74
     0
 42
0.0000000001
 43
0.0000000001
 40
0.0
 40
0.0
 40
0.0
 40
12.99976469176613
 40
12.99976469176613
 40
12.99976469176613
 10
1844.097406730788
 20
1389.071688227082
 30
0.0
 10
1844.097406730788
 20
1382.571805881199
 30
0.0
 10
1844.097406730788
 20
1376.071923535316
 30
0.0
  0
SPLINE
  5
182
330
1F
100
AcDbEntity
  8
LINEE VISIBILI 2D
100
AcDbSpline
210
0.0
220
0.0
230
1.0
 70
    15
 71
     2
 72
    12
 73
     9
 74
     0
 42
0.0000000001
 43
0.0000000001
 40
0.0
 40
0.0
 40
0.0
 40
14.13716694115407
 40
14.13716694115407
 40
28.27433388230814
 40
28.27433388230814
 40
42.41150082346221
 40
42.41150082346221
 40
56.54866776461628
 40
56.54866776461628
 40
56.54866776461628
 10
2209.56293312355
 20
448.2049187075363
 30
0.0
 41
1.0
 10
2201.544908743484
 20
444.1169748428676
 30
0.0
 41
0.7071067811865476
 10
2205.632852608152
 20
436.0989504628026
 30
0.0
 41
1.0
 10
2209.720796472821
 20
428.0809260827374
 30
0.0
 41
0.7071067811865476
 10
2217.738820852886
 20
432.1688699474061
 30
0.0
 41
1.0
 10
2225.756845232951
 20
436.2568138120745
 30
0.0
 41
0.7071067811865476
 10
2221.668901368283
 20
444.2748381921397
 30
0.0
 41
1.0
 10
2217.580957503615
 20
452.2928625722047
 30
0.0
 41
0.7071067811865476
 10
2209.56293312355
 20
448.2049187075363
 30
0.0
 41
1.0
  0
SPLINE
  5
183
330
1F
100
AcDbEntity
  8
PREDEFINITO
100
AcDbSpline
210
0.0
220
0.0
230
1.0
 70
    28
 71
     2
 72
     6
 73
     3
 74
     0
 42
0.0000000001
 43
0.0000000001
 40
112.2826750003236
 40
112.2826750003236
 40
112.2826750003236
 40
195.8437146579279
 40
195.8437146579279
 40
195.8437146579279
 10
1890.749895559985
 20
615.903595978946
 30
0.0
 41
1.0
 10
1912.04205218295
 20
579.0244989052557
 30
0.0
 41
1.0
 10
1933.334208805914
 20
542.1454018315652
 30
0.0
 41
1.0
  0
SPLINE
  5
184
330
1F
100
AcDbEntity
  8
PREDEFINITO
100
AcDbSpline
210
0.0
220
0.0
230
1.0
 70
    12
 71
     2
 72
     6
 73
     3
 74
     0
 42
0.0000000001
 43
0.0000000001
 40
44.07058446775575
 40
44.07058446775575
 40
44.07058446775575
 40
64.01556548081027
 40
64.01556548081027
 40
64.01556548081027
 10
1933.334208805914
 20
542.1454018315652
 30
0.0
 41
0.8624343678542205
 10
1944.043146027653
 20
544.58311350036
 30
0.0
 41
0.8174897106911316
 10
1951.96689982495
 20
536.9779902035837
 30
0.0
 41
1.0
  0
SPLINE
  5
185
330
1F
100
AcDbEntity
  8
PREDEFINITO
100
AcDbSpline
210
0.0
220
0.0
230
1.0
 70
    12
 71
     2
 72
     6
 73
     3
 74
     0
 42
0.0000000001
 43
0.0000000001
 40
0.0
 40
0.0
 40
0.0
 40
10.55987132433428
 40
10.55987132433428
 40
10.55987132433428
 10
1951.96689982495
 20
536.9779902035837
 30
0.0
 41
1.0
 10
1955.763305753587
 20
533.3342455958507
 30
0.0
 41
0.9033699170128425
 10
1957.320759399099
 20
528.3079237912448
 30
0.0
 41
0.8704994046701099
  0
SPLINE
  5
186
330
1F
100
AcDbEntity
  8
PREDEFINITO
100
AcDbSpline
210
0.0
220
0.0
230
1.0
 70
    12
 71
     2
 72
    10
 73
     7
 74
     0
 42
0.0000000001
 43
0.0000000001
 40
599.7757734798777
 40
599.7757734798777
 40
599.7757734798777
 40
656.5793711766819
 40
656.5793711766819
 40
674.0174312779867
 40
674.0174312779867
 40
770.9498864326242
 40
770.9498864326242
 40
770.9498864326242
 10
1957.320759399099
 20
528.3079237912448
 30
0.0
 41
1.0
 10
1985.722558247617
 20
528.3079237912212
 30
0.0
 41
1.0
 10
2014.124357096135
 20
528.3079237911979
 30
0.0
 41
1.0
 10
2023.442370828274
 20
528.3079237912697
 30
0.0
 41
0.906307787044641
 10
2029.431874602396
 20
535.4459364315019
 30
0.0
 41
1.0
 10
2060.58536517734
 20
572.5732207460624
 30
0.0
 41
1.0
 10
2091.738855752285
 20
609.7005050606228
 30
0.0
 41
1.0
  0
LINE
  5
187
330
1F
100
AcDbEntity
  8
PREDEFINITO
100
AcDbLine
 10
2091.738855752285
 20
609.7005050606228
 30
0.0
 11
2091.878754061811
 21
609.8672293735985
 31
0.0
  0
SPLINE
  5
188
330
1F
100
AcDbEntity
  8
PREDEFINITO
100
AcDbSpline
210
0.0
220
0.0
230
1.0
 70
    12
 71
     2
 72
     8
 73
     5
 74
     0
 42
0.0000000001
 43
0.0000000001
 40
26.13640294981625
 40
26.13640294981625
 40
26.13640294981625
 40
32.00778274040541
 40
32.00778274040541
 40
64.01556548081052
 40
64.01556548081052
 40
64.01556548081052
 10
2091.878754061811
 20
609.8672293735985
 30
0.0
 41
0.912256668043882
 10
2090.407500705532
 20
612.2414468919071
 30
0.0
 41
0.9462728380878739
 10
2089.629394998708
 20
614.9239917231478
 30
0.0
 41
1.0
 10
2083.952832948283
 20
634.4941247449619
 30
0.0
 41
0.7071067811865356
 10
2103.522965970097
 20
640.170686795386
 30
0.0
 41
1.0
  0
SPLINE
  5
189
330
1F
100
AcDbEntity
  8
PREDEFINITO
100
AcDbSpline
210
0.0
220
0.0
230
1.0
 70
    12
 71
     2
 72
     8
 73
     5
 74
     0
 42
0.0000000001
 43
0.0000000001
 40
0.0
 40
0.0
 40
0.0
 40
32.00778274040523
 40
32.00778274040523
 40
64.01556548081035
 40
64.01556548081035
 40
64.01556548081035
 10
2103.522965970097
 20
640.170686795386
 30
0.0
 41
1.0
 10
2123.093098991911
 20
645.8472488458107
 30
0.0
 41
0.707106781186532
 10
2128.769661042335
 20
626.2771158239959
 30
0.0
 41
1.0
 10
2134.44622309276
 20
606.706982802182
 30
0.0
 41
0.7071067811865356
 10
2114.876090070946
 20
601.0304207517579
 30
0.0
 41
1.0
  0
SPLINE
  5
18A
330
1F
100
AcDbEntity
  8
PREDEFINITO
100
AcDbSpline
210
0.0
220
0.0
230
1.0
 70
    12
 71
     2
 72
     6
 73
     3
 74
     0
 42
0.0000000001
 43
0.0000000001
 40
0.0
 40
0.0
 40
0.0
 40
14.3277377852752
 40
14.3277377852752
 40
14.3277377852752
 10
2114.876090070946
 20
601.0304207517579
 30
0.0
 41
1.0
 10
2107.746979654026
 20
598.9625330373074
 30
0.0
 41
0.8688913483236409
 10
2100.958220522211
 20
601.9647196381728
 30
0.0
 41
0.8551597982000564
  0
SPLINE
  5
18B
330
1F
100
AcDbEntity
  8
PREDEFINITO
100
AcDbSpline
210
0.0
220
0.0
230
1.0
 70
    12
 71
     2
 72
    14
 73
    11
 74
     0
 42
0.0000000001
 43
0.0000000001
 40
-0.0001482935117505
 40
-0.0001482935117505
 40
-0.0001482935117505
 40
0.0
 40
0.0
 40
89.7558919823765
 40
89.7558919823765
 40
93.13948188018094
 40
93.13948188018094
 40
96.52307177798536
 40
96.52307177798536
 40
195.843714657928
 40
195.843714657928
 40
195.843714657928
 10
2100.958220522211
 20
601.9647196381727
 30
0.0
 41
0.9999446709546242
 10
2100.958176146869
 20
601.9646667956065
 30
0.0
 41
0.9999723313742345
 10
2100.958131780646
 20
601.9646139453879
 30
0.0
 41
1.0
 10
2072.111144149302
 20
567.5861128002268
 30
0.0
 41
1.0
 10
2043.264156517958
 20
533.2076116550659
 30
0.0
 41
1.0
 10
2042.04280177257
 20
531.7520577483509
 30
0.0
 41
0.843391445864004
 10
2042.845814792885
 20
530.0299907697938
 30
0.0
 41
1.0
 10
2043.6488278132
 20
528.3079237912369
 30
0.0
 41
0.843391445864004
 10
2045.548918492466
 20
528.3079237911988
 30
0.0
 41
1.0
 10
2096.164628702838
 20
528.3079237911978
 30
0.0
 41
1.0
 10
2146.78033891321
 20
528.3079237911968
 30
0.0
 41
1.0
  0
SPLINE
  5
18C
330
1F
100
AcDbEntity
  8
PREDEFINITO
100
AcDbSpline
210
0.0
220
0.0
230
1.0
 70
    12
 71
     2
 72
     6
 73
     3
 74
     0
 42
0.0000000001
 43
0.0000000001
 40
44.07058446775656
 40
44.07058446775656
 40
44.07058446775656
 40
64.01556548081045
 40
64.01556548081045
 40
64.01556548081045
 10
2146.78033891321
 20
528.3079237911968
 30
0.0
 41
0.8624343678542239
 10
2150.023687291802
 20
538.800991307153
 30
0.0
 41
0.8174897106911425
 10
2160.571794164371
 20
541.8606017405568
 30
0.0
 41
1.0
  0
SPLINE
  5
18D
330
1F
100
AcDbEntity
  8
PREDEFINITO
100
AcDbSpline
210
0.0
220
0.0
230
1.0
 70
    12
 71
     2
 72
     8
 73
     5
 74
     0
 42
0.0000000001
 43
0.0000000001
 40
0.0
 40
0.0
 40
0.0
 40
32.00778274040555
 40
32.00778274040555
 40
52.90757375143973
 40
52.90757375143973
 40
52.90757375143973
 10
2160.571794164371
 20
541.8606017405568
 30
0.0
 41
1.0
 10
2180.141927186185
 20
547.5371637909819
 30
0.0
 41
0.707106781186524
 10
2185.818489236609
 20
527.9670307691671
 30
0.0
 41
1.0
 10
2189.059206072928
 20
516.7945536590009
 30
0.0
 41
0.8087525427363412
 10
2181.085796726505
 20
508.3239436582536
 30
0.0
 41
0.8672588357164638
  0
SPLINE
  5
18E
330
1F
100
AcDbEntity
  8
PREDEFINITO
100
AcDbSpline
210
0.0
220
0.0
230
1.0
 70
    12
 71
     2
 72
    10
 73
     7
 74
     0
 42
0.0000000001
 43
0.0000000001
 40
600.0142666509315
 40
600.0142666509315
 40
600.0142666509315
 40
656.5793711766819
 40
656.5793711766819
 40
674.0174312779867
 40
674.0174312779867
 40
770.9498864326242
 40
770.9498864326242
 40
770.9498864326242
 10
2181.085796726505
 20
508.3239436582536
 30
0.0
 41
1.0
 10
2195.22707285798
 20
483.8305349146308
 30
0.0
 41
1.0
 10
2209.368348989455
 20
459.3371261710082
 30
0.0
 41
1.0
 10
2214.027355855587
 20
451.2674895661997
 30
0.0
 41
0.906307787044641
 10
2223.203808021623
 20
449.6494334618635
 30
0.0
 41
1.0
 10
2270.933724699032
 20
441.2333613646827
 30
0.0
 41
1.0
 10
2318.663641376441
 20
432.817289267502
 30
0.0
 41
1.0
  0
LINE
  5
18F
330
1F
100
AcDbEntity
  8
PREDEFINITO
100
AcDbLine
 10
2318.663641376441
 20
432.817289267502
 30
0.0
 11
2318.877978021671
 21
432.7794959339936
 31
0.0
  0
SPLINE
  5
190
330
1F
100
AcDbEntity
  8
PREDEFINITO
100
AcDbSpline
210
0.0
220
0.0
230
1.0
 70
    12
 71
     2
 72
     8
 73
     5
 74
     0
 42
0.0000000001
 43
0.0000000001
 40
26.13640294981567
 40
26.13640294981567
 40
26.13640294981567
 40
32.0077827404048
 40
32.0077827404048
 40
64.01556548080902
 40
64.01556548080902
 40
64.01556548080902
 10
2318.877978021671
 20
432.7794959339935
 30
0.0
 41
0.9122566680438825
 10
2320.198484028497
 20
435.2407474750889
 30
0.0
 41
0.946272838087874
 10
2322.132583145729
 20
437.2558791996485
 30
0.0
 41
1.0
 10
2336.242534472849
 20
451.9569926523811
 30
0.0
 41
0.7071067811865488
 10
2350.943647925581
 20
437.8470413252619
 30
0.0
 41
1.0
  0
SPLINE
  5
191
330
1F
100
AcDbEntity
  8
PREDEFINITO
100
AcDbSpline
210
0.0
220
0.0
230
1.0
 70
    12
 71
     2
 72
     8
 73
     5
 74
     0
 42
0.0000000001
 43
0.0000000001
 40
0.0
 40
0.0
 40
0.0
 40
32.00778274040528
 40
32.00778274040528
 40
64.01556548081066
 40
64.01556548081066
 40
64.01556548081066
 10
2350.943647925581
 20
437.8470413252619
 30
0.0
 41
1.0
 10
2365.644761378314
 20
423.7370899981425
 30
0.0
 41
0.7071067811865406
 10
2351.534810051195
 20
409.0359765454094
 30
0.0
 41
1.0
 10
2337.424858724075
 20
394.3348630926761
 30
0.0
 41
0.7071067811865376
 10
2322.723745271342
 20
408.4448144197962
 30
0.0
 41
1.0
  0
SPLINE
  5
192
330
1F
100
AcDbEntity
  8
PREDEFINITO
100
AcDbSpline
210
0.0
220
0.0
230
1.0
 70
    12
 71
     2
 72
     6
 73
     3
 74
     0
 42
0.0000000001
 43
0.0000000001
 40
0.0
 40
0.0
 40
0.0
 40
14.3277377852749
 40
14.3277377852749
 40
14.3277377852749
 10
2322.723745271342
 20
408.4448144197962
 30
0.0
 41
1.0
 10
2317.368346769994
 20
413.5848612900078
 30
0.0
 41
0.8688913483236433
 10
2316.573937067338
 20
420.9651924587655
 30
0.0
 41
0.8551597982000588
  0
SPLINE
  5
193
330
1F
100
AcDbEntity
  8
PREDEFINITO
100
AcDbSpline
210
0.0
220
0.0
230
1.0
 70
    12
 71
     2
 72
    14
 73
    11
 74
     0
 42
0.0000000001
 43
0.0000000001
 40
-0.0001482935121362
 40
-0.0001482935121362
 40
-0.0001482935121362
 40
0.0000000000000915
 40
0.0000000000000915
 40
89.7558919823848
 40
89.7558919823848
 40
93.13948188018955
 40
93.13948188018955
 40
96.52307177799429
 40
96.52307177799429
 40
195.8437146579459
 40
195.8437146579459
 40
195.8437146579459
 10
2316.573937067338
 20
420.9651924587655
 30
0.0
 41
0.9999446709544463
 10
2316.573869116662
 20
420.9652044676555
 30
0.0
 41
0.9999723313741454
 10
2316.573801163918
 20
420.9652164648227
 30
0.0
 41
1.0
 10
2272.377652012504
 20
428.7581900036417
 30
0.0
 41
1.0
 10
2228.18150286109
 20
436.5511635424606
 30
0.0
 41
1.0
 10
2226.310278828604
 20
436.8811108256415
 30
0.0
 41
0.843391445864004
 10
2225.220431588313
 20
435.3246476612003
 30
0.0
 41
1.0
 10
2224.130584348021
 20
433.7681844967593
 30
0.0
 41
0.843391445864004
 10
2225.080629687622
 20
432.122657699002
 30
0.0
 41
1.0
 10
2250.388484792807
 20
388.2881668262283
 30
0.0
 41
1.0
 10
2275.696339897991
 20
344.4536759534546
 30
0.0
 41
1.0
  0
SPLINE
  5
194
330
1F
100
AcDbEntity
  8
PREDEFINITO
100
AcDbSpline
210
0.0
220
0.0
230
1.0
 70
    12
 71
     2
 72
     6
 73
     3
 74
     0
 42
0.0000000001
 43
0.0000000001
 40
44.07058446775585
 40
44.07058446775585
 40
44.07058446775585
 40
64.01556548081032
 40
64.01556548081032
 40
64.01556548081032
 10
2275.696339897991
 20
344.4536759534546
 30
0.0
 41
0.8624343678542209
 10
2286.40527711973
 20
346.8913876222493
 30
0.0
 41
0.8174897106911304
 10
2294.329030917027
 20
339.286264325473
 30
0.0
 41
1.0
  0
POLYLINE
  5
195
330
1F
100
AcDbEntity
  8
PREDEFINITO
100
AcDb2dPolyline
 66
     1
 10
0.0
 20
0.0
 30
0.0
  0
VERTEX
  5
197
330
195
100
AcDbEntity
  8
PREDEFINITO
100
AcDbVertex
100
AcDb2dVertex
 10
2294.329030917027
 20
339.286264325473
 30
0.0
  0
VERTEX
  5
198
330
195
100
AcDbEntity
  8
PREDEFINITO
100
AcDbVertex
100
AcDb2dVertex
 10
2294.472130598252
 20
339.1475682598898
 30
0.0
  0
SEQEND
  5
196
330
195
100
AcDbEntity
  8
PREDEFINITO
  0
SPLINE
  5
199
330
1F
100
AcDbEntity
  8
PREDEFINITO
100
AcDbSpline
210
0.0
220
0.0
230
1.0
 70
    12
 71
     2
 72
     6
 73
     3
 74
     0
 42
0.0000000001
 43
0.0000000001
 40
0.0
 40
0.0
 40
0.0
 40
21.87956915684434
 40
21.87956915684434
 40
21.87956915684434
 10
2294.472130598252
 20
339.1475682598898
 30
0.0
 41
1.0
 10
2303.273036269031
 20
330.533630469873
 30
0.0
 41
0.7997868990622023
 10
2299.738585039011
 20
318.7368716192875
 30
0.0
 41
0.8732932508964304
  0
SPLINE
  5
19A
330
1F
100
AcDbEntity
  8
PREDEFINITO
100
AcDbSpline
210
0.0
220
0.0
230
1.0
 70
    12
 71
     2
 72
     8
 73
     5
 74
     0
 42
0.0000000001
 43
0.0000000001
 40
22.07301781260331
 40
22.07301781260331
 40
22.07301781260331
 40
32.00778274040493
 40
32.00778274040493
 40
64.01556548080941
 40
64.01556548080941
 40
64.01556548080941
 10
2299.738585039011
 20
318.7368716192875
 30
0.0
 41
0.8746144640353257
 10
2298.326671200574
 20
314.0243983141369
 30
0.0
 41
0.9090900703288748
 10
2294.92019304264
 20
310.4751995456206
 30
0.0
 41
1.0
 10
2280.81024171552
 20
295.7740860928874
 30
0.0
 41
0.7071067811865335
 10
2266.109128262788
 20
309.8840374200074
 30
0.0
 41
1.0
  0
SPLINE
  5
19B
330
1F
100
AcDbEntity
  8
PREDEFINITO
100
AcDbSpline
210
0.0
220
0.0
230
1.0
 70
    12
 71
     2
 72
     6
 73
     3
 74
     0
 42
0.0000000001
 43
0.0000000001
 40
0.0
 40
0.0
 40
0.0
 40
31.61393222100305
 40
31.61393222100305
 40
31.61393222100305
 10
2266.109128262788
 20
309.8840374200074
 30
0.0
 41
1.0
 10
2251.662541398102
 20
323.7496971987105
 30
0.0
 41
0.7107107842283902
 10
2265.273801990971
 20
338.4362208925822
 30
0.0
 41
0.992880687249525
  0
SPLINE
  5
19C
330
1F
100
AcDbEntity
  8
PREDEFINITO
100
AcDbSpline
210
0.0
220
0.0
230
1.0
 70
    24
 71
     2
 72
     6
 73
     3
 74
     0
 42
0.0000000001
 43
0.0000000001
 40
0.0401533106416423
 40
0.0401533106416423
 40
0.0401533106416423
 40
101.2314204207322
 40
101.2314204207322
 40
101.2314204207322
 10
2265.273801990971
 20
338.4362208925822
 30
0.0
 10
2239.965946886972
 20
382.2707117633449
 30
0.0
 10
2214.658091782973
 20
426.1052026341076
 30
0.0
  0
SPLINE
  5
19D
330
1F
100
AcDbEntity
  8
PREDEFINITO
100
AcDbSpline
210
0.0
220
0.0
230
1.0
 70
    12
 71
     2
 72
    10
 73
     7
 74
     0
 42
0.0000000001
 43
0.0000000001
 40
307.356911791616
 40
307.356911791616
 40
307.356911791616
 40
310.740501689879
 40
310.740501689879
 40
314.1240915881442
 40
314.1240915881442
 40
403.8799835693816
 40
403.8799835693816
 40
403.8799835693816
 10
2214.658091782973
 20
426.1052026341076
 30
0.0
 41
1.0
 10
2213.708046443056
 20
427.7507294320868
 30
0.0
 41
0.843391445824422
 10
2211.815186182165
 20
427.5851256176368
 30
0.0
 41
1.0
 10
2209.922325921273
 20
427.4195218031864
 30
0.0
 41
0.843391445824235
 10
2209.272456634471
 20
425.6340206128492
 30
0.0
 41
1.0
 10
2193.923295114651
 20
383.4625459293477
 30
0.0
 41
1.0
 10
2178.574133594831
 20
341.2910712458462
 30
0.0
 41
1.0
  0
LINE
  5
19E
330
1F
100
AcDbEntity
  8
PREDEFINITO
100
AcDbLine
 10
2178.574133594831
 20
341.2910712458462
 30
0.0
 11
2178.403046104982
 21
340.8210122307332
 31
0.0
  0
SPLINE
  5
19F
330
1F
100
AcDbEntity
  8
PREDEFINITO
100
AcDbSpline
210
0.0
220
0.0
230
1.0
 70
    12
 71
     2
 72
     6
 73
     3
 74
     0
 42
0.0000000001
 43
0.0000000001
 40
61.44812088877875
 40
61.44812088877875
 40
61.44812088877875
 40
64.01556548080882
 40
64.01556548080882
 40
64.01556548080882
 10
2178.403046104982
 20
340.8210122307332
 30
0.0
 41
0.9567812695551359
 10
2179.346087719203
 20
340.1058248662301
 30
0.0
 41
0.9765061167534229
 10
2180.1999852401
 20
339.286264327708
 30
0.0
 41
1.0
  0
SPLINE
  5
1A0
330
1F
100
AcDbEntity
  8
PREDEFINITO
100
AcDbSpline
210
0.0
220
0.0
230
1.0
 70
    12
 71
     2
 72
     8
 73
     5
 74
     0
 42
0.0000000001
 43
0.0000000001
 40
0.0
 40
0.0
 40
0.0
 40
32.00778274040513
 40
32.00778274040513
 40
64.01556548081102
 40
64.01556548081102
 40
64.01556548081102
 10
2180.1999852401
 20
339.286264327708
 30
0.0
 41
1.0
 10
2194.901098692832
 20
325.1763130005886
 30
0.0
 41
0.7071067811865517
 10
2180.791147365713
 20
310.4751995478554
 30
0.0
 41
1.0
 10
2166.681196038594
 20
295.7740860951218
 30
0.0
 41
0.7071067811865407
 10
2151.98008258586
 20
309.8840374222421
 30
0.0
 41
1.0
  0
SPLINE
  5
1A1
330
1F
100
AcDbEntity
  8
PREDEFINITO
100
AcDbSpline
210
0.0
220
0.0
230
1.0
 70
    12
 71
     2
 72
     8
 73
     5
 74
     0
 42
0.0000000001
 43
0.0000000001
 40
0.0
 40
0.0
 40
0.0
 40
32.0077827404046
 40
32.0077827404046
 40
49.360691009952
 40
49.360691009952
 40
49.360691009952
 10
2151.98008258586
 20
309.8840374222421
 30
0.0
 41
1.0
 10
2137.278969133129
 20
323.9939887493622
 30
0.0
 41
0.7071067811865851
 10
2151.388920460248
 20
338.6951022020948
 30
0.0
 41
1.0
 10
2157.81910311006
 20
345.3946890727458
 30
0.0
 41
0.8412089584566446
 10
2167.093929864934
 20
344.9371939203663
 30
0.0
 41
0.854593940493293
  0
LINE
  5
1A2
330
1F
100
AcDbEntity
  8
PREDEFINITO
100
AcDbLine
 10
2167.093929864933
 20
344.9371939203662
 30
0.0
 11
2167.265017353857
 21
345.4072529329364
 31
0.0
  0
SPLINE
  5
1A3
330
1F
100
AcDbEntity
  8
PREDEFINITO
100
AcDbSpline
210
0.0
220
0.0
230
1.0
 70
    12
 71
     2
 72
    10
 73
     7
 74
     0
 42
0.0000000001
 43
0.0000000001
 40
415.9148936992084
 40
415.9148936992084
 40
415.9148936992084
 40
512.8473488531587
 40
512.8473488531587
 40
530.2854089553828
 40
530.2854089553828
 40
586.9439355151695
 40
586.9439355151695
 40
586.9439355151695
 10
2167.265017353857
 20
345.4072529329364
 30
0.0
 41
1.0
 10
2183.841443456139
 20
390.950609344368
 30
0.0
 41
1.0
 10
2200.417869558421
 20
436.4939657557997
 30
0.0
 41
1.0
 10
2203.60481795101
 20
445.2500345006574
 30
0.0
 41
0.906307787037036
 10
2198.945811084824
 20
453.3196711061301
 30
0.0
 41
1.0
 10
2184.781179444861
 20
477.8535327769487
 30
0.0
 41
1.0
 10
2170.616547804897
 20
502.3873944477673
 30
0.0
 41
1.0
  0
SPLINE
  5
1A4
330
1F
100
AcDbEntity
  8
PREDEFINITO
100
AcDbSpline
210
0.0
220
0.0
230
1.0
 70
    12
 71
     2
 72
     6
 73
     3
 74
     0
 42
0.0000000001
 43
0.0000000001
 40
1.480051566187707
 40
1.480051566187707
 40
1.480051566187707
 40
31.61393222102513
 40
31.61393222102513
 40
31.61393222102513
 10
2170.616547804897
 20
502.3873944477674
 30
0.0
 41
0.9741655329367239
 10
2152.313918642607
 20
498.370457682371
 30
0.0
 41
0.7239209728303982
 10
2146.780338910875
 20
516.2730136613939
 30
0.0
 41
0.9928806872363422
  0
SPLINE
  5
1A5
330
1F
100
AcDbEntity
  8
PREDEFINITO
100
AcDbSpline
210
0.0
220
0.0
230
1.0
 70
    24
 71
     2
 72
     6
 73
     3
 74
     0
 42
0.0000000001
 43
0.0000000001
 40
0.0
 40
0.0
 40
0.0
 40
101.2314204207323
 40
101.2314204207323
 40
101.2314204207323
 10
2146.780338910875
 20
516.2730136613939
 30
0.0
 10
2096.164628701673
 20
516.2730136614067
 30
0.0
 10
2045.548918492472
 20
516.2730136614196
 30
0.0
  0
SPLINE
  5
1A6
330
1F
100
AcDbEntity
  8
PREDEFINITO
100
AcDbSpline
210
0.0
220
0.0
230
1.0
 70
    12
 71
     2
 72
    10
 73
     7
 74
     0
 42
0.0000000001
 43
0.0000000001
 40
307.356911791616
 40
307.356911791616
 40
307.356911791616
 40
310.740501689879
 40
310.740501689879
 40
314.1240915881442
 40
314.1240915881442
 40
403.8799835693816
 40
403.8799835693816
 40
403.8799835693816
 10
2045.548918492472
 20
516.2730136614196
 30
0.0
 41
1.0
 10
2043.648827812855
 20
516.2730136612939
 30
0.0
 41
0.843391445824422
 10
2042.845814792687
 20
514.5509466823239
 30
0.0
 41
1.0
 10
2042.042801772518
 20
512.828879703352
 30
0.0
 41
0.843391445824235
 10
2043.264156518438
 20
511.373325796674
 30
0.0
 41
1.0
 10
2072.111144149492
 20
476.9948246519684
 30
0.0
 41
1.0
 10
2100.958131780547
 20
442.6163235072628
 30
0.0
 41
1.0
  0
LINE
  5
1A7
330
1F
100
AcDbEntity
  8
PREDEFINITO
100
AcDbLine
 10
2100.958131780547
 20
442.6163235072628
 30
0.0
 11
2101.279671083988
 21
442.2331278872277
 31
0.0
  0
SPLINE
  5
1A8
330
1F
100
AcDbEntity
  8
PREDEFINITO
100
AcDbSpline
210
0.0
220
0.0
230
1.0
 70
    12
 71
     2
 72
     6
 73
     3
 74
     0
 42
0.0000000001
 43
0.0000000001
 40
61.4481208887799
 40
61.4481208887799
 40
61.4481208887799
 40
64.01556548080995
 40
64.01556548080995
 40
64.01556548080995
 10
2101.279671083988
 20
442.2331278872278
 30
0.0
 41
0.9567812695551358
 10
2102.370562317223
 20
442.692232199717
 30
0.0
 41
0.9765061167534229
 10
2103.507271323971
 20
443.0219488757808
 30
0.0
 41
1.0
  0
SPLINE
  5
1A9
330
1F
100
AcDbEntity
  8
PREDEFINITO
100
AcDbSpline
210
0.0
220
0.0
230
1.0
 70
    12
 71
     2
 72
     8
 73
     5
 74
     0
 42
0.0000000001
 43
0.0000000001
 40
0.0
 40
0.0
 40
0.0
 40
32.00778274040525
 40
32.00778274040525
 40
64.01556548081027
 40
64.01556548081027
 40
64.01556548081027
 10
2103.507271323971
 20
443.0219488757808
 30
0.0
 41
1.0
 10
2123.077404345785
 20
448.6985109262054
 30
0.0
 41
0.7071067811865345
 10
2128.753966396209
 20
429.1283779043908
 30
0.0
 41
1.0
 10
2134.430528446633
 20
409.5582448825769
 30
0.0
 41
0.7071067811865562
 10
2114.860395424819
 20
403.8816828321528
 30
0.0
 41
1.0
  0
SPLINE
  5
1AA
330
1F
100
AcDbEntity
  8
PREDEFINITO
100
AcDbSpline
210
0.0
220
0.0
230
1.0
 70
    12
 71
     2
 72
     8
 73
     5
 74
     0
 42
0.0000000001
 43
0.0000000001
 40
0.0
 40
0.0
 40
0.0
 40
32.00778274040494
 40
32.00778274040494
 40
49.36069100995332
 40
49.36069100995332
 40
49.36069100995332
 10
2114.860395424819
 20
403.8816828321528
 30
0.0
 41
1.0
 10
2095.290262403005
 20
398.2051207817291
 30
0.0
 41
0.7071067811865558
 10
2089.613700352581
 20
417.7752538035429
 30
0.0
 41
1.0
 10
2087.026779252643
 20
426.693748764581
 30
0.0
 41
0.8412089584566353
 10
2092.060395054149
 20
434.4972367738109
 30
0.0
 41
0.8545939404932898
  0
LINE
  5
1AB
330
1F
100
AcDbEntity
  8
PREDEFINITO
100
AcDbLine
 10
2092.060395054149
 20
434.4972367738109
 30
0.0
 11
2091.738855752447
 21
434.8804323917729
 31
0.0
  0
SPLINE
  5
1AC
330
1F
100
AcDbEntity
  8
PREDEFINITO
100
AcDbSpline
210
0.0
220
0.0
230
1.0
 70
    12
 71
     2
 72
    10
 73
     7
 74
     0
 42
0.0000000001
 43
0.0000000001
 40
415.9148936992084
 40
415.9148936992084
 40
415.9148936992084
 40
512.8473488531587
 40
512.8473488531587
 40
530.2854089553828
 40
530.2854089553828
 40
587.0806042433725
 40
587.0806042433725
 40
587.0806042433725
 10
2091.738855752447
 20
434.8804323917729
 30
0.0
 41
1.0
 10
2060.585365177679
 20
472.0077167060204
 30
0.0
 41
1.0
 10
2029.431874602912
 20
509.1350010202679
 30
0.0
 41
1.0
 10
2023.442370828877
 20
516.2730136612289
 30
0.0
 41
0.906307787037036
 10
2014.124357096135
 20
516.2730136614418
 30
0.0
 41
1.0
 10
1985.72675945219
 20
516.2730136613941
 30
0.0
 41
1.0
 10
1957.329161808244
 20
516.2730136613463
 30
0.0
 41
1.0
  0
SPLINE
  5
1AD
330
1F
100
AcDbEntity
  8
PREDEFINITO
100
AcDbSpline
210
0.0
220
0.0
230
1.0
 70
    12
 71
     2
 72
     8
 73
     5
 74
     0
 42
0.0000000001
 43
0.0000000001
 40
22.23108860596877
 40
22.23108860596877
 40
22.23108860596877
 40
32.00778274040495
 40
32.00778274040495
 40
64.0155654808099
 40
64.0155654808099
 40
64.0155654808099
 10
1957.329161808244
 20
516.2730136613462
 30
0.0
 41
0.8757258247762192
 10
1955.90501471518
 20
511.6541048740957
 30
0.0
 41
0.9105365267686932
 10
1952.558061950563
 20
508.1669254237312
 30
0.0
 41
1.0
 10
1938.448110623443
 20
493.4658119709983
 30
0.0
 41
0.7071067811865503
 10
1923.746997170711
 20
507.5757632981179
 30
0.0
 41
1.0
  0
SPLINE
  5
1AE
330
1F
100
AcDbEntity
  8
PREDEFINITO
100
AcDbSpline
210
0.0
220
0.0
230
1.0
 70
    12
 71
     2
 72
     6
 73
     3
 74
     0
 42
0.0000000001
 43
0.0000000001
 40
0.0
 40
0.0
 40
0.0
 40
31.61393222102447
 40
31.61393222102447
 40
31.61393222102447
 10
1923.746997170711
 20
507.5757632981179
 30
0.0
 41
1.0
 10
1909.3004103065
 20
521.4414230763655
 30
0.0
 41
0.7107107842351607
 10
1922.911670900075
 20
536.1279467686854
 30
0.0
 41
0.9928806872363404
  0
SPLINE
  5
1AF
330
1F
100
AcDbEntity
  8
PREDEFINITO
100
AcDbSpline
210
0.0
220
0.0
230
1.0
 70
    24
 71
     2
 72
     6
 73
     3
 74
     0
 42
0.0000000001
 43
0.0000000001
 40
0.0
 40
0.0
 40
0.0
 40
85.19024884093028
 40
85.19024884093028
 40
85.19024884093028
 10
1922.911670900075
 20
536.1279467686854
 30
0.0
 10
1901.614108690428
 20
573.0164065931575
 30
0.0
 10
1880.316546480781
 20
609.9048664176296
 30
0.0
  0
SPLINE
  5
1B0
330
1F
100
AcDbEntity
  8
LINEE VISIBILI 2D
100
AcDbSpline
210
0.0
220
0.0
230
1.0
 70
    12
 71
     3
 72
     8
 73
     4
 74
     0
 42
0.0000000001
 43
0.0000000001
 40
76.6492755924311
 40
76.6492755924311
 40
76.6492755924311
 40
76.6492755924311
 40
88.18658205899926
 40
88.18658205899926
 40
88.18658205899926
 40
88.18658205899926
 10
2271.620932258052
 20
351.5126834048654
 30
0.0
 41
1.0
 10
2275.204891490907
 20
352.6589760182179
 30
0.0
 41
1.0
 10
2279.067724305102
 20
353.1019696761742
 30
0.0
 41
1.0
 10
2283.020745022041
 20
352.7028628645183
 30
0.0
 41
1.0
  0
SPLINE
  5
1B1
330
1F
100
AcDbEntity
  8
LINEE VISIBILI 2D
100
AcDbSpline
210
0.0
220
0.0
230
1.0
 70
    12
 71
     2
 72
     6
 73
     3
 74
     0
 42
0.0000000001
 43
0.0000000001
 40
-1.454148741689775
 40
-1.454148741689775
 40
-1.454148741689775
 40
0.0
 40
0.0
 40
0.0
 10
2283.020745022041
 20
352.7028628645183
 30
0.0
 41
1.0
 10
2283.744297556215
 20
352.6298168208697
 30
0.0
 41
0.9996782918527092
 10
2284.463219590682
 20
352.5202034101881
 30
0.0
 41
1.0
  0
SPLINE
  5
1B2
330
1F
100
AcDbEntity
  8
LINEE VISIBILI 2D
100
AcDbSpline
210
0.0
220
0.0
230
1.0
 70
    12
 71
     3
 72
     8
 73
     4
 74
     0
 42
0.0000000001
 43
0.0000000001
 40
89.5863688116684
 40
89.5863688116684
 40
89.5863688116684
 40
89.5863688116684
 40
134.379544101583
 40
134.379544101583
 40
134.379544101583
 40
134.379544101583
 10
2284.463219590682
 20
352.5202034101881
 30
0.0
 41
1.0
 10
2299.884876883966
 20
350.1695646796225
 30
0.0
 41
1.0
 10
2310.480984179155
 20
335.7623359679366
 30
0.0
 41
1.0
 10
2308.130345472675
 20
320.34067879491
 30
0.0
 41
1.0
  0
SPLINE
  5
1B3
330
1F
100
AcDbEntity
  8
LINEE VISIBILI 2D
100
AcDbSpline
210
0.0
220
0.0
230
1.0
 70
    12
 71
     2
 72
     6
 73
     3
 74
     0
 42
0.0000000001
 43
0.0000000001
 40
-42.91016307040832
 40
-42.91016307040832
 40
-42.91016307040832
 40
0.0
 40
0.0
 40
0.0
 10
2308.130345472675
 20
320.34067879491
 30
0.0
 41
1.0
 10
2304.078803806522
 20
293.8307205307221
 30
0.0
 41
0.7253532243353189
 10
2277.393295456903
 20
296.4908940455764
 30
0.0
 41
1.0
  0
SPLINE
  5
1B4
330
1F
100
AcDbEntity
  8
LINEE VISIBILI 2D
100
AcDbSpline
210
0.0
220
0.0
230
1.0
 70
    12
 71
     3
 72
     8
 73
     4
 74
     0
 42
0.0000000001
 43
0.0000000001
 40
177.7729388689291
 40
177.7729388689291
 40
177.7729388689291
 40
177.7729388689291
 40
179.172725796908
 40
179.172725796908
 40
179.172725796908
 40
179.172725796908
 10
2277.393295456903
 20
296.4908940455764
 30
0.0
 41
1.0
 10
2276.913683742671
 20
296.539281538229
 30
0.0
 41
1.0
 10
2276.432747541679
 20
296.6000957039222
 30
0.0
 41
1.0
 10
2275.950820683219
 20
296.673553174624
 30
0.0
 41
1.0
  0
SPLINE
  5
1B5
330
1F
100
AcDbEntity
  8
LINEE VISIBILI 2D
100
AcDbSpline
210
0.0
220
0.0
230
1.0
 70
    12
 71
     2
 72
     6
 73
     3
 74
     0
 42
0.0000000001
 43
0.0000000001
 40
-44.36384075048056
 40
-44.36384075048056
 40
-44.36384075048056
 40
0.0
 40
0.0
 40
0.0
 10
2275.950820683219
 20
296.673553174624
 30
0.0
 41
1.0
 10
2248.039749240912
 20
300.9387648666529
 30
0.0
 41
0.7073760952443149
 10
2252.283694801136
 20
328.8530777893115
 30
0.0
 41
1.0
  0
SPLINE
  5
1B6
330
1F
100
AcDbEntity
  8
LINEE VISIBILI 2D
100
AcDbSpline
210
0.0
220
0.0
230
1.0
 70
    12
 71
     3
 72
     8
 73
     4
 74
     0
 42
0.0000000001
 43
0.0000000001
 40
44.7931927262563
 40
44.7931927262563
 40
44.7931927262563
 40
44.7931927262563
 40
64.15788684652814
 40
64.15788684652814
 40
64.15788684652814
 40
64.15788684652814
 10
2252.283694801136
 20
328.8530777893115
 30
0.0
 41
1.0
 10
2253.299907633705
 20
335.5200682866201
 30
0.0
 41
1.0
 10
2256.56943620647
 20
341.285187761366
 30
0.0
 41
1.0
 10
2261.200104773954
 20
345.4922663176786
 30
0.0
 41
1.0
  0
SPLINE
  5
1B7
330
1F
100
AcDbEntity
  8
LINEE VISIBILI 2D
100
AcDbSpline
210
0.0
220
0.0
230
1.0
 70
    12
 71
     2
 72
     6
 73
     3
 74
     0
 42
0.0000000001
 43
0.0000000001
 40
0.0
 40
0.0
 40
0.0
 40
14.65494520736796
 40
14.65494520736796
 40
14.65494520736796
 10
2308.596233817027
 20
422.3718768285001
 30
0.0
 41
1.0
 10
2308.796787151504
 20
414.8763769385795
 30
0.0
 41
0.9661970220857931
 10
2312.704793180002
 20
408.4771403340308
 30
0.0
 41
1.0
  0
SPLINE
  5
1B8
330
1F
100
AcDbEntity
  8
LINEE VISIBILI 2D
100
AcDbSpline
210
0.0
220
0.0
230
1.0
 70
    12
 71
     3
 72
     8
 73
     4
 74
     0
 42
0.0000000001
 43
0.0000000001
 40
-179.172725796908
 40
-179.172725796908
 40
-179.172725796908
 40
-179.172725796908
 40
-177.7729388689291
 40
-177.7729388689291
 40
-177.7729388689291
 40
-177.7729388689291
 10
2312.704793180002
 20
408.4771403340308
 30
0.0
 41
1.0
 10
2312.95826108275
 20
408.0607228521887
 30
0.0
 41
1.0
 10
2313.220778326717
 20
407.653190413242
 30
0.0
 41
1.0
 10
2313.491964391213
 20
407.2546595307549
 30
0.0
 41
1.0
  0
SPLINE
  5
1B9
330
1F
100
AcDbEntity
  8
LINEE VISIBILI 2D
100
AcDbSpline
210
0.0
220
0.0
230
1.0
 70
    12
 71
     2
 72
     6
 73
     3
 74
     0
 42
0.0000000001
 43
0.0000000001
 40
0.0
 40
0.0
 40
0.0
 40
42.91016307037566
 40
42.91016307037566
 40
42.91016307037566
 10
2313.491964391213
 20
407.2546595307549
 30
0.0
 41
1.0
 10
2328.605297725899
 20
385.1011037322491
 30
0.0
 41
0.7253532243373065
 10
2351.518623762702
 20
399.0356782492108
 30
0.0
 41
1.0
  0
SPLINE
  5
1BA
330
1F
100
AcDbEntity
  8
LINEE VISIBILI 2D
100
AcDbSpline
210
0.0
220
0.0
230
1.0
 70
    12
 71
     3
 72
     8
 73
     4
 74
     0
 42
0.0000000001
 43
0.0000000001
 40
-134.379544101583
 40
-134.379544101583
 40
-134.379544101583
 40
-134.379544101583
 40
-89.58636881167858
 40
-89.58636881167858
 40
-89.58636881167858
 40
-89.58636881167858
 10
2351.518623762702
 20
399.0356782492108
 30
0.0
 41
1.0
 10
2364.843981192585
 20
407.1466499330784
 30
0.0
 41
1.0
 10
2369.071057288587
 20
424.5241513829525
 30
0.0
 41
1.0
 10
2360.960085545883
 20
437.8495089204521
 30
0.0
 41
1.0
  0
SPLINE
  5
1BB
330
1F
100
AcDbEntity
  8
LINEE VISIBILI 2D
100
AcDbSpline
210
0.0
220
0.0
230
1.0
 70
    12
 71
     2
 72
     6
 73
     3
 74
     0
 42
0.0000000001
 43
0.0000000001
 40
0.0
 40
0.0
 40
0.0
 40
1.454148741689438
 40
1.454148741689438
 40
1.454148741689438
 10
2360.960085545883
 20
437.8495089204521
 30
0.0
 41
1.0
 10
2360.581995346027
 20
438.470726911358
 30
0.0
 41
0.9996782918527315
 10
2360.172914715655
 20
439.0719897757151
 30
0.0
 41
1.0
  0
SPLINE
  5
1BC
330
1F
100
AcDbEntity
  8
LINEE VISIBILI 2D
100
AcDbSpline
210
0.0
220
0.0
230
1.0
 70
    12
 71
     3
 72
     8
 73
     4
 74
     0
 42
0.0000000001
 43
0.0000000001
 40
-88.18658205899926
 40
-88.18658205899926
 40
-88.18658205899926
 40
-88.18658205899926
 40
-44.79319272626649
 40
-44.79319272626649
 40
-44.79319272626649
 40
-44.79319272626649
 10
2360.172914715655
 20
439.0719897757151
 30
0.0
 41
1.0
 10
2351.76697701603
 20
451.4270100782863
 30
0.0
 41
1.0
 10
2335.055195202443
 20
455.1484749634448
 30
0.0
 41
1.0
 10
2322.146254962676
 20
447.2909710049697
 30
0.0
 41
1.0
  0
SPLINE
  5
1BD
330
1F
100
AcDbEntity
  8
LINEE VISIBILI 2D
100
AcDbSpline
210
0.0
220
0.0
230
1.0
 70
    12
 71
     2
 72
     6
 73
     3
 74
     0
 42
0.0000000001
 43
0.0000000001
 40
0.0
 40
0.0
 40
0.0
 40
17.58895396407489
 40
17.58895396407489
 40
17.58895396407489
 10
2322.146254962676
 20
447.2909710049697
 30
0.0
 41
1.0
 10
2314.372112263342
 20
442.5742514311552
 30
0.0
 41
0.9514569705420042
 10
2310.833351955119
 20
434.1979805592348
 30
0.0
 41
1.0
  0
SPLINE
  5
1BE
330
1F
100
AcDbEntity
  8
LINEE VISIBILI 2D
100
AcDbSpline
210
0.0
220
0.0
230
1.0
 70
    12
 71
     3
 72
     8
 73
     4
 74
     0
 42
0.0000000001
 43
0.0000000001
 40
76.64927559243104
 40
76.64927559243104
 40
76.64927559243104
 40
76.64927559243104
 40
88.18658205899926
 40
88.18658205899926
 40
88.18658205899926
 40
88.18658205899926
 10
2181.190571731309
 20
348.4796759452597
 30
0.0
 41
1.0
 10
2184.372228801333
 20
346.4707436848371
 30
0.0
 41
1.0
 10
2187.194324910215
 20
343.7961419792295
 30
0.0
 41
1.0
 10
2189.42925203262
 20
340.5112127877246
 30
0.0
 41
1.0
  0
SPLINE
  5
1BF
330
1F
100
AcDbEntity
  8
LINEE VISIBILI 2D
100
AcDbSpline
210
0.0
220
0.0
230
1.0
 70
    12
 71
     2
 72
     6
 73
     3
 74
     0
 42
0.0000000001
 43
0.0000000001
 40
-1.454148741689403
 40
-1.454148741689403
 40
-1.454148741689403
 40
0.0
 40
0.0
 40
0.0
 10
2189.42925203262
 20
340.5112127877246
 30
0.0
 41
1.0
 10
2189.838332662993
 20
339.9099499233675
 30
0.0
 41
0.9996782918527181
 10
2190.216422862848
 20
339.2887319324617
 30
0.0
 41
1.0
  0
SPLINE
  5
1C0
330
1F
100
AcDbEntity
  8
LINEE VISIBILI 2D
100
AcDbSpline
210
0.0
220
0.0
230
1.0
 70
    12
 71
     3
 72
     8
 73
     4
 74
     0
 42
0.0000000001
 43
0.0000000001
 40
89.58636881167858
 40
89.58636881167858
 40
89.58636881167858
 40
89.58636881167858
 40
134.379544101583
 40
134.379544101583
 40
134.379544101583
 40
134.379544101583
 10
2190.216422862848
 20
339.2887319324617
 30
0.0
 41
1.0
 10
2198.327394605552
 20
325.9633743949624
 30
0.0
 41
1.0
 10
2194.10031850955
 20
308.5858729450881
 30
0.0
 41
1.0
 10
2180.774961079667
 20
300.47490126122
 30
0.0
 41
1.0
  0
SPLINE
  5
1C1
330
1F
100
AcDbEntity
  8
LINEE VISIBILI 2D
100
AcDbSpline
210
0.0
220
0.0
230
1.0
 70
    12
 71
     2
 72
     6
 73
     3
 74
     0
 42
0.0000000001
 43
0.0000000001
 40
-42.91016307040872
 40
-42.91016307040872
 40
-42.91016307040872
 40
0.0
 40
0.0
 40
0.0
 10
2180.774961079667
 20
300.47490126122
 30
0.0
 41
1.0
 10
2157.861635042841
 20
286.5403267441551
 30
0.0
 41
0.7253532243353454
 10
2142.748301708178
 20
308.6938825427646
 30
0.0
 41
1.0
  0
SPLINE
  5
1C2
330
1F
100
AcDbEntity
  8
LINEE VISIBILI 2D
100
AcDbSpline
210
0.0
220
0.0
230
1.0
 70
    12
 71
     3
 72
     8
 73
     4
 74
     0
 42
0.0000000001
 43
0.0000000001
 40
177.7729388689291
 40
177.7729388689291
 40
177.7729388689291
 40
177.7729388689291
 40
179.172725796908
 40
179.172725796908
 40
179.172725796908
 40
179.172725796908
 10
2142.748301708178
 20
308.6938825427646
 30
0.0
 41
1.0
 10
2142.477115643682
 20
309.0924134252519
 30
0.0
 41
1.0
 10
2142.214598399715
 20
309.4999458641987
 30
0.0
 41
1.0
 10
2141.961130496968
 20
309.9163633460406
 30
0.0
 41
1.0
  0
SPLINE
  5
1C3
330
1F
100
AcDbEntity
  8
LINEE VISIBILI 2D
100
AcDbSpline
210
0.0
220
0.0
230
1.0
 70
    12
 71
     2
 72
     6
 73
     3
 74
     0
 42
0.0000000001
 43
0.0000000001
 40
-44.36384075048032
 40
-44.36384075048032
 40
-44.36384075048032
 40
0.0
 40
0.0
 40
0.0
 10
2141.961130496968
 20
309.9163633460406
 30
0.0
 41
1.0
 10
2127.289726169994
 20
334.0404143099594
 30
0.0
 41
0.7073760952443371
 10
2151.402592279635
 20
348.7301940169765
 30
0.0
 41
1.0
  0
SPLINE
  5
1C4
330
1F
100
AcDbEntity
  8
LINEE VISIBILI 2D
100
AcDbSpline
210
0.0
220
0.0
230
1.0
 70
    12
 71
     3
 72
     8
 73
     4
 74
     0
 42
0.0000000001
 43
0.0000000001
 40
44.7931927262563
 40
44.7931927262563
 40
44.7931927262563
 40
44.7931927262563
 40
64.1578868465279
 40
64.1578868465279
 40
64.1578868465279
 40
64.1578868465279
 10
2151.402592279635
 20
348.7301940169765
 30
0.0
 41
1.0
 10
2157.163324110303
 20
352.2366765261895
 30
0.0
 41
1.0
 10
2163.681381073927
 20
353.4372401709694
 30
0.0
 41
1.0
 10
2169.88065162283
 20
352.5936490245163
 30
0.0
 41
1.0
  0
SPLINE
  5
1C5
330
1F
100
AcDbEntity
  8
LINEE VISIBILI 2D
100
AcDbSpline
210
0.0
220
0.0
230
1.0
 70
    12
 71
     3
 72
     8
 73
     4
 74
     0
 42
0.0000000001
 43
0.0000000001
 40
76.64927559243101
 40
76.64927559243101
 40
76.64927559243101
 40
76.64927559243101
 40
88.18658205899926
 40
88.18658205899926
 40
88.18658205899926
 40
88.18658205899926
 10
2096.040836561329
 20
448.47652775059
 30
0.0
 41
1.0
 10
2099.371451468349
 20
450.2274574691496
 30
0.0
 41
1.0
 10
2103.098772544851
 20
451.3341635385589
 30
0.0
 41
1.0
 10
2107.06106823553
 20
451.6272026064157
 30
0.0
 41
1.0
  0
SPLINE
  5
1C6
330
1F
100
AcDbEntity
  8
LINEE VISIBILI 2D
100
AcDbSpline
210
0.0
220
0.0
230
1.0
 70
    12
 71
     2
 72
     6
 73
     3
 74
     0
 42
0.0000000001
 43
0.0000000001
 40
-1.454148741689775
 40
-1.454148741689775
 40
-1.454148741689775
 40
0.0
 40
0.0
 40
0.0
 10
2107.06106823553
 20
451.6272026064157
 30
0.0
 41
1.0
 10
2107.786317465603
 20
451.6808453923367
 30
0.0
 41
0.999678291852707
 10
2108.513353126943
 20
451.6976721148803
 30
0.0
 41
1.0
  0
SPLINE
  5
1C7
330
1F
100
AcDbEntity
  8
LINEE VISIBILI 2D
100
AcDbSpline
210
0.0
220
0.0
230
1.0
 70
    12
 71
     3
 72
     8
 73
     4
 74
     0
 42
0.0000000001
 43
0.0000000001
 40
89.58636881167858
 40
89.58636881167858
 40
89.58636881167858
 40
89.58636881167858
 40
134.379544101583
 40
134.379544101583
 40
134.379544101583
 40
134.379544101583
 10
2108.513353126943
 20
451.6976721148803
 30
0.0
 41
1.0
 10
2124.108937140279
 20
452.0593009246903
 30
0.0
 41
1.0
 10
2137.04475680217
 20
439.7097949168854
 30
0.0
 41
1.0
 10
2137.406385614835
 20
424.1142110261649
 30
0.0
 41
1.0
  0
SPLINE
  5
1C8
330
1F
100
AcDbEntity
  8
LINEE VISIBILI 2D
100
AcDbSpline
210
0.0
220
0.0
230
1.0
 70
    12
 71
     2
 72
     6
 73
     3
 74
     0
 42
0.0000000001
 43
0.0000000001
 40
-42.91016307040794
 40
-42.91016307040794
 40
-42.91016307040794
 40
0.0
 40
0.0
 40
0.0
 10
2137.406385614835
 20
424.1142110261649
 30
0.0
 41
1.0
 10
2138.017418119127
 20
397.3034013345461
 30
0.0
 41
0.7253532243353473
 10
2111.275209346044
 20
395.2916486301694
 30
0.0
 41
1.0
  0
SPLINE
  5
1C9
330
1F
100
AcDbEntity
  8
LINEE VISIBILI 2D
100
AcDbSpline
210
0.0
220
0.0
230
1.0
 70
    12
 71
     3
 72
     8
 73
     4
 74
     0
 42
0.0000000001
 43
0.0000000001
 40
177.7729388689291
 40
177.7729388689291
 40
177.7729388689291
 40
177.7729388689291
 40
179.172725796908
 40
179.172725796908
 40
179.172725796908
 40
179.172725796908
 10
2111.275209346044
 20
395.2916486301694
 30
0.0
 41
1.0
 10
2110.794478445369
 20
395.2560600504079
 30
0.0
 41
1.0
 10
2110.310286378392
 20
395.2324796676742
 30
0.0
 41
1.0
 10
2109.822924309163
 20
395.2211787657716
 30
0.0
 41
1.0
  0
SPLINE
  5
1CA
330
1F
100
AcDbEntity
  8
LINEE VISIBILI 2D
100
AcDbSpline
210
0.0
220
0.0
230
1.0
 70
    12
 71
     2
 72
     6
 73
     3
 74
     0
 42
0.0000000001
 43
0.0000000001
 40
-44.36384075048064
 40
-44.36384075048064
 40
-44.36384075048064
 40
0.0
 40
0.0
 40
0.0
 10
2109.822924309163
 20
395.2211787657716
 30
0.0
 41
1.0
 10
2081.595181168731
 20
394.5773953913783
 30
0.0
 41
0.7073760952443228
 10
2080.929891821279
 20
422.8046398538901
 30
0.0
 41
1.0
  0
SPLINE
  5
1CB
330
1F
100
AcDbEntity
  8
LINEE VISIBILI 2D
100
AcDbSpline
210
0.0
220
0.0
230
1.0
 70
    12
 71
     3
 72
     8
 73
     4
 74
     0
 42
0.0000000001
 43
0.0000000001
 40
44.7931927262563
 40
44.7931927262563
 40
44.7931927262563
 40
44.7931927262563
 40
64.15788684652796
 40
64.15788684652796
 40
64.15788684652796
 40
64.15788684652796
 10
2080.929891821279
 20
422.8046398538901
 30
0.0
 41
1.0
 10
2080.773554805708
 20
429.546821218244
 30
0.0
 41
1.0
 10
2082.992864672281
 20
435.7919059544471
 30
0.0
 41
1.0
 10
2086.823071309968
 20
440.7388361615028
 30
0.0
 41
1.0
  0
SPLINE
  5
1CC
330
1F
100
AcDbEntity
  8
LINEE VISIBILI 2D
100
AcDbSpline
210
0.0
220
0.0
230
1.0
 70
    12
 71
     2
 72
     6
 73
     3
 74
     0
 42
0.0000000001
 43
0.0000000001
 40
0.0
 40
0.0
 40
0.0
 40
38.95031354335676
 40
38.95031354335676
 40
38.95031354335676
 10
2138.632308204589
 20
516.2730136613944
 30
0.0
 41
1.0
 10
2143.612808898471
 20
493.53136293594
 30
0.0
 41
0.7719143963718698
 10
2166.887447149561
 20
494.0598316305478
 30
0.0
 41
1.0
  0
SPLINE
  5
1CD
330
1F
100
AcDbEntity
  8
LINEE VISIBILI 2D
100
AcDbSpline
210
0.0
220
0.0
230
1.0
 70
    12
 71
     2
 72
     6
 73
     3
 74
     0
 42
0.0000000001
 43
0.0000000001
 40
0.0
 40
0.0
 40
0.0
 40
7.928147146213684
 40
7.928147146213684
 40
7.928147146213684
 10
2166.887447149561
 20
494.0598316305478
 30
0.0
 41
1.0
 10
2170.87678381019
 20
494.1490440739703
 30
0.0
 41
0.9901576367797964
 10
2174.685109417701
 20
495.3404390206953
 30
0.0
 41
1.0
  0
SPLINE
  5
1CE
330
1F
100
AcDbEntity
  8
LINEE VISIBILI 2D
100
AcDbSpline
210
0.0
220
0.0
230
1.0
 70
    12
 71
     2
 72
     8
 73
     5
 74
     0
 42
0.0000000001
 43
0.0000000001
 40
0.0
 40
0.0
 40
0.0
 40
34.34460004416628
 40
34.34460004416628
 40
68.68920008833256
 40
68.68920008833256
 40
68.68920008833256
 10
2185.133517329408
 20
501.3130859191675
 30
0.0
 41
1.0
 10
2199.744814467923
 20
514.4626002453683
 30
0.0
 41
0.8207437381074751
 10
2192.487149490734
 20
532.730770108927
 30
0.0
 41
1.0
 10
2185.229484513544
 20
550.9989399724856
 30
0.0
 41
0.8207437381074751
 10
2165.577875967337
 20
550.5363249796558
 30
0.0
 41
1.0
  0
SPLINE
  5
1CF
330
1F
100
AcDbEntity
  8
LINEE VISIBILI 2D
100
AcDbSpline
210
0.0
220
0.0
230
1.0
 70
    12
 71
     2
 72
     6
 73
     3
 74
     0
 42
0.0000000001
 43
0.0000000001
 40
0.0
 40
0.0
 40
0.0
 40
37.65717079010248
 40
37.65717079010248
 40
37.65717079010248
 10
2165.577875967337
 20
550.5363249796558
 30
0.0
 41
1.0
 10
2143.369330744229
 20
550.0108057961747
 30
0.0
 41
0.7862838736415059
 10
2138.627963429105
 20
528.3079237911942
 30
0.0
 41
1.0
  0
SPLINE
  5
1D0
330
1F
100
AcDbEntity
  8
LINEE VISIBILI 2D
100
AcDbSpline
210
0.0
220
0.0
230
1.0
 70
    12
 71
     2
 72
     6
 73
     3
 74
     0
 42
0.0000000001
 43
0.0000000001
 40
0.0
 40
0.0
 40
0.0
 40
14.65494520736812
 40
14.65494520736812
 40
14.65494520736812
 10
2095.751144497759
 20
595.7591681444178
 30
0.0
 41
1.0
 10
2102.342714483732
 20
592.1851024819282
 30
0.0
 41
0.9661970220857765
 10
2109.838618962348
 20
592.369916678476
 30
0.0
 41
1.0
  0
SPLINE
  5
1D1
330
1F
100
AcDbEntity
  8
LINEE VISIBILI 2D
100
AcDbSpline
210
0.0
220
0.0
230
1.0
 70
    12
 71
     3
 72
     8
 73
     4
 74
     0
 42
0.0000000001
 43
0.0000000001
 40
-179.172725796908
 40
-179.172725796908
 40
-179.172725796908
 40
-179.172725796908
 40
-177.7729388689291
 40
-177.7729388689291
 40
-177.7729388689291
 40
-177.7729388689291
 10
2109.838618962348
 20
592.369916678476
 30
0.0
 41
1.0
 10
2110.325981031577
 20
592.3812175803781
 30
0.0
 41
1.0
 10
2110.810173098555
 20
592.4047979631117
 30
0.0
 41
1.0
 10
2111.290903999229
 20
592.4403865428736
 30
0.0
 41
1.0
  0
SPLINE
  5
1D2
330
1F
100
AcDbEntity
  8
LINEE VISIBILI 2D
100
AcDbSpline
210
0.0
220
0.0
230
1.0
 70
    12
 71
     2
 72
     6
 73
     3
 74
     0
 42
0.0000000001
 43
0.0000000001
 40
0.0
 40
0.0
 40
0.0
 40
42.91016307037475
 40
42.91016307037475
 40
42.91016307037475
 10
2111.290903999229
 20
592.4403865428736
 30
0.0
 41
1.0
 10
2138.033112772232
 20
594.4521392473234
 30
0.0
 41
0.7253532243373524
 10
2137.422080268019
 20
621.2629489388696
 30
0.0
 41
1.0
  0
SPLINE
  5
1D3
330
1F
100
AcDbEntity
  8
LINEE VISIBILI 2D
100
AcDbSpline
210
0.0
220
0.0
230
1.0
 70
    12
 71
     3
 72
     8
 73
     4
 74
     0
 42
0.0000000001
 43
0.0000000001
 40
-134.379544101583
 40
-134.379544101583
 40
-134.379544101583
 40
-134.379544101583
 40
-89.58636881167858
 40
-89.58636881167858
 40
-89.58636881167858
 40
-89.58636881167858
 10
2137.422080268019
 20
621.2629489388696
 30
0.0
 41
1.0
 10
2137.060451455355
 20
636.8585328295899
 30
0.0
 41
1.0
 10
2124.124631793464
 20
649.2080388373945
 30
0.0
 41
1.0
 10
2108.529047780128
 20
648.8464100275849
 30
0.0
 41
1.0
  0
SPLINE
  5
1D4
330
1F
100
AcDbEntity
  8
LINEE VISIBILI 2D
100
AcDbSpline
210
0.0
220
0.0
230
1.0
 70
    12
 71
     2
 72
     6
 73
     3
 74
     0
 42
0.0000000001
 43
0.0000000001
 40
0.0
 40
0.0
 40
0.0
 40
1.45414874168929
 40
1.45414874168929
 40
1.45414874168929
 10
2108.529047780128
 20
648.8464100275849
 30
0.0
 41
1.0
 10
2107.802012118787
 20
648.8295833050411
 30
0.0
 41
0.9996782918527242
 10
2107.076762888715
 20
648.7759405191205
 30
0.0
 41
1.0
  0
SPLINE
  5
1D5
330
1F
100
AcDbEntity
  8
LINEE VISIBILI 2D
100
AcDbSpline
210
0.0
220
0.0
230
1.0
 70
    12
 71
     3
 72
     8
 73
     4
 74
     0
 42
0.0000000001
 43
0.0000000001
 40
-88.18658205899926
 40
-88.18658205899926
 40
-88.18658205899926
 40
-88.18658205899926
 40
-44.7931927262563
 40
-44.7931927262563
 40
-44.7931927262563
 40
-44.7931927262563
 10
2107.076762888715
 20
648.7759405191205
 30
0.0
 41
1.0
 10
2092.1740325926
 20
647.6736950799018
 30
0.0
 41
1.0
 10
2080.595258555965
 20
635.061599929405
 30
0.0
 41
1.0
 10
2080.945586474464
 20
619.9533777665949
 30
0.0
 41
1.0
  0
SPLINE
  5
1D6
330
1F
100
AcDbEntity
  8
LINEE VISIBILI 2D
100
AcDbSpline
210
0.0
220
0.0
230
1.0
 70
    12
 71
     2
 72
     6
 73
     3
 74
     0
 42
0.0000000001
 43
0.0000000001
 40
0.0
 40
0.0
 40
0.0
 40
17.58895396407486
 40
17.58895396407486
 40
17.58895396407486
 10
2080.945586474464
 20
619.9533777665949
 30
0.0
 41
1.0
 10
2081.143314098249
 20
610.8624129094255
 30
0.0
 41
0.9514569705420123
 10
2086.627997308199
 20
603.6096211486399
 30
0.0
 41
1.0
  0
SPLINE
  5
1D7
330
1F
100
AcDbEntity
  8
LINEE VISIBILI 2D
100
AcDbSpline
210
0.0
220
0.0
230
1.0
 70
    12
 71
     2
 72
     6
 73
     3
 74
     0
 42
0.0000000001
 43
0.0000000001
 40
0.0
 40
0.0
 40
0.0
 40
9.386782094407666
 40
9.386782094407666
 40
9.386782094407666
 10
1965.460000974953
 20
528.3079237912383
 30
0.0
 41
1.0
 10
1964.450600831076
 20
532.9364064280315
 30
0.0
 41
0.986163557686481
 10
1961.983337447695
 20
536.9804578083415
 30
0.0
 41
1.0
  0
SPLINE
  5
1D8
330
1F
100
AcDbEntity
  8
LINEE VISIBILI 2D
100
AcDbSpline
210
0.0
220
0.0
230
1.0
 70
    12
 71
     2
 72
     6
 73
     3
 74
     0
 42
0.0000000001
 43
0.0000000001
 40
0.0
 40
0.0
 40
0.0
 40
37.65717079009933
 40
37.65717079009933
 40
37.65717079009933
 10
1961.983337447695
 20
536.9804578083415
 30
0.0
 41
1.0
 10
1950.423951873072
 20
555.9508625609062
 30
0.0
 41
0.7862838736415281
 10
1929.258021063862
 20
549.2055661019895
 30
0.0
 41
1.0
  0
SPLINE
  5
1D9
330
1F
100
AcDbEntity
  8
LINEE VISIBILI 2D
100
AcDbSpline
210
0.0
220
0.0
230
1.0
 70
    12
 71
     2
 72
     6
 73
     3
 74
     0
 42
0.0000000001
 43
0.0000000001
 40
0.0
 40
0.0
 40
0.0
 40
38.95031354335692
 40
38.95031354335692
 40
38.95031354335692
 10
1918.837655546932
 20
543.1843483511453
 30
0.0
 41
1.0
 10
1901.633058641637
 20
527.5002828639504
 30
0.0
 41
0.7719143963718739
 10
1913.728045081818
 20
507.6080892219168
 30
0.0
 41
1.0
  0
SPLINE
  5
1DA
330
1F
100
AcDbEntity
  8
LINEE VISIBILI 2D
100
AcDbSpline
210
0.0
220
0.0
230
1.0
 70
    12
 71
     2
 72
     8
 73
     5
 74
     0
 42
0.0000000001
 43
0.0000000001
 40
0.0
 40
0.0
 40
0.0
 40
33.61502993402398
 40
33.61502993402398
 40
67.23005986804796
 40
67.23005986804796
 40
67.23005986804796
 10
1913.728045081818
 20
507.6080892219168
 30
0.0
 41
1.0
 10
1923.663817346939
 20
491.2718950412493
 30
0.0
 41
0.8280479220083277
 10
1942.521428474739
 20
494.4312167034889
 30
0.0
 41
1.0
 10
1961.379039602539
 20
497.5905383657284
 30
0.0
 41
0.8280479220083277
 10
1965.447937197826
 20
516.2730136613603
 30
0.0
 41
1.0
  0
SPLINE
  5
1DB
330
1F
100
AcDbEntity
  8
LINEE VISIBILI 2D
100
AcDbSpline
210
0.0
220
0.0
230
1.0
 70
    12
 71
     2
 72
     6
 73
     3
 74
     0
 42
0.0000000001
 43
0.0000000001
 40
0.0
 40
0.0
 40
0.0
 40
14.65494520736784
 40
14.65494520736784
 40
14.65494520736784
 10
1966.23410272495
 20
620.0636027066106
 30
0.0
 41
1.0
 10
1966.434656059427
 20
612.5681028166897
 30
0.0
 41
0.9661970220857651
 10
1970.342662087925
 20
606.1688662121413
 30
0.0
 41
1.0
  0
SPLINE
  5
1DC
330
1F
100
AcDbEntity
  8
LINEE VISIBILI 2D
100
AcDbSpline
210
0.0
220
0.0
230
1.0
 70
    12
 71
     3
 72
     8
 73
     4
 74
     0
 42
0.0000000001
 43
0.0000000001
 40
-179.172725796908
 40
-179.172725796908
 40
-179.172725796908
 40
-179.172725796908
 40
-177.7729388689291
 40
-177.7729388689291
 40
-177.7729388689291
 40
-177.7729388689291
 10
1970.342662087925
 20
606.1688662121413
 30
0.0
 41
1.0
 10
1970.596129990673
 20
605.7524487302993
 30
0.0
 41
1.0
 10
1970.85864723464
 20
605.3449162913525
 30
0.0
 41
1.0
 10
1971.129833299135
 20
604.9463854088654
 30
0.0
 41
1.0
  0
SPLINE
  5
1DD
330
1F
100
AcDbEntity
  8
LINEE VISIBILI 2D
100
AcDbSpline
210
0.0
220
0.0
230
1.0
 70
    12
 71
     2
 72
     6
 73
     3
 74
     0
 42
0.0000000001
 43
0.0000000001
 40
0.0
 40
0.0
 40
0.0
 40
42.91016307037552
 40
42.91016307037552
 40
42.91016307037552
 10
1971.129833299135
 20
604.9463854088654
 30
0.0
 41
1.0
 10
1986.243166633822
 20
582.7928296103598
 30
0.0
 41
0.7253532243373118
 10
2009.156492670625
 20
596.7274041273213
 30
0.0
 41
1.0
  0
SPLINE
  5
1DE
330
1F
100
AcDbEntity
  8
LINEE VISIBILI 2D
100
AcDbSpline
210
0.0
220
0.0
230
1.0
 70
    12
 71
     3
 72
     8
 73
     4
 74
     0
 42
0.0000000001
 43
0.0000000001
 40
-134.379544101583
 40
-134.379544101583
 40
-134.379544101583
 40
-134.379544101583
 40
-89.5863688116684
 40
-89.5863688116684
 40
-89.5863688116684
 40
-89.5863688116684
 10
2009.156492670625
 20
596.7274041273213
 30
0.0
 41
1.0
 10
2022.481850100511
 20
604.8383758111909
 30
0.0
 41
1.0
 10
2026.708926196512
 20
622.2158772610711
 30
0.0
 41
1.0
 10
2018.597954453804
 20
635.5412347985671
 30
0.0
 41
1.0
  0
SPLINE
  5
1DF
330
1F
100
AcDbEntity
  8
LINEE VISIBILI 2D
100
AcDbSpline
210
0.0
220
0.0
230
1.0
 70
    12
 71
     2
 72
     6
 73
     3
 74
     0
 42
0.0000000001
 43
0.0000000001
 40
0.0
 40
0.0
 40
0.0
 40
1.454148741689445
 40
1.454148741689445
 40
1.454148741689445
 10
2018.597954453804
 20
635.5412347985671
 30
0.0
 41
1.0
 10
2018.219864253951
 20
636.1624527894687
 30
0.0
 41
0.9996782918527158
 10
2017.810783623578
 20
636.7637156538258
 30
0.0
 41
1.0
  0
SPLINE
  5
1E0
330
1F
100
AcDbEntity
  8
LINEE VISIBILI 2D
100
AcDbSpline
210
0.0
220
0.0
230
1.0
 70
    12
 71
     3
 72
     8
 73
     4
 74
     0
 42
0.0000000001
 43
0.0000000001
 40
-88.18658205899926
 40
-88.18658205899926
 40
-88.18658205899926
 40
-88.18658205899926
 40
-44.79319272626649
 40
-44.79319272626649
 40
-44.79319272626649
 40
-44.79319272626649
 10
2017.810783623578
 20
636.7637156538258
 30
0.0
 41
1.0
 10
2009.404845923953
 20
649.1187359563967
 30
0.0
 41
1.0
 10
1992.693064110365
 20
652.8402008415552
 30
0.0
 41
1.0
 10
1979.784123870598
 20
644.9826968830803
 30
0.0
 41
1.0
  0
SPLINE
  5
1E1
330
1F
100
AcDbEntity
  8
LINEE VISIBILI 2D
100
AcDbSpline
210
0.0
220
0.0
230
1.0
 70
    12
 71
     2
 72
     6
 73
     3
 74
     0
 42
0.0000000001
 43
0.0000000001
 40
0.0
 40
0.0
 40
0.0
 40
17.58895396407456
 40
17.58895396407456
 40
17.58895396407456
 10
1979.784123870598
 20
644.9826968830803
 30
0.0
 41
1.0
 10
1972.009981171266
 20
640.2659773092654
 30
0.0
 41
0.9514569705420196
 10
1968.471220863042
 20
631.8897064373455
 30
0.0
 41
1.0
  0
SPLINE
  5
1E2
330
1F
100
AcDbEntity
  8
PREDEFINITO
100
AcDbSpline
210
0.0
220
0.0
230
1.0
 70
    28
 71
     2
 72
     6
 73
     3
 74
     0
 42
0.0000000001
 43
0.0000000001
 40
712.5541568288597
 40
712.5541568288597
 40
712.5541568288597
 40
770.9498864326242
 40
770.9498864326242
 40
770.9498864326242
 10
1918.792943027759
 20
640.6493271748234
 30
0.0
 41
1.0
 10
1947.547226656061
 20
635.5791711602179
 30
0.0
 41
1.0
 10
1976.301510284364
 20
630.5090151456125
 30
0.0
 41
1.0
  0
POLYLINE
  5
1E3
330
1F
100
AcDbEntity
  8
PREDEFINITO
100
AcDb2dPolyline
 66
     1
 10
0.0
 20
0.0
 30
0.0
  0
VERTEX
  5
1E5
330
1E3
100
AcDbEntity
  8
PREDEFINITO
100
AcDbVertex
100
AcDb2dVertex
 10
1976.301510284364
 20
630.5090151456125
 30
0.0
  0
VERTEX
  5
1E6
330
1E3
100
AcDbEntity
  8
PREDEFINITO
100
AcDbVertex
100
AcDb2dVertex
 10
1976.515846929606
 20
630.4712218121281
 30
0.0
  0
SEQEND
  5
1E4
330
1E3
100
AcDbEntity
  8
PREDEFINITO
  0
SPLINE
  5
1E7
330
1F
100
AcDbEntity
  8
PREDEFINITO
100
AcDbSpline
210
0.0
220
0.0
230
1.0
 70
    12
 71
     2
 72
     8
 73
     5
 74
     0
 42
0.0000000001
 43
0.0000000001
 40
26.13640294984325
 40
26.13640294984325
 40
26.13640294984325
 40
32.00778274040508
 40
32.00778274040508
 40
64.01556548081027
 40
64.01556548081027
 40
64.01556548081027
 10
1976.515846929606
 20
630.4712218121281
 30
0.0
 41
0.9122566680442019
 10
1977.836352936428
 20
632.9324733532095
 30
0.0
 41
0.9462728380881259
 10
1979.770452053651
 20
634.9476050777592
 30
0.0
 41
1.0
 10
1993.880403380771
 20
649.648718530492
 30
0.0
 41
0.7071067811865518
 10
2008.581516833504
 20
635.5387672033726
 30
0.0
 41
1.0
  0
SPLINE
  5
1E8
330
1F
100
AcDbEntity
  8
PREDEFINITO
100
AcDbSpline
210
0.0
220
0.0
230
1.0
 70
    12
 71
     2
 72
     8
 73
     5
 74
     0
 42
0.0000000001
 43
0.0000000001
 40
0.0
 40
0.0
 40
0.0
 40
32.00778274040513
 40
32.00778274040513
 40
64.01556548081014
 40
64.01556548081014
 40
64.01556548081014
 10
2008.581516833504
 20
635.5387672033726
 30
0.0
 41
1.0
 10
2023.282630286237
 20
621.4288158762529
 30
0.0
 41
0.7071067811865377
 10
2009.172678959117
 20
606.72770242352
 30
0.0
 41
1.0
 10
1995.062727631998
 20
592.026588970787
 30
0.0
 41
0.707106781186546
 10
1980.361614179265
 20
606.1365402979065
 30
0.0
 41
1.0
  0
SPLINE
  5
1E9
330
1F
100
AcDbEntity
  8
PREDEFINITO
100
AcDbSpline
210
0.0
220
0.0
230
1.0
 70
    12
 71
     2
 72
     6
 73
     3
 74
     0
 42
0.0000000001
 43
0.0000000001
 40
0.0
 40
0.0
 40
0.0
 40
14.32773778527532
 40
14.32773778527532
 40
14.32773778527532
 10
1980.361614179265
 20
606.1365402979065
 30
0.0
 41
1.0
 10
1975.006215677917
 20
611.2765871681185
 30
0.0
 41
0.8688913483236443
 10
1974.21180597526
 20
618.6569183368762
 30
0.0
 41
0.8551597982000624
  0
SPLINE
  5
1EA
330
1F
100
AcDbEntity
  8
PREDEFINITO
100
AcDbSpline
210
0.0
220
0.0
230
1.0
 70
    12
 71
     2
 72
     8
 73
     5
 74
     0
 42
0.0000000001
 43
0.0000000001
 40
-0.0001482935121958
 40
-0.0001482935121958
 40
-0.0001482935121958
 40
0.0
 40
0.0
 40
66.27502684962295
 40
66.27502684962295
 40
66.27502684962295
 10
1974.211805975261
 20
618.6569183368763
 30
0.0
 41
0.999944670954458
 10
1974.211738024585
 20
618.6569303457661
 30
0.0
 41
0.9999723313741513
 10
1974.211670071841
 20
618.6569423429332
 30
0.0
 41
1.0
 10
1941.577589935519
 20
624.4112111615757
 30
0.0
 41
1.0
 10
1908.943509799198
 20
630.1654799802182
 30
0.0
 41
1.0
  0
POLYLINE
  5
1EB
330
1F
100
AcDbEntity
  8
PREDEFINITO
100
AcDb2dPolyline
 66
     1
 10
0.0
 20
0.0
 30
0.0
  0
VERTEX
  5
1ED
330
1EB
100
AcDbEntity
  8
PREDEFINITO
100
AcDbVertex
100
AcDb2dVertex
 10
1743.358675300322
 20
1389.071688227073
 30
0.0
  0
VERTEX
  5
1EE
330
1EB
100
AcDbEntity
  8
PREDEFINITO
100
AcDbVertex
100
AcDb2dVertex
 10
1904.353935735012
 20
1389.071688227073
 30
0.0
  0
SEQEND
  5
1EC
330
1EB
100
AcDbEntity
  8
PREDEFINITO
  0
SPLINE
  5
1EF
330
1F
100
AcDbEntity
  8
PREDEFINITO
100
AcDbSpline
210
0.0
220
0.0
230
1.0
 70
    24
 71
     2
 72
     6
 73
     3
 74
     0
 42
0.0000000001
 43
0.0000000001
 40
-61.3064002282361
 40
-61.3064002282361
 40
-61.3064002282361
 40
0.0
 40
0.0
 40
0.0
 10
1904.353935735012
 20
1389.071688227073
 30
0.0
 10
1925.954763981729
 20
1410.820777816316
 30
0.0
 10
1947.555592228447
 20
1432.56986740556
 30
0.0
  0
SPLINE
  5
1F0
330
1F
100
AcDbEntity
  8
PREDEFINITO
100
AcDbSpline
210
0.0
220
0.0
230
1.0
 70
    12
 71
     2
 72
     8
 73
     5
 74
     0
 42
0.0000000001
 43
0.0000000001
 40
0.0
 40
0.0
 40
0.0
 40
247.2860871955552
 40
247.2860871955552
 40
494.8284271247481
 40
494.8284271247481
 40
494.8284271247481
 10
1947.555592228447
 20
1432.56986740556
 30
0.0
 41
0.9993942289441665
 10
1948.715120295944
 20
1432.571688227082
 30
0.0
 41
0.7074099805826868
 10
1825.196312945332
 20
1432.571688227082
 30
0.0
 41
1.0
 10
1701.496489616446
 20
1432.571688227082
 30
0.0
 41
0.707106781186548
 10
1700.154112406133
 20
1432.571688227082
 30
0.0
 41
1.0
  0
SPLINE
  5
1F1
330
1F
100
AcDbEntity
  8
PREDEFINITO
100
AcDbSpline
210
0.0
220
0.0
230
1.0
 70
    24
 71
     2
 72
     6
 73
     3
 74
     0
 42
0.0000000001
 43
0.0000000001
 40
0.0
 40
0.0
 40
0.0
 40
61.30974029368171
 40
61.30974029368171
 40
61.30974029368171
 10
1700.154112406133
 20
1432.571688227082
 30
0.0
 10
1721.756393853228
 20
1410.821688227078
 30
0.0
 10
1743.358675300322
 20
1389.071688227073
 30
0.0
  0
POLYLINE
  5
1F2
330
1F
100
AcDbEntity
  8
PREDEFINITO
100
AcDb2dPolyline
 66
     1
 10
0.0
 20
0.0
 30
0.0
  0
VERTEX
  5
1F4
330
1F2
100
AcDbEntity
  8
PREDEFINITO
100
AcDbVertex
100
AcDb2dVertex
 10
2204.695580366922
 20
1389.071688226638
 30
0.0
  0
VERTEX
  5
1F5
330
1F2
100
AcDbEntity
  8
PREDEFINITO
100
AcDbVertex
100
AcDb2dVertex
 10
2223.178355519969
 20
1389.071688226638
 30
0.0
  0
VERTEX
  5
1F6
330
1F2
100
AcDbEntity
  8
PREDEFINITO
100
AcDbVertex
100
AcDb2dVertex
 10
2223.178355519969
 20
1432.571688227082
 30
0.0
  0
VERTEX
  5
1F7
330
1F2
100
AcDbEntity
  8
PREDEFINITO
100
AcDbVertex
100
AcDb2dVertex
 10
2204.695580366922
 20
1432.571688227082
 30
0.0
  0
VERTEX
  5
1F8
330
1F2
100
AcDbEntity
  8
PREDEFINITO
100
AcDbVertex
100
AcDb2dVertex
 10
2204.695580366922
 20
1389.071688226638
 30
0.0
  0
SEQEND
  5
1F3
330
1F2
100
AcDbEntity
  8
PREDEFINITO
  0
ENDSEC
  0
SECTION
  2
OBJECTS
  0
DICTIONARY
  5
C
330
0
100
AcDbDictionary
281
     1
  3
ACAD_GROUP
350
D
  3
ACAD_LAYOUT
350
1A
  3
ACAD_MLEADERSTYLE
350
1FA
  3
ACAD_MLINESTYLE
350
17
  3
ACAD_PLOTSETTINGS
350
19
  3
ACAD_PLOTSTYLENAME
350
E
  3
ACAD_SCALELIST
350
3B
  3
ACAD_TABLESTYLE
350
1F9
  3
ACAD_VISUALSTYLE
350
2A
  0
DICTIONARY
  5
D
102
{ACAD_REACTORS
330
C
102
}
330
C
100
AcDbDictionary
281
     1
  0
DICTIONARY
  5
1A
102
{ACAD_REACTORS
330
C
102
}
330
C
100
AcDbDictionary
281
     1
  3
Layout1
350
1E
  3
Layout2
350
26
  3
Model
350
22
  0
DICTIONARY
  5
1FA
102
{ACAD_REACTORS
330
C
102
}
330
C
100
AcDbDictionary
281
     1
  0
DICTIONARY
  5
17
102
{ACAD_REACTORS
330
C
102
}
330
C
100
AcDbDictionary
281
     1
  3
Standard
350
18
  0
DICTIONARY
  5
19
102
{ACAD_REACTORS
330
C
102
}
330
C
100
AcDbDictionary
281
     1
  0
ACDBDICTIONARYWDFLT
  5
E
102
{ACAD_REACTORS
330
C
102
}
330
C
100
AcDbDictionary
281
     1
  3
Normal
350
F
100
AcDbDictionaryWithDefault
340
F
  0
DICTIONARY
  5
3B
102
{ACAD_REACTORS
330
C
102
}
330
C
100
AcDbDictionary
281
     1
  3
A0
350
3C
  3
A1
350
3D
  3
A2
350
3E
  3
A3
350
3F
  3
A4
350
40
  3
A5
350
41
  3
A6
350
42
  3
A7
350
43
  3
A8
350
44
  3
A9
350
45
  3
B0
350
46
  3
B1
350
47
  3
B2
350
48
  3
B3
350
49
  3
B4
350
4A
  3
B5
350
4B
  3
B6
350
4C
  3
B7
350
4D
  3
B8
350
4E
  3
B9
350
4F
  3
C0
350
50
  3
C1
350
51
  3
C2
350
52
  3
C3
350
53
  3
C4
350
54
  3
C5
350
55
  3
C6
350
56
  3
C7
350
57
  3
C8
350
58
  3
C9
350
59
  3
D0
350
5A
  3
D1
350
5B
  3
D2
350
5C
  0
DICTIONARY
  5
1F9
102
{ACAD_REACTORS
330
C
102
}
330
C
100
AcDbDictionary
281
     1
  0
DICTIONARY
  5
2A
102
{ACAD_REACTORS
330
C
102
}
330
C
100
AcDbDictionary
281
     1
  3
2dWireframe
350
2F
  3
3D Hidden
350
31
  3
3dWireframe
350
30
  3
Basic
350
32
  3
Brighten
350
36
  3
ColorChange
350
3A
  3
Conceptual
350
34
  3
Dim
350
35
  3
Facepattern
350
39
  3
Flat
350
2B
  3
FlatWithEdges
350
2C
  3
Gouraud
350
2D
  3
GouraudWithEdges
350
2E
  3
Linepattern
350
38
  3
Realistic
350
33
  3
Thicken
350
37
  0
LAYOUT
  5
1E
102
{ACAD_REACTORS
330
1A
102
}
330
1A
100
AcDbPlotSettings
  1

  2
none_device
  4

  6

 40
0.0
 41
0.0
 42
0.0
 43
0.0
 44
0.0
 45
0.0
 46
0.0
 47
0.0
 48
0.0
 49
0.0
140
0.0
141
0.0
142
1.0
143
1.0
 70
   688
 72
     0
 73
     0
 74
     5
  7

 75
    16
 76
     0
 77
     2
 78
   300
147
1.0
148
0.0
149
0.0
100
AcDbLayout
  1
Layout1
 70
     1
 71
     1
 10
0.0
 20
0.0
 11
12.0
 21
9.0
 12
0.0
 22
0.0
 32
0.0
 14
1.000000000000000E+20
 24
1.000000000000000E+20
 34
1.000000000000000E+20
 15
-1.000000000000000E+20
 25
-1.000000000000000E+20
 35
-1.000000000000000E+20
146
0.0
 13
0.0
 23
0.0
 33
0.0
 16
1.0
 26
0.0
 36
0.0
 17
0.0
 27
1.0
 37
0.0
 76
     0
330
1B
  0
LAYOUT
  5
26
102
{ACAD_REACTORS
330
1A
102
}
330
1A
100
AcDbPlotSettings
  1

  2
none_device
  4

  6

 40
0.0
 41
0.0
 42
0.0
 43
0.0
 44
0.0
 45
0.0
 46
0.0
 47
0.0
 48
0.0
 49
0.0
140
0.0
141
0.0
142
1.0
143
1.0
 70
   688
 72
     0
 73
     0
 74
     5
  7

 75
    16
 76
     0
 77
     2
 78
   300
147
1.0
148
0.0
149
0.0
100
AcDbLayout
  1
Layout2
 70
     1
 71
     2
 10
0.0
 20
0.0
 11
0.0
 21
0.0
 12
0.0
 22
0.0
 32
0.0
 14
0.0
 24
0.0
 34
0.0
 15
0.0
 25
0.0
 35
0.0
146
0.0
 13
0.0
 23
0.0
 33
0.0
 16
1.0
 26
0.0
 36
0.0
 17
0.0
 27
1.0
 37
0.0
 76
     0
330
23
  0
LAYOUT
  5
22
102
{ACAD_REACTORS
330
1A
102
}
330
1A
100
AcDbPlotSettings
  1

  2
none_device
  4

  6

 40
0.0
 41
0.0
 42
0.0
 43
0.0
 44
0.0
 45
0.0
 46
0.0
 47
0.0
 48
0.0
 49
0.0
140
0.0
141
0.0
142
1.0
143
1.0
 70
  1712
 72
     0
 73
     0
 74
     0
  7

 75
     0
 76
     0
 77
     2
 78
   300
147
1.0
148
0.0
149
0.0
100
AcDbLayout
  1
Model
 70
     1
 71
     0
 10
0.0
 20
0.0
 11
12.0
 21
9.0
 12
0.0
 22
0.0
 32
0.0
 14
296.5159777516642
 24
296.3535147415673
 34
0.0
 15
2365.08238799368
 25
1432.572579711434
 35
0.0
146
0.0
 13
0.0
 23
0.0
 33
0.0
 16
1.0
 26
0.0
 36
0.0
 17
0.0
 27
1.0
 37
0.0
 76
     0
330
1F
331
29
  0
MLINESTYLE
  5
18
102
{ACAD_REACTORS
330
17
102
}
330
17
100
AcDbMlineStyle
  2
Standard
 70
     0
  3

 62
   256
 51
90.0
 52
90.0
 71
     2
 49
0.5
 62
   256
  6
BYLAYER
 49
-0.5
 62
   256
  6
BYLAYER
  0
ACDBPLACEHOLDER
  5
F
102
{ACAD_REACTORS
330
E
102
}
330
E
  0
SCALE
  5
3C
102
{ACAD_REACTORS
330
3B
102
}
330
3B
100
AcDbScale
 70
     0
300
1:1
140
1.0
141
1.0
290
     1
  0
SCALE
  5
3D
102
{ACAD_REACTORS
330
3B
102
}
330
3B
100
AcDbScale
 70
     0
300
1:2
140
1.0
141
2.0
290
     0
  0
SCALE
  5
3E
102
{ACAD_REACTORS
330
3B
102
}
330
3B
100
AcDbScale
 70
     0
300
1:4
140
1.0
141
4.0
290
     0
  0
SCALE
  5
3F
102
{ACAD_REACTORS
330
3B
102
}
330
3B
100
AcDbScale
 70
     0
300
1:5
140
1.0
141
5.0
290
     0
  0
SCALE
  5
40
102
{ACAD_REACTORS
330
3B
102
}
330
3B
100
AcDbScale
 70
     0
300
1:8
140
1.0
141
8.0
290
     0
  0
SCALE
  5
41
102
{ACAD_REACTORS
330
3B
102
}
330
3B
100
AcDbScale
 70
     0
300
1:10
140
1.0
141
10.0
290
     0
  0
SCALE
  5
42
102
{ACAD_REACTORS
330
3B
102
}
330
3B
100
AcDbScale
 70
     0
300
1:16
140
1.0
141
16.0
290
     0
  0
SCALE
  5
43
102
{ACAD_REACTORS
330
3B
102
}
330
3B
100
AcDbScale
 70
     0
300
1:20
140
1.0
141
20.0
290
     0
  0
SCALE
  5
44
102
{ACAD_REACTORS
330
3B
102
}
330
3B
100
AcDbScale
 70
     0
300
1:30
140
1.0
141
30.0
290
     0
  0
SCALE
  5
45
102
{ACAD_REACTORS
330
3B
102
}
330
3B
100
AcDbScale
 70
     0
300
1:40
140
1.0
141
40.0
290
     0
  0
SCALE
  5
46
102
{ACAD_REACTORS
330
3B
102
}
330
3B
100
AcDbScale
 70
     0
300
1:50
140
1.0
141
50.0
290
     0
  0
SCALE
  5
47
102
{ACAD_REACTORS
330
3B
102
}
330
3B
100
AcDbScale
 70
     0
300
1:100
140
1.0
141
100.0
290
     0
  0
SCALE
  5
48
102
{ACAD_REACTORS
330
3B
102
}
330
3B
100
AcDbScale
 70
     0
300
2:1
140
2.0
141
1.0
290
     0
  0
SCALE
  5
49
102
{ACAD_REACTORS
330
3B
102
}
330
3B
100
AcDbScale
 70
     0
300
4:1
140
4.0
141
1.0
290
     0
  0
SCALE
  5
4A
102
{ACAD_REACTORS
330
3B
102
}
330
3B
100
AcDbScale
 70
     0
300
8:1
140
8.0
141
1.0
290
     0
  0
SCALE
  5
4B
102
{ACAD_REACTORS
330
3B
102
}
330
3B
100
AcDbScale
 70
     0
300
10:1
140
10.0
141
1.0
290
     0
  0
SCALE
  5
4C
102
{ACAD_REACTORS
330
3B
102
}
330
3B
100
AcDbScale
 70
     0
300
100:1
140
100.0
141
1.0
290
     0
  0
SCALE
  5
4D
102
{ACAD_REACTORS
330
3B
102
}
330
3B
100
AcDbScale
 70
     0
300
1/128" = 1'-0"
140
0.0078125
141
12.0
290
     0
  0
SCALE
  5
4E
102
{ACAD_REACTORS
330
3B
102
}
330
3B
100
AcDbScale
 70
     0
300
1/64" = 1'-0"
140
0.015625
141
12.0
290
     0
  0
SCALE
  5
4F
102
{ACAD_REACTORS
330
3B
102
}
330
3B
100
AcDbScale
 70
     0
300
1/32" = 1'-0"
140
0.03125
141
12.0
290
     0
  0
SCALE
  5
50
102
{ACAD_REACTORS
330
3B
102
}
330
3B
100
AcDbScale
 70
     0
300
1/16" = 1'-0"
140
0.0625
141
12.0
290
     0
  0
SCALE
  5
51
102
{ACAD_REACTORS
330
3B
102
}
330
3B
100
AcDbScale
 70
     0
300
3/32" = 1'-0"
140
0.09375
141
12.0
290
     0
  0
SCALE
  5
52
102
{ACAD_REACTORS
330
3B
102
}
330
3B
100
AcDbScale
 70
     0
300
1/8" = 1'-0"
140
0.125
141
12.0
290
     0
  0
SCALE
  5
53
102
{ACAD_REACTORS
330
3B
102
}
330
3B
100
AcDbScale
 70
     0
300
3/16" = 1'-0"
140
0.1875
141
12.0
290
     0
  0
SCALE
  5
54
102
{ACAD_REACTORS
330
3B
102
}
330
3B
100
AcDbScale
 70
     0
300
1/4" = 1'-0"
140
0.25
141
12.0
290
     0
  0
SCALE
  5
55
102
{ACAD_REACTORS
330
3B
102
}
330
3B
100
AcDbScale
 70
     0
300
3/8" = 1'-0"
140
0.375
141
12.0
290
     0
  0
SCALE
  5
56
102
{ACAD_REACTORS
330
3B
102
}
330
3B
100
AcDbScale
 70
     0
300
1/2" = 1'-0"
140
0.5
141
12.0
290
     0
  0
SCALE
  5
57
102
{ACAD_REACTORS
330
3B
102
}
330
3B
100
AcDbScale
 70
     0
300
3/4" = 1'-0"
140
0.75
141
12.0
290
     0
  0
SCALE
  5
58
102
{ACAD_REACTORS
330
3B
102
}
330
3B
100
AcDbScale
 70
     0
300
1" = 1'-0"
140
1.0
141
12.0
290
     0
  0
SCALE
  5
59
102
{ACAD_REACTORS
330
3B
102
}
330
3B
100
AcDbScale
 70
     0
300
1-1/2" = 1'-0"
140
1.5
141
12.0
290
     0
  0
SCALE
  5
5A
102
{ACAD_REACTORS
330
3B
102
}
330
3B
100
AcDbScale
 70
     0
300
3" = 1'-0"
140
3.0
141
12.0
290
     0
  0
SCALE
  5
5B
102
{ACAD_REACTORS
330
3B
102
}
330
3B
100
AcDbScale
 70
     0
300
6" = 1'-0"
140
6.0
141
12.0
290
     0
  0
SCALE
  5
5C
102
{ACAD_REACTORS
330
3B
102
}
330
3B
100
AcDbScale
 70
     0
300
1'-0" = 1'-0"
140
12.0
141
12.0
290
     0
  0
VISUALSTYLE
  5
2F
102
{ACAD_REACTORS
330
2A
102
}
330
2A
100
AcDbVisualStyle
  2
2dWireframe
 70
     4
 71
     0
 72
     2
 73
     0
 90
        0
 40
-0.6
 41
-30.0
 62
     5
 63
     7
421
 16777215
 74
     1
 91
        4
 64
     7
 65
   257
 75
     1
175
     1
 42
1.0
 92
        0
 66
   257
 43
1.0
 76
     1
 77
     6
 78
     2
 67
     7
 79
     5
170
     0
171
     0
290
     0
174
     0
 93
        1
 44
0.0
173
     0
291
     0
 45
0.0
1001
ACAD
1000
AcDbSavedByObjectVersion
1070
     0
  0
VISUALSTYLE
  5
31
102
{ACAD_REACTORS
330
2A
102
}
330
2A
100
AcDbVisualStyle
  2
3D Hidden
 70
     6
 71
     1
 72
     2
 73
     2
 90
        0
 40
-0.6
 41
-30.0
 62
     5
 63
     7
421
 16777215
 74
     2
 91
        2
 64
     7
 65
   257
 75
     2
175
     1
 42
40.0
 92
        0
 66
   257
 43
1.0
 76
     1
 77
     6
 78
     2
 67
     7
 79
     3
170
     0
171
     0
290
     0
174
     0
 93
        1
 44
0.0
173
     0
291
     0
 45
0.0
1001
ACAD
1000
AcDbSavedByObjectVersion
1070
     0
  0
VISUALSTYLE
  5
30
102
{ACAD_REACTORS
330
2A
102
}
330
2A
100
AcDbVisualStyle
  2
3dWireframe
 70
     5
 71
     0
 72
     2
 73
     0
 90
        0
 40
-0.6
 41
-30.0
 62
     5
 63
     7
421
 16777215
 74
     1
 91
        4
 64
     7
 65
   257
 75
     1
175
     1
 42
1.0
 92
        0
 66
   257
 43
1.0
 76
     1
 77
     6
 78
     2
 67
     7
 79
     5
170
     0
171
     0
290
     0
174
     0
 93
        1
 44
0.0
173
     0
291
     0
 45
0.0
1001
ACAD
1000
AcDbSavedByObjectVersion
1070
     0
  0
VISUALSTYLE
  5
32
102
{ACAD_REACTORS
330
2A
102
}
330
2A
100
AcDbVisualStyle
  2
Basic
 70
     7
 71
     1
 72
     0
 73
     1
 90
        0
 40
-0.6
 41
-30.0
 62
     5
 63
     7
421
 16777215
 74
     0
 91
        4
 64
     7
 65
   257
 75
     1
175
     1
 42
1.0
 92
        8
 66
     7
 43
1.0
 76
     1
 77
     6
 78
     2
 67
     7
 79
     5
170
     0
171
     0
290
     0
174
     0
 93
        1
 44
0.0
173
     0
291
     1
 45
0.0
1001
ACAD
1000
AcDbSavedByObjectVersion
1070
     0
  0
VISUALSTYLE
  5
36
102
{ACAD_REACTORS
330
2A
102
}
330
2A
100
AcDbVisualStyle
  2
Brighten
 70
    12
 71
     2
 72
     2
 73
     0
 90
        0
 40
-0.6
 41
-30.0
 62
     5
 63
     7
421
 16777215
 74
     1
 91
        4
 64
     7
 65
   257
 75
     1
175
     1
 42
1.0
 92
        8
 66
     7
 43
1.0
 76
     1
 77
     6
 78
     2
 67
     7
 79
     5
170
     0
171
     0
290
     0
174
     0
 93
        1
 44
50.0
173
     0
291
     1
 45
0.0
1001
ACAD
1000
AcDbSavedByObjectVersion
1070
     0
  0
VISUALSTYLE
  5
3A
102
{ACAD_REACTORS
330
2A
102
}
330
2A
100
AcDbVisualStyle
  2
ColorChange
 70
    16
 71
     2
 72
     2
 73
     3
 90
        0
 40
-0.6
 41
-30.0
 62
     5
 63
     8
421
  8421504
 74
     1
 91
        4
 64
     7
 65
   257
 75
     1
175
     1
 42
1.0
 92
        8
 66
     8
424
  8421504
 43
1.0
 76
     1
 77
     6
 78
     2
 67
     7
 79
     5
170
     0
171
     0
290
     0
174
     0
 93
        1
 44
0.0
173
     0
291
     1
 45
0.0
1001
ACAD
1000
AcDbSavedByObjectVersion
1070
     0
  0
VISUALSTYLE
  5
34
102
{ACAD_REACTORS
330
2A
102
}
330
2A
100
AcDbVisualStyle
  2
Conceptual
 70
     9
 71
     3
 72
     2
 73
     0
 90
        0
 40
-0.6
 41
-30.0
 62
     5
 63
     7
421
 16777215
 74
     2
 91
        2
 64
     7
 65
   257
 75
     1
175
     1
 42
40.0
 92
        8
 66
     7
 43
1.0
 76
     1
 77
     6
 78
     2
 67
     7
 79
     3
170
     0
171
     0
290
     0
174
     0
 93
        1
 44
0.0
173
     0
291
     0
 45
0.0
1001
ACAD
1000
AcDbSavedByObjectVersion
1070
     0
  0
VISUALSTYLE
  5
35
102
{ACAD_REACTORS
330
2A
102
}
330
2A
100
AcDbVisualStyle
  2
Dim
 70
    11
 71
     2
 72
     2
 73
     0
 90
        0
 40
-0.6
 41
-30.0
 62
     5
 63
     7
421
 16777215
 74
     1
 91
        4
 64
     7
 65
   257
 75
     1
175
     1
 42
1.0
 92
        8
 66
     7
 43
1.0
 76
     1
 77
     6
 78
     2
 67
     7
 79
     5
170
     0
171
     0
290
     0
174
     0
 93
        1
 44
-50.0
173
     0
291
     1
 45
0.0
1001
ACAD
1000
AcDbSavedByObjectVersion
1070
     0
  0
VISUALSTYLE
  5
39
102
{ACAD_REACTORS
330
2A
102
}
330
2A
100
AcDbVisualStyle
  2
Facepattern
 70
    15
 71
     2
 72
     2
 73
     0
 90
        0
 40
-0.6
 41
-30.0
 62
     5
 63
     7
421
 16777215
 74
     1
 91
        4
 64
     7
 65
   257
 75
     1
175
     1
 42
1.0
 92
        8
 66
     7
 43
1.0
 76
     1
 77
     6
 78
     2
 67
     7
 79
     5
170
     0
171
     0
290
     0
174
     0
 93
        1
 44
0.0
173
     0
291
     1
 45
0.0
1001
ACAD
1000
AcDbSavedByObjectVersion
1070
     0
  0
VISUALSTYLE
  5
2B
102
{ACAD_REACTORS
330
2A
102
}
330
2A
100
AcDbVisualStyle
  2
Flat
 70
     0
 71
     2
 72
     1
 73
     1
 90
        2
 40
-0.6
 41
30.0
 62
     5
 63
     7
421
 16777215
 74
     0
 91
        4
 64
     7
 65
   257
 75
     1
175
     1
 42
1.0
 92
        8
 66
     7
 43
1.0
 76
     1
 77
     6
 78
     2
 67
     7
 79
     5
170
     0
171
     0
290
     0
174
     0
 93
       13
 44
0.0
173
     0
291
     1
 45
0.0
1001
ACAD
1000
AcDbSavedByObjectVersion
1070
     0
  0
VISUALSTYLE
  5
2C
102
{ACAD_REACTORS
330
2A
102
}
330
2A
100
AcDbVisualStyle
  2
FlatWithEdges
 70
     1
 71
     2
 72
     1
 73
     1
 90
        2
 40
-0.6
 41
30.0
 62
     5
 63
     7
421
 16777215
 74
     1
 91
        4
 64
     7
 65
   257
 75
     1
175
     1
 42
1.0
 92
        0
 66
   257
 43
1.0
 76
     1
 77
     6
 78
     2
 67
     7
 79
     5
170
     0
171
     0
290
     0
174
     0
 93
       13
 44
0.0
173
     0
291
     1
 45
0.0
1001
ACAD
1000
AcDbSavedByObjectVersion
1070
     0
  0
VISUALSTYLE
  5
2D
102
{ACAD_REACTORS
330
2A
102
}
330
2A
100
AcDbVisualStyle
  2
Gouraud
 70
     2
 71
     2
 72
     2
 73
     1
 90
        2
 40
-0.6
 41
30.0
 62
     5
 63
     7
421
 16777215
 74
     0
 91
        4
 64
     7
 65
   257
 75
     1
175
     1
 42
1.0
 92
        0
 66
     7
 43
1.0
 76
     1
 77
     6
 78
     2
 67
     7
 79
     5
170
     0
171
     0
290
     0
174
     0
 93
       13
 44
0.0
173
     0
291
     1
 45
0.0
1001
ACAD
1000
AcDbSavedByObjectVersion
1070
     0
  0
VISUALSTYLE
  5
2E
102
{ACAD_REACTORS
330
2A
102
}
330
2A
100
AcDbVisualStyle
  2
GouraudWithEdges
 70
     3
 71
     2
 72
     2
 73
     1
 90
        2
 40
-0.6
 41
30.0
 62
     5
 63
     7
421
 16777215
 74
     1
 91
        4
 64
     7
 65
   257
 75
     1
175
     1
 42
1.0
 92
        0
 66
   257
 43
1.0
 76
     1
 77
     6
 78
     2
 67
     7
 79
     5
170
     0
171
     0
290
     0
174
     0
 93
       13
 44
0.0
173
     0
291
     1
 45
0.0
1001
ACAD
1000
AcDbSavedByObjectVersion
1070
     0
  0
VISUALSTYLE
  5
38
102
{ACAD_REACTORS
330
2A
102
}
330
2A
100
AcDbVisualStyle
  2
Linepattern
 70
    14
 71
     2
 72
     2
 73
     0
 90
        0
 40
-0.6
 41
-30.0
 62
     5
 63
     7
421
 16777215
 74
     1
 91
        4
 64
     7
 65
   257
 75
     7
175
     7
 42
1.0
 92
        8
 66
     7
 43
1.0
 76
     1
 77
     6
 78
     2
 67
     7
 79
     5
170
     0
171
     0
290
     0
174
     0
 93
        1
 44
0.0
173
     0
291
     1
 45
0.0
1001
ACAD
1000
AcDbSavedByObjectVersion
1070
     0
  0
VISUALSTYLE
  5
33
102
{ACAD_REACTORS
330
2A
102
}
330
2A
100
AcDbVisualStyle
  2
Realistic
 70
     8
 71
     2
 72
     2
 73
     0
 90
        0
 40
-0.6
 41
-30.0
 62
     5
 63
     7
421
 16777215
 74
     1
 91
        0
 64
     7
 65
   257
 75
     1
175
     1
 42
1.0
 92
        8
 66
     8
424
  7895160
 43
1.0
 76
     1
 77
     6
 78
     2
 67
     7
 79
     5
170
     0
171
     0
290
     0
174
     0
 93
       13
 44
0.0
173
     0
291
     0
 45
0.0
1001
ACAD
1000
AcDbSavedByObjectVersion
1070
     0
  0
VISUALSTYLE
  5
37
102
{ACAD_REACTORS
330
2A
102
}
330
2A
100
AcDbVisualStyle
  2
Thicken
 70
    13
 71
     2
 72
     2
 73
     0
 90
        0
 40
-0.6
 41
-30.0
 62
     5
 63
     7
421
 16777215
 74
     1
 91
        4
 64
     7
 65
   257
 75
     1
175
     1
 42
1.0
 92
       12
 66
     7
 43
1.0
 76
     1
 77
     6
 78
     2
 67
     7
 79
     5
170
     0
171
     0
290
     0
174
     0
 93
        1
 44
0.0
173
     0
291
     1
 45
0.0
1001
ACAD
1000
AcDbSavedByObjectVersion
1070
     0
  0
ENDSEC
  0
EOF
